ISO-10303-21;
HEADER;
/****************************************************************
 * Generated by software with PDElib inside                    *
 * PDElib Version v51a, created Wed 11/30/2011                  *
 * ITI Transcendata (http://www.transcendata.com/)              *
 ****************************************************************/
FILE_DESCRIPTION((''),'2;1');
FILE_NAME('C:\\RoxtecConfigurator\\CreatedFiles\\STEP\\S8X2.stp','2013-06-28T13:57:10',(''),(''),'Autodesk Inventor 2013','Autodesk Inventor 2013','');
FILE_SCHEMA(('AUTOMOTIVE_DESIGN { 1 0 10303 214 1 1 1 1 }'));
ENDSEC;
DATA;
#5=APPLICATION_CONTEXT('automotive design');
#6=APPLICATION_PROTOCOL_DEFINITION('International Standard','automotive_design',2001,#5);
#7=PRODUCT_CONTEXT('',#5,'mechanical');
#8=PRODUCT('roxtec S_SF_G','roxtec S_SF_G',$,(#7));
#9=PRODUCT_RELATED_PRODUCT_CATEGORY('part',$,(#8));
#10=PRODUCT_DEFINITION_FORMATION('',$,#8);
#11=PRODUCT_DEFINITION_CONTEXT('part definition',#5,'design');
#12=PRODUCT_DEFINITION('',$,#10,#11);
#18=(NAMED_UNIT(*)PLANE_ANGLE_UNIT()SI_UNIT($,.RADIAN.));
#19=DIMENSIONAL_EXPONENTS(0.0,0.0,0.0,0.0,0.0,0.0,0.0);
#20=PLANE_ANGLE_MEASURE_WITH_UNIT(PLANE_ANGLE_MEASURE(0.0174532925),#18);
#24=(CONVERSION_BASED_UNIT('DEGREE',#20)NAMED_UNIT(#19)PLANE_ANGLE_UNIT());
#28=(NAMED_UNIT(*)SI_UNIT($,.STERADIAN.)SOLID_ANGLE_UNIT());
#32=(LENGTH_UNIT()NAMED_UNIT(*)SI_UNIT(.MILLI.,.METRE.));
#34=UNCERTAINTY_MEASURE_WITH_UNIT(LENGTH_MEASURE(0.01),#32,'DISTANCE_ACCURACY_VALUE','');
#36=(GEOMETRIC_REPRESENTATION_CONTEXT(3)GLOBAL_UNCERTAINTY_ASSIGNED_CONTEXT((#34))GLOBAL_UNIT_ASSIGNED_CONTEXT((#24,#28,#32))REPRESENTATION_CONTEXT('None','None'));
#37=AXIS2_PLACEMENT_3D('',#38,#39,#40);
#38=CARTESIAN_POINT('',(0.0,0.0,0.0));
#39=DIRECTION('',(0.0,0.0,1.0));
#40=DIRECTION('',(1.0,0.0,0.0));
#41=SHAPE_REPRESENTATION('',(#37),#36);
#42=PRODUCT_DEFINITION_SHAPE('','',#12);
#43=SHAPE_DEFINITION_REPRESENTATION(#42,#41);
#49=(NAMED_UNIT(*)PLANE_ANGLE_UNIT()SI_UNIT($,.RADIAN.));
#50=DIMENSIONAL_EXPONENTS(0.0,0.0,0.0,0.0,0.0,0.0,0.0);
#51=PLANE_ANGLE_MEASURE_WITH_UNIT(PLANE_ANGLE_MEASURE(0.0174532925),#49);
#55=(CONVERSION_BASED_UNIT('DEGREE',#51)NAMED_UNIT(#50)PLANE_ANGLE_UNIT());
#59=(NAMED_UNIT(*)SI_UNIT($,.STERADIAN.)SOLID_ANGLE_UNIT());
#63=(LENGTH_UNIT()NAMED_UNIT(*)SI_UNIT(.MILLI.,.METRE.));
#65=UNCERTAINTY_MEASURE_WITH_UNIT(LENGTH_MEASURE(0.000001),#63,'DISTANCE_ACCURACY_VALUE','');
#67=(GEOMETRIC_REPRESENTATION_CONTEXT(3)GLOBAL_UNCERTAINTY_ASSIGNED_CONTEXT((#65))GLOBAL_UNIT_ASSIGNED_CONTEXT((#55,#59,#63))REPRESENTATION_CONTEXT('','3D'));
#68=CARTESIAN_POINT('',(-5.000000000001297,-3.0,-139.00000000000003));
#69=DIRECTION('',(-1.0,0.0,0.0));
#70=DIRECTION('',(0.0,0.0,1.0));
#71=AXIS2_PLACEMENT_3D('',#68,#69,#70);
#72=PLANE('',#71);
#73=CARTESIAN_POINT('',(-5.000000000001297,-3.0,-139.00000000000003));
#74=VERTEX_POINT('',#73);
#75=CARTESIAN_POINT('',(-5.00000000000135,-3.0,139.0));
#76=VERTEX_POINT('',#75);
#77=CARTESIAN_POINT('',(-5.000000000001297,-3.0,-139.00000000000003));
#78=DIRECTION('',(0.0,0.0,1.0));
#79=VECTOR('',#78,278.0);
#80=LINE('',#77,#79);
#81=EDGE_CURVE('',#74,#76,#80,.T.);
#82=ORIENTED_EDGE('',*,*,#81,.T.);
#83=CARTESIAN_POINT('',(-5.00000000000135,57.0,139.0));
#84=VERTEX_POINT('',#83);
#85=CARTESIAN_POINT('',(-5.00000000000135,57.000000000000007,139.0));
#86=DIRECTION('',(0.0,-1.0,0.0));
#87=VECTOR('',#86,60.000000000000007);
#88=LINE('',#85,#87);
#89=EDGE_CURVE('',#84,#76,#88,.T.);
#90=ORIENTED_EDGE('',*,*,#89,.F.);
#91=CARTESIAN_POINT('',(-5.000000000001297,57.0,-139.00000000000003));
#92=VERTEX_POINT('',#91);
#93=CARTESIAN_POINT('',(-5.000000000001297,57.0,-139.00000000000003));
#94=DIRECTION('',(0.0,0.0,1.0));
#95=VECTOR('',#94,278.0);
#96=LINE('',#93,#95);
#97=EDGE_CURVE('',#92,#84,#96,.T.);
#98=ORIENTED_EDGE('',*,*,#97,.F.);
#99=CARTESIAN_POINT('',(-5.000000000001297,-3.0,-139.00000000000003));
#100=DIRECTION('',(0.0,1.0,0.0));
#101=VECTOR('',#100,60.000000000000007);
#102=LINE('',#99,#101);
#103=EDGE_CURVE('',#74,#92,#102,.T.);
#104=ORIENTED_EDGE('',*,*,#103,.F.);
#105=EDGE_LOOP('',(#82,#90,#98,#104));
#106=FACE_OUTER_BOUND('',#105,.T.);
#107=ADVANCED_FACE('',(#106),#72,.T.);
#108=CARTESIAN_POINT('',(5.0,-3.0,139.0));
#109=DIRECTION('',(1.0,0.0,0.0));
#110=DIRECTION('',(0.0,0.0,-1.0));
#111=AXIS2_PLACEMENT_3D('',#108,#109,#110);
#112=PLANE('',#111);
#113=CARTESIAN_POINT('',(5.0,-3.0,139.0));
#114=VERTEX_POINT('',#113);
#115=CARTESIAN_POINT('',(5.0,-3.0,-138.99999999998417));
#116=VERTEX_POINT('',#115);
#117=CARTESIAN_POINT('',(5.0,-3.0,139.0));
#118=DIRECTION('',(0.0,0.0,-1.0));
#119=VECTOR('',#118,277.99999999998414);
#120=LINE('',#117,#119);
#121=EDGE_CURVE('',#114,#116,#120,.T.);
#122=ORIENTED_EDGE('',*,*,#121,.T.);
#123=CARTESIAN_POINT('',(5.0,57.0,-138.99999999998417));
#124=VERTEX_POINT('',#123);
#125=CARTESIAN_POINT('',(5.0,57.000000000000007,-139.00000000000003));
#126=DIRECTION('',(0.0,-1.0,0.0));
#127=VECTOR('',#126,60.000000000000007);
#128=LINE('',#125,#127);
#129=EDGE_CURVE('',#124,#116,#128,.T.);
#130=ORIENTED_EDGE('',*,*,#129,.F.);
#131=CARTESIAN_POINT('',(5.0,57.0,139.0));
#132=VERTEX_POINT('',#131);
#133=CARTESIAN_POINT('',(5.0,57.0,139.0));
#134=DIRECTION('',(0.0,0.0,-1.0));
#135=VECTOR('',#134,277.99999999998414);
#136=LINE('',#133,#135);
#137=EDGE_CURVE('',#132,#124,#136,.T.);
#138=ORIENTED_EDGE('',*,*,#137,.F.);
#139=CARTESIAN_POINT('',(5.0,-3.0,139.0));
#140=DIRECTION('',(0.0,1.0,0.0));
#141=VECTOR('',#140,60.000000000000007);
#142=LINE('',#139,#141);
#143=EDGE_CURVE('',#114,#132,#142,.T.);
#144=ORIENTED_EDGE('',*,*,#143,.F.);
#145=EDGE_LOOP('',(#122,#130,#138,#144));
#146=FACE_OUTER_BOUND('',#145,.T.);
#147=ADVANCED_FACE('',(#146),#112,.T.);
#148=CARTESIAN_POINT('',(125.5,0.0,-139.00000000000003));
#149=DIRECTION('',(0.0,0.0,-1.0));
#150=DIRECTION('',(-1.0,0.0,0.0));
#151=AXIS2_PLACEMENT_3D('',#148,#149,#150);
#152=PLANE('',#151);
#153=ORIENTED_EDGE('',*,*,#103,.T.);
#154=CARTESIAN_POINT('',(-125.5,57.0,-139.00000000000003));
#155=VERTEX_POINT('',#154);
#156=CARTESIAN_POINT('',(-125.50000000000001,57.0,-139.00000000000003));
#157=DIRECTION('',(1.0,0.0,0.0));
#158=VECTOR('',#157,120.49999999999872);
#159=LINE('',#156,#158);
#160=EDGE_CURVE('',#155,#92,#159,.T.);
#161=ORIENTED_EDGE('',*,*,#160,.F.);
#162=CARTESIAN_POINT('',(-125.5,-3.0,-139.00000000000003));
#163=VERTEX_POINT('',#162);
#164=CARTESIAN_POINT('',(-125.49999999999999,-3.0,-139.00000000000003));
#165=DIRECTION('',(0.0,1.0,0.0));
#166=VECTOR('',#165,60.0);
#167=LINE('',#164,#166);
#168=EDGE_CURVE('',#163,#155,#167,.T.);
#169=ORIENTED_EDGE('',*,*,#168,.F.);
#170=CARTESIAN_POINT('',(-5.000000000001293,-3.0,-139.00000000000003));
#171=DIRECTION('',(-1.0,0.0,0.0));
#172=VECTOR('',#171,120.49999999999872);
#173=LINE('',#170,#172);
#174=EDGE_CURVE('',#74,#163,#173,.T.);
#175=ORIENTED_EDGE('',*,*,#174,.F.);
#176=EDGE_LOOP('',(#153,#161,#169,#175));
#177=FACE_OUTER_BOUND('',#176,.T.);
#178=ADVANCED_FACE('',(#177),#152,.F.);
#179=CARTESIAN_POINT('',(125.5,0.0,-139.00000000000003));
#180=DIRECTION('',(0.0,0.0,-1.0));
#181=DIRECTION('',(-1.0,0.0,0.0));
#182=AXIS2_PLACEMENT_3D('',#179,#180,#181);
#183=PLANE('',#182);
#184=ORIENTED_EDGE('',*,*,#129,.T.);
#185=CARTESIAN_POINT('',(125.5,-3.0,-139.00000000000003));
#186=VERTEX_POINT('',#185);
#187=CARTESIAN_POINT('',(125.5,-3.0,-139.00000000000003));
#188=DIRECTION('',(-1.0,0.0,0.0));
#189=VECTOR('',#188,120.5);
#190=LINE('',#187,#189);
#191=EDGE_CURVE('',#186,#116,#190,.T.);
#192=ORIENTED_EDGE('',*,*,#191,.F.);
#193=CARTESIAN_POINT('',(125.5,57.0,-139.00000000000003));
#194=VERTEX_POINT('',#193);
#195=CARTESIAN_POINT('',(125.5,57.0,-139.00000000000003));
#196=DIRECTION('',(0.0,-1.0,0.0));
#197=VECTOR('',#196,60.0);
#198=LINE('',#195,#197);
#199=EDGE_CURVE('',#194,#186,#198,.T.);
#200=ORIENTED_EDGE('',*,*,#199,.F.);
#201=CARTESIAN_POINT('',(5.0,57.0,-139.00000000000003));
#202=DIRECTION('',(1.0,0.0,0.0));
#203=VECTOR('',#202,120.5);
#204=LINE('',#201,#203);
#205=EDGE_CURVE('',#124,#194,#204,.T.);
#206=ORIENTED_EDGE('',*,*,#205,.F.);
#207=EDGE_LOOP('',(#184,#192,#200,#206));
#208=FACE_OUTER_BOUND('',#207,.T.);
#209=ADVANCED_FACE('',(#208),#183,.F.);
#210=CARTESIAN_POINT('',(-125.49999999999999,0.0,139.0));
#211=DIRECTION('',(0.0,0.0,1.0));
#212=DIRECTION('',(1.0,0.0,0.0));
#213=AXIS2_PLACEMENT_3D('',#210,#211,#212);
#214=PLANE('',#213);
#215=ORIENTED_EDGE('',*,*,#143,.T.);
#216=CARTESIAN_POINT('',(125.5,57.0,139.0));
#217=VERTEX_POINT('',#216);
#218=CARTESIAN_POINT('',(125.50000000000001,57.0,139.0));
#219=DIRECTION('',(-1.0,0.0,0.0));
#220=VECTOR('',#219,120.50000000000001);
#221=LINE('',#218,#220);
#222=EDGE_CURVE('',#217,#132,#221,.T.);
#223=ORIENTED_EDGE('',*,*,#222,.F.);
#224=CARTESIAN_POINT('',(125.5,-3.0,139.0));
#225=VERTEX_POINT('',#224);
#226=CARTESIAN_POINT('',(125.5,-3.0,139.0));
#227=DIRECTION('',(0.0,1.0,0.0));
#228=VECTOR('',#227,60.0);
#229=LINE('',#226,#228);
#230=EDGE_CURVE('',#225,#217,#229,.T.);
#231=ORIENTED_EDGE('',*,*,#230,.F.);
#232=CARTESIAN_POINT('',(5.0,-3.0,139.0));
#233=DIRECTION('',(1.0,0.0,0.0));
#234=VECTOR('',#233,120.50000000000001);
#235=LINE('',#232,#234);
#236=EDGE_CURVE('',#114,#225,#235,.T.);
#237=ORIENTED_EDGE('',*,*,#236,.F.);
#238=EDGE_LOOP('',(#215,#223,#231,#237));
#239=FACE_OUTER_BOUND('',#238,.T.);
#240=ADVANCED_FACE('',(#239),#214,.F.);
#241=CARTESIAN_POINT('',(-125.49999999999999,0.0,139.0));
#242=DIRECTION('',(0.0,0.0,1.0));
#243=DIRECTION('',(1.0,0.0,0.0));
#244=AXIS2_PLACEMENT_3D('',#241,#242,#243);
#245=PLANE('',#244);
#246=ORIENTED_EDGE('',*,*,#89,.T.);
#247=CARTESIAN_POINT('',(-125.5,-3.0,139.0));
#248=VERTEX_POINT('',#247);
#249=CARTESIAN_POINT('',(-125.5,-3.0,139.0));
#250=DIRECTION('',(1.0,0.0,0.0));
#251=VECTOR('',#250,120.49999999999865);
#252=LINE('',#249,#251);
#253=EDGE_CURVE('',#248,#76,#252,.T.);
#254=ORIENTED_EDGE('',*,*,#253,.F.);
#255=CARTESIAN_POINT('',(-125.5,57.0,139.0));
#256=VERTEX_POINT('',#255);
#257=CARTESIAN_POINT('',(-125.49999999999999,-3.0,139.0));
#258=DIRECTION('',(0.0,1.0,0.0));
#259=VECTOR('',#258,60.0);
#260=LINE('',#257,#259);
#261=EDGE_CURVE('',#248,#256,#260,.T.);
#262=ORIENTED_EDGE('',*,*,#261,.T.);
#263=CARTESIAN_POINT('',(-5.00000000000135,57.0,139.0));
#264=DIRECTION('',(-1.0,0.0,0.0));
#265=VECTOR('',#264,120.49999999999865);
#266=LINE('',#263,#265);
#267=EDGE_CURVE('',#84,#256,#266,.T.);
#268=ORIENTED_EDGE('',*,*,#267,.F.);
#269=EDGE_LOOP('',(#246,#254,#262,#268));
#270=FACE_OUTER_BOUND('',#269,.T.);
#271=ADVANCED_FACE('',(#270),#245,.F.);
#272=CARTESIAN_POINT('',(125.50000000000003,0.0,-139.00000000000003));
#273=DIRECTION('',(0.0,1.0,0.0));
#274=DIRECTION('',(0.707106781186547,0.0,-0.707106781186547));
#275=AXIS2_PLACEMENT_3D('',#272,#273,#274);
#276=CYLINDRICAL_SURFACE('',#275,10.0);
#277=CARTESIAN_POINT('',(125.50000000000003,57.0,-149.00000000000003));
#278=VERTEX_POINT('',#277);
#279=CARTESIAN_POINT('',(135.50000000000003,57.0,-139.00000000000003));
#280=VERTEX_POINT('',#279);
#281=CARTESIAN_POINT('',(125.50000000000003,57.0,-139.00000000000003));
#282=DIRECTION('',(0.0,-1.0,0.0));
#283=DIRECTION('',(0.707106781186547,0.0,-0.707106781186547));
#284=AXIS2_PLACEMENT_3D('',#281,#282,#283);
#285=CIRCLE('',#284,9.999999999999998);
#286=EDGE_CURVE('',#278,#280,#285,.T.);
#287=ORIENTED_EDGE('',*,*,#286,.T.);
#288=CARTESIAN_POINT('',(135.50000000000003,-3.0,-139.00000000000003));
#289=VERTEX_POINT('',#288);
#290=CARTESIAN_POINT('',(135.50000000000003,57.0,-139.00000000000003));
#291=DIRECTION('',(0.0,-1.0,0.0));
#292=VECTOR('',#291,60.0);
#293=LINE('',#290,#292);
#294=EDGE_CURVE('',#280,#289,#293,.T.);
#295=ORIENTED_EDGE('',*,*,#294,.T.);
#296=CARTESIAN_POINT('',(125.50000000000003,-3.0,-149.00000000000003));
#297=VERTEX_POINT('',#296);
#298=CARTESIAN_POINT('',(125.50000000000003,-3.0,-139.00000000000003));
#299=DIRECTION('',(0.0,1.0,0.0));
#300=DIRECTION('',(0.707106781186547,0.0,-0.707106781186547));
#301=AXIS2_PLACEMENT_3D('',#298,#299,#300);
#302=CIRCLE('',#301,9.999999999999998);
#303=EDGE_CURVE('',#289,#297,#302,.T.);
#304=ORIENTED_EDGE('',*,*,#303,.T.);
#305=CARTESIAN_POINT('',(125.50000000000003,-3.0,-149.00000000000003));
#306=DIRECTION('',(0.0,1.0,0.0));
#307=VECTOR('',#306,60.0);
#308=LINE('',#305,#307);
#309=EDGE_CURVE('',#297,#278,#308,.T.);
#310=ORIENTED_EDGE('',*,*,#309,.T.);
#311=EDGE_LOOP('',(#287,#295,#304,#310));
#312=FACE_OUTER_BOUND('',#311,.T.);
#313=ADVANCED_FACE('',(#312),#276,.T.);
#314=CARTESIAN_POINT('',(1.921525E-014,-3.0,-2.247763E-014));
#315=DIRECTION('',(0.0,1.0,0.0));
#316=DIRECTION('',(0.0,0.0,1.0));
#317=AXIS2_PLACEMENT_3D('',#314,#315,#316);
#318=PLANE('',#317);
#319=ORIENTED_EDGE('',*,*,#303,.F.);
#320=CARTESIAN_POINT('',(135.50000000000003,-3.0,139.0));
#321=VERTEX_POINT('',#320);
#322=CARTESIAN_POINT('',(135.50000000000003,-3.0,-139.0));
#323=DIRECTION('',(0.0,0.0,1.0));
#324=VECTOR('',#323,278.0);
#325=LINE('',#322,#324);
#326=EDGE_CURVE('',#289,#321,#325,.T.);
#327=ORIENTED_EDGE('',*,*,#326,.T.);
#328=CARTESIAN_POINT('',(125.50000000000003,-3.0,149.0));
#329=VERTEX_POINT('',#328);
#330=CARTESIAN_POINT('',(125.50000000000003,-3.0,139.0));
#331=DIRECTION('',(0.0,1.0,0.0));
#332=DIRECTION('',(0.707106781186547,0.0,0.707106781186547));
#333=AXIS2_PLACEMENT_3D('',#330,#331,#332);
#334=CIRCLE('',#333,9.999999999999998);
#335=EDGE_CURVE('',#329,#321,#334,.T.);
#336=ORIENTED_EDGE('',*,*,#335,.F.);
#337=CARTESIAN_POINT('',(-125.49999999999999,-3.0,149.0));
#338=VERTEX_POINT('',#337);
#339=CARTESIAN_POINT('',(125.5,-3.0,149.0));
#340=DIRECTION('',(-1.0,0.0,0.0));
#341=VECTOR('',#340,251.0);
#342=LINE('',#339,#341);
#343=EDGE_CURVE('',#329,#338,#342,.T.);
#344=ORIENTED_EDGE('',*,*,#343,.T.);
#345=CARTESIAN_POINT('',(-135.5,-3.0,139.0));
#346=VERTEX_POINT('',#345);
#347=CARTESIAN_POINT('',(-125.49999999999999,-3.0,139.0));
#348=DIRECTION('',(0.0,1.0,0.0));
#349=DIRECTION('',(-0.707106781186547,0.0,0.707106781186547));
#350=AXIS2_PLACEMENT_3D('',#347,#348,#349);
#351=CIRCLE('',#350,9.999999999999998);
#352=EDGE_CURVE('',#346,#338,#351,.T.);
#353=ORIENTED_EDGE('',*,*,#352,.F.);
#354=CARTESIAN_POINT('',(-135.5,-3.0,-139.00000000000003));
#355=VERTEX_POINT('',#354);
#356=CARTESIAN_POINT('',(-135.5,-3.0,138.99999999999997));
#357=DIRECTION('',(0.0,0.0,-1.0));
#358=VECTOR('',#357,278.0);
#359=LINE('',#356,#358);
#360=EDGE_CURVE('',#346,#355,#359,.T.);
#361=ORIENTED_EDGE('',*,*,#360,.T.);
#362=CARTESIAN_POINT('',(-125.49999999999999,-3.0,-149.00000000000003));
#363=VERTEX_POINT('',#362);
#364=CARTESIAN_POINT('',(-125.49999999999999,-3.0,-139.00000000000003));
#365=DIRECTION('',(0.0,1.0,0.0));
#366=DIRECTION('',(-0.707106781186547,0.0,-0.707106781186547));
#367=AXIS2_PLACEMENT_3D('',#364,#365,#366);
#368=CIRCLE('',#367,9.999999999999998);
#369=EDGE_CURVE('',#363,#355,#368,.T.);
#370=ORIENTED_EDGE('',*,*,#369,.F.);
#371=CARTESIAN_POINT('',(-125.49999999999997,-3.0,-149.00000000000003));
#372=DIRECTION('',(1.0,0.0,0.0));
#373=VECTOR('',#372,251.0);
#374=LINE('',#371,#373);
#375=EDGE_CURVE('',#363,#297,#374,.T.);
#376=ORIENTED_EDGE('',*,*,#375,.T.);
#377=EDGE_LOOP('',(#319,#327,#336,#344,#353,#361,#370,#376));
#378=FACE_OUTER_BOUND('',#377,.T.);
#379=ORIENTED_EDGE('',*,*,#174,.T.);
#380=CARTESIAN_POINT('',(-125.49999999999999,-3.0,-139.0));
#381=DIRECTION('',(0.0,0.0,1.0));
#382=VECTOR('',#381,278.0);
#383=LINE('',#380,#382);
#384=EDGE_CURVE('',#163,#248,#383,.T.);
#385=ORIENTED_EDGE('',*,*,#384,.T.);
#386=ORIENTED_EDGE('',*,*,#253,.T.);
#387=ORIENTED_EDGE('',*,*,#81,.F.);
#388=EDGE_LOOP('',(#379,#385,#386,#387));
#389=FACE_BOUND('',#388,.T.);
#390=ORIENTED_EDGE('',*,*,#121,.F.);
#391=ORIENTED_EDGE('',*,*,#236,.T.);
#392=CARTESIAN_POINT('',(125.5,-3.0,139.0));
#393=DIRECTION('',(0.0,0.0,-1.0));
#394=VECTOR('',#393,278.0);
#395=LINE('',#392,#394);
#396=EDGE_CURVE('',#225,#186,#395,.T.);
#397=ORIENTED_EDGE('',*,*,#396,.T.);
#398=ORIENTED_EDGE('',*,*,#191,.T.);
#399=EDGE_LOOP('',(#390,#391,#397,#398));
#400=FACE_BOUND('',#399,.T.);
#401=ADVANCED_FACE('',(#378,#389,#400),#318,.F.);
#402=CARTESIAN_POINT('',(135.50000000000003,0.0,149.0));
#403=DIRECTION('',(1.0,0.0,0.0));
#404=DIRECTION('',(0.0,0.0,-1.0));
#405=AXIS2_PLACEMENT_3D('',#402,#403,#404);
#406=PLANE('',#405);
#407=ORIENTED_EDGE('',*,*,#294,.F.);
#408=CARTESIAN_POINT('',(135.50000000000003,57.0,139.0));
#409=VERTEX_POINT('',#408);
#410=CARTESIAN_POINT('',(135.50000000000003,57.0,139.0));
#411=DIRECTION('',(0.0,0.0,-1.0));
#412=VECTOR('',#411,278.0);
#413=LINE('',#410,#412);
#414=EDGE_CURVE('',#409,#280,#413,.T.);
#415=ORIENTED_EDGE('',*,*,#414,.F.);
#416=CARTESIAN_POINT('',(135.50000000000003,-3.0,139.0));
#417=DIRECTION('',(0.0,1.0,0.0));
#418=VECTOR('',#417,60.0);
#419=LINE('',#416,#418);
#420=EDGE_CURVE('',#321,#409,#419,.T.);
#421=ORIENTED_EDGE('',*,*,#420,.F.);
#422=ORIENTED_EDGE('',*,*,#326,.F.);
#423=EDGE_LOOP('',(#407,#415,#421,#422));
#424=FACE_OUTER_BOUND('',#423,.T.);
#425=ADVANCED_FACE('',(#424),#406,.T.);
#426=CARTESIAN_POINT('',(125.50000000000003,0.0,139.0));
#427=DIRECTION('',(0.0,-1.0,0.0));
#428=DIRECTION('',(0.707106781186547,0.0,0.707106781186547));
#429=AXIS2_PLACEMENT_3D('',#426,#427,#428);
#430=CYLINDRICAL_SURFACE('',#429,10.0);
#431=ORIENTED_EDGE('',*,*,#335,.T.);
#432=ORIENTED_EDGE('',*,*,#420,.T.);
#433=CARTESIAN_POINT('',(125.50000000000003,57.0,149.0));
#434=VERTEX_POINT('',#433);
#435=CARTESIAN_POINT('',(125.50000000000003,57.0,139.0));
#436=DIRECTION('',(0.0,-1.0,0.0));
#437=DIRECTION('',(0.707106781186547,0.0,0.707106781186547));
#438=AXIS2_PLACEMENT_3D('',#435,#436,#437);
#439=CIRCLE('',#438,9.999999999999998);
#440=EDGE_CURVE('',#409,#434,#439,.T.);
#441=ORIENTED_EDGE('',*,*,#440,.T.);
#442=CARTESIAN_POINT('',(125.50000000000003,57.0,149.0));
#443=DIRECTION('',(0.0,-1.0,0.0));
#444=VECTOR('',#443,60.0);
#445=LINE('',#442,#444);
#446=EDGE_CURVE('',#434,#329,#445,.T.);
#447=ORIENTED_EDGE('',*,*,#446,.T.);
#448=EDGE_LOOP('',(#431,#432,#441,#447));
#449=FACE_OUTER_BOUND('',#448,.T.);
#450=ADVANCED_FACE('',(#449),#430,.T.);
#451=CARTESIAN_POINT('',(-125.49999999999999,0.0,-139.00000000000003));
#452=DIRECTION('',(0.0,1.0,0.0));
#453=DIRECTION('',(-0.707106781186547,0.0,-0.707106781186547));
#454=AXIS2_PLACEMENT_3D('',#451,#452,#453);
#455=CYLINDRICAL_SURFACE('',#454,10.0);
#456=CARTESIAN_POINT('',(-135.5,57.0,-139.00000000000003));
#457=VERTEX_POINT('',#456);
#458=CARTESIAN_POINT('',(-125.49999999999999,57.0,-149.00000000000003));
#459=VERTEX_POINT('',#458);
#460=CARTESIAN_POINT('',(-125.49999999999999,57.0,-139.00000000000003));
#461=DIRECTION('',(0.0,-1.0,0.0));
#462=DIRECTION('',(-0.707106781186547,0.0,-0.707106781186547));
#463=AXIS2_PLACEMENT_3D('',#460,#461,#462);
#464=CIRCLE('',#463,9.999999999999998);
#465=EDGE_CURVE('',#457,#459,#464,.T.);
#466=ORIENTED_EDGE('',*,*,#465,.T.);
#467=CARTESIAN_POINT('',(-125.49999999999999,57.0,-149.00000000000003));
#468=DIRECTION('',(0.0,-1.0,0.0));
#469=VECTOR('',#468,60.0);
#470=LINE('',#467,#469);
#471=EDGE_CURVE('',#459,#363,#470,.T.);
#472=ORIENTED_EDGE('',*,*,#471,.T.);
#473=ORIENTED_EDGE('',*,*,#369,.T.);
#474=CARTESIAN_POINT('',(-135.5,-3.0,-139.00000000000003));
#475=DIRECTION('',(0.0,1.0,0.0));
#476=VECTOR('',#475,60.0);
#477=LINE('',#474,#476);
#478=EDGE_CURVE('',#355,#457,#477,.T.);
#479=ORIENTED_EDGE('',*,*,#478,.T.);
#480=EDGE_LOOP('',(#466,#472,#473,#479));
#481=FACE_OUTER_BOUND('',#480,.T.);
#482=ADVANCED_FACE('',(#481),#455,.T.);
#483=CARTESIAN_POINT('',(-135.5,0.0,-149.00000000000003));
#484=DIRECTION('',(-1.0,0.0,0.0));
#485=DIRECTION('',(0.0,0.0,1.0));
#486=AXIS2_PLACEMENT_3D('',#483,#484,#485);
#487=PLANE('',#486);
#488=ORIENTED_EDGE('',*,*,#478,.F.);
#489=ORIENTED_EDGE('',*,*,#360,.F.);
#490=CARTESIAN_POINT('',(-135.5,57.0,139.0));
#491=VERTEX_POINT('',#490);
#492=CARTESIAN_POINT('',(-135.5,57.0,139.0));
#493=DIRECTION('',(0.0,-1.0,0.0));
#494=VECTOR('',#493,60.0);
#495=LINE('',#492,#494);
#496=EDGE_CURVE('',#491,#346,#495,.T.);
#497=ORIENTED_EDGE('',*,*,#496,.F.);
#498=CARTESIAN_POINT('',(-135.5,57.0,-139.00000000000003));
#499=DIRECTION('',(0.0,0.0,1.0));
#500=VECTOR('',#499,278.0);
#501=LINE('',#498,#500);
#502=EDGE_CURVE('',#457,#491,#501,.T.);
#503=ORIENTED_EDGE('',*,*,#502,.F.);
#504=EDGE_LOOP('',(#488,#489,#497,#503));
#505=FACE_OUTER_BOUND('',#504,.T.);
#506=ADVANCED_FACE('',(#505),#487,.T.);
#507=CARTESIAN_POINT('',(-125.49999999999999,0.0,139.0));
#508=DIRECTION('',(0.0,1.0,0.0));
#509=DIRECTION('',(-0.707106781186547,0.0,0.707106781186547));
#510=AXIS2_PLACEMENT_3D('',#507,#508,#509);
#511=CYLINDRICAL_SURFACE('',#510,10.0);
#512=CARTESIAN_POINT('',(-125.49999999999999,57.0,149.0));
#513=VERTEX_POINT('',#512);
#514=CARTESIAN_POINT('',(-125.49999999999999,57.0,139.0));
#515=DIRECTION('',(0.0,-1.0,0.0));
#516=DIRECTION('',(-0.707106781186547,0.0,0.707106781186547));
#517=AXIS2_PLACEMENT_3D('',#514,#515,#516);
#518=CIRCLE('',#517,9.999999999999998);
#519=EDGE_CURVE('',#513,#491,#518,.T.);
#520=ORIENTED_EDGE('',*,*,#519,.T.);
#521=ORIENTED_EDGE('',*,*,#496,.T.);
#522=ORIENTED_EDGE('',*,*,#352,.T.);
#523=CARTESIAN_POINT('',(-125.49999999999999,-3.0,149.0));
#524=DIRECTION('',(0.0,1.0,0.0));
#525=VECTOR('',#524,60.0);
#526=LINE('',#523,#525);
#527=EDGE_CURVE('',#338,#513,#526,.T.);
#528=ORIENTED_EDGE('',*,*,#527,.T.);
#529=EDGE_LOOP('',(#520,#521,#522,#528));
#530=FACE_OUTER_BOUND('',#529,.T.);
#531=ADVANCED_FACE('',(#530),#511,.T.);
#532=CARTESIAN_POINT('',(-135.5,0.0,149.0));
#533=DIRECTION('',(0.0,0.0,1.0));
#534=DIRECTION('',(1.0,0.0,0.0));
#535=AXIS2_PLACEMENT_3D('',#532,#533,#534);
#536=PLANE('',#535);
#537=ORIENTED_EDGE('',*,*,#446,.F.);
#538=CARTESIAN_POINT('',(-125.5,57.0,149.0));
#539=DIRECTION('',(1.0,0.0,0.0));
#540=VECTOR('',#539,251.0);
#541=LINE('',#538,#540);
#542=EDGE_CURVE('',#513,#434,#541,.T.);
#543=ORIENTED_EDGE('',*,*,#542,.F.);
#544=ORIENTED_EDGE('',*,*,#527,.F.);
#545=ORIENTED_EDGE('',*,*,#343,.F.);
#546=EDGE_LOOP('',(#537,#543,#544,#545));
#547=FACE_OUTER_BOUND('',#546,.T.);
#548=ADVANCED_FACE('',(#547),#536,.T.);
#549=CARTESIAN_POINT('',(125.5,0.0,139.0));
#550=DIRECTION('',(1.0,0.0,0.0));
#551=DIRECTION('',(0.0,0.0,-1.0));
#552=AXIS2_PLACEMENT_3D('',#549,#550,#551);
#553=PLANE('',#552);
#554=ORIENTED_EDGE('',*,*,#199,.T.);
#555=ORIENTED_EDGE('',*,*,#396,.F.);
#556=ORIENTED_EDGE('',*,*,#230,.T.);
#557=CARTESIAN_POINT('',(125.5,57.0,-139.0));
#558=DIRECTION('',(0.0,0.0,1.0));
#559=VECTOR('',#558,278.0);
#560=LINE('',#557,#559);
#561=EDGE_CURVE('',#194,#217,#560,.T.);
#562=ORIENTED_EDGE('',*,*,#561,.F.);
#563=EDGE_LOOP('',(#554,#555,#556,#562));
#564=FACE_OUTER_BOUND('',#563,.T.);
#565=ADVANCED_FACE('',(#564),#553,.F.);
#566=CARTESIAN_POINT('',(-125.49999999999999,0.0,-139.00000000000003));
#567=DIRECTION('',(-1.0,0.0,0.0));
#568=DIRECTION('',(0.0,0.0,1.0));
#569=AXIS2_PLACEMENT_3D('',#566,#567,#568);
#570=PLANE('',#569);
#571=ORIENTED_EDGE('',*,*,#261,.F.);
#572=ORIENTED_EDGE('',*,*,#384,.F.);
#573=ORIENTED_EDGE('',*,*,#168,.T.);
#574=CARTESIAN_POINT('',(-125.49999999999999,57.0,139.0));
#575=DIRECTION('',(0.0,0.0,-1.0));
#576=VECTOR('',#575,278.0);
#577=LINE('',#574,#576);
#578=EDGE_CURVE('',#256,#155,#577,.T.);
#579=ORIENTED_EDGE('',*,*,#578,.F.);
#580=EDGE_LOOP('',(#571,#572,#573,#579));
#581=FACE_OUTER_BOUND('',#580,.T.);
#582=ADVANCED_FACE('',(#581),#570,.F.);
#583=CARTESIAN_POINT('',(135.50000000000003,0.0,-149.00000000000003));
#584=DIRECTION('',(0.0,0.0,-1.0));
#585=DIRECTION('',(-1.0,0.0,0.0));
#586=AXIS2_PLACEMENT_3D('',#583,#584,#585);
#587=PLANE('',#586);
#588=ORIENTED_EDGE('',*,*,#309,.F.);
#589=ORIENTED_EDGE('',*,*,#375,.F.);
#590=ORIENTED_EDGE('',*,*,#471,.F.);
#591=CARTESIAN_POINT('',(125.50000000000003,57.0,-149.00000000000003));
#592=DIRECTION('',(-1.0,0.0,0.0));
#593=VECTOR('',#592,251.0);
#594=LINE('',#591,#593);
#595=EDGE_CURVE('',#278,#459,#594,.T.);
#596=ORIENTED_EDGE('',*,*,#595,.F.);
#597=EDGE_LOOP('',(#588,#589,#590,#596));
#598=FACE_OUTER_BOUND('',#597,.T.);
#599=ADVANCED_FACE('',(#598),#587,.T.);
#600=CARTESIAN_POINT('',(1.921525E-014,57.0,-2.247763E-014));
#601=DIRECTION('',(0.0,1.0,0.0));
#602=DIRECTION('',(0.0,0.0,1.0));
#603=AXIS2_PLACEMENT_3D('',#600,#601,#602);
#604=PLANE('',#603);
#605=ORIENTED_EDGE('',*,*,#286,.F.);
#606=ORIENTED_EDGE('',*,*,#595,.T.);
#607=ORIENTED_EDGE('',*,*,#465,.F.);
#608=ORIENTED_EDGE('',*,*,#502,.T.);
#609=ORIENTED_EDGE('',*,*,#519,.F.);
#610=ORIENTED_EDGE('',*,*,#542,.T.);
#611=ORIENTED_EDGE('',*,*,#440,.F.);
#612=ORIENTED_EDGE('',*,*,#414,.T.);
#613=EDGE_LOOP('',(#605,#606,#607,#608,#609,#610,#611,#612));
#614=FACE_OUTER_BOUND('',#613,.T.);
#615=ORIENTED_EDGE('',*,*,#205,.T.);
#616=ORIENTED_EDGE('',*,*,#561,.T.);
#617=ORIENTED_EDGE('',*,*,#222,.T.);
#618=ORIENTED_EDGE('',*,*,#137,.T.);
#619=EDGE_LOOP('',(#615,#616,#617,#618));
#620=FACE_BOUND('',#619,.T.);
#621=ORIENTED_EDGE('',*,*,#97,.T.);
#622=ORIENTED_EDGE('',*,*,#267,.T.);
#623=ORIENTED_EDGE('',*,*,#578,.T.);
#624=ORIENTED_EDGE('',*,*,#160,.T.);
#625=EDGE_LOOP('',(#621,#622,#623,#624));
#626=FACE_BOUND('',#625,.T.);
#627=ADVANCED_FACE('',(#614,#620,#626),#604,.T.);
#628=CLOSED_SHELL('',(#107,#147,#178,#209,#240,#271,#313,#401,#425,#450,#482,#506,#531,#548,#565,#582,#599,#627));
#629=MANIFOLD_SOLID_BREP('Solid1',#628);
#630=COLOUR_RGB('Silicon Nitride - Polished',0.800000011920929,0.796078443527222,0.701960802078247);
#631=FILL_AREA_STYLE_COLOUR('Silicon Nitride - Polished',#630);
#632=FILL_AREA_STYLE('Silicon Nitride - Polished',(#631));
#633=SURFACE_STYLE_FILL_AREA(#632);
#634=SURFACE_SIDE_STYLE('Silicon Nitride - Polished',(#633));
#635=SURFACE_STYLE_USAGE(.BOTH.,#634);
#636=PRESENTATION_STYLE_ASSIGNMENT((#635));
#637=STYLED_ITEM('',(#636),#629);
#638=MECHANICAL_DESIGN_GEOMETRIC_PRESENTATION_REPRESENTATION('',(#637),#36);
#639=ADVANCED_BREP_SHAPE_REPRESENTATION('ABSR',(#629),#36);
#640=SHAPE_REPRESENTATION_RELATIONSHIP('SRR','None',#639,#41);
ENDSEC;
END-ISO-10303-21;
