  0
SECTION
  2
HEADER
  9
$ACADVER
  1
AC1015
  9
$ACADMAINTVER
 70
    20
  9
$DWGCODEPAGE
  3
ANSI_1252
  9
$INSBASE
 10
0.0
 20
0.0
 30
0.0
  9
$EXTMIN
 10
9.264024033943655
 20
43.1069813444748
 30
0.0
  9
$EXTMAX
 10
262.9877366684096
 20
258.7342355719363
 30
0.0
  9
$LIMMIN
 10
0.0
 20
0.0
  9
$LIMMAX
 10
709.676
 20
548.3859999999999
  9
$ORTHOMODE
 70
     1
  9
$REGENMODE
 70
     1
  9
$FILLMODE
 70
     1
  9
$QTEXTMODE
 70
     0
  9
$MIRRTEXT
 70
     0
  9
$LTSCALE
 40
1.0
  9
$ATTMODE
 70
     1
  9
$TEXTSIZE
 40
3.5
  9
$TRACEWID
 40
0.05
  9
$TEXTSTYLE
  7
STANDARD
  9
$CLAYER
  8
0
  9
$CELTYPE
  6
ByLayer
  9
$CECOLOR
 62
   256
  9
$CELTSCALE
 40
1.0
  9
$DISPSILH
 70
     0
  9
$DIMSCALE
 40
1.0
  9
$DIMASZ
 40
2.5
  9
$DIMEXO
 40
1.0
  9
$DIMDLI
 40
10.0
  9
$DIMRND
 40
0.0
  9
$DIMDLE
 40
0.0
  9
$DIMEXE
 40
1.0
  9
$DIMTP
 40
0.1
  9
$DIMTM
 40
0.1
  9
$DIMTXT
 40
3.5
  9
$DIMCEN
 40
0.0
  9
$DIMTSZ
 40
0.0
  9
$DIMTOL
 70
     0
  9
$DIMLIM
 70
     0
  9
$DIMTIH
 70
     0
  9
$DIMTOH
 70
     0
  9
$DIMSE1
 70
     0
  9
$DIMSE2
 70
     0
  9
$DIMTAD
 70
     1
  9
$DIMZIN
 70
     8
  9
$DIMBLK
  1

  9
$DIMASO
 70
     1
  9
$DIMSHO
 70
     1
  9
$DIMPOST
  1

  9
$DIMAPOST
  1
"
  9
$DIMALT
 70
     0
  9
$DIMALTD
 70
     3
  9
$DIMALTF
 40
0.0393701
  9
$DIMLFAC
 40
1.0
  9
$DIMTOFL
 70
     1
  9
$DIMTVP
 40
0.0
  9
$DIMTIX
 70
     0
  9
$DIMSOXD
 70
     0
  9
$DIMSAH
 70
     0
  9
$DIMBLK1
  1

  9
$DIMBLK2
  1

  9
$DIMSTYLE
  2
AM_ISO
  9
$DIMCLRD
 70
   256
  9
$DIMCLRE
 70
   256
  9
$DIMCLRT
 70
     2
  9
$DIMTFAC
 40
0.71
  9
$DIMGAP
 40
1.5
  9
$DIMJUST
 70
     0
  9
$DIMSD1
 70
     0
  9
$DIMSD2
 70
     0
  9
$DIMTOLJ
 70
     0
  9
$DIMTZIN
 70
     8
  9
$DIMALTZ
 70
     0
  9
$DIMALTTZ
 70
     0
  9
$DIMUPT
 70
     0
  9
$DIMDEC
 70
     2
  9
$DIMTDEC
 70
     2
  9
$DIMALTU
 70
     2
  9
$DIMALTTD
 70
     3
  9
$DIMTXSTY
  7
STANDARD
  9
$DIMAUNIT
 70
     0
  9
$DIMADEC
 70
     0
  9
$DIMALTRND
 40
0.0
  9
$DIMAZIN
 70
     2
  9
$DIMDSEP
 70
    46
  9
$DIMATFIT
 70
     3
  9
$DIMFRAC
 70
     0
  9
$DIMLDRBLK
  1

  9
$DIMLUNIT
 70
     2
  9
$DIMLWD
 70
    -1
  9
$DIMLWE
 70
    -1
  9
$DIMTMOVE
 70
     0
  9
$LUNITS
 70
     2
  9
$LUPREC
 70
     2
  9
$SKETCHINC
 40
0.1
  9
$FILLETRAD
 40
0.0
  9
$AUNITS
 70
     0
  9
$AUPREC
 70
     0
  9
$MENU
  1
.
  9
$ELEVATION
 40
0.0
  9
$PELEVATION
 40
0.0
  9
$THICKNESS
 40
0.0
  9
$LIMCHECK
 70
     0
  9
$CHAMFERA
 40
2.5
  9
$CHAMFERB
 40
2.5
  9
$CHAMFERC
 40
0.0
  9
$CHAMFERD
 40
0.0
  9
$SKPOLY
 70
     0
  9
$TDCREATE
 40
2453018.561278206
  9
$TDUCREATE
 40
2453018.519611539
  9
$TDUPDATE
 40
2456352.440172894
  9
$TDUUPDATE
 40
2456352.398506227
  9
$TDINDWG
 40
0.0159911921
  9
$TDUSRTIMER
 40
0.0159909491
  9
$USRTIMER
 70
     1
  9
$ANGBASE
 50
0.0
  9
$ANGDIR
 70
     0
  9
$PDMODE
 70
     0
  9
$PDSIZE
 40
0.0
  9
$PLINEWID
 40
0.0
  9
$SPLFRAME
 70
     0
  9
$SPLINETYPE
 70
     6
  9
$SPLINESEGS
 70
     8
  9
$HANDSEED
  5
E68
  9
$SURFTAB1
 70
     6
  9
$SURFTAB2
 70
     6
  9
$SURFTYPE
 70
     6
  9
$SURFU
 70
     6
  9
$SURFV
 70
     6
  9
$UCSBASE
  2

  9
$UCSNAME
  2

  9
$UCSORG
 10
0.0
 20
0.0
 30
0.0
  9
$UCSXDIR
 10
1.0
 20
0.0
 30
0.0
  9
$UCSYDIR
 10
0.0
 20
1.0
 30
0.0
  9
$UCSORTHOREF
  2

  9
$UCSORTHOVIEW
 70
     0
  9
$UCSORGTOP
 10
0.0
 20
0.0
 30
0.0
  9
$UCSORGBOTTOM
 10
0.0
 20
0.0
 30
0.0
  9
$UCSORGLEFT
 10
0.0
 20
0.0
 30
0.0
  9
$UCSORGRIGHT
 10
0.0
 20
0.0
 30
0.0
  9
$UCSORGFRONT
 10
0.0
 20
0.0
 30
0.0
  9
$UCSORGBACK
 10
0.0
 20
0.0
 30
0.0
  9
$PUCSBASE
  2

  9
$PUCSNAME
  2

  9
$PUCSORG
 10
0.0
 20
0.0
 30
0.0
  9
$PUCSXDIR
 10
1.0
 20
0.0
 30
0.0
  9
$PUCSYDIR
 10
0.0
 20
1.0
 30
0.0
  9
$PUCSORTHOREF
  2

  9
$PUCSORTHOVIEW
 70
     0
  9
$PUCSORGTOP
 10
0.0
 20
0.0
 30
0.0
  9
$PUCSORGBOTTOM
 10
0.0
 20
0.0
 30
0.0
  9
$PUCSORGLEFT
 10
0.0
 20
0.0
 30
0.0
  9
$PUCSORGRIGHT
 10
0.0
 20
0.0
 30
0.0
  9
$PUCSORGFRONT
 10
0.0
 20
0.0
 30
0.0
  9
$PUCSORGBACK
 10
0.0
 20
0.0
 30
0.0
  9
$USERI1
 70
     0
  9
$USERI2
 70
     0
  9
$USERI3
 70
     0
  9
$USERI4
 70
     0
  9
$USERI5
 70
     0
  9
$USERR1
 40
0.0
  9
$USERR2
 40
0.0
  9
$USERR3
 40
0.0
  9
$USERR4
 40
0.0
  9
$USERR5
 40
0.0
  9
$WORLDVIEW
 70
     1
  9
$SHADEDGE
 70
     3
  9
$SHADEDIF
 70
    70
  9
$TILEMODE
 70
     1
  9
$MAXACTVP
 70
    64
  9
$PINSBASE
 10
0.0
 20
0.0
 30
0.0
  9
$PLIMCHECK
 70
     0
  9
$PEXTMIN
 10
0.0
 20
0.0
 30
0.0
  9
$PEXTMAX
 10
709.676
 20
548.3859999999999
 30
0.0
  9
$PLIMMIN
 10
0.0
 20
0.0
  9
$PLIMMAX
 10
709.676
 20
548.3859999999999
  9
$UNITMODE
 70
     0
  9
$VISRETAIN
 70
     1
  9
$PLINEGEN
 70
     0
  9
$PSLTSCALE
 70
     1
  9
$TREEDEPTH
 70
  3020
  9
$CMLSTYLE
  2
Standard
  9
$CMLJUST
 70
     0
  9
$CMLSCALE
 40
1.0
  9
$PROXYGRAPHICS
 70
     1
  9
$MEASUREMENT
 70
     1
  9
$CELWEIGHT
370
    -1
  9
$ENDCAPS
280
     0
  9
$JOINSTYLE
280
     0
  9
$LWDISPLAY
290
     0
  9
$INSUNITS
 70
     0
  9
$HYPERLINKBASE
  1

  9
$STYLESHEET
  1

  9
$XEDIT
290
     1
  9
$CEPSNTYPE
380
     0
  9
$PSTYLEMODE
290
     1
  9
$FINGERPRINTGUID
  2
{A7E5B845-0383-4D29-B8D4-66E41C21201E}
  9
$VERSIONGUID
  2
{EE3F00A0-2CF0-4F85-BD1B-58152239050E}
  9
$EXTNAMES
290
     1
  9
$PSVPSCALE
 40
0.0
  9
$OLESTARTUP
290
     0
  0
ENDSEC
  0
SECTION
  2
CLASSES
  0
CLASS
  1
ACDBDICTIONARYWDFLT
  2
AcDbDictionaryWithDefault
  3
ObjectDBX Classes
 90
        0
280
     0
281
     0
  0
CLASS
  1
DICTIONARYVAR
  2
AcDbDictionaryVar
  3
ObjectDBX Classes
 90
        0
280
     0
281
     0
  0
CLASS
  1
ACDBPLACEHOLDER
  2
AcDbPlaceHolder
  3
ObjectDBX Classes
 90
        0
280
     0
281
     0
  0
CLASS
  1
LAYOUT
  2
AcDbLayout
  3
ObjectDBX Classes
 90
        0
280
     0
281
     0
  0
CLASS
  1
MATERIAL
  2
AcDbMaterial
  3
ObjectDBX Classes
 90
     1153
280
     0
281
     0
  0
CLASS
  1
VISUALSTYLE
  2
AcDbVisualStyle
  3
ObjectDBX Classes
 90
     4095
280
     0
281
     0
  0
CLASS
  1
TABLESTYLE
  2
AcDbTableStyle
  3
ObjectDBX Classes
 90
     4095
280
     0
281
     0
  0
CLASS
  1
SCALE
  2
AcDbScale
  3
ObjectDBX Classes
 90
     1153
280
     0
281
     0
  0
CLASS
  1
MLEADERSTYLE
  2
AcDbMLeaderStyle
  3
ACDB_MLEADERSTYLE_CLASS
 90
     4095
280
     0
281
     0
  0
CLASS
  1
AMGSETTINGSOBJ
  2
AmgSettingsObj
  3
"AcadM|Product Description: AutoCAD Mechanical|Company: Autodesk, Inc."
 90
     1024
280
     0
281
     0
  0
CLASS
  1
AMGOBJPROPCFG
  2
AmgObjPropCfg
  3
"AmgLay|Product Description: AutoCAD Mechanical|Company: Autodesk, Inc."
 90
     1025
280
     0
281
     0
  0
CLASS
  1
ACMESCOPE
  2
AcMeScope
  3
AcMeServices
 90
     1024
280
     0
281
     0
  0
CLASS
  1
ACGREFMASTER
  2
AcGrefMaster
  3
AcAttribServices
 90
     1024
280
     0
281
     0
  0
CLASS
  1
ACME_DOCUMENT
  2
AcMeDbDoc
  3
AcMeServices
 90
     1024
280
     0
281
     0
  0
CLASS
  1
ACMECOMMANDHISTORY
  2
AcMeCommandHistory
  3
AcMeServices
 90
     1024
280
     0
281
     0
  0
CLASS
  1
ACIMSYSVARMAN
  2
AcImSysVarManager
  3
AcMeServices
 90
     1024
280
     0
281
     0
  0
CLASS
  1
ACIMREALSYSVAR
  2
AcImRealSysVar
  3
AcMeServices
 90
     1024
280
     0
281
     0
  0
CLASS
  1
ACIMINTSYSVAR
  2
AcImIntSysVar
  3
AcMeServices
 90
     1024
280
     0
281
     0
  0
CLASS
  1
ACMEDRAWINGMAN
  2
AcMeDrawingMan
  3
AcMeServices
 90
     1024
280
     0
281
     0
  0
CLASS
  1
ACMEVIEW
  2
AcMeView
  3
AcMeServices
 90
     1024
280
     0
281
     0
  0
CLASS
  1
ACDBENTITYCACHE
  2
AcMeEntityCache
  3
AcMeServices
 90
     1024
280
     0
281
     0
  0
CLASS
  1
GSMANAGER
  2
AcMeGSManager
  3
AcMeServices
 90
     1024
280
     0
281
     0
  0
CLASS
  1
AMDTINTERNALREACTOR
  2
AmdtInternalReactor
  3
AcMeServices
 90
     1024
280
     0
281
     0
  0
CLASS
  1
ACMESTATEMGR
  2
AcMeStateMgr
  3
AcMeServices
 90
     1024
280
     0
281
     0
  0
CLASS
  1
AM_DRAWING_MGR
  2
AcDmDwgMgr
  3
AcMechDwgViewMgmt
 90
     1024
280
     0
281
     0
  0
CLASS
  1
AM_DWG_DOCUMENT
  2
AcDmDwgDocument
  3
AcMechDwgViewMgmt
 90
     1024
280
     0
281
     0
  0
CLASS
  1
AM_DWG_SHEET
  2
AcDmSheet
  3
AcMechDwgViewMgmt
 90
     1024
280
     0
281
     0
  0
CLASS
  1
AM_VIEWDIMPARMAP
  2
AcDmViewDimParMap
  3
AcMechDwgViewMgmt
 90
     1024
280
     0
281
     0
  0
CLASS
  1
AM_DWGMGR_NAME
  2
AcDmDwgMgrName
  3
AcMechDwgViewMgmt
 90
     1024
280
     0
281
     0
  0
CLASS
  1
ACME_DATABASE
  2
AcMeDbDatabase
  3
AcMeServices
 90
     1024
280
     0
281
     0
  0
CLASS
  1
ACRFINSADJUSTERMGR
  2
AcRfInsAdjusterMgr
  3
AcMeServices
 90
     1024
280
     0
281
     0
  0
CLASS
  1
ACGREFACADMASTER
  2
AcGrefacadMaster
  3
AcGrefServices
 90
     1024
280
     0
281
     0
  0
CLASS
  1
AMDTMENUSTATEMGR
  2
AmdtMenuStateMgr
  3
McadcomServices
 90
     1024
280
     0
281
     0
  0
CLASS
  1
AMDTMCOMMENUSTATE
  2
AmdtMcomMenuState
  3
McadcomServices
 90
     1024
280
     0
281
     0
  0
CLASS
  1
AMIMASTER
  2
AmiMaster
  3
AmiServices
 90
     1024
280
     0
281
     0
  0
CLASS
  1
ASAPP
  2
AcAsAppObject
  3
AutoSurfServices
 90
     1024
280
     0
281
     0
  0
CLASS
  1
IM_STATIC_MAN
  2
AcImStaticVarManager
  3
AcMeServices
 90
     1024
280
     0
281
     0
  0
CLASS
  1
ACIMSTRSYSVAR
  2
AcImStrSysVar
  3
AcMeServices
 90
     1024
280
     0
281
     0
  0
CLASS
  1
ACIMDBLSTATICVAR
  2
AcImDblStaticVar
  3
AcMeServices
 90
     1024
280
     0
281
     0
  0
CLASS
  1
ACIMSTRSTATICVAR
  2
AcImStrStaticVar
  3
AcMeServices
 90
     1024
280
     0
281
     0
  0
CLASS
  1
ACIMINTSTATICVAR
  2
AcImIntStaticVar
  3
AcMeServices
 90
     1024
280
     0
281
     0
  0
CLASS
  1
ACASGREFMASTER
  2
AcAsGrefMaster
  3
AutoSurfResolverServices
 90
     1024
280
     0
281
     0
  0
CLASS
  1
ACADGREFMODULE
  2
AcAdGrefModule
  3
AdGrefServices
 90
     1024
280
     0
281
     0
  0
CLASS
  1
AMDTMAPISURFMOUDULE
  2
AmdtMApiSurfModule
  3
MApiSurfServices
 90
     1024
280
     0
281
     0
  0
CLASS
  1
MAPIAMMOUDLE
  2
MApiAmModule
  3
MApiAmServices
 90
     1024
280
     0
281
     0
  0
CLASS
  1
ACMSTANDARDANSI
  2
AcmStandardANSI
  3
"Amdt_StdImp|Product Description: AutoCAD Mechanical|Company: Autodesk, Inc."
 90
     1024
280
     0
281
     0
  0
CLASS
  1
ACMSURFSTANDARDANSI
  2
AcmSurfTextStdANSI
  3
"Amdt_StdImp|Product Description: AutoCAD Mechanical|Company: Autodesk, Inc."
 90
     1024
280
     0
281
     0
  0
CLASS
  1
ACMFCFSTANDARDANSI
  2
AcmFCFStdANSI
  3
"Amdt_StdImp|Product Description: AutoCAD Mechanical|Company: Autodesk, Inc."
 90
     1024
280
     0
281
     0
  0
CLASS
  1
ACMWELDSTANDARDANSI
  2
AcmWeldingStdANSI
  3
"Amdt_StdImp|Product Description: AutoCAD Mechanical|Company: Autodesk, Inc."
 90
     1024
280
     0
281
     0
  0
CLASS
  1
ACMIDSTANDARDANSI
  2
AcmIdStdANSI
  3
"Amdt_StdImp|Product Description: AutoCAD Mechanical|Company: Autodesk, Inc."
 90
     1024
280
     0
281
     0
  0
CLASS
  1
ACMDATUMSTANDARDANSI
  2
AcmDatumStdANSI
  3
"Amdt_StdImp|Product Description: AutoCAD Mechanical|Company: Autodesk, Inc."
 90
     1024
280
     0
281
     0
  0
CLASS
  1
ACMBOMSTANDARDANSI
  2
AcmBOMStdANSI
  3
"Amdt_StdImp|Product Description: AutoCAD Mechanical|Company: Autodesk, Inc."
 90
     1024
280
     0
281
     0
  0
CLASS
  1
ACMDETAILSTANDARDANSI
  2
AmdtDetailSymStdANSI
  3
"Amdt_StdImp|Product Description: AutoCAD Mechanical|Company: Autodesk, Inc."
 90
     1024
280
     0
281
     0
  0
CLASS
  1
ACMSECTIONSTANDARDANSI
  2
AmdtSectionSymStdANSI
  3
"Amdt_StdImp|Product Description: AutoCAD Mechanical|Company: Autodesk, Inc."
 90
     1024
280
     0
281
     0
  0
CLASS
  1
ACMCENTERLINESTANDARDANSI
  2
AmdtCenterLineStdANSI
  3
"Amdt_StdImp|Product Description: AutoCAD Mechanical|Company: Autodesk, Inc."
 90
     1024
280
     0
281
     0
  0
CLASS
  1
ACMTHREADLINESTANDARDANSI
  2
AmdtThreadLineStdANSI
  3
"Amdt_StdImp|Product Description: AutoCAD Mechanical|Company: Autodesk, Inc."
 90
     1024
280
     0
281
     0
  0
CLASS
  1
ACMNOTESTANDARDANSI
  2
AmdtNoteStdANSI
  3
"Amdt_StdImp|Product Description: AutoCAD Mechanical|Company: Autodesk, Inc."
 90
     1024
280
     0
281
     0
  0
CLASS
  1
AMDTNOTETEMPLATEDB
  2
AmdtNoteTemplateDB
  3
AcmSymBB|Product Description: AutoCAD Mechanical|Company: Autodesk, Inc.
 90
     1024
280
     0
281
     0
  0
CLASS
  1
ACAMGLAYSTD
  2
AcAmgLayStd
  3
"AmgLay|Product Description: AutoCAD Mechanical|Company: Autodesk, Inc."
 90
     1024
280
     0
281
     0
  0
CLASS
  1
ACAMGDIMSTD
  2
AcAmgDimStd
  3
"AmgDim|Product Description: AutoCAD Mechanical|Company: Autodesk, Inc."
 90
     1024
280
     0
281
     0
  0
CLASS
  1
ACAMGHOLECHARTSTDANSI
  2
AcAmgHoleChartStdANSI
  3
AmgDim|Product Description: AutoCAD Mechanical|Company: Autodesk, Inc.
 90
     1024
280
     0
281
     0
  0
CLASS
  1
ACAMGTITLESTD
  2
AcAmgTitleStd
  3
"AmgTitle|Product Description: AutoCAD Mechanical|Company: Autodesk, Inc."
 90
     4095
280
     0
281
     0
  0
CLASS
  1
ACMTAPERSTANDARDANSI
  2
AcmTaperStdANSI
  3
"Amdt_StdImp|Product Description: AutoCAD Mechanical|Company: Autodesk, Inc."
 90
     1024
280
     0
281
     0
  0
CLASS
  1
ACMANOOTATIONVIEWSTANDARDANSI
  2
AmdtAnViewStdANSI
  3
"Amdt_StdImp|Product Description: AutoCAD Mechanical|Company: Autodesk, Inc."
 90
     1024
280
     0
281
     0
  0
CLASS
  1
ACMSTANDARDISO
  2
AcmStandardISO
  3
"Amdt_StdImp|Product Description: AutoCAD Mechanical|Company: Autodesk, Inc."
 90
     1024
280
     0
281
     0
  0
CLASS
  1
AMDTEDGESTANDARDISO
  2
AmdtEdgeStdISO
  3
"Amdt_StdImp|Product Description: AutoCAD Mechanical|Company: Autodesk, Inc."
 90
     1024
280
     0
281
     0
  0
CLASS
  1
ACMSURFSTANDARDISO
  2
AcmSurfTextStdISO
  3
"Amdt_StdImp|Product Description: AutoCAD Mechanical|Company: Autodesk, Inc."
 90
     1024
280
     0
281
     0
  0
CLASS
  1
ACMFCFSTANDARDISO
  2
AcmFCFStdISO
  3
"Amdt_StdImp|Product Description: AutoCAD Mechanical|Company: Autodesk, Inc."
 90
     1024
280
     0
281
     0
  0
CLASS
  1
ACMWELDSTANDARDISO
  2
AcmWeldingStdISO
  3
"Amdt_StdImp|Product Description: AutoCAD Mechanical|Company: Autodesk, Inc."
 90
     1024
280
     0
281
     0
  0
CLASS
  1
ACMIDSTANDARDISO
  2
AcmIdStdISO
  3
"Amdt_StdImp|Product Description: AutoCAD Mechanical|Company: Autodesk, Inc."
 90
     1024
280
     0
281
     0
  0
CLASS
  1
ACMDATUMSTANDARDISO
  2
AcmDatumStdISO
  3
"Amdt_StdImp|Product Description: AutoCAD Mechanical|Company: Autodesk, Inc."
 90
     1024
280
     0
281
     0
  0
CLASS
  1
ACMBOMSTANDARDISO
  2
AcmBOMStdISO
  3
"Amdt_StdImp|Product Description: AutoCAD Mechanical|Company: Autodesk, Inc."
 90
     1024
280
     0
281
     0
  0
CLASS
  1
ACMDETAILSTANDARDISO
  2
AmdtDetailSymStdISO
  3
"Amdt_StdImp|Product Description: AutoCAD Mechanical|Company: Autodesk, Inc."
 90
     1024
280
     0
281
     0
  0
CLASS
  1
ACMSECTIONSTANDARDISO
  2
AmdtSectionSymStdISO
  3
"Amdt_StdImp|Product Description: AutoCAD Mechanical|Company: Autodesk, Inc."
 90
     1024
280
     0
281
     0
  0
CLASS
  1
ACMCENTERLINESTANDARDISO
  2
AmdtCenterLineStdISO
  3
"Amdt_StdImp|Product Description: AutoCAD Mechanical|Company: Autodesk, Inc."
 90
     1024
280
     0
281
     0
  0
CLASS
  1
ACMTHREADLINESTANDARDISO
  2
AmdtThreadLineStdISO
  3
"Amdt_StdImp|Product Description: AutoCAD Mechanical|Company: Autodesk, Inc."
 90
     1024
280
     0
281
     0
  0
CLASS
  1
ACMNOTESTANDARDISO
  2
AmdtNoteStdISO
  3
"Amdt_StdImp|Product Description: AutoCAD Mechanical|Company: Autodesk, Inc."
 90
     1024
280
     0
281
     0
  0
CLASS
  1
ACAMGHOLECHARTSTDISO
  2
AcAmgHoleChartStdISO
  3
AmgDim|Product Description: AutoCAD Mechanical|Company: Autodesk, Inc.
 90
     1024
280
     0
281
     0
  0
CLASS
  1
ACMTAPERSTANDARDISO
  2
AcmTaperStdISO
  3
"Amdt_StdImp|Product Description: AutoCAD Mechanical|Company: Autodesk, Inc."
 90
     1024
280
     0
281
     0
  0
CLASS
  1
ACMANOOTATIONVIEWSTANDARDISO
  2
AmdtAnViewStdISO
  3
"Amdt_StdImp|Product Description: AutoCAD Mechanical|Company: Autodesk, Inc."
 90
     1024
280
     0
281
     0
  0
CLASS
  1
AMDTADMENUSTATE
  2
AmdtAdMenuState
  3
DesignerServices
 90
     1024
280
     0
281
     0
  0
CLASS
  1
ADAPPL
  2
AcAdAppl
  3
DesignerServices
 90
     1024
280
     0
281
     0
  0
CLASS
  1
DEPMGR
  2
AcAdDepMgr
  3
DesignerServices
 90
     1024
280
     0
281
     0
  0
CLASS
  1
PARAMMGR
  2
AcAdParamMgr
  3
DesignerServices
 90
     1024
280
     0
281
     0
  0
CLASS
  1
PARAMSCOPE
  2
AcAdParamScope
  3
DesignerServices
 90
     1024
280
     0
281
     0
  0
CLASS
  1
NAMEDAPPL
  2
AcAdNamedAppl
  3
DesignerServices
 90
     1024
280
     0
281
     0
  0
CLASS
  1
AMDTDMMENUSTATE
  2
AmdtDmMenuState
  3
AcMechDwgViewMgmt
 90
     1024
280
     0
281
     0
  0
CLASS
  1
MAPIADMODULE
  2
MApiAdModule
  3
MApiAdServices
 90
     1024
280
     0
281
     0
  0
CLASS
  1
AMDTAMMENUSTATE
  2
AmdtAmMenuState
  3
DesignerAssemblies
 90
     1024
280
     0
281
     0
  0
CLASS
  1
ACAMPROJECT
  2
AcAmProject
  3
DesignerAssemblies
 90
     1024
280
     0
281
     0
  0
CLASS
  1
ACAMGRCOMPDEF
  2
AcAmGrCompDef
  3
DesignerAssemblies
 90
     1024
280
     0
281
     0
  0
CLASS
  1
ACCMCONTEXT
  2
AcCmContext
  3
DesignerAssemblies
 90
     1024
280
     0
281
     0
  0
CLASS
  1
ACAMCOMPDEF
  2
AcAmCompDef
  3
DesignerAssemblies
 90
     1024
280
     0
281
     0
  0
CLASS
  1
ACAMCOMPDEFMGR
  2
AcAmCompDefMgr
  3
DesignerAssemblies
 90
     1024
280
     0
281
     0
  0
CLASS
  1
AMCONTEXTMGR
  2
AcAmContextMgr
  3
DesignerAssemblies
 90
     1024
280
     0
281
     0
  0
CLASS
  1
ACAMCONTEXTMODELER
  2
AcAmContextModeler
  3
DesignerAssemblies
 90
     1024
280
     0
281
     0
  0
CLASS
  1
ACMDATADICTIONARY
  2
AcmDataDictionary
  3
"AcmSymBB|Product Description: AutoCAD Mechanical|Company: Autodesk, Inc."
 90
     1024
280
     0
281
     0
  0
CLASS
  1
ACMDATAENTRYBLOCK
  2
AcmDataEntryBlock
  3
AcmSymBB|Product Description: AutoCAD Mechanical|Company: Autodesk, Inc.
 90
     1024
280
     0
281
     0
  0
CLASS
  1
ACRFATTGENMGR
  2
AcRfAttGeneralMgr
  3
AcAttribServices
 90
     1024
280
     0
281
     0
  0
CLASS
  1
ACRFOBJATTMGR
  2
AcRfObjAttGroupMgr
  3
AcAttribServices
 90
     1024
280
     0
281
     0
  0
CLASS
  1
ACRFMCADAPIATTHOLDER
  2
AcRfMCADAPIAttHolder
  3
AcAttribServices
 90
     1024
280
     0
281
     0
  0
CLASS
  1
AMDTSYSATTR
  2
AmdtSystemAttribute
  3
AcAttribServices
 90
     1024
280
     0
281
     0
  0
CLASS
  1
CATALOGSTATE
  2
AcAmCatalogState
  3
DesignerAssemblies
 90
     1024
280
     0
281
     0
  0
CLASS
  1
ACAMGRCOMPDEFSET
  2
AcAmGrCompDefSet
  3
DesignerAssemblies
 90
     1024
280
     0
281
     0
  0
CLASS
  1
AMDTBROWSERDBTAB
  2
AmdtBrowserDbTab
  3
McadcomServices
 90
     1024
280
     0
281
     0
  0
CLASS
  1
CBROWSERAPPOBJECT
  2
CBrowserAppObject
  3
McadcomServices
 90
     1024
280
     0
281
     0
  0
CLASS
  1
DM_PLACEHOLDER
  2
AcDmSelsetPlaceholder
  3
AcMechDwgViewMgmt
 90
     1024
280
     0
281
     0
  0
CLASS
  1
ACAMGFILTERDAT
  2
AcAmgFilterDat
  3
"AcadM|Product Description: AutoCAD Mechanical|Company: Autodesk, Inc."
 90
     1024
280
     0
281
     0
  0
CLASS
  1
DIMASSOC
  2
AcDbDimAssoc
  3
"AcDbDimAssoc|Product Desc:     AcDim ARX App For Dimension|Company:          Autodesk, Inc.|WEB Address:      www.autodesk.com"
 90
        0
280
     0
281
     0
  0
CLASS
  1
LAYER_INDEX
  2
AcDbLayerIndex
  3
ObjectDBX Classes
 90
        0
280
     0
281
     0
  0
CLASS
  1
IDBUFFER
  2
AcDbIdBuffer
  3
ObjectDBX Classes
 90
        0
280
     0
281
     0
  0
CLASS
  1
CELLSTYLEMAP
  2
AcDbCellStyleMap
  3
ObjectDBX Classes
 90
     1152
280
     0
281
     0
  0
CLASS
  1
SORTENTSTABLE
  2
AcDbSortentsTable
  3
ObjectDBX Classes
 90
        0
280
     0
281
     0
  0
CLASS
  1
AEC_REFEDIT_STATUS_TRACKER
  2
AecDbRefEditStatusTracker
  3
AecArchBase50|Product Desc: Autodesk Architectural Desktop 2007 |Company: Autodesk,Inc. |WEB Address: www.autodesk.com
 90
      129
280
     0
281
     0
  0
CLASS
  1
NPOCOLLECTION
  2
AcDbImpNonPersistentObjectsCollection
  3
ObjectDBX Classes
 90
     1153
280
     0
281
     0
  0
ENDSEC
  0
SECTION
  2
TABLES
  0
TABLE
  2
VPORT
  5
8
330
0
100
AcDbSymbolTable
 70
     1
  0
VPORT
  5
13
330
8
100
AcDbSymbolTableRecord
100
AcDbViewportTableRecord
  2
*Active
 70
     0
 10
0.0
 20
0.0
 11
1.0
 21
1.0
 12
-89.15904486395843
 22
12.16697898702375
 13
0.0
 23
0.0
 14
2.5
 24
2.5
 15
10.0
 25
10.0
 16
0.0
 26
0.0
 36
1.0
 17
300.445927642237
 27
115.2096379565373
 37
0.0
 40
286.203393727207
 41
1.762174405436013
 42
50.0
 43
0.0
 44
0.0
 50
0.0
 51
0.0
 71
     0
 72
   100
 73
     1
 74
     1
 75
     0
 76
     0
 77
     0
 78
     0
281
     0
 65
     0
110
0.0
120
0.0
130
0.0
111
1.0
121
0.0
131
0.0
112
0.0
122
1.0
132
0.0
 79
     0
146
0.0
  0
ENDTAB
  0
TABLE
  2
LTYPE
  5
5
330
0
100
AcDbSymbolTable
 70
    21
  0
LTYPE
  5
14
330
5
100
AcDbSymbolTableRecord
100
AcDbLinetypeTableRecord
  2
ByBlock
 70
     0
  3

 72
    65
 73
     0
 40
0.0
  0
LTYPE
  5
15
330
5
100
AcDbSymbolTableRecord
100
AcDbLinetypeTableRecord
  2
ByLayer
 70
     0
  3

 72
    65
 73
     0
 40
0.0
  0
LTYPE
  5
16
330
5
100
AcDbSymbolTableRecord
100
AcDbLinetypeTableRecord
  2
Continuous
 70
     0
  3
Solid line
 72
    65
 73
     0
 40
0.0
  0
LTYPE
  5
3C
330
5
100
AcDbSymbolTableRecord
100
AcDbLinetypeTableRecord
  2
CENTER
 70
     0
  3
____ _ ____ _ ____ _ ____ _ ____ _ ____ _ ____ 
 72
    65
 73
     4
 40
2.0
 49
1.25
 74
     0
 49
-0.25
 74
     0
 49
0.25
 74
     0
 49
-0.25
 74
     0
  0
LTYPE
  5
49
330
5
100
AcDbSymbolTableRecord
100
AcDbLinetypeTableRecord
  2
HIDDEN
 70
     0
  3
__ __ __ __ __ __ __ __ __ __ __ __ __ __ __ __
 72
    65
 73
     2
 40
0.375
 49
0.25
 74
     0
 49
-0.125
 74
     0
  0
LTYPE
  5
4D
330
5
100
AcDbSymbolTableRecord
100
AcDbLinetypeTableRecord
  2
PHANTOM2
 70
     0
  3
___ _ _ ___ _ _ ___ _ _ ___ _ _ ___ _ _ ___ _ _
 72
    65
 73
     6
 40
1.25
 49
0.625
 74
     0
 49
-0.125
 74
     0
 49
0.125
 74
     0
 49
-0.125
 74
     0
 49
0.125
 74
     0
 49
-0.125
 74
     0
  0
LTYPE
  5
287
330
5
100
AcDbSymbolTableRecord
100
AcDbLinetypeTableRecord
  2
AM_ISO02W050
 70
     0
  3
__ __ __ __ __ __ __ __ __ __ __ __ __ __ __
 72
    65
 73
     2
 40
7.5
 49
6.0
 74
     0
 49
-1.5
 74
     0
  0
LTYPE
  5
288
330
5
100
AcDbSymbolTableRecord
100
AcDbLinetypeTableRecord
  2
AM_ISO08W050
 70
     0
  3
____ . ____ . ____ . ____ . ____ . ____ . ____
 72
    65
 73
     4
 40
18.0
 49
12.0
 74
     0
 49
-1.5
 74
     0
 49
3.0
 74
     0
 49
-1.5
 74
     0
  0
LTYPE
  5
289
330
5
100
AcDbSymbolTableRecord
100
AcDbLinetypeTableRecord
  2
AM_ISO09W050
 70
     0
  3
_____ . . _____ . . _____ . . ____ .. ____
 72
    65
 73
     6
 40
22.5
 49
12.0
 74
     0
 49
-1.5
 74
     0
 49
3.0
 74
     0
 49
-1.5
 74
     0
 49
3.0
 74
     0
 49
-1.5
 74
     0
  0
LTYPE
  5
28A
330
5
100
AcDbSymbolTableRecord
100
AcDbLinetypeTableRecord
  2
Amconstr
 70
     0
  3
_______________________
 72
    65
 73
     2
 40
9999.0
 49
9999.0
 74
     0
 49
0.0
 74
     0
  0
LTYPE
  5
28B
330
5
100
AcDbSymbolTableRecord
100
AcDbLinetypeTableRecord
  2
AM_ISO08W050x2
 70
     0
  3
__ . __ . __ . __ . __ . __
 72
    65
 73
     4
 40
9.0
 49
6.0
 74
     0
 49
-0.75
 74
     0
 49
1.5
 74
     0
 49
-0.75
 74
     0
  0
LTYPE
  5
28C
330
5
100
AcDbSymbolTableRecord
100
AcDbLinetypeTableRecord
  2
AM_ISO02W050x2
 70
     0
  3
 _ _ _ _ _ _ _ _ _ _ _ _
 72
    65
 73
     2
 40
3.75
 49
3.0
 74
     0
 49
-0.75
 74
     0
  0
LTYPE
  5
28D
330
5
100
AcDbSymbolTableRecord
100
AcDbLinetypeTableRecord
  2
Amzigzag
 70
     0
  3
/\/-/\/-/\/-/\/-/\/-/\/
 72
    65
 73
     2
 40
11.0001
 49
0.0001
 74
     4
 75
   135
340
5E
 46
0.04
 50
0.0
 44
0.0
 45
0.0
 49
-11.0
 74
     0
  0
LTYPE
  5
7B4
330
5
100
AcDbSymbolTableRecord
100
AcDbLinetypeTableRecord
  2
ACISOWELD
 70
     0
  3
_ _ _ _ _
 72
    65
 73
     2
 40
2.0
 49
2.0
 74
     0
 49
-1.0
 74
     0
  0
LTYPE
  5
7B5
330
5
100
AcDbSymbolTableRecord
100
AcDbLinetypeTableRecord
  2
ACISOTGB
 70
     0
  3
__ . . __ . .
 72
    65
 73
     6
 40
9.0
 49
4.0
 74
     0
 49
-1.0
 74
     0
 49
1.0
 74
     0
 49
-1.0
 74
     0
 49
1.0
 74
     0
 49
-1.0
 74
     0
  0
LTYPE
  5
7B6
330
5
100
AcDbSymbolTableRecord
100
AcDbLinetypeTableRecord
  2
ACISOTGL
 70
     0
  3
_ _ _ _ _
 72
    65
 73
     2
 40
3.0
 49
2.0
 74
     0
 49
-1.0
 74
     0
  0
LTYPE
  5
93E
330
5
100
AcDbSymbolTableRecord
100
AcDbLinetypeTableRecord
  2
ACANSTGB
 70
     0
  3
__ . . __ . .
 72
    65
 73
     6
 40
0.35433070866
 49
0.15748031496
 74
     0
 49
-0.03937007874
 74
     0
 49
0.03937007874
 74
     0
 49
-0.03937007874
 74
     0
 49
0.03937007874
 74
     0
 49
-0.03937007874
 74
     0
  0
LTYPE
  5
93F
330
5
100
AcDbSymbolTableRecord
100
AcDbLinetypeTableRecord
  2
ACANSTGL
 70
     0
  3
_ _ _ _ _
 72
    65
 73
     2
 40
0.11811023622
 49
0.07874015748
 74
     0
 49
-0.03937007874
 74
     0
  0
LTYPE
  5
956
330
5
100
AcDbSymbolTableRecord
100
AcDbLinetypeTableRecord
  2
CENTER2
 70
     0
  3
Center (.5x) ___ _ ___ _ ___ _ ___ _ ___ _ ___
 72
    65
 73
     4
 40
1.125
 49
0.75
 74
     0
 49
-0.125
 74
     0
 49
0.125
 74
     0
 49
-0.125
 74
     0
  0
LTYPE
  5
957
330
5
100
AcDbSymbolTableRecord
100
AcDbLinetypeTableRecord
  2
HIDDEN2
 70
     0
  3
Hidden (.5x) _ _ _ _ _ _ _ _ _ _ _ _ _ _ _ _ _
 72
    65
 73
     2
 40
0.1875
 49
0.125
 74
     0
 49
-0.0625
 74
     0
  0
LTYPE
  5
958
330
5
100
AcDbSymbolTableRecord
100
AcDbLinetypeTableRecord
  2
Amzigzag2
 70
     0
  3
/\/-/\/-/\/-/\/-/\/-/\/
 72
    65
 73
     2
 40
0.4401
 49
0.0001
 74
     4
 75
   135
340
5E
 46
0.0016
 50
0.0
 44
0.0
 45
0.0
 49
-0.4400000000000001
 74
     0
  0
ENDTAB
  0
TABLE
  2
LAYER
  5
2
102
{ACAD_XDICTIONARY
360
401
102
}
330
0
100
AcDbSymbolTable
 70
     5
  0
LAYER
  5
10
102
{ACAD_XDICTIONARY
360
54A
102
}
330
2
100
AcDbSymbolTableRecord
100
AcDbLayerTableRecord
  2
0
 70
     0
 62
     7
  6
Continuous
370
    -3
390
F
  0
LAYER
  5
7F
102
{ACAD_XDICTIONARY
360
54C
102
}
330
2
100
AcDbSymbolTableRecord
100
AcDbLayerTableRecord
  2
Visible Edges
 70
     0
 62
     7
  6
Continuous
370
    18
390
F
  0
LAYER
  5
403
102
{ACAD_XDICTIONARY
360
550
102
}
330
2
100
AcDbSymbolTableRecord
100
AcDbLayerTableRecord
  2
AM_5
 70
     0
 62
     3
  6
Continuous
370
    25
390
F
1001
AcAecLayerStandard
1000

1000

  0
LAYER
  5
408
330
2
100
AcDbSymbolTableRecord
100
AcDbLayerTableRecord
  2
Defpoints
 70
     0
 62
     7
  6
Continuous
290
     0
370
    -3
390
F
  0
LAYER
  5
A76
330
2
100
AcDbSymbolTableRecord
100
AcDbLayerTableRecord
  2
AM_3
 70
     0
 62
     6
  6
AM_ISO02W050
370
    25
390
F
1001
AcAecLayerStandard
1000

1000

  0
ENDTAB
  0
TABLE
  2
STYLE
  5
3
330
0
100
AcDbSymbolTable
 70
     6
  0
STYLE
  5
11
330
3
100
AcDbSymbolTableRecord
100
AcDbTextStyleTableRecord
  2
STANDARD
 70
     0
 40
0.0
 41
1.0
 50
0.0
 71
     0
 42
3.5
  3
ISOCP.SHX
  4

  0
STYLE
  5
5E
330
3
100
AcDbSymbolTableRecord
100
AcDbTextStyleTableRecord
  2

 70
     1
 40
0.0
 41
1.0
 50
0.0
 71
     0
 42
0.2
  3
ltypeshp.shx
  4

  0
STYLE
  5
7B9
330
3
100
AcDbSymbolTableRecord
100
AcDbTextStyleTableRecord
  2
ACISOTS
 70
     0
 40
1.0
 41
1.0
 50
0.0
 71
     0
 42
2.5
  3
isocp.shx
  4

  0
STYLE
  5
7BA
330
3
100
AcDbSymbolTableRecord
100
AcDbTextStyleTableRecord
  2
ACISOGDT
 70
     0
 40
0.0
 41
1.0
 50
0.0
 71
     0
 42
2.5
  3
amgdt.shx
  4

  0
STYLE
  5
937
330
3
100
AcDbSymbolTableRecord
100
AcDbTextStyleTableRecord
  2
ACANSTS
 70
     0
 40
1.0
 41
1.0
 50
0.0
 71
     0
 42
3.5
  3
romans.shx
  4

  0
STYLE
  5
93A
330
3
100
AcDbSymbolTableRecord
100
AcDbTextStyleTableRecord
  2
ACANSGDT
 70
     0
 40
0.0
 41
1.0
 50
0.0
 71
     0
 42
3.5
  3
amgdt.shx
  4

  0
ENDTAB
  0
TABLE
  2
VIEW
  5
6
330
0
100
AcDbSymbolTable
 70
     0
  0
ENDTAB
  0
TABLE
  2
UCS
  5
7
330
0
100
AcDbSymbolTable
 70
     0
  0
ENDTAB
  0
TABLE
  2
APPID
  5
9
330
0
100
AcDbSymbolTable
 70
    21
  0
APPID
  5
12
330
9
100
AcDbSymbolTableRecord
100
AcDbRegAppTableRecord
  2
ACAD
 70
     0
  0
APPID
  5
26C
330
9
100
AcDbSymbolTableRecord
100
AcDbRegAppTableRecord
  2
ACAD_MLEADERVER
 70
     0
  0
APPID
  5
274
330
9
100
AcDbSymbolTableRecord
100
AcDbRegAppTableRecord
  2
AD_DRAW
 70
     0
  0
APPID
  5
275
330
9
100
AcDbSymbolTableRecord
100
AcDbRegAppTableRecord
  2
DESIGNERASSEMBLIES
 70
     0
  0
APPID
  5
276
330
9
100
AcDbSymbolTableRecord
100
AcDbRegAppTableRecord
  2
MCAD_NO_VIS
 70
     0
  0
APPID
  5
277
330
9
100
AcDbSymbolTableRecord
100
AcDbRegAppTableRecord
  2
ASURF_PCURVE_APPNAME
 70
     0
  0
APPID
  5
278
330
9
100
AcDbSymbolTableRecord
100
AcDbRegAppTableRecord
  2
ACAD_TEMP_GRAPHIC
 70
     0
  0
APPID
  5
279
330
9
100
AcDbSymbolTableRecord
100
AcDbRegAppTableRecord
  2
ACATTRIBSERVICES
 70
     0
  0
APPID
  5
27A
330
9
100
AcDbSymbolTableRecord
100
AcDbRegAppTableRecord
  2
ACADM_DIM_EDIT
 70
     0
  0
APPID
  5
27B
330
9
100
AcDbSymbolTableRecord
100
AcDbRegAppTableRecord
  2
GENIUS_GENDIM_13
 70
     0
  0
APPID
  5
27C
330
9
100
AcDbSymbolTableRecord
100
AcDbRegAppTableRecord
  2
GENIUS_GENDTOL_13
 70
     0
  0
APPID
  5
27D
330
9
100
AcDbSymbolTableRecord
100
AcDbRegAppTableRecord
  2
GENIUS_GE3DTOL_13
 70
     0
  0
APPID
  5
27E
330
9
100
AcDbSymbolTableRecord
100
AcDbRegAppTableRecord
  2
AMG_3D2D_5.0
 70
     0
  0
APPID
  5
27F
330
9
100
AcDbSymbolTableRecord
100
AcDbRegAppTableRecord
  2
AMDT_DM_ADJ
 70
     0
  0
APPID
  5
280
330
9
100
AcDbSymbolTableRecord
100
AcDbRegAppTableRecord
  2
ACAD_PSEXT
 70
     0
  0
APPID
  5
281
330
9
100
AcDbSymbolTableRecord
100
AcDbRegAppTableRecord
  2
DCO15
 70
     0
  0
APPID
  5
282
330
9
100
AcDbSymbolTableRecord
100
AcDbRegAppTableRecord
  2
ACAD_DSTYLE_DIMTEXT_FILL
 70
     0
  0
APPID
  5
283
330
9
100
AcDbSymbolTableRecord
100
AcDbRegAppTableRecord
  2
AcAecLayerStandard
 70
     0
  0
APPID
  5
420
330
9
100
AcDbSymbolTableRecord
100
AcDbRegAppTableRecord
  2
ACAD_DSTYLE_DIMINSPECT
 70
     0
  0
APPID
  5
8A9
330
9
100
AcDbSymbolTableRecord
100
AcDbRegAppTableRecord
  2
AcDbAttr
 70
     0
  0
APPID
  5
D69
330
9
100
AcDbSymbolTableRecord
100
AcDbRegAppTableRecord
  2
ACAD_DSTYLE_DIMRADIAL_EXTENSION
 70
     0
  0
ENDTAB
  0
TABLE
  2
DIMSTYLE
  5
A
330
0
100
AcDbSymbolTable
 70
    15
100
AcDbDimStyleTable
 71
     1
340
35A
  0
DIMSTYLE
105
29
330
A
100
AcDbSymbolTableRecord
100
AcDbDimStyleTableRecord
  2
Standard
 70
     0
340
11
  0
DIMSTYLE
105
35A
330
A
100
AcDbSymbolTableRecord
100
AcDbDimStyleTableRecord
  2
AM_ISO
 70
     0
  4
"
 41
2.5
 42
1.0
 43
10.0
 44
1.0
 47
0.1
 48
0.1
 73
     0
 74
     0
 77
     1
 78
     8
 79
     2
140
3.5
141
0.0
143
0.0393701
146
0.71
147
1.5
171
     3
172
     1
176
   256
177
   256
178
     2
271
     2
272
     2
274
     3
283
     0
284
     8
340
11
371
    -1
372
    -1
  0
DIMSTYLE
105
7BB
330
A
100
AcDbSymbolTableRecord
100
AcDbDimStyleTableRecord
  2
AM_ISO$3
 70
     0
  4
"
 41
2.5
 42
1.0
 43
10.0
 44
1.0
 47
0.1
 48
0.1
 73
     0
 77
     1
 78
     8
 79
     2
140
3.5
141
0.0
143
0.0393701
146
0.71
147
1.5
176
   256
177
   256
178
     2
271
     2
272
     3
274
     4
283
     0
284
     8
288
     1
289
     0
340
11
371
    -1
372
    -1
  0
DIMSTYLE
105
7BC
330
A
100
AcDbSymbolTableRecord
100
AcDbDimStyleTableRecord
  2
AM_ISO$4
 70
     0
  4
"
 41
2.5
 42
1.0
 43
10.0
 44
1.0
 47
0.1
 48
0.1
 73
     0
 77
     1
 78
     8
 79
     2
140
3.5
141
0.0
143
0.0393701
146
0.71
147
1.5
176
   256
177
   256
178
     2
271
     2
272
     3
274
     4
283
     0
284
     8
288
     1
289
     0
340
11
371
    -1
372
    -1
  0
DIMSTYLE
105
7BD
330
A
100
AcDbSymbolTableRecord
100
AcDbDimStyleTableRecord
  2
AM_ISO$6
 70
     0
  4
"
 41
2.5
 42
1.0
 43
10.0
 44
1.0
 47
0.1
 48
0.1
 73
     0
 74
     0
 78
     8
 79
     2
140
3.5
141
0.0
143
0.0393701
146
0.71
147
1.5
172
     1
176
   256
177
   256
178
     2
271
     2
272
     3
274
     4
283
     0
284
     8
340
11
371
    -1
372
    -1
  0
DIMSTYLE
105
7BE
330
A
100
AcDbSymbolTableRecord
100
AcDbDimStyleTableRecord
  2
AM_ISO$7
 70
     0
  4
"
 41
2.5
 42
1.0
 43
10.0
 44
1.0
 47
0.1
 48
0.1
 73
     0
 74
     0
 77
     1
 78
     8
 79
     2
140
5.0
141
0.0
143
0.0393701
146
0.71
147
1.5
172
     1
176
   256
177
   256
178
     2
271
     2
272
     3
274
     4
283
     0
284
     8
340
11
371
    -1
372
    -1
  0
DIMSTYLE
105
7BF
330
A
100
AcDbSymbolTableRecord
100
AcDbDimStyleTableRecord
  2
AM_ISO$SF
 70
     0
  4
"
 41
2.5
 42
1.0
 43
10.0
 44
1.0
 47
0.1
 48
0.1
 73
     0
 74
     0
 75
     1
 76
     1
 77
     1
 78
     8
 79
     2
140
3.5
141
0.0
143
0.0393701
146
0.71
147
1.5
172
     1
176
   256
177
   256
178
     2
271
     2
272
     3
274
     4
283
     0
284
     8
340
11
371
    -1
372
    -1
  0
DIMSTYLE
105
7C0
330
A
100
AcDbSymbolTableRecord
100
AcDbDimStyleTableRecord
  2
AM_ISO$SH
 70
     0
  4
"
 41
2.5
 42
1.0
 43
10.0
 44
1.0
 47
0.1
 48
0.1
 73
     0
 74
     0
 75
     1
 76
     1
 77
     1
 78
     8
 79
     2
140
3.5
141
0.0
143
0.0393701
144
2.0
146
0.71
147
1.5
172
     1
173
     1
176
   256
177
   256
178
     2
271
     2
272
     3
274
     4
283
     0
284
     8
340
11
343
7AA
371
    -1
372
    -1
  0
DIMSTYLE
105
95A
330
A
100
AcDbSymbolTableRecord
100
AcDbDimStyleTableRecord
  2
AM_ANSI
 70
     0
  4
mm
 41
0.1
 42
0.05
 43
0.5
 44
0.1
 47
0.1
 48
0.1
 78
     7
 79
     2
140
0.12
141
0.0
146
0.71
147
0.06
176
   256
177
   256
178
     2
274
     4
284
     7
340
11
371
    -1
372
    -1
  0
DIMSTYLE
105
95B
330
A
100
AcDbSymbolTableRecord
100
AcDbDimStyleTableRecord
  2
AM_ANSI$3
 70
     0
  4
mm
 41
0.1
 42
0.05
 43
0.5
 44
0.1
 47
0.1
 48
0.1
 78
     7
 79
     2
140
0.12
141
0.0
146
0.71
147
0.06
176
   256
177
   256
178
     2
274
     4
284
     7
288
     1
289
     0
340
11
371
    -1
372
    -1
  0
DIMSTYLE
105
95C
330
A
100
AcDbSymbolTableRecord
100
AcDbDimStyleTableRecord
  2
AM_ANSI$4
 70
     0
  4
mm
 41
0.1
 42
0.05
 43
0.5
 44
0.1
 47
0.1
 48
0.1
 78
     7
 79
     2
140
0.12
141
0.0
146
0.71
147
0.06
176
   256
177
   256
178
     2
274
     4
284
     7
288
     1
289
     0
340
11
371
    -1
372
    -1
  0
DIMSTYLE
105
95D
330
A
100
AcDbSymbolTableRecord
100
AcDbDimStyleTableRecord
  2
AM_ANSI$7
 70
     0
  4
mm
 41
0.1
 42
0.05
 43
0.5
 44
0.1
 47
0.1
 48
0.1
 78
     7
 79
     2
140
0.24
141
0.0
146
0.71
147
0.06
176
   256
177
   256
178
     2
274
     4
284
     7
340
11
371
    -1
372
    -1
  0
DIMSTYLE
105
95E
330
A
100
AcDbSymbolTableRecord
100
AcDbDimStyleTableRecord
  2
AM_ANSI$SF
 70
     0
  4
mm
 41
0.1
 42
0.05
 43
0.5
 44
0.1
 47
0.1
 48
0.1
 75
     1
 76
     1
 78
     7
 79
     2
140
0.12
141
0.0
146
0.71
147
0.06
176
   256
177
   256
178
     2
274
     4
284
     7
340
11
371
    -1
372
    -1
  0
DIMSTYLE
105
95F
330
A
100
AcDbSymbolTableRecord
100
AcDbDimStyleTableRecord
  2
AM_ANSI$SH
 70
     0
  4
mm
 41
0.1
 42
0.05
 43
0.5
 44
0.1
 47
0.1
 48
0.1
 75
     1
 76
     1
 78
     7
 79
     2
140
0.12
141
0.0
146
0.71
147
0.06
173
     1
176
   256
177
   256
178
     2
274
     4
284
     7
340
11
343
7AA
371
    -1
372
    -1
  0
ENDTAB
  0
TABLE
  2
BLOCK_RECORD
  5
1
330
0
100
AcDbSymbolTable
 70
     8
  0
BLOCK_RECORD
  5
21
102
{ACAD_XDICTIONARY
360
552
102
}
330
1
100
AcDbSymbolTableRecord
100
AcDbBlockTableRecord
  2
*Model_Space
340
24
  0
BLOCK_RECORD
  5
1D
330
1
100
AcDbSymbolTableRecord
100
AcDbBlockTableRecord
  2
*Paper_Space
340
20
  0
BLOCK_RECORD
  5
25
330
1
100
AcDbSymbolTableRecord
100
AcDbBlockTableRecord
  2
*Paper_Space0
340
28
  0
BLOCK_RECORD
  5
7AA
330
1
100
AcDbSymbolTableRecord
100
AcDbBlockTableRecord
  2
GENAXEH
340
0
  0
BLOCK_RECORD
  5
7AE
330
1
100
AcDbSymbolTableRecord
100
AcDbBlockTableRecord
  2
info
340
0
310
2800000020000000200000000100080000000000000400000000000000000000000000000000000000000000000080000080000000808000800000008000800080800000C0C0C000C0DCC000F0CAA6000020400000206000002080000020A0000020C0000020E00000400000004020000040400000406000004080000040A0
310
000040C0000040E00000600000006020000060400000606000006080000060A0000060C0000060E00000800000008020000080400000806000008080000080A0000080C0000080E00000A0000000A0200000A0400000A0600000A0800000A0A00000A0C00000A0E00000C0000000C0200000C0400000C0600000C0800000C0
310
A00000C0C00000C0E00000E0000000E0200000E0400000E0600000E0800000E0A00000E0C00000E0E00040000000400020004000400040006000400080004000A0004000C0004000E00040200000402020004020400040206000402080004020A0004020C0004020E000404000004040200040404000404060004040800040
310
40A0004040C0004040E00040600000406020004060400040606000406080004060A0004060C0004060E00040800000408020004080400040806000408080004080A0004080C0004080E00040A0000040A0200040A0400040A0600040A0800040A0A00040A0C00040A0E00040C0000040C0200040C0400040C0600040C08000
310
40C0A00040C0C00040C0E00040E0000040E0200040E0400040E0600040E0800040E0A00040E0C00040E0E00080000000800020008000400080006000800080008000A0008000C0008000E00080200000802020008020400080206000802080008020A0008020C0008020E00080400000804020008040400080406000804080
310
008040A0008040C0008040E00080600000806020008060400080606000806080008060A0008060C0008060E00080800000808020008080400080806000808080008080A0008080C0008080E00080A0000080A0200080A0400080A0600080A0800080A0A00080A0C00080A0E00080C0000080C0200080C0400080C0600080C0
310
800080C0A00080C0C00080C0E00080E0000080E0200080E0400080E0600080E0800080E0A00080E0C00080E0E000C0000000C0002000C0004000C0006000C0008000C000A000C000C000C000E000C0200000C0202000C0204000C0206000C0208000C020A000C020C000C020E000C0400000C0402000C0404000C0406000C0
310
408000C040A000C040C000C040E000C0600000C0602000C0604000C0606000C0608000C060A000C060C000C060E000C0800000C0802000C0804000C0806000C0808000C080A000C080C000C080E000C0A00000C0A02000C0A04000C0A06000C0A08000C0A0A000C0A0C000C0A0E000C0C00000C0C02000C0C04000C0C06000
310
C0C08000C0C0A000F0FBFF00A4A0A000808080000000FF0000FF000000FFFF00FF000000FF00FF00FFFF0000FFFFFF00FFFFFFFFFFFFFFFFFFFFFFFFFFFFFFFFFFFFFFFFFFFFFFFFFFFFFFFFFFFFFFFFFFFFFFFFFFFFFFFFFFFFFFFFFFFFFFFFFFFFFFFFFFFFFFFFFFFFFFFFFFFFFFFFFFFFFFFFFFFFFFFFFFFFFFFFFFFFFF
310
FFFFFFFFFFFFFFFFFFFFFFFFFFFFFFFFFFFFFFFFFFFFFFFFFFFFFFFFFFFFFFFFFFFFFFFFFFFFFFFFFFFFFFFFFFFFFFFFFFFFFFFFFFFFFFFFFFFFFFFF00FFFFFFFFFFFFFFFFFFFFFFFFFFFFFFFFFFFFFFFFFFFFFFFFFFFFFFFFFFFF00FFFFFFFFFFFFFFFFFFFFFFFFFFFFFFFFFFFFFFFFFFFFFFFFFFFFFFFFFFFF00FFFFFFFF
310
FFFFFFFFFFFFFFFFFFFFFFFFFFFFFFFFFFFF0000000000FFFFFF00FFFFFFFF00FFFFFF00FFFF000000FFFF0000000000FFFFFFFFFFFFFF000000FFFFFFFFFF00FFFFFF00FF00FFFFFF00FFFFFF00FFFF00FFFFFFFFFFFFFF0000FFFFFFFFFF00FFFFFF00FFFFFFFFFF00FFFFFF00FFFF00FFFFFFFFFFFF00FF00FFFFFFFFFF
310
0000000000FFFFFFFFFF00FFFFFF00FFFF00FFFFFFFFFF00FFFFFF00FFFFFFFF00FFFFFF00FFFFFFFFFF00FFFFFF00FFFF00FFFFFFFF00FFFFFFFF00FFFFFFFF00FFFFFF00FFFFFFFFFF00FFFFFF00FFFF00FF00FF00FFFFFFFFFF00FFFFFFFF00FFFFFF00FFFFFFFFFF00FF0000000000FFFFFF00FFFFFFFFFFFFFF00FFFF
310
FFFFFFFFFFFFFFFFFFFFFFFFFFFFFFFFFFFFFFFF00FF00FFFFFFFFFF00FFFFFFFFFFFFFFFFFFFFFFFFFFFFFFFFFFFFFFFFFFFFFFFFFFFF00FFFFFFFF00FFFFFFFFFFFFFFFFFFFFFFFFFFFFFFFFFFFFFFFFFFFFFFFFFFFFFF00FFFFFF00FFFFFFFFFFFFFFFFFFFFFFFFFFFFFFFFFFFFFFFFFFFFFFFFFFFFFFFF00FF00FFFFFF
310
FFFF00000000FFFF00FFFFFF00FF0000000000FFFFFFFFFFFFFFFF0000FFFFFFFFFFFF00FFFF00FF00FFFF00FFFFFFFF00FFFF00FFFFFFFFFFFF000000FFFFFFFFFFFF00FFFF00FF00FF00FFFFFFFFFF00FFFF00FF0000000000FFFFFF00FFFFFFFFFF000000FFFF00000000FFFFFFFF00FFFF00FFFFFFFFFFFFFFFFFFFF00
310
FFFFFFFF00FFFF00FF00FFFFFF00FFFFFF00FFFF00FFFFFFFFFFFFFFFFFFFFFF00FFFFFF00FFFF00FF00FFFFFF00FFFFFF00FFFF00FFFFFFFFFFFFFFFFFFFFFFFF00FF00000000FFFF00000000FFFF0000000000FFFFFFFFFFFFFFFFFFFFFFFFFFFFFFFFFFFFFFFFFFFFFFFFFFFFFFFFFFFFFFFFFFFFFFFFFFFFFFFFFFFFFF
310
FFFFFFFFFFFFFFFFFFFFFFFFFFFFFFFFFFFFFFFFFFFFFFFFFFFFFFFFFFFFFFFFFFFFFFFFFFFFFFFFFFFFFFFFFFFFFFFFFFFFFFFFFFFFFFFFFFFFFFFFFFFFFFFFFFFFFFFFFFFFFFFFFFFFFFFFFFFFFFFFFFFFFFFFFFFFFFFFFFFFFFFFFFFFFFFFFFFFFFFFFFFFFFFFFFFFFFFFFFFFFFFFFFFFFFFFFFFFFFFFFFFFFFFFFFFFFF
310
FFFFFFFFFFFFFFFFFFFFFFFFFFFFFFFFFFFFFFFFFFFFFFFFFFFFFFFFFFFFFFFFFFFFFFFFFFFFFFFFFFFFFFFFFFFFFFFFFFFFFFFFFFFFFFFF
102
{BLKREFS
331
B6A
331
E45
102
}
1001
ACAD
1000
DesignCenter Data
1002
{
1070
     1
1070
     4
1002
}
  0
BLOCK_RECORD
  5
DA8
330
1
100
AcDbSymbolTableRecord
100
AcDbBlockTableRecord
  2
RX150
340
0
310
2800000020000000200000000100080000000000000400000000000000000000000000000000000000000000000080000080000000808000800000008000800080800000C0C0C000C0DCC000F0CAA6000020400000206000002080000020A0000020C0000020E00000400000004020000040400000406000004080000040A0
310
000040C0000040E00000600000006020000060400000606000006080000060A0000060C0000060E00000800000008020000080400000806000008080000080A0000080C0000080E00000A0000000A0200000A0400000A0600000A0800000A0A00000A0C00000A0E00000C0000000C0200000C0400000C0600000C0800000C0
310
A00000C0C00000C0E00000E0000000E0200000E0400000E0600000E0800000E0A00000E0C00000E0E00040000000400020004000400040006000400080004000A0004000C0004000E00040200000402020004020400040206000402080004020A0004020C0004020E000404000004040200040404000404060004040800040
310
40A0004040C0004040E00040600000406020004060400040606000406080004060A0004060C0004060E00040800000408020004080400040806000408080004080A0004080C0004080E00040A0000040A0200040A0400040A0600040A0800040A0A00040A0C00040A0E00040C0000040C0200040C0400040C0600040C08000
310
40C0A00040C0C00040C0E00040E0000040E0200040E0400040E0600040E0800040E0A00040E0C00040E0E00080000000800020008000400080006000800080008000A0008000C0008000E00080200000802020008020400080206000802080008020A0008020C0008020E00080400000804020008040400080406000804080
310
008040A0008040C0008040E00080600000806020008060400080606000806080008060A0008060C0008060E00080800000808020008080400080806000808080008080A0008080C0008080E00080A0000080A0200080A0400080A0600080A0800080A0A00080A0C00080A0E00080C0000080C0200080C0400080C0600080C0
310
800080C0A00080C0C00080C0E00080E0000080E0200080E0400080E0600080E0800080E0A00080E0C00080E0E000C0000000C0002000C0004000C0006000C0008000C000A000C000C000C000E000C0200000C0202000C0204000C0206000C0208000C020A000C020C000C020E000C0400000C0402000C0404000C0406000C0
310
408000C040A000C040C000C040E000C0600000C0602000C0604000C0606000C0608000C060A000C060C000C060E000C0800000C0802000C0804000C0806000C0808000C080A000C080C000C080E000C0A00000C0A02000C0A04000C0A06000C0A08000C0A0A000C0A0C000C0A0E000C0C00000C0C02000C0C04000C0C06000
310
C0C08000C0C0A000F0FBFF00A4A0A000808080000000FF0000FF000000FFFF00FF000000FF00FF00FFFF0000FFFFFF000000000000000000000000000000000000000000000000000000000000000000000000000000000000000000000000000000000000000000000000000000000000000000000000000000000000FFFF
310
FFFFFFFFFFFFFF000000000000000000000000000000000000000000FFFDFDFDFDFDFDFDFDFD00FFFF0000000000000000000000000000000000FFFDFD00000000FFFF000000FDFDFDFF000000000000000000000000000000FFFD0000FFFFFFFFFFFFFFFFFF000000FDFD00000000000000000000000000FDFD00FFFFFF00
310
00000000000000FFFF000000FD0000000000000000000000FFFD00FFFF0000FFFF00000000FFFF0000FFFF00FDFF000000000000000000FFFD00FFFFFF00FFFFFF00000000FFFF0000FFFF0000FD000000000000FAFAFAFAFDFAFAFAFAFFFFFFFFFFFFFFFFFFFFFFFFFF00FFFFFDFF0000000000FA00FFFDFFFFFF0000FF00
310
000000000000000000FF0000FFFFFFFD0000000000FA00FD0000FF00FF00FF00000000000000000000FF00FF00FF0000FD00000000FA00FD00FFFF00FFFFFF00000000000000000000FFFFFF00FFFF00FD000000FBFBFFFD00FFFF00FF00FF00000000000000000000FF00FF0000FF00FD000000FBFBFFFD00FF00000000FF
310
00000000000000000000FF00000000FF00FDFF0000FBFBFFFD00FF00000000FF00000000000000000000FF00000000FF00FDFF0000FBFBFFFD00FF00000000FF00000000000000000000FF00000000FF00FDFF0000FBFBFFFD00FFFF000000FF00000000000000000000FF00000000FF00FD00000000FA00FD00FFFF00FFFF
310
FF00000000000000000000FFFFFF00FFFF00FD00000000FA00FD0000FF00FFFFFF00000000000000000000FFFFFF00FFFF00FD00000000FA00FFFDFFFFFF0000FF00000000000000000000FF0000FFFFFFFD0000000000FAFAFAFDFAFAFAFAFAFFFFFFFFFFFFFFFFFFFFFFFF0000FFFFFDFF0000000000000000FFFD00FFFF
310
FF00FFFFFF00000000FFFF0000FFFF0000FDFF000000000000000000FFFD00FF000000FFFF00000000FFFF0000FFFF00FDFF0000000000000000000000FD0000FFFF00000000000000000000FFFF0000FD00000000000000000000000000FDFD0000FFFFFF00000000FFFFFF0000FDFD000000000000000000000000000000
310
FFFDFD0000FFFFFFFFFFFF0000FAFDFF0000000000000000000000000000000000FFFFFD000000FFFF00FDFDFDFAFAFAFAFA000000000000000000000000000000000000FDFDFDFDFDFDFFFFFAFAFAFAFAFB0000000000000000000000000000000000000000000000000000FBFBFBFBFB0000000000000000000000000000
310
0000000000000000000000000000000000000000000000000000000000000000000000000000000000000000000000000000000000000000
102
{BLKREFS
331
E56
102
}
  0
ENDTAB
  0
ENDSEC
  0
SECTION
  2
BLOCKS
  0
BLOCK
  5
22
330
21
100
AcDbEntity
  8
0
100
AcDbBlockBegin
  2
*Model_Space
 70
     0
 10
0.0
 20
0.0
 30
0.0
  3
*Model_Space
  1

  0
ENDBLK
  5
23
330
21
100
AcDbEntity
  8
0
100
AcDbBlockEnd
  0
BLOCK
  5
1E
330
1D
100
AcDbEntity
 67
     1
  8
0
100
AcDbBlockBegin
  2
*Paper_Space
 70
     0
 10
0.0
 20
0.0
 30
0.0
  3
*Paper_Space
  1

  0
ENDBLK
  5
1F
330
1D
100
AcDbEntity
 67
     1
  8
0
100
AcDbBlockEnd
  0
BLOCK
  5
26
330
25
100
AcDbEntity
 67
     1
  8
0
100
AcDbBlockBegin
  2
*Paper_Space0
 70
     0
 10
0.0
 20
0.0
 30
0.0
  3
*Paper_Space0
  1

  0
ENDBLK
  5
27
330
25
100
AcDbEntity
 67
     1
  8
0
100
AcDbBlockEnd
  0
BLOCK
  5
C38
330
7AA
100
AcDbEntity
  8
0
100
AcDbBlockBegin
  2
GENAXEH
 70
     0
 10
0.0
 20
0.0
 30
0.0
  3
GENAXEH
  1

  0
LINE
  5
C39
330
7AA
100
AcDbEntity
  8
0
100
AcDbLine
 10
-1.0
 20
0.0
 30
0.0
 11
1.0
 21
0.0
 31
0.0
  0
ENDBLK
  5
C3A
330
7AA
100
AcDbEntity
  8
0
100
AcDbBlockEnd
  0
BLOCK
  5
7AF
330
7AE
100
AcDbEntity
  8
0
100
AcDbBlockBegin
  2
info
 70
     2
 10
0.0
 20
0.0
 30
0.0
  3
info
  1

  0
POINT
  5
7B0
330
7AE
100
AcDbEntity
  8
0
100
AcDbPoint
 10
0.0
 20
0.0
 30
0.0
  0
ATTDEF
  5
7B1
330
7AE
100
AcDbEntity
  8
0
100
AcDbText
 10
9.467092950319427
 20
2.891095235479383
 30
0.00000001
 40
5.0
  1

100
AcDbAttributeDefinition
  3
bredd
  2
BRD
 70
     1
1001
AcDbAttr
1070
     0
1070
     1
  0
ATTDEF
  5
7B2
330
7AE
100
AcDbEntity
  8
0
100
AcDbText
 10
9.467092950319427
 20
-5.442238097853946
 30
0.00000001
 40
5.0
  1

100
AcDbAttributeDefinition
  3
Höjd
  2
HJD
 70
     1
1001
AcDbAttr
1070
     0
1070
     1
  0
ENDBLK
  5
7B3
330
7AE
100
AcDbEntity
  8
0
100
AcDbBlockEnd
  0
BLOCK
  5
DA9
330
DA8
100
AcDbEntity
  8
0
100
AcDbBlockBegin
  2
RX150
 70
     0
 10
0.0
 20
0.0
 30
0.0
  3
RX150
  1

  0
CIRCLE
  5
DAB
330
DA8
100
AcDbEntity
  8
Visible Edges
  6
Continuous
370
    18
100
AcDbCircle
 10
-79.67433714816921
 20
-46.0
 30
0.0
 40
5.25
  0
CIRCLE
  5
DAC
330
DA8
100
AcDbEntity
  8
Visible Edges
  6
Continuous
370
    18
100
AcDbCircle
 10
-79.67433714816926
 20
46.00000000000003
 30
0.0
 40
5.25
  0
CIRCLE
  5
DAD
330
DA8
100
AcDbEntity
  8
Visible Edges
  6
Continuous
370
    18
100
AcDbCircle
 10
-0.0000000000023306
 20
0.0
 30
0.0
 40
104.5
  0
ARC
  5
DAE
330
DA8
100
AcDbEntity
  8
Visible Edges
  6
Continuous
370
    18
100
AcDbCircle
 10
-0.0000000000071054
 20
0.0000000000077875
 30
0.0
 40
75.35000000001052
100
AcDbArc
 50
314.2395824609873
 51
315.7604175390127
  0
ARC
  5
DAF
330
DA8
100
AcDbEntity
  8
Visible Edges
  6
Continuous
370
    18
100
AcDbCircle
 10
-0.0000000000434284
 20
-0.0000000000433147
 30
0.0
 40
75.34999999993866
100
AcDbArc
 50
224.2395824609873
 51
225.7604175390138
  0
ARC
  5
DB0
330
DA8
100
AcDbEntity
  8
Visible Edges
  6
Continuous
370
    18
100
AcDbCircle
 10
-0.0000000000454179
 20
0.0000000000452758
 30
0.0
 40
75.34999999993586
100
AcDbArc
 50
134.2395824609862
 51
135.7604175390127
  0
ARC
  5
DB1
330
DA8
100
AcDbEntity
  8
Visible Edges
  6
Continuous
370
    18
100
AcDbCircle
 10
0.000000000019412
 20
0.0000000000198952
 30
0.0
 40
75.34999999997229
100
AcDbArc
 50
44.23958246098618
 51
45.76041753901269
  0
CIRCLE
  5
DB2
330
DA8
100
AcDbEntity
  8
Visible Edges
  6
Continuous
370
    18
100
AcDbCircle
 10
0.0
 20
0.0
 30
0.0
 40
84.15
  0
CIRCLE
  5
DB3
330
DA8
100
AcDbEntity
  8
Visible Edges
  6
Continuous
370
    18
100
AcDbCircle
 10
-0.0000000000009095
 20
-91.99999999999995
 30
0.0
 40
5.25
  0
CIRCLE
  5
DB4
330
DA8
100
AcDbEntity
  8
Visible Edges
  6
Continuous
370
    18
100
AcDbCircle
 10
79.67433714816749
 20
46.00000000000003
 30
0.0
 40
5.249999999999999
  0
CIRCLE
  5
DB5
330
DA8
100
AcDbEntity
  8
Visible Edges
  6
Continuous
370
    18
100
AcDbCircle
 10
-0.0000000000009095
 20
92.00000000000002
 30
0.0
 40
5.25
  0
CIRCLE
  5
DB6
330
DA8
100
AcDbEntity
  8
Visible Edges
  6
Continuous
370
    18
100
AcDbCircle
 10
79.67433714816761
 20
-46.0
 30
0.0
 40
5.25
  0
CIRCLE
  5
DB7
330
DA8
100
AcDbEntity
  8
Visible Edges
  6
Continuous
370
    18
100
AcDbCircle
 10
25.0000000000029
 20
-57.0
 30
0.0
 40
3.000000000000001
  0
CIRCLE
  5
DB8
330
DA8
100
AcDbEntity
  8
Visible Edges
  6
Continuous
370
    18
100
AcDbCircle
 10
-24.9999999999971
 20
-57.0
 30
0.0
 40
3.000000000000001
  0
CIRCLE
  5
DB9
330
DA8
100
AcDbEntity
  8
Visible Edges
  6
Continuous
370
    18
100
AcDbCircle
 10
57.0000000000029
 20
25.00000000000011
 30
0.0
 40
3.000000000000001
  0
CIRCLE
  5
DBA
330
DA8
100
AcDbEntity
  8
Visible Edges
  6
Continuous
370
    18
100
AcDbCircle
 10
57.0000000000029
 20
-25.00000000000002
 30
0.0
 40
3.000000000000001
  0
CIRCLE
  5
DBB
330
DA8
100
AcDbEntity
  8
Visible Edges
  6
Continuous
370
    18
100
AcDbCircle
 10
-24.9999999999971
 20
57.00000000000011
 30
0.0
 40
3.000000000000001
  0
CIRCLE
  5
DBC
330
DA8
100
AcDbEntity
  8
Visible Edges
  6
Continuous
370
    18
100
AcDbCircle
 10
25.0000000000029
 20
57.00000000000011
 30
0.0
 40
3.000000000000001
  0
LINE
  5
DBD
330
DA8
100
AcDbEntity
  8
Visible Edges
  6
Continuous
370
    18
100
AcDbLine
 10
-30.7735026918937
 20
-57.0
 30
0.0
 11
-27.8867513459455
 21
-51.99999999999994
 31
0.0
  0
LINE
  5
DBE
330
DA8
100
AcDbEntity
  8
Visible Edges
  6
Continuous
370
    18
100
AcDbLine
 10
-27.8867513459455
 20
-51.99999999999994
 30
0.0
 11
-22.1132486540493
 21
-51.99999999999994
 31
0.0
  0
LINE
  5
DBF
330
DA8
100
AcDbEntity
  8
Visible Edges
  6
Continuous
370
    18
100
AcDbLine
 10
-22.1132486540493
 20
-51.99999999999994
 30
0.0
 11
-19.2264973081011
 21
-57.0
 31
0.0
  0
LINE
  5
DC0
330
DA8
100
AcDbEntity
  8
Visible Edges
  6
Continuous
370
    18
100
AcDbLine
 10
-19.2264973081011
 20
-57.0
 30
0.0
 11
-22.11324865404922
 21
-62.00000000000002
 31
0.0
  0
LINE
  5
DC1
330
DA8
100
AcDbEntity
  8
Visible Edges
  6
Continuous
370
    18
100
AcDbLine
 10
-22.11324865404922
 20
-62.00000000000002
 30
0.0
 11
-27.8867513459455
 21
-62.00000000000002
 31
0.0
  0
LINE
  5
DC2
330
DA8
100
AcDbEntity
  8
Visible Edges
  6
Continuous
370
    18
100
AcDbLine
 10
-27.8867513459455
 20
-62.00000000000002
 30
0.0
 11
-30.7735026918937
 21
-57.0
 31
0.0
  0
LINE
  5
DC3
330
DA8
100
AcDbEntity
  8
Visible Edges
  6
Continuous
370
    18
100
AcDbLine
 10
19.22649730810627
 20
-57.0
 30
0.0
 11
22.11324865405448
 21
-52.0
 31
0.0
  0
LINE
  5
DC4
330
DA8
100
AcDbEntity
  8
Visible Edges
  6
Continuous
370
    18
100
AcDbLine
 10
22.11324865405448
 20
-52.0
 30
0.0
 11
27.8867513459507
 21
-52.0
 31
0.0
  0
LINE
  5
DC5
330
DA8
100
AcDbEntity
  8
Visible Edges
  6
Continuous
370
    18
100
AcDbLine
 10
27.8867513459507
 20
-52.0
 30
0.0
 11
30.7735026918989
 21
-57.0
 31
0.0
  0
LINE
  5
DC6
330
DA8
100
AcDbEntity
  8
Visible Edges
  6
Continuous
370
    18
100
AcDbLine
 10
30.7735026918989
 20
-57.0
 30
0.0
 11
27.8867513459507
 21
-62.0
 31
0.0
  0
LINE
  5
DC7
330
DA8
100
AcDbEntity
  8
Visible Edges
  6
Continuous
370
    18
100
AcDbLine
 10
27.8867513459507
 20
-62.0
 30
0.0
 11
22.11324865405448
 21
-62.0
 31
0.0
  0
LINE
  5
DC8
330
DA8
100
AcDbEntity
  8
Visible Edges
  6
Continuous
370
    18
100
AcDbLine
 10
22.11324865405448
 20
-62.0
 30
0.0
 11
19.22649730810627
 21
-57.0
 31
0.0
  0
LINE
  5
DC9
330
DA8
100
AcDbEntity
  8
Visible Edges
  6
Continuous
370
    18
100
AcDbLine
 10
57.0000000000027
 20
-30.7735026918963
 30
0.0
 11
52.00000000000258
 21
-27.8867513459481
 31
0.0
  0
LINE
  5
DCA
330
DA8
100
AcDbEntity
  8
Visible Edges
  6
Continuous
370
    18
100
AcDbLine
 10
52.00000000000258
 20
-27.8867513459481
 30
0.0
 11
52.00000000000258
 21
-22.11324865405182
 31
0.0
  0
LINE
  5
DCB
330
DA8
100
AcDbEntity
  8
Visible Edges
  6
Continuous
370
    18
100
AcDbLine
 10
52.00000000000258
 20
-22.11324865405182
 30
0.0
 11
57.00000000000258
 21
-19.22649730810372
 31
0.0
  0
LINE
  5
DCC
330
DA8
100
AcDbEntity
  8
Visible Edges
  6
Continuous
370
    18
100
AcDbLine
 10
57.00000000000258
 20
-19.22649730810372
 30
0.0
 11
62.0000000000027
 21
-22.11324865405182
 31
0.0
  0
LINE
  5
DCD
330
DA8
100
AcDbEntity
  8
Visible Edges
  6
Continuous
370
    18
100
AcDbLine
 10
62.0000000000027
 20
-22.11324865405182
 30
0.0
 11
62.0000000000027
 21
-27.8867513459481
 31
0.0
  0
LINE
  5
DCE
330
DA8
100
AcDbEntity
  8
Visible Edges
  6
Continuous
370
    18
100
AcDbLine
 10
62.0000000000027
 20
-27.8867513459481
 30
0.0
 11
57.0000000000027
 21
-30.7735026918963
 31
0.0
  0
LINE
  5
DCF
330
DA8
100
AcDbEntity
  8
Visible Edges
  6
Continuous
370
    18
100
AcDbLine
 10
57.0000000000027
 20
19.2264973081038
 30
0.0
 11
52.00000000000258
 21
22.11324865405189
 31
0.0
  0
LINE
  5
DD0
330
DA8
100
AcDbEntity
  8
Visible Edges
  6
Continuous
370
    18
100
AcDbLine
 10
52.00000000000258
 20
22.11324865405189
 30
0.0
 11
52.00000000000258
 21
27.8867513459482
 31
0.0
  0
LINE
  5
DD1
330
DA8
100
AcDbEntity
  8
Visible Edges
  6
Continuous
370
    18
100
AcDbLine
 10
52.00000000000258
 20
27.8867513459482
 30
0.0
 11
57.0000000000027
 21
30.77350269189628
 31
0.0
  0
LINE
  5
DD2
330
DA8
100
AcDbEntity
  8
Visible Edges
  6
Continuous
370
    18
100
AcDbLine
 10
57.0000000000027
 20
30.77350269189628
 30
0.0
 11
62.00000000000258
 21
27.8867513459482
 31
0.0
  0
LINE
  5
DD3
330
DA8
100
AcDbEntity
  8
Visible Edges
  6
Continuous
370
    18
100
AcDbLine
 10
62.00000000000258
 20
27.8867513459482
 30
0.0
 11
62.00000000000258
 21
22.11324865405189
 31
0.0
  0
LINE
  5
DD4
330
DA8
100
AcDbEntity
  8
Visible Edges
  6
Continuous
370
    18
100
AcDbLine
 10
62.00000000000258
 20
22.11324865405189
 30
0.0
 11
57.0000000000027
 21
19.2264973081038
 31
0.0
  0
LINE
  5
DD5
330
DA8
100
AcDbEntity
  8
Visible Edges
  6
Continuous
370
    18
100
AcDbLine
 10
30.7735026918989
 20
57.00000000000011
 30
0.0
 11
27.8867513459507
 21
52.00000000000002
 31
0.0
  0
LINE
  5
DD6
330
DA8
100
AcDbEntity
  8
Visible Edges
  6
Continuous
370
    18
100
AcDbLine
 10
27.8867513459507
 20
52.00000000000002
 30
0.0
 11
22.11324865405442
 21
52.00000000000002
 31
0.0
  0
LINE
  5
DD7
330
DA8
100
AcDbEntity
  8
Visible Edges
  6
Continuous
370
    18
100
AcDbLine
 10
22.11324865405442
 20
52.00000000000002
 30
0.0
 11
19.22649730810619
 21
57.00000000000011
 31
0.0
  0
LINE
  5
DD8
330
DA8
100
AcDbEntity
  8
Visible Edges
  6
Continuous
370
    18
100
AcDbLine
 10
19.22649730810619
 20
57.00000000000011
 30
0.0
 11
22.11324865405442
 21
62.00000000000011
 31
0.0
  0
LINE
  5
DD9
330
DA8
100
AcDbEntity
  8
Visible Edges
  6
Continuous
370
    18
100
AcDbLine
 10
22.11324865405442
 20
62.00000000000011
 30
0.0
 11
27.8867513459507
 21
62.00000000000011
 31
0.0
  0
LINE
  5
DDA
330
DA8
100
AcDbEntity
  8
Visible Edges
  6
Continuous
370
    18
100
AcDbLine
 10
27.8867513459507
 20
62.00000000000011
 30
0.0
 11
30.7735026918989
 21
57.00000000000011
 31
0.0
  0
LINE
  5
DDB
330
DA8
100
AcDbEntity
  8
Visible Edges
  6
Continuous
370
    18
100
AcDbLine
 10
-19.2264973081011
 20
57.00000000000011
 30
0.0
 11
-22.1132486540493
 21
52.00000000000002
 31
0.0
  0
LINE
  5
DDC
330
DA8
100
AcDbEntity
  8
Visible Edges
  6
Continuous
370
    18
100
AcDbLine
 10
-22.1132486540493
 20
52.00000000000002
 30
0.0
 11
-27.8867513459455
 21
52.00000000000002
 31
0.0
  0
LINE
  5
DDD
330
DA8
100
AcDbEntity
  8
Visible Edges
  6
Continuous
370
    18
100
AcDbLine
 10
-27.8867513459455
 20
52.00000000000002
 30
0.0
 11
-30.7735026918937
 21
57.00000000000011
 31
0.0
  0
LINE
  5
DDE
330
DA8
100
AcDbEntity
  8
Visible Edges
  6
Continuous
370
    18
100
AcDbLine
 10
-30.7735026918937
 20
57.00000000000011
 30
0.0
 11
-27.8867513459455
 21
62.00000000000011
 31
0.0
  0
LINE
  5
DDF
330
DA8
100
AcDbEntity
  8
Visible Edges
  6
Continuous
370
    18
100
AcDbLine
 10
-27.8867513459455
 20
62.00000000000011
 30
0.0
 11
-22.1132486540493
 21
62.00000000000011
 31
0.0
  0
LINE
  5
DE0
330
DA8
100
AcDbEntity
  8
Visible Edges
  6
Continuous
370
    18
100
AcDbLine
 10
-22.1132486540493
 20
62.00000000000011
 30
0.0
 11
-19.2264973081011
 21
57.00000000000011
 31
0.0
  0
ARC
  5
DE1
330
DA8
100
AcDbEntity
  8
Visible Edges
  6
Continuous
370
    18
100
AcDbCircle
 10
-24.99999999999892
 20
-57.0
 30
0.0
 40
5.749999999999996
100
AcDbArc
 50
300.4081542060509
 51
359.5918457939498
  0
ARC
  5
DE2
330
DA8
100
AcDbEntity
  8
Visible Edges
  6
Continuous
370
    18
100
AcDbCircle
 10
-24.99999999999892
 20
-57.0
 30
0.0
 40
5.750000000000013
100
AcDbArc
 50
240.4081542060509
 51
299.591845793949
  0
ARC
  5
DE3
330
DA8
100
AcDbEntity
  8
Visible Edges
  6
Continuous
370
    18
100
AcDbCircle
 10
-24.99999999999892
 20
-57.0
 30
0.0
 40
5.749999999999992
100
AcDbArc
 50
180.4081542060502
 51
239.5918457939505
  0
ARC
  5
DE4
330
DA8
100
AcDbEntity
  8
Visible Edges
  6
Continuous
370
    18
100
AcDbCircle
 10
-24.99999999999892
 20
-57.0
 30
0.0
 40
5.75
100
AcDbArc
 50
120.4081542060495
 51
179.5918457939498
  0
ARC
  5
DE5
330
DA8
100
AcDbEntity
  8
Visible Edges
  6
Continuous
370
    18
100
AcDbCircle
 10
-24.99999999999892
 20
-57.0
 30
0.0
 40
5.750000000000002
100
AcDbArc
 50
60.40815420605099
 51
119.591845793949
  0
ARC
  5
DE6
330
DA8
100
AcDbEntity
  8
Visible Edges
  6
Continuous
370
    18
100
AcDbCircle
 10
-24.999999999999
 20
-57.0
 30
0.0
 40
5.750000000000023
100
AcDbArc
 50
0.4081542060502239
 51
59.59184579394913
  0
ARC
  5
DE7
330
DA8
100
AcDbEntity
  8
Visible Edges
  6
Continuous
370
    18
100
AcDbCircle
 10
25.00000000000111
 20
-57.0
 30
0.0
 40
5.750000000000007
100
AcDbArc
 50
300.4081542060494
 51
359.5918457939514
  0
ARC
  5
DE8
330
DA8
100
AcDbEntity
  8
Visible Edges
  6
Continuous
370
    18
100
AcDbCircle
 10
25.00000000000111
 20
-57.0
 30
0.0
 40
5.75
100
AcDbArc
 50
240.4081542060496
 51
299.5918457939504
  0
ARC
  5
DE9
330
DA8
100
AcDbEntity
  8
Visible Edges
  6
Continuous
370
    18
100
AcDbCircle
 10
25.00000000000099
 20
-57.0
 30
0.0
 40
5.749999999999992
100
AcDbArc
 50
180.4081542060486
 51
239.5918457939505
  0
ARC
  5
DEA
330
DA8
100
AcDbEntity
  8
Visible Edges
  6
Continuous
370
    18
100
AcDbCircle
 10
25.00000000000099
 20
-57.0
 30
0.0
 40
5.749999999999985
100
AcDbArc
 50
120.4081542060495
 51
179.5918457939514
  0
ARC
  5
DEB
330
DA8
100
AcDbEntity
  8
Visible Edges
  6
Continuous
370
    18
100
AcDbCircle
 10
25.00000000000111
 20
-57.0
 30
0.0
 40
5.749999999999992
100
AcDbArc
 50
60.40815420604957
 51
119.5918457939504
  0
ARC
  5
DEC
330
DA8
100
AcDbEntity
  8
Visible Edges
  6
Continuous
370
    18
100
AcDbCircle
 10
25.00000000000099
 20
-57.0
 30
0.0
 40
5.750000000000013
100
AcDbArc
 50
0.4081542060485955
 51
59.59184579395053
  0
ARC
  5
DED
330
DA8
100
AcDbEntity
  8
Visible Edges
  6
Continuous
370
    18
100
AcDbCircle
 10
57.00000000000111
 20
-25.00000000000002
 30
0.0
 40
5.750000000000002
100
AcDbArc
 50
30.40815420605087
 51
89.59184579394978
  0
ARC
  5
DEE
330
DA8
100
AcDbEntity
  8
Visible Edges
  6
Continuous
370
    18
100
AcDbCircle
 10
57.00000000000111
 20
-25.00000000000002
 30
0.0
 40
5.749999999999976
100
AcDbArc
 50
330.408154206051
 51
29.59184579394902
  0
ARC
  5
DEF
330
DA8
100
AcDbEntity
  8
Visible Edges
  6
Continuous
370
    18
100
AcDbCircle
 10
57.00000000000111
 20
-25.00000000000002
 30
0.0
 40
5.750000000000021
100
AcDbArc
 50
270.4081542060502
 51
329.5918457939491
  0
ARC
  5
DF0
330
DA8
100
AcDbEntity
  8
Visible Edges
  6
Continuous
370
    18
100
AcDbCircle
 10
57.00000000000111
 20
-25.00000000000002
 30
0.0
 40
5.749999999999982
100
AcDbArc
 50
210.4081542060509
 51
269.5918457939498
  0
ARC
  5
DF1
330
DA8
100
AcDbEntity
  8
Visible Edges
  6
Continuous
370
    18
100
AcDbCircle
 10
57.00000000000111
 20
-25.00000000000002
 30
0.0
 40
5.750000000000007
100
AcDbArc
 50
150.4081542060509
 51
209.591845793949
  0
ARC
  5
DF2
330
DA8
100
AcDbEntity
  8
Visible Edges
  6
Continuous
370
    18
100
AcDbCircle
 10
57.00000000000111
 20
-25.00000000000002
 30
0.0
 40
5.750000000000007
100
AcDbArc
 50
90.40815420605023
 51
149.5918457939505
  0
ARC
  5
DF3
330
DA8
100
AcDbEntity
  8
Visible Edges
  6
Continuous
370
    18
100
AcDbCircle
 10
57.00000000000111
 20
25.00000000000011
 30
0.0
 40
5.750000000000007
100
AcDbArc
 50
30.40815420604948
 51
89.5918457939514
  0
ARC
  5
DF4
330
DA8
100
AcDbEntity
  8
Visible Edges
  6
Continuous
370
    18
100
AcDbCircle
 10
57.00000000000111
 20
25.00000000000011
 30
0.0
 40
5.749999999999976
100
AcDbArc
 50
330.4081542060496
 51
29.59184579395044
  0
ARC
  5
DF5
330
DA8
100
AcDbEntity
  8
Visible Edges
  6
Continuous
370
    18
100
AcDbCircle
 10
57.00000000000111
 20
25.00000000000003
 30
0.0
 40
5.749999999999996
100
AcDbArc
 50
270.4081542060502
 51
329.5918457939505
  0
ARC
  5
DF6
330
DA8
100
AcDbEntity
  8
Visible Edges
  6
Continuous
370
    18
100
AcDbCircle
 10
57.00000000000111
 20
25.00000000000011
 30
0.0
 40
5.750000000000002
100
AcDbArc
 50
210.4081542060495
 51
269.5918457939498
  0
ARC
  5
DF7
330
DA8
100
AcDbEntity
  8
Visible Edges
  6
Continuous
370
    18
100
AcDbCircle
 10
57.00000000000111
 20
25.00000000000011
 30
0.0
 40
5.749999999999982
100
AcDbArc
 50
150.4081542060495
 51
209.5918457939505
  0
ARC
  5
DF8
330
DA8
100
AcDbEntity
  8
Visible Edges
  6
Continuous
370
    18
100
AcDbCircle
 10
57.00000000000111
 20
25.00000000000011
 30
0.0
 40
5.749999999999992
100
AcDbArc
 50
90.40815420604859
 51
149.5918457939505
  0
ARC
  5
DF9
330
DA8
100
AcDbEntity
  8
Visible Edges
  6
Continuous
370
    18
100
AcDbCircle
 10
25.00000000000099
 20
57.00000000000011
 30
0.0
 40
5.749999999999996
100
AcDbArc
 50
120.4081542060508
 51
179.5918457939498
  0
ARC
  5
DFA
330
DA8
100
AcDbEntity
  8
Visible Edges
  6
Continuous
370
    18
100
AcDbCircle
 10
25.00000000000099
 20
57.00000000000011
 30
0.0
 40
5.750000000000013
100
AcDbArc
 50
60.40815420605099
 51
119.591845793949
  0
ARC
  5
DFB
330
DA8
100
AcDbEntity
  8
Visible Edges
  6
Continuous
370
    18
100
AcDbCircle
 10
25.00000000000099
 20
57.00000000000011
 30
0.0
 40
5.749999999999992
100
AcDbArc
 50
0.4081542060485955
 51
59.59184579394913
  0
ARC
  5
DFC
330
DA8
100
AcDbEntity
  8
Visible Edges
  6
Continuous
370
    18
100
AcDbCircle
 10
25.00000000000099
 20
57.00000000000011
 30
0.0
 40
5.75
100
AcDbArc
 50
300.4081542060494
 51
359.5918457939498
  0
ARC
  5
DFD
330
DA8
100
AcDbEntity
  8
Visible Edges
  6
Continuous
370
    18
100
AcDbCircle
 10
25.00000000000099
 20
57.00000000000011
 30
0.0
 40
5.750000000000002
100
AcDbArc
 50
240.4081542060509
 51
299.591845793949
  0
ARC
  5
DFE
330
DA8
100
AcDbEntity
  8
Visible Edges
  6
Continuous
370
    18
100
AcDbCircle
 10
25.00000000000111
 20
57.00000000000011
 30
0.0
 40
5.750000000000023
100
AcDbArc
 50
180.4081542060502
 51
239.5918457939492
  0
ARC
  5
DFF
330
DA8
100
AcDbEntity
  8
Visible Edges
  6
Continuous
370
    18
100
AcDbCircle
 10
-24.999999999999
 20
57.00000000000002
 30
0.0
 40
5.750000000000007
100
AcDbArc
 50
120.4081542060495
 51
179.5918457939514
  0
ARC
  5
E00
330
DA8
100
AcDbEntity
  8
Visible Edges
  6
Continuous
370
    18
100
AcDbCircle
 10
-24.999999999999
 20
57.00000000000011
 30
0.0
 40
5.75
100
AcDbArc
 50
60.40815420604957
 51
119.5918457939504
  0
ARC
  5
E01
330
DA8
100
AcDbEntity
  8
Visible Edges
  6
Continuous
370
    18
100
AcDbCircle
 10
-24.999999999999
 20
57.00000000000011
 30
0.0
 40
5.749999999999992
100
AcDbArc
 50
0.4081542060485955
 51
59.59184579395053
  0
ARC
  5
E02
330
DA8
100
AcDbEntity
  8
Visible Edges
  6
Continuous
370
    18
100
AcDbCircle
 10
-24.999999999999
 20
57.00000000000002
 30
0.0
 40
5.749999999999985
100
AcDbArc
 50
300.4081542060494
 51
359.5918457939514
  0
ARC
  5
E03
330
DA8
100
AcDbEntity
  8
Visible Edges
  6
Continuous
370
    18
100
AcDbCircle
 10
-24.999999999999
 20
57.00000000000002
 30
0.0
 40
5.749999999999992
100
AcDbArc
 50
240.4081542060496
 51
299.5918457939504
  0
ARC
  5
E04
330
DA8
100
AcDbEntity
  8
Visible Edges
  6
Continuous
370
    18
100
AcDbCircle
 10
-24.999999999999
 20
57.00000000000011
 30
0.0
 40
5.750000000000013
100
AcDbArc
 50
180.4081542060486
 51
239.5918457939505
  0
ARC
  5
E05
330
DA8
100
AcDbEntity
  8
Visible Edges
  6
Continuous
370
    18
100
AcDbCircle
 10
-55.48059546902732
 20
-59.0161293749606
 30
0.0
 40
1.49999999999998
100
AcDbArc
 50
135.0
 51
226.7686691377207
  0
LINE
  5
E06
330
DA8
100
AcDbEntity
  8
Visible Edges
  6
Continuous
370
    18
100
AcDbLine
 10
-56.54125564080712
 20
-57.9554692031808
 30
0.0
 11
-43.58578643762633
 21
-45.0
 31
0.0
  0
ARC
  5
E07
330
DA8
100
AcDbEntity
  8
Visible Edges
  6
Continuous
370
    18
100
AcDbCircle
 10
0.0000000000005684
 20
0.0
 30
0.0
 40
82.50000000000001
100
AcDbArc
 50
226.7686691377207
 51
313.2313308622793
  0
ARC
  5
E08
330
DA8
100
AcDbEntity
  8
Visible Edges
  6
Continuous
370
    18
100
AcDbCircle
 10
55.48059546902852
 20
-59.01612937496057
 30
0.0
 40
1.499999999999995
100
AcDbArc
 50
313.2313308622781
 51
45.0
  0
LINE
  5
E09
330
DA8
100
AcDbEntity
  8
Visible Edges
  6
Continuous
370
    18
100
AcDbLine
 10
43.58578643762754
 20
-45.0
 30
0.0
 11
56.5412556408084
 21
-57.95546920318074
 31
0.0
  0
ARC
  5
E0A
330
DA8
100
AcDbEntity
  8
Visible Edges
  6
Continuous
370
    18
100
AcDbCircle
 10
59.01612937496119
 20
-55.48059546902786
 30
0.0
 40
1.49999999999998
100
AcDbArc
 50
225.0
 51
316.7686691377207
  0
LINE
  5
E0B
330
DA8
100
AcDbEntity
  8
Visible Edges
  6
Continuous
370
    18
100
AcDbLine
 10
57.95546920318148
 20
-56.54125564080763
 30
0.0
 11
45.00000000000011
 21
-43.58578643762631
 31
0.0
  0
ARC
  5
E0C
330
DA8
100
AcDbEntity
  8
Visible Edges
  6
Continuous
370
    18
100
AcDbCircle
 10
0.0000000000005684
 20
0.0
 30
0.0
 40
82.50000000000001
100
AcDbArc
 50
316.7686691377207
 51
43.23133086227925
  0
ARC
  5
E0D
330
DA8
100
AcDbEntity
  8
Visible Edges
  6
Continuous
370
    18
100
AcDbCircle
 10
59.01612937496119
 20
55.480595469028
 30
0.0
 40
1.499999999999995
100
AcDbArc
 50
43.23133086227814
 51
134.9999999999988
  0
LINE
  5
E0E
330
DA8
100
AcDbEntity
  8
Visible Edges
  6
Continuous
370
    18
100
AcDbLine
 10
45.00000000000011
 20
43.58578643762652
 30
0.0
 11
57.95546920318142
 21
56.54125564080771
 31
0.0
  0
ARC
  5
E0F
330
DA8
100
AcDbEntity
  8
Visible Edges
  6
Continuous
370
    18
100
AcDbCircle
 10
55.48059546902852
 20
59.01612937496068
 30
0.0
 40
1.49999999999998
100
AcDbArc
 50
315.0000000000012
 51
46.76866913772186
  0
LINE
  5
E10
330
DA8
100
AcDbEntity
  8
Visible Edges
  6
Continuous
370
    18
100
AcDbLine
 10
56.54125564080828
 20
57.95546920318088
 30
0.0
 11
43.5857864376276
 21
45.00000000000011
 31
0.0
  0
ARC
  5
E11
330
DA8
100
AcDbEntity
  8
Visible Edges
  6
Continuous
370
    18
100
AcDbCircle
 10
0.0000000000005684
 20
0.0
 30
0.0
 40
82.50000000000001
100
AcDbArc
 50
46.76866913772074
 51
133.2313308622792
  0
ARC
  5
E12
330
DA8
100
AcDbEntity
  8
Visible Edges
  6
Continuous
370
    18
100
AcDbCircle
 10
-55.48059546902732
 20
59.01612937496063
 30
0.0
 40
1.499999999999995
100
AcDbArc
 50
133.2313308622804
 51
225.0000000000011
  0
LINE
  5
E13
330
DA8
100
AcDbEntity
  8
Visible Edges
  6
Continuous
370
    18
100
AcDbLine
 10
-43.58578643762641
 20
45.00000000000011
 30
0.0
 11
-56.54125564080712
 21
57.9554692031808
 31
0.0
  0
ARC
  5
E14
330
DA8
100
AcDbEntity
  8
Visible Edges
  6
Continuous
370
    18
100
AcDbCircle
 10
-0.0000000000122213
 20
0.000000000011795
 30
0.0
 40
74.99999999998308
100
AcDbArc
 50
134.2360336359779
 51
135.7639663640209
  0
LINE
  5
E15
330
DA8
100
AcDbEntity
  8
Visible Edges
  6
Continuous
370
    18
100
AcDbLine
 10
-45.00000000000001
 20
43.58578643762686
 30
0.0
 11
-45.00000000000001
 21
45.00000000000011
 31
0.0
  0
LINE
  5
E16
330
DA8
100
AcDbEntity
  8
Visible Edges
  6
Continuous
370
    18
100
AcDbLine
 10
-45.00000000000001
 20
45.00000000000011
 30
0.0
 11
-43.58578643762689
 21
45.00000000000011
 31
0.0
  0
ARC
  5
E17
330
DA8
100
AcDbEntity
  8
Visible Edges
  6
Continuous
370
    18
100
AcDbCircle
 10
-0.0000000000113118
 20
-0.0000000000111982
 30
0.0
 40
75.00000000001593
100
AcDbArc
 50
44.23603363597908
 51
45.76396636402092
  0
LINE
  5
E18
330
DA8
100
AcDbEntity
  8
Visible Edges
  6
Continuous
370
    18
100
AcDbLine
 10
43.58578643762689
 20
45.00000000000011
 30
0.0
 11
45.00000000000011
 21
45.00000000000011
 31
0.0
  0
LINE
  5
E19
330
DA8
100
AcDbEntity
  8
Visible Edges
  6
Continuous
370
    18
100
AcDbLine
 10
45.00000000000011
 20
45.00000000000011
 30
0.0
 11
45.00000000000011
 21
43.585786437627
 31
0.0
  0
LINE
  5
E1A
330
DA8
100
AcDbEntity
  8
Visible Edges
  6
Continuous
370
    18
100
AcDbLine
 10
-43.58578643762689
 20
-45.0
 30
0.0
 11
-45.00000000000001
 21
-45.0
 31
0.0
  0
LINE
  5
E1B
330
DA8
100
AcDbEntity
  8
Visible Edges
  6
Continuous
370
    18
100
AcDbLine
 10
-45.00000000000001
 20
-45.0
 30
0.0
 11
-45.00000000000001
 21
-43.58578643762689
 31
0.0
  0
ARC
  5
E1C
330
DA8
100
AcDbEntity
  8
Visible Edges
  6
Continuous
370
    18
100
AcDbCircle
 10
0.0000000000122782
 20
0.0000000000121929
 30
0.0
 40
75.00000000001731
100
AcDbArc
 50
224.2360336359791
 51
225.763966364021
  0
ARC
  5
E1D
330
DA8
100
AcDbEntity
  8
Visible Edges
  6
Continuous
370
    18
100
AcDbCircle
 10
-0.0000000000375167
 20
0.0000000000378861
 30
0.0
 40
75.00000000005336
100
AcDbArc
 50
314.2360336359791
 51
315.7639663640209
  0
LINE
  5
E1E
330
DA8
100
AcDbEntity
  8
Visible Edges
  6
Continuous
370
    18
100
AcDbLine
 10
45.0
 20
-43.58578643762689
 30
0.0
 11
45.0
 21
-45.0
 31
0.0
  0
LINE
  5
E1F
330
DA8
100
AcDbEntity
  8
Visible Edges
  6
Continuous
370
    18
100
AcDbLine
 10
45.0
 20
-45.0
 30
0.0
 11
43.58578643762697
 21
-45.0
 31
0.0
  0
CIRCLE
  5
E20
330
DA8
100
AcDbEntity
  8
Visible Edges
  6
Continuous
370
    18
100
AcDbCircle
 10
-56.99999999999711
 20
-25.00000000000002
 30
0.0
 40
3.000000000000001
  0
CIRCLE
  5
E21
330
DA8
100
AcDbEntity
  8
Visible Edges
  6
Continuous
370
    18
100
AcDbCircle
 10
-56.99999999999711
 20
25.00000000000003
 30
0.0
 40
3.000000000000001
  0
LINE
  5
E22
330
DA8
100
AcDbEntity
  8
Visible Edges
  6
Continuous
370
    18
100
AcDbLine
 10
-56.99999999999741
 20
30.77350269189628
 30
0.0
 11
-51.99999999999731
 21
27.8867513459482
 31
0.0
  0
LINE
  5
E23
330
DA8
100
AcDbEntity
  8
Visible Edges
  6
Continuous
370
    18
100
AcDbLine
 10
-51.99999999999731
 20
27.8867513459482
 30
0.0
 11
-51.99999999999731
 21
22.11324865405189
 31
0.0
  0
LINE
  5
E24
330
DA8
100
AcDbEntity
  8
Visible Edges
  6
Continuous
370
    18
100
AcDbLine
 10
-51.99999999999731
 20
22.11324865405189
 30
0.0
 11
-56.99999999999741
 21
19.22649730810372
 31
0.0
  0
LINE
  5
E25
330
DA8
100
AcDbEntity
  8
Visible Edges
  6
Continuous
370
    18
100
AcDbLine
 10
-56.99999999999741
 20
19.22649730810372
 30
0.0
 11
-61.99999999999747
 21
22.1132486540518
 31
0.0
  0
LINE
  5
E26
330
DA8
100
AcDbEntity
  8
Visible Edges
  6
Continuous
370
    18
100
AcDbLine
 10
-61.99999999999747
 20
22.1132486540518
 30
0.0
 11
-61.99999999999747
 21
27.8867513459482
 31
0.0
  0
LINE
  5
E27
330
DA8
100
AcDbEntity
  8
Visible Edges
  6
Continuous
370
    18
100
AcDbLine
 10
-61.99999999999747
 20
27.8867513459482
 30
0.0
 11
-56.99999999999741
 21
30.77350269189628
 31
0.0
  0
LINE
  5
E28
330
DA8
100
AcDbEntity
  8
Visible Edges
  6
Continuous
370
    18
100
AcDbLine
 10
-56.99999999999741
 20
-19.22649730810372
 30
0.0
 11
-51.99999999999741
 21
-22.1132486540519
 31
0.0
  0
LINE
  5
E29
330
DA8
100
AcDbEntity
  8
Visible Edges
  6
Continuous
370
    18
100
AcDbLine
 10
-51.99999999999741
 20
-22.1132486540519
 30
0.0
 11
-51.99999999999741
 21
-27.8867513459481
 31
0.0
  0
LINE
  5
E2A
330
DA8
100
AcDbEntity
  8
Visible Edges
  6
Continuous
370
    18
100
AcDbLine
 10
-51.99999999999741
 20
-27.8867513459481
 30
0.0
 11
-56.99999999999741
 21
-30.7735026918962
 31
0.0
  0
LINE
  5
E2B
330
DA8
100
AcDbEntity
  8
Visible Edges
  6
Continuous
370
    18
100
AcDbLine
 10
-56.99999999999741
 20
-30.7735026918962
 30
0.0
 11
-61.99999999999743
 21
-27.8867513459481
 31
0.0
  0
LINE
  5
E2C
330
DA8
100
AcDbEntity
  8
Visible Edges
  6
Continuous
370
    18
100
AcDbLine
 10
-61.99999999999743
 20
-27.8867513459481
 30
0.0
 11
-61.99999999999743
 21
-22.1132486540519
 31
0.0
  0
LINE
  5
E2D
330
DA8
100
AcDbEntity
  8
Visible Edges
  6
Continuous
370
    18
100
AcDbLine
 10
-61.99999999999743
 20
-22.1132486540519
 30
0.0
 11
-56.99999999999741
 21
-19.22649730810372
 31
0.0
  0
ARC
  5
E2E
330
DA8
100
AcDbEntity
  8
Visible Edges
  6
Continuous
370
    18
100
AcDbCircle
 10
-56.999999999999
 20
25.00000000000003
 30
0.0
 40
5.750000000000002
100
AcDbArc
 50
210.4081542060509
 51
269.5918457939498
  0
ARC
  5
E2F
330
DA8
100
AcDbEntity
  8
Visible Edges
  6
Continuous
370
    18
100
AcDbCircle
 10
-56.999999999999
 20
25.00000000000003
 30
0.0
 40
5.749999999999976
100
AcDbArc
 50
150.4081542060509
 51
209.591845793949
  0
ARC
  5
E30
330
DA8
100
AcDbEntity
  8
Visible Edges
  6
Continuous
370
    18
100
AcDbCircle
 10
-56.999999999999
 20
25.00000000000003
 30
0.0
 40
5.750000000000021
100
AcDbArc
 50
90.40815420605023
 51
149.5918457939491
  0
ARC
  5
E31
330
DA8
100
AcDbEntity
  8
Visible Edges
  6
Continuous
370
    18
100
AcDbCircle
 10
-56.999999999999
 20
25.00000000000003
 30
0.0
 40
5.750000000000013
100
AcDbArc
 50
30.40815420605087
 51
89.59184579394978
  0
ARC
  5
E32
330
DA8
100
AcDbEntity
  8
Visible Edges
  6
Continuous
370
    18
100
AcDbCircle
 10
-56.999999999999
 20
25.00000000000011
 30
0.0
 40
5.750000000000007
100
AcDbArc
 50
330.408154206051
 51
29.59184579394902
  0
ARC
  5
E33
330
DA8
100
AcDbEntity
  8
Visible Edges
  6
Continuous
370
    18
100
AcDbCircle
 10
-56.999999999999
 20
25.00000000000011
 30
0.0
 40
5.750000000000037
100
AcDbArc
 50
270.4081542060502
 51
329.5918457939491
  0
ARC
  5
E34
330
DA8
100
AcDbEntity
  8
Visible Edges
  6
Continuous
370
    18
100
AcDbCircle
 10
-56.999999999999
 20
-25.00000000000002
 30
0.0
 40
5.749999999999986
100
AcDbArc
 50
210.4081542060495
 51
269.5918457939514
  0
ARC
  5
E35
330
DA8
100
AcDbEntity
  8
Visible Edges
  6
Continuous
370
    18
100
AcDbCircle
 10
-56.999999999999
 20
-25.00000000000002
 30
0.0
 40
5.749999999999976
100
AcDbArc
 50
150.4081542060495
 51
209.5918457939505
  0
ARC
  5
E36
330
DA8
100
AcDbEntity
  8
Visible Edges
  6
Continuous
370
    18
100
AcDbCircle
 10
-56.999999999999
 20
-25.00000000000002
 30
0.0
 40
5.749999999999996
100
AcDbArc
 50
90.40815420604859
 51
149.5918457939505
  0
ARC
  5
E37
330
DA8
100
AcDbEntity
  8
Visible Edges
  6
Continuous
370
    18
100
AcDbCircle
 10
-56.999999999999
 20
-25.00000000000002
 30
0.0
 40
5.750000000000002
100
AcDbArc
 50
30.40815420604948
 51
89.5918457939514
  0
ARC
  5
E38
330
DA8
100
AcDbEntity
  8
Visible Edges
  6
Continuous
370
    18
100
AcDbCircle
 10
-56.999999999999
 20
-25.00000000000002
 30
0.0
 40
5.749999999999982
100
AcDbArc
 50
330.4081542060496
 51
29.59184579395044
  0
ARC
  5
E39
330
DA8
100
AcDbEntity
  8
Visible Edges
  6
Continuous
370
    18
100
AcDbCircle
 10
-56.999999999999
 20
-25.00000000000002
 30
0.0
 40
5.749999999999981
100
AcDbArc
 50
270.4081542060486
 51
329.5918457939505
  0
ARC
  5
E3A
330
DA8
100
AcDbEntity
  8
Visible Edges
  6
Continuous
370
    18
100
AcDbCircle
 10
-59.01612937495997
 20
55.48059546902789
 30
0.0
 40
1.500000000000006
100
AcDbArc
 50
45.0
 51
136.7686691377207
  0
ARC
  5
E3B
330
DA8
100
AcDbEntity
  8
Visible Edges
  6
Continuous
370
    18
100
AcDbCircle
 10
-59.01612937495997
 20
-55.48059546902789
 30
0.0
 40
1.499999999999984
100
AcDbArc
 50
223.2313308622793
 51
315.0
  0
LINE
  5
E3C
330
DA8
100
AcDbEntity
  8
Visible Edges
  6
Continuous
370
    18
100
AcDbLine
 10
-57.95546920318021
 20
56.54125564080771
 30
0.0
 11
-45.00000000000001
 21
43.58578643762752
 31
0.0
  0
ARC
  5
E3D
330
DA8
100
AcDbEntity
  8
Visible Edges
  6
Continuous
370
    18
100
AcDbCircle
 10
0.0000000000005684
 20
0.0
 30
0.0
 40
82.50000000000003
100
AcDbArc
 50
136.7686691377207
 51
223.2313308622793
  0
LINE
  5
E3E
330
DA8
100
AcDbEntity
  8
Visible Edges
  6
Continuous
370
    18
100
AcDbLine
 10
-45.00000000000001
 20
-43.5857864376275
 30
0.0
 11
-57.95546920318021
 21
-56.54125564080768
 31
0.0
  0
LINE
  5
E3F
330
DA8
100
AcDbEntity
  8
AM_5
100
AcDbLine
 10
-46.00000000000001
 20
45.00000000000011
 30
0.0
 11
-113.9231537771782
 21
45.00000000000014
 31
0.0
  0
LINE
  5
E40
330
DA8
100
AcDbEntity
  8
AM_5
100
AcDbLine
 10
-46.00000000000001
 20
-45.0
 30
0.0
 11
-113.9231537771782
 21
-45.0
 31
0.0
  0
LINE
  5
E41
330
DA8
100
AcDbEntity
  8
AM_5
100
AcDbLine
 10
-112.9231537771782
 20
42.50000000000014
 30
0.0
 11
-112.9231537771782
 21
-42.5
 31
0.0
  0
SOLID
  5
E42
330
DA8
100
AcDbEntity
  8
AM_5
100
AcDbTrace
 10
-113.3398204438448
 20
42.50000000000014
 30
0.0
 11
-112.5064871105116
 21
42.50000000000014
 31
0.0
 12
-112.9231537771782
 22
45.00000000000014
 32
0.0
 13
-112.9231537771782
 23
45.00000000000014
 33
0.0
  0
SOLID
  5
E43
330
DA8
100
AcDbEntity
  8
AM_5
100
AcDbTrace
 10
-113.3398204438448
 20
-42.5
 30
0.0
 11
-112.5064871105116
 21
-42.5
 31
0.0
 12
-112.9231537771782
 22
-45.0
 32
0.0
 13
-112.9231537771782
 23
-45.0
 33
0.0
  0
MTEXT
  5
E44
330
DA8
100
AcDbEntity
  8
AM_5
 62
     2
100
AcDbMText
 10
-116.3481537771783
 20
0.0000000000000853
 30
0.0
 40
3.5
 41
0.0
 71
     5
 72
     1
  1
{\Famgdt;o}90 [3.543"]
 11
0.0000000000000001
 21
1.0
 31
0.0
 73
     1
 44
1.0
1001
ACAD
1000
MTEXTBEGIN
1070
    73
1070
     1
1070
    44
1040
1.0
1070
    74
1070
     0
1000
MTEXTEND
  0
INSERT
  5
E45
330
DA8
100
AcDbEntity
  8
0
100
AcDbBlockReference
 66
     1
  2
info
 10
-45.00000133255935
 20
-45.00000102780314
 30
0.0
 50
270.0
  0
ATTRIB
  5
E46
330
E45
100
AcDbEntity
  8
0
100
AcDbText
 10
-42.10890609707987
 20
-54.46709397812265
 30
0.00000001
 40
5.0
  1
90
 50
270.0
100
AcDbAttribute
  2
BRD
 70
     1
1001
AcDbAttr
1070
     0
1070
     1
  0
ATTRIB
  5
E47
330
E45
100
AcDbEntity
  8
0
100
AcDbText
 10
-50.44223943041314
 20
-54.46709397812265
 30
0.00000001
 40
5.0
  1
90
 50
270.0
100
AcDbAttribute
  2
HJD
 70
     1
1001
AcDbAttr
1070
     0
1070
     1
  0
SEQEND
  5
E48
330
E45
100
AcDbEntity
  8
0
  0
CIRCLE
  5
E49
330
DA8
100
AcDbEntity
  8
AM_3
100
AcDbCircle
 10
0.0000000000005684
 20
0.0
 30
0.0
 40
99.50000000000001
  0
LINE
  5
E4A
330
DA8
100
AcDbEntity
  8
AM_5
100
AcDbLine
 10
43.09985001092653
 20
92.44675726619973
 30
0.0
 11
45.08870508200129
 21
96.71273967557446
 31
0.0
  0
LINE
  5
E4B
330
DA8
100
AcDbEntity
  8
AM_5
100
AcDbLine
 10
45.08870508200129
 20
96.71273967557446
 30
0.0
 11
73.21316539546121
 21
96.71273967557439
 31
0.0
  0
SOLID
  5
E4C
330
DA8
100
AcDbEntity
  8
AM_5
100
AcDbTrace
 10
42.72220802863006
 20
92.62281874500249
 30
0.0
 11
43.47749199322322
 21
92.27069578739687
 31
0.0
 12
42.04348113810982
 22
90.18090537242031
 32
0.0
 13
42.04348113810982
 23
90.18090537242031
 33
0.0
  0
MTEXT
  5
E4D
102
{ACAD_XDICTIONARY
360
E64
102
}
330
DA8
100
AcDbEntity
  8
AM_5
 62
     2
100
AcDbMText
 10
59.90093523873139
 20
100.1377396755744
 30
0.0
 40
3.5
 41
0.0
 71
     5
 72
     1
  1
\U+2205199 [\U+22057.83"]
 73
     1
 44
1.0
1001
ACAD
1000
MTEXTBEGIN
1070
    73
1070
     1
1070
    44
1040
1.0
1070
    74
1070
     0
1000
MTEXTEND
  0
LINE
  5
E4E
330
DA8
100
AcDbEntity
  8
AM_5
100
AcDbLine
 10
35.2543166438353
 20
101.025408477155
 30
0.0
 11
36.91254378935437
 21
105.7772542274613
 31
0.0
  0
LINE
  5
E4F
330
DA8
100
AcDbEntity
  8
AM_5
100
AcDbLine
 10
36.91254378935437
 20
105.7772542274613
 30
0.0
 11
65.7247739460843
 21
105.7772542274612
 31
0.0
  0
SOLID
  5
E50
330
DA8
100
AcDbEntity
  8
AM_5
100
AcDbTrace
 10
34.8609155204818
 20
101.1626916416559
 30
0.0
 11
35.64771776718862
 21
100.8881253126541
 31
0.0
 12
34.43061765682964
 22
98.66500173703455
 32
0.0
 13
34.43061765682964
 23
98.66500173703455
 33
0.0
  0
MTEXT
  5
E51
102
{ACAD_XDICTIONARY
360
E66
102
}
330
DA8
100
AcDbEntity
  8
AM_5
 62
     2
100
AcDbMText
 10
52.06865886771925
 20
109.2022542274613
 30
0.0
 40
3.5
 41
0.0
 71
     5
 72
     1
  1
\U+2205209 [\U+22058.23"]
 73
     1
 44
1.0
1001
ACAD
1000
MTEXTBEGIN
1070
    73
1070
     1
1070
    44
1040
1.0
1070
    74
1070
     0
1000
MTEXTEND
  0
LINE
  5
E52
330
DA8
100
AcDbEntity
  8
0
100
AcDbLine
 10
-45.00000000000001
 20
-45.0
 30
0.0
 11
45.00000000000011
 21
-45.0
 31
0.0
  0
LINE
  5
E53
330
DA8
100
AcDbEntity
  8
0
100
AcDbLine
 10
45.00000000000011
 20
-45.0
 30
0.0
 11
45.00000000000011
 21
45.00000000000011
 31
0.0
  0
LINE
  5
E54
330
DA8
100
AcDbEntity
  8
0
100
AcDbLine
 10
45.00000000000011
 20
45.00000000000011
 30
0.0
 11
-45.00000000000001
 21
45.00000000000011
 31
0.0
  0
LINE
  5
E55
330
DA8
100
AcDbEntity
  8
0
100
AcDbLine
 10
-45.00000000000001
 20
45.00000000000011
 30
0.0
 11
-45.00000000000001
 21
-45.0
 31
0.0
  0
ENDBLK
  5
DAA
330
DA8
100
AcDbEntity
  8
0
100
AcDbBlockEnd
  0
ENDSEC
  0
SECTION
  2
ENTITIES
  0
INSERT
  5
E56
330
21
100
AcDbEntity
  8
0
100
AcDbBlockReference
  2
RX150
 10
158.4877366684119
 20
147.6069813444748
 30
0.0
  0
ENDSEC
  0
SECTION
  2
OBJECTS
  0
DICTIONARY
  5
C
330
0
100
AcDbDictionary
281
     1
  3
ACAD_COLOR
350
1C
  3
ACAD_GROUP
350
D
  3
ACAD_LAYOUT
350
1A
  3
ACAD_MATERIAL
350
1B
  3
ACAD_MLEADERSTYLE
350
26A
  3
ACAD_MLINESTYLE
350
17
  3
ACAD_PLOTSETTINGS
350
19
  3
ACAD_PLOTSTYLENAME
350
E
  3
ACAD_SCALELIST
350
258
  3
ACAD_TABLESTYLE
350
256
  3
ACAD_VISUALSTYLE
350
245
  3
ACDB_RECOMPOSE_DATA
350
89D
  3
AcDbVariableDictionary
350
21D
  3
AcmDictionary
350
312
  3
AEC_PROPERTY_SET_DEFS
350
7DE
  3
AMG
350
272
  3
AMGSNAPSETTINGS
350
3F4
  3
DWGPROPS
350
E58
  3
MAPISURF_MODULE
350
C0A
  0
DICTIONARY
  5
401
330
2
100
AcDbDictionary
280
     1
281
     1
  3
ACAD_LAYERSTATES
360
7C1
  3
AMLAYER_GROUPCOLORS
360
402
  0
DICTIONARY
  5
54A
330
10
100
AcDbDictionary
280
     1
281
     1
  3
ADSK_XREC_LAYER_RECONCILED
360
54B
  0
DICTIONARY
  5
54C
330
7F
100
AcDbDictionary
280
     1
281
     1
  3
ADSK_XREC_LAYER_RECONCILED
360
54D
  0
DICTIONARY
  5
550
330
403
100
AcDbDictionary
280
     1
281
     1
  3
ADSK_XREC_LAYER_RECONCILED
360
551
  0
DICTIONARY
  5
552
330
21
100
AcDbDictionary
280
     1
281
     1
  3
ACAD_INDEX
360
553
  3
ACAD_SORTENTS
360
613
  0
DICTIONARY
  5
E64
330
E4D
100
AcDbDictionary
280
     1
281
     1
  3
ACAD_MTEXT_RT
360
E65
  0
DICTIONARY
  5
E66
330
E51
100
AcDbDictionary
280
     1
281
     1
  3
ACAD_MTEXT_RT
360
E67
  0
DICTIONARY
  5
1C
102
{ACAD_REACTORS
330
C
102
}
330
C
100
AcDbDictionary
281
     1
  0
DICTIONARY
  5
D
102
{ACAD_REACTORS
330
C
102
}
330
C
100
AcDbDictionary
281
     1
  0
DICTIONARY
  5
1A
102
{ACAD_REACTORS
330
C
102
}
330
C
100
AcDbDictionary
281
     1
  3
Layout1
350
20
  3
Layout2
350
28
  3
Model
350
24
  0
DICTIONARY
  5
1B
102
{ACAD_REACTORS
330
C
102
}
330
C
100
AcDbDictionary
281
     1
  3
ByBlock
350
235
  3
ByLayer
350
22D
  3
Global
350
23D
  0
DICTIONARY
  5
26A
102
{ACAD_REACTORS
330
C
102
}
330
C
100
AcDbDictionary
281
     1
  3
Standard
350
26B
  0
DICTIONARY
  5
17
102
{ACAD_REACTORS
330
C
102
}
330
C
100
AcDbDictionary
281
     1
  3
Standard
350
18
  0
DICTIONARY
  5
19
102
{ACAD_REACTORS
330
C
102
}
330
C
100
AcDbDictionary
281
     1
  0
ACDBDICTIONARYWDFLT
  5
E
102
{ACAD_REACTORS
330
C
102
}
330
C
100
AcDbDictionary
281
     1
  3
Normal
350
F
100
AcDbDictionaryWithDefault
340
F
  0
DICTIONARY
  5
258
102
{ACAD_REACTORS
330
C
102
}
330
C
100
AcDbDictionary
281
     1
  3
A0
350
259
  3
A1
350
25A
  3
A2
350
25B
  3
A3
350
25C
  3
A4
350
25D
  3
A5
350
25E
  3
A6
350
25F
  3
A7
350
260
  3
A8
350
261
  3
A9
350
262
  3
B0
350
263
  3
B1
350
264
  3
B2
350
265
  3
B3
350
266
  3
B4
350
267
  3
B5
350
268
  3
B6
350
269
  0
DICTIONARY
  5
256
102
{ACAD_REACTORS
330
C
102
}
330
C
100
AcDbDictionary
281
     1
  3
Standard
350
257
  0
DICTIONARY
  5
245
102
{ACAD_REACTORS
330
C
102
}
330
C
100
AcDbDictionary
281
     1
  3
2dWireframe
350
24B
  3
3D Hidden
350
24D
  3
3dWireframe
350
24C
  3
Basic
350
24A
  3
Brighten
350
251
  3
ColorChange
350
255
  3
Conceptual
350
24E
  3
Dim
350
250
  3
Facepattern
350
254
  3
Flat
350
246
  3
FlatWithEdges
350
247
  3
Gouraud
350
248
  3
GouraudWithEdges
350
249
  3
Linepattern
350
253
  3
Realistic
350
24F
  3
Thicken
350
252
  0
XRECORD
  5
89D
102
{ACAD_REACTORS
330
C
102
}
330
C
100
AcDbXrecord
280
     1
 90
        1
330
257
  0
DICTIONARY
  5
21D
102
{ACAD_REACTORS
330
C
102
}
330
C
100
AcDbDictionary
281
     1
  3
CANNOSCALE
350
55C
  3
CMLEADERSTYLE
350
55B
  3
CTABLESTYLE
350
55A
  3
DIMASSOC
350
21F
  3
HIDETEXT
350
21E
  3
INDEXCTL
350
55E
  3
PROJECTNAME
350
220
  3
SORTENTS
350
55D
  0
DICTIONARY
  5
312
102
{ACAD_REACTORS
330
C
102
}
330
C
100
AcDbDictionary
281
     1
  3
AcmStdDictionary
350
313
  3
AMDTSECTSYM_ARROWCOLOR
350
3F3
  0
DICTIONARY
  5
7DE
102
{ACAD_REACTORS
330
C
102
}
330
C
100
AcDbDictionary
281
     1
  0
DICTIONARY
  5
272
102
{ACAD_REACTORS
330
C
102
}
330
C
100
AcDbDictionary
281
     1
  3
AcMgSettings
350
273
  0
DICTIONARY
  5
3F4
102
{ACAD_REACTORS
330
C
102
}
330
C
100
AcDbDictionary
281
     1
  3
DIMENSION
350
3F9
  3
FEA
350
3FA
  3
HATCH
350
3FB
  3
SYMBOLS
350
3FC
  0
XRECORD
  5
E58
102
{ACAD_REACTORS
330
C
102
}
330
C
100
AcDbXrecord
280
     1
  1
DWGPROPS COOKIE
  2

  3

  4
LAH
  6

  7

  8
se-jenboh
  9

300
AmdtFileType=84
301
=
302
=
303
=
304
=
305
=
306
=
307
=
308
=
309
=
 40
0.0159911111111111
 41
2453018.561278206
 42
2456352.440172894
  1

 90
        1
  0
DICTIONARY
  5
7C1
102
{ACAD_REACTORS
330
401
102
}
330
401
100
AcDbDictionary
281
     1
  0
DICTIONARY
  5
402
102
{ACAD_REACTORS
330
401
102
}
330
401
100
AcDbDictionary
280
     1
281
     1
  0
XRECORD
  5
54B
102
{ACAD_REACTORS
330
54A
102
}
330
54A
100
AcDbXrecord
280
     1
290
     1
  0
XRECORD
  5
54D
102
{ACAD_REACTORS
330
54C
102
}
330
54C
100
AcDbXrecord
280
     1
290
     1
  0
XRECORD
  5
551
102
{ACAD_REACTORS
330
550
102
}
330
550
100
AcDbXrecord
280
     1
290
     1
  0
DICTIONARY
  5
553
102
{ACAD_REACTORS
330
552
102
}
330
552
100
AcDbDictionary
281
     1
  3
*A1
350
554
  0
SORTENTSTABLE
  5
613
102
{ACAD_REACTORS
330
552
102
}
330
552
100
AcDbSortentsTable
330
21
  0
XRECORD
  5
E65
102
{ACAD_REACTORS
330
E64
102
}
330
E64
100
AcDbXrecord
280
     1
 40
18583.0
  1
\U+2205199 [\U+22057.83"]
  0
XRECORD
  5
E67
102
{ACAD_REACTORS
330
E66
102
}
330
E66
100
AcDbXrecord
280
     1
 40
18398.0
  1
\U+2205209 [\U+22058.23"]
  0
LAYOUT
  5
20
102
{ACAD_XDICTIONARY
360
E59
102
}
102
{ACAD_REACTORS
330
1A
102
}
330
1A
100
AcDbPlotSettings
  1

  2

  4

  6

 40
0.0
 41
0.0
 42
0.0
 43
0.0
 44
0.0
 45
0.0
 46
0.0
 47
0.0
 48
0.0
 49
0.0
140
0.0
141
0.0
142
1.0
143
1.0
 70
   688
 72
     0
 73
     0
 74
     5
  7

 75
    16
147
1.0
148
0.0
149
0.0
100
AcDbLayout
  1
Layout1
 70
     1
 71
     1
 10
0.0
 20
0.0
 11
709.676
 21
548.3859999999999
 12
0.0
 22
0.0
 32
0.0
 14
0.0
 24
0.0
 34
0.0
 15
709.676
 25
548.3859999999999
 35
0.0
146
0.0
 13
0.0
 23
0.0
 33
0.0
 16
1.0
 26
0.0
 36
0.0
 17
0.0
 27
1.0
 37
0.0
 76
     0
330
1D
  0
LAYOUT
  5
28
102
{ACAD_XDICTIONARY
360
E5D
102
}
102
{ACAD_REACTORS
330
1A
102
}
330
1A
100
AcDbPlotSettings
  1

  2

  4

  6

 40
0.0
 41
0.0
 42
0.0
 43
0.0
 44
0.0
 45
0.0
 46
0.0
 47
0.0
 48
0.0
 49
0.0
140
0.0
141
0.0
142
1.0
143
1.0
 70
   688
 72
     0
 73
     0
 74
     5
  7

 75
    16
147
1.0
148
0.0
149
0.0
100
AcDbLayout
  1
Layout2
 70
     1
 71
     2
 10
0.0
 20
0.0
 11
12.0
 21
9.0
 12
0.0
 22
0.0
 32
0.0
 14
0.0
 24
0.0
 34
0.0
 15
0.0
 25
0.0
 35
0.0
146
0.0
 13
0.0
 23
0.0
 33
0.0
 16
1.0
 26
0.0
 36
0.0
 17
0.0
 27
1.0
 37
0.0
 76
     0
330
25
  0
LAYOUT
  5
24
102
{ACAD_XDICTIONARY
360
E5B
102
}
102
{ACAD_REACTORS
330
1A
102
}
330
1A
100
AcDbPlotSettings
  1

  2

  4

  6

 40
0.0
 41
0.0
 42
0.0
 43
0.0
 44
0.0
 45
0.0
 46
0.0
 47
0.0
 48
0.0
 49
0.0
140
0.0
141
0.0
142
1.0
143
1.0
 70
  1712
 72
     0
 73
     0
 74
     0
  7

 75
     0
147
1.0
148
0.0
149
0.0
100
AcDbLayout
  1
Model
 70
     1
 71
     0
 10
0.0
 20
0.0
 11
12.0
 21
9.0
 12
0.0
 22
0.0
 32
0.0
 14
0.0
 24
0.0
 34
0.0
 15
0.0
 25
0.0
 35
0.0
146
0.0
 13
0.0
 23
0.0
 33
0.0
 16
1.0
 26
0.0
 36
0.0
 17
0.0
 27
1.0
 37
0.0
 76
     0
330
21
331
13
  0
MATERIAL
  5
235
102
{ACAD_XDICTIONARY
360
236
102
}
102
{ACAD_REACTORS
330
1B
102
}
330
1B
100
AcDbMaterial
  1
ByBlock
 72
     0
 43
0.0208333333333333
 43
0.0
 43
0.0
 43
0.0
 43
0.0
 43
0.0208333333333333
 43
0.0
 43
0.0
 43
0.0
 43
0.0
 43
1.0
 43
0.0
 43
0.0
 43
0.0
 43
0.0
 43
1.0
 77
     0
 47
0.0208333333333333
 47
0.0
 47
0.0
 47
0.0
 47
0.0
 47
0.0208333333333333
 47
0.0
 47
0.0
 47
0.0
 47
0.0
 47
1.0
 47
0.0
 47
0.0
 47
0.0
 47
0.0
 47
1.0
171
     0
 49
0.0208333333333333
 49
0.0
 49
0.0
 49
0.0
 49
0.0
 49
0.0208333333333333
 49
0.0
 49
0.0
 49
0.0
 49
0.0
 49
1.0
 49
0.0
 49
0.0
 49
0.0
 49
0.0
 49
1.0
175
     0
142
0.0208333333333333
142
0.0
142
0.0
142
0.0
142
0.0
142
0.0208333333333333
142
0.0
142
0.0
142
0.0
142
0.0
142
1.0
142
0.0
142
0.0
142
0.0
142
0.0
142
1.0
179
     0
144
0.0208333333333333
144
0.0
144
0.0
144
0.0
144
0.0
144
0.0208333333333333
144
0.0
144
0.0
144
0.0
144
0.0
144
1.0
144
0.0
144
0.0
144
0.0
144
0.0
144
1.0
147
0.0208333333333333
147
0.0
147
0.0
147
0.0
147
0.0
147
0.0208333333333333
147
0.0
147
0.0
147
0.0
147
0.0
147
1.0
147
0.0
147
0.0
147
0.0
147
0.0
147
1.0
  0
MATERIAL
  5
22D
102
{ACAD_XDICTIONARY
360
22E
102
}
102
{ACAD_REACTORS
330
1B
102
}
330
1B
100
AcDbMaterial
  1
ByLayer
 72
     0
 43
0.0208333333333333
 43
0.0
 43
0.0
 43
0.0
 43
0.0
 43
0.0208333333333333
 43
0.0
 43
0.0
 43
0.0
 43
0.0
 43
1.0
 43
0.0
 43
0.0
 43
0.0
 43
0.0
 43
1.0
 77
     0
 47
0.0208333333333333
 47
0.0
 47
0.0
 47
0.0
 47
0.0
 47
0.0208333333333333
 47
0.0
 47
0.0
 47
0.0
 47
0.0
 47
1.0
 47
0.0
 47
0.0
 47
0.0
 47
0.0
 47
1.0
171
     0
 49
0.0208333333333333
 49
0.0
 49
0.0
 49
0.0
 49
0.0
 49
0.0208333333333333
 49
0.0
 49
0.0
 49
0.0
 49
0.0
 49
1.0
 49
0.0
 49
0.0
 49
0.0
 49
0.0
 49
1.0
175
     0
142
0.0208333333333333
142
0.0
142
0.0
142
0.0
142
0.0
142
0.0208333333333333
142
0.0
142
0.0
142
0.0
142
0.0
142
1.0
142
0.0
142
0.0
142
0.0
142
0.0
142
1.0
179
     0
144
0.0208333333333333
144
0.0
144
0.0
144
0.0
144
0.0
144
0.0208333333333333
144
0.0
144
0.0
144
0.0
144
0.0
144
1.0
144
0.0
144
0.0
144
0.0
144
0.0
144
1.0
147
0.0208333333333333
147
0.0
147
0.0
147
0.0
147
0.0
147
0.0208333333333333
147
0.0
147
0.0
147
0.0
147
0.0
147
1.0
147
0.0
147
0.0
147
0.0
147
0.0
147
1.0
  0
MATERIAL
  5
23D
102
{ACAD_XDICTIONARY
360
23E
102
}
102
{ACAD_REACTORS
330
1B
102
}
330
1B
100
AcDbMaterial
  1
Global
 72
     0
 43
0.0208333333333333
 43
0.0
 43
0.0
 43
0.0
 43
0.0
 43
0.0208333333333333
 43
0.0
 43
0.0
 43
0.0
 43
0.0
 43
1.0
 43
0.0
 43
0.0
 43
0.0
 43
0.0
 43
1.0
 77
     0
 47
0.0208333333333333
 47
0.0
 47
0.0
 47
0.0
 47
0.0
 47
0.0208333333333333
 47
0.0
 47
0.0
 47
0.0
 47
0.0
 47
1.0
 47
0.0
 47
0.0
 47
0.0
 47
0.0
 47
1.0
171
     0
 49
0.0208333333333333
 49
0.0
 49
0.0
 49
0.0
 49
0.0
 49
0.0208333333333333
 49
0.0
 49
0.0
 49
0.0
 49
0.0
 49
1.0
 49
0.0
 49
0.0
 49
0.0
 49
0.0
 49
1.0
175
     0
142
0.0208333333333333
142
0.0
142
0.0
142
0.0
142
0.0
142
0.0208333333333333
142
0.0
142
0.0
142
0.0
142
0.0
142
1.0
142
0.0
142
0.0
142
0.0
142
0.0
142
1.0
179
     0
144
0.0208333333333333
144
0.0
144
0.0
144
0.0
144
0.0
144
0.0208333333333333
144
0.0
144
0.0
144
0.0
144
0.0
144
1.0
144
0.0
144
0.0
144
0.0
144
0.0
144
1.0
147
0.0208333333333333
147
0.0
147
0.0
147
0.0
147
0.0
147
0.0208333333333333
147
0.0
147
0.0
147
0.0
147
0.0
147
1.0
147
0.0
147
0.0
147
0.0
147
0.0
147
1.0
  0
MLEADERSTYLE
  5
26B
102
{ACAD_REACTORS
330
26A
102
}
330
26A
100
AcDbMLeaderStyle
170
     2
171
     1
172
     0
 90
        2
 40
0.0
 41
0.0
173
     1
 91
-1056964608
340
14
 92
       -2
290
     1
 42
2.0
291
     1
 43
0.36
  3
Standard
 44
4.0
300

342
11
174
     1
178
     6
175
     1
176
     0
 93
-1056964608
 45
4.0
292
     0
297
     0
 46
4.0
 94
-1056964608
 47
1.0
 49
1.0
140
1.0
293
     1
141
0.0
294
     1
177
     0
142
1.0
295
     0
296
     0
143
0.125
1001
ACAD_MLEADERVER
1070
     2
  0
MLINESTYLE
  5
18
102
{ACAD_REACTORS
330
17
102
}
330
17
100
AcDbMlineStyle
  2
STANDARD
 70
     0
  3

 62
   256
 51
90.0
 52
90.0
 71
     2
 49
0.5
 62
   256
  6
BYLAYER
 49
-0.5
 62
   256
  6
BYLAYER
  0
ACDBPLACEHOLDER
  5
F
102
{ACAD_REACTORS
330
E
102
}
330
E
  0
SCALE
  5
259
102
{ACAD_REACTORS
330
258
102
}
330
258
100
AcDbScale
 70
     0
300
1:1
140
1.0
141
1.0
290
     1
  0
SCALE
  5
25A
102
{ACAD_REACTORS
330
258
102
}
330
258
100
AcDbScale
 70
     0
300
1:2
140
1.0
141
2.0
290
     0
  0
SCALE
  5
25B
102
{ACAD_REACTORS
330
258
102
}
330
258
100
AcDbScale
 70
     0
300
1:4
140
1.0
141
4.0
290
     0
  0
SCALE
  5
25C
102
{ACAD_REACTORS
330
258
102
}
330
258
100
AcDbScale
 70
     0
300
1:5
140
1.0
141
5.0
290
     0
  0
SCALE
  5
25D
102
{ACAD_REACTORS
330
258
102
}
330
258
100
AcDbScale
 70
     0
300
1:8
140
1.0
141
8.0
290
     0
  0
SCALE
  5
25E
102
{ACAD_REACTORS
330
258
102
}
330
258
100
AcDbScale
 70
     0
300
1:10
140
1.0
141
10.0
290
     0
  0
SCALE
  5
25F
102
{ACAD_REACTORS
330
258
102
}
330
258
100
AcDbScale
 70
     0
300
1:16
140
1.0
141
16.0
290
     0
  0
SCALE
  5
260
102
{ACAD_REACTORS
330
258
102
}
330
258
100
AcDbScale
 70
     0
300
1:20
140
1.0
141
20.0
290
     0
  0
SCALE
  5
261
102
{ACAD_REACTORS
330
258
102
}
330
258
100
AcDbScale
 70
     0
300
1:30
140
1.0
141
30.0
290
     0
  0
SCALE
  5
262
102
{ACAD_REACTORS
330
258
102
}
330
258
100
AcDbScale
 70
     0
300
1:40
140
1.0
141
40.0
290
     0
  0
SCALE
  5
263
102
{ACAD_REACTORS
330
258
102
}
330
258
100
AcDbScale
 70
     0
300
1:50
140
1.0
141
50.0
290
     0
  0
SCALE
  5
264
102
{ACAD_REACTORS
330
258
102
}
330
258
100
AcDbScale
 70
     0
300
1:100
140
1.0
141
100.0
290
     0
  0
SCALE
  5
265
102
{ACAD_REACTORS
330
258
102
}
330
258
100
AcDbScale
 70
     0
300
2:1
140
2.0
141
1.0
290
     0
  0
SCALE
  5
266
102
{ACAD_REACTORS
330
258
102
}
330
258
100
AcDbScale
 70
     0
300
4:1
140
4.0
141
1.0
290
     0
  0
SCALE
  5
267
102
{ACAD_REACTORS
330
258
102
}
330
258
100
AcDbScale
 70
     0
300
8:1
140
8.0
141
1.0
290
     0
  0
SCALE
  5
268
102
{ACAD_REACTORS
330
258
102
}
330
258
100
AcDbScale
 70
     0
300
10:1
140
10.0
141
1.0
290
     0
  0
SCALE
  5
269
102
{ACAD_REACTORS
330
258
102
}
330
258
100
AcDbScale
 70
     0
300
100:1
140
100.0
141
1.0
290
     0
  0
TABLESTYLE
  5
257
102
{ACAD_XDICTIONARY
360
89B
102
}
102
{ACAD_REACTORS
330
256
102
}
330
256
100
AcDbTableStyle
  3
Standard
 70
     0
 71
     0
 40
1.5
 41
1.5
280
     0
281
     0
  7
STANDARD
140
4.5
170
     2
 62
     0
 63
     7
283
     0
274
    -2
284
     1
 64
     0
275
    -2
285
     1
 65
     0
276
    -2
286
     1
 66
     0
277
    -2
287
     1
 67
     0
278
    -2
288
     1
 68
     0
279
    -2
289
     1
 69
     0
  7
STANDARD
140
6.0
170
     5
 62
     0
 63
     7
283
     0
274
    -2
284
     1
 64
     0
275
    -2
285
     1
 65
     0
276
    -2
286
     1
 66
     0
277
    -2
287
     1
 67
     0
278
    -2
288
     1
 68
     0
279
    -2
289
     1
 69
     0
  7
STANDARD
140
4.5
170
     5
 62
     0
 63
     7
283
     0
274
    -2
284
     1
 64
     0
275
    -2
285
     1
 65
     0
276
    -2
286
     1
 66
     0
277
    -2
287
     1
 67
     0
278
    -2
288
     1
 68
     0
279
    -2
289
     1
 69
     0
  0
VISUALSTYLE
  5
24B
102
{ACAD_REACTORS
330
245
102
}
330
245
100
AcDbVisualStyle
  2
2dWireframe
 70
     4
 71
     0
 72
     2
 73
     0
 90
        0
 40
-0.6
 41
-30.0
 62
     5
 63
     7
 74
     1
 91
        4
 64
     7
 65
   257
 75
     1
175
     1
 42
1.0
 92
        0
 66
   257
 43
1.0
 76
     1
 77
     6
 78
     2
 67
     7
 79
     5
170
     0
171
     0
290
     0
174
     0
 93
        1
 44
0.0
173
     0
291
     0
 45
0.0
1001
ACAD
1000
AcDbSavedByObjectVersion
1070
     0
1000
AcDbSavedByObjectVersion
1070
     0
1000
AcDbSavedByObjectVersion
1070
     0
  0
VISUALSTYLE
  5
24D
102
{ACAD_REACTORS
330
245
102
}
330
245
100
AcDbVisualStyle
  2
3D Hidden
 70
     6
 71
     1
 72
     2
 73
     2
 90
        0
 40
-0.6
 41
-30.0
 62
     5
 63
     7
 74
     2
 91
        2
 64
     7
 65
   257
 75
     2
175
     1
 42
40.0
 92
        0
 66
   257
 43
1.0
 76
     1
 77
     6
 78
     2
 67
     7
 79
     3
170
     0
171
     0
290
     0
174
     0
 93
        1
 44
0.0
173
     0
291
     0
 45
0.0
1001
ACAD
1000
AcDbSavedByObjectVersion
1070
     0
1000
AcDbSavedByObjectVersion
1070
     0
1000
AcDbSavedByObjectVersion
1070
     0
  0
VISUALSTYLE
  5
24C
102
{ACAD_REACTORS
330
245
102
}
330
245
100
AcDbVisualStyle
  2
3dWireframe
 70
     5
 71
     0
 72
     2
 73
     0
 90
        0
 40
-0.6
 41
-30.0
 62
     5
 63
     7
 74
     1
 91
        4
 64
     7
 65
   257
 75
     1
175
     1
 42
1.0
 92
        0
 66
   257
 43
1.0
 76
     1
 77
     6
 78
     2
 67
     7
 79
     5
170
     0
171
     0
290
     0
174
     0
 93
        1
 44
0.0
173
     0
291
     0
 45
0.0
1001
ACAD
1000
AcDbSavedByObjectVersion
1070
     0
1000
AcDbSavedByObjectVersion
1070
     0
1000
AcDbSavedByObjectVersion
1070
     0
  0
VISUALSTYLE
  5
24A
102
{ACAD_REACTORS
330
245
102
}
330
245
100
AcDbVisualStyle
  2
Basic
 70
     7
 71
     1
 72
     0
 73
     1
 90
        0
 40
-0.6
 41
-30.0
 62
     5
 63
     7
 74
     0
 91
        4
 64
     7
 65
   257
 75
     1
175
     1
 42
1.0
 92
        8
 66
     7
 43
1.0
 76
     1
 77
     6
 78
     2
 67
     7
 79
     5
170
     0
171
     0
290
     0
174
     0
 93
        1
 44
0.0
173
     0
291
     1
 45
0.0
1001
ACAD
1000
AcDbSavedByObjectVersion
1070
     0
1000
AcDbSavedByObjectVersion
1070
     0
1000
AcDbSavedByObjectVersion
1070
     0
  0
VISUALSTYLE
  5
251
102
{ACAD_REACTORS
330
245
102
}
330
245
100
AcDbVisualStyle
  2
Brighten
 70
    12
 71
     2
 72
     2
 73
     0
 90
        0
 40
-0.6
 41
-30.0
 62
     5
 63
     7
 74
     1
 91
        4
 64
     7
 65
   257
 75
     1
175
     1
 42
1.0
 92
        8
 66
     7
 43
1.0
 76
     1
 77
     6
 78
     2
 67
     7
 79
     5
170
     0
171
     0
290
     0
174
     0
 93
        1
 44
50.0
173
     0
291
     1
 45
0.0
1001
ACAD
1000
AcDbSavedByObjectVersion
1070
     0
1000
AcDbSavedByObjectVersion
1070
     0
1000
AcDbSavedByObjectVersion
1070
     0
  0
VISUALSTYLE
  5
255
102
{ACAD_REACTORS
330
245
102
}
330
245
100
AcDbVisualStyle
  2
ColorChange
 70
    16
 71
     2
 72
     2
 73
     3
 90
        0
 40
-0.6
 41
-30.0
 62
     5
 63
     8
 74
     1
 91
        4
 64
     7
 65
   257
 75
     1
175
     1
 42
1.0
 92
        8
 66
     8
 43
1.0
 76
     1
 77
     6
 78
     2
 67
     7
 79
     5
170
     0
171
     0
290
     0
174
     0
 93
        1
 44
0.0
173
     0
291
     1
 45
0.0
1001
ACAD
1000
AcDbSavedByObjectVersion
1070
     0
1000
AcDbSavedByObjectVersion
1070
     0
1000
AcDbSavedByObjectVersion
1070
     0
  0
VISUALSTYLE
  5
24E
102
{ACAD_REACTORS
330
245
102
}
330
245
100
AcDbVisualStyle
  2
Conceptual
 70
     9
 71
     3
 72
     2
 73
     0
 90
        0
 40
-0.6
 41
-30.0
 62
     5
 63
     7
 74
     2
 91
        2
 64
     7
 65
   257
 75
     1
175
     1
 42
40.0
 92
        8
 66
     7
 43
1.0
 76
     1
 77
     6
 78
     2
 67
     7
 79
     3
170
     0
171
     0
290
     0
174
     0
 93
        1
 44
0.0
173
     0
291
     0
 45
0.0
1001
ACAD
1000
AcDbSavedByObjectVersion
1070
     0
1000
AcDbSavedByObjectVersion
1070
     0
1000
AcDbSavedByObjectVersion
1070
     0
  0
VISUALSTYLE
  5
250
102
{ACAD_REACTORS
330
245
102
}
330
245
100
AcDbVisualStyle
  2
Dim
 70
    11
 71
     2
 72
     2
 73
     0
 90
        0
 40
-0.6
 41
-30.0
 62
     5
 63
     7
 74
     1
 91
        4
 64
     7
 65
   257
 75
     1
175
     1
 42
1.0
 92
        8
 66
     7
 43
1.0
 76
     1
 77
     6
 78
     2
 67
     7
 79
     5
170
     0
171
     0
290
     0
174
     0
 93
        1
 44
-50.0
173
     0
291
     1
 45
0.0
1001
ACAD
1000
AcDbSavedByObjectVersion
1070
     0
1000
AcDbSavedByObjectVersion
1070
     0
1000
AcDbSavedByObjectVersion
1070
     0
  0
VISUALSTYLE
  5
254
102
{ACAD_REACTORS
330
245
102
}
330
245
100
AcDbVisualStyle
  2
Facepattern
 70
    15
 71
     2
 72
     2
 73
     0
 90
        0
 40
-0.6
 41
-30.0
 62
     5
 63
     7
 74
     1
 91
        4
 64
     7
 65
   257
 75
     1
175
     1
 42
1.0
 92
        8
 66
     7
 43
1.0
 76
     1
 77
     6
 78
     2
 67
     7
 79
     5
170
     0
171
     0
290
     0
174
     0
 93
        1
 44
0.0
173
     0
291
     1
 45
0.0
1001
ACAD
1000
AcDbSavedByObjectVersion
1070
     0
1000
AcDbSavedByObjectVersion
1070
     0
1000
AcDbSavedByObjectVersion
1070
     0
  0
VISUALSTYLE
  5
246
102
{ACAD_REACTORS
330
245
102
}
330
245
100
AcDbVisualStyle
  2
Flat
 70
     0
 71
     2
 72
     1
 73
     1
 90
        2
 40
-0.6
 41
30.0
 62
     5
 63
     7
 74
     0
 91
        4
 64
     7
 65
   257
 75
     1
175
     1
 42
1.0
 92
        8
 66
     7
 43
1.0
 76
     1
 77
     6
 78
     2
 67
     7
 79
     5
170
     0
171
     0
290
     0
174
     0
 93
       13
 44
0.0
173
     0
291
     1
 45
0.0
1001
ACAD
1000
AcDbSavedByObjectVersion
1070
     0
1000
AcDbSavedByObjectVersion
1070
     0
1000
AcDbSavedByObjectVersion
1070
     0
  0
VISUALSTYLE
  5
247
102
{ACAD_REACTORS
330
245
102
}
330
245
100
AcDbVisualStyle
  2
FlatWithEdges
 70
     1
 71
     2
 72
     1
 73
     1
 90
        2
 40
-0.6
 41
30.0
 62
     5
 63
     7
 74
     1
 91
        4
 64
     7
 65
   257
 75
     1
175
     1
 42
1.0
 92
        0
 66
   257
 43
1.0
 76
     1
 77
     6
 78
     2
 67
     7
 79
     5
170
     0
171
     0
290
     0
174
     0
 93
       13
 44
0.0
173
     0
291
     1
 45
0.0
1001
ACAD
1000
AcDbSavedByObjectVersion
1070
     0
1000
AcDbSavedByObjectVersion
1070
     0
1000
AcDbSavedByObjectVersion
1070
     0
  0
VISUALSTYLE
  5
248
102
{ACAD_REACTORS
330
245
102
}
330
245
100
AcDbVisualStyle
  2
Gouraud
 70
     2
 71
     2
 72
     2
 73
     1
 90
        2
 40
-0.6
 41
30.0
 62
     5
 63
     7
 74
     0
 91
        4
 64
     7
 65
   257
 75
     1
175
     1
 42
1.0
 92
        0
 66
     7
 43
1.0
 76
     1
 77
     6
 78
     2
 67
     7
 79
     5
170
     0
171
     0
290
     0
174
     0
 93
       13
 44
0.0
173
     0
291
     1
 45
0.0
1001
ACAD
1000
AcDbSavedByObjectVersion
1070
     0
1000
AcDbSavedByObjectVersion
1070
     0
1000
AcDbSavedByObjectVersion
1070
     0
  0
VISUALSTYLE
  5
249
102
{ACAD_REACTORS
330
245
102
}
330
245
100
AcDbVisualStyle
  2
GouraudWithEdges
 70
     3
 71
     2
 72
     2
 73
     1
 90
        2
 40
-0.6
 41
30.0
 62
     5
 63
     7
 74
     1
 91
        4
 64
     7
 65
   257
 75
     1
175
     1
 42
1.0
 92
        0
 66
   257
 43
1.0
 76
     1
 77
     6
 78
     2
 67
     7
 79
     5
170
     0
171
     0
290
     0
174
     0
 93
       13
 44
0.0
173
     0
291
     1
 45
0.0
1001
ACAD
1000
AcDbSavedByObjectVersion
1070
     0
1000
AcDbSavedByObjectVersion
1070
     0
1000
AcDbSavedByObjectVersion
1070
     0
  0
VISUALSTYLE
  5
253
102
{ACAD_REACTORS
330
245
102
}
330
245
100
AcDbVisualStyle
  2
Linepattern
 70
    14
 71
     2
 72
     2
 73
     0
 90
        0
 40
-0.6
 41
-30.0
 62
     5
 63
     7
 74
     1
 91
        4
 64
     7
 65
   257
 75
     7
175
     7
 42
1.0
 92
        8
 66
     7
 43
1.0
 76
     1
 77
     6
 78
     2
 67
     7
 79
     5
170
     0
171
     0
290
     0
174
     0
 93
        1
 44
0.0
173
     0
291
     1
 45
0.0
1001
ACAD
1000
AcDbSavedByObjectVersion
1070
     0
1000
AcDbSavedByObjectVersion
1070
     0
1000
AcDbSavedByObjectVersion
1070
     0
  0
VISUALSTYLE
  5
24F
102
{ACAD_REACTORS
330
245
102
}
330
245
100
AcDbVisualStyle
  2
Realistic
 70
     8
 71
     2
 72
     2
 73
     0
 90
        0
 40
-0.6
 41
-30.0
 62
     5
 63
     7
 74
     1
 91
        0
 64
     7
 65
   257
 75
     1
175
     1
 42
1.0
 92
        8
 66
     8
 43
1.0
 76
     1
 77
     6
 78
     2
 67
     7
 79
     5
170
     0
171
     0
290
     0
174
     0
 93
       13
 44
0.0
173
     0
291
     0
 45
0.0
1001
ACAD
1000
AcDbSavedByObjectVersion
1070
     0
1000
AcDbSavedByObjectVersion
1070
     0
1000
AcDbSavedByObjectVersion
1070
     0
  0
VISUALSTYLE
  5
252
102
{ACAD_REACTORS
330
245
102
}
330
245
100
AcDbVisualStyle
  2
Thicken
 70
    13
 71
     2
 72
     2
 73
     0
 90
        0
 40
-0.6
 41
-30.0
 62
     5
 63
     7
 74
     1
 91
        4
 64
     7
 65
   257
 75
     1
175
     1
 42
1.0
 92
       12
 66
     7
 43
1.0
 76
     1
 77
     6
 78
     2
 67
     7
 79
     5
170
     0
171
     0
290
     0
174
     0
 93
        1
 44
0.0
173
     0
291
     1
 45
0.0
1001
ACAD
1000
AcDbSavedByObjectVersion
1070
     0
1000
AcDbSavedByObjectVersion
1070
     0
1000
AcDbSavedByObjectVersion
1070
     0
  0
DICTIONARYVAR
  5
55C
102
{ACAD_REACTORS
330
21D
102
}
330
21D
100
DictionaryVariables
280
     0
  1
1:1
  0
DICTIONARYVAR
  5
55B
102
{ACAD_REACTORS
330
21D
102
}
330
21D
100
DictionaryVariables
280
     0
  1
STANDARD
  0
DICTIONARYVAR
  5
55A
102
{ACAD_REACTORS
330
21D
102
}
330
21D
100
DictionaryVariables
280
     0
  1
STANDARD
  0
DICTIONARYVAR
  5
21F
102
{ACAD_REACTORS
330
21D
102
}
330
21D
100
DictionaryVariables
280
     0
  1
2
  0
DICTIONARYVAR
  5
21E
102
{ACAD_REACTORS
330
21D
102
}
330
21D
100
DictionaryVariables
280
     0
  1
1
  0
DICTIONARYVAR
  5
55E
102
{ACAD_REACTORS
330
21D
102
}
330
21D
100
DictionaryVariables
280
     0
  1
1
  0
DICTIONARYVAR
  5
220
102
{ACAD_REACTORS
330
21D
102
}
330
21D
100
DictionaryVariables
280
     0
  1

  0
DICTIONARYVAR
  5
55D
102
{ACAD_REACTORS
330
21D
102
}
330
21D
100
DictionaryVariables
280
     0
  1
127
  0
DICTIONARY
  5
313
102
{ACAD_REACTORS
330
312
102
}
330
312
100
AcDbDictionary
281
     1
  0
XRECORD
  5
3F3
102
{ACAD_REACTORS
330
312
102
}
330
312
100
AcDbXrecord
280
     1
 90
-1056964608
  0
DICTIONARY
  5
273
102
{ACAD_REACTORS
330
272
102
}
330
272
100
AcDbDictionary
281
     1
  3
DWGSETTINGS
350
B86
  3
TRANSSETTINGS
350
B8A
  0
ACAMGFILTERDAT
  5
3F9
102
{ACAD_REACTORS
330
3F4
102
}
330
3F4
100
AcAmgFilterDat
 70
    15
  1
DIMENSION,AMDT_*_DIM
  2
*
  3
*
  4
*
  5
*
290
     1
  0
ACAMGFILTERDAT
  5
3FA
102
{ACAD_REACTORS
330
3F4
102
}
330
3F4
100
AcAmgFilterDat
 70
    15
  1
*
  2
AM_FEA-AM_*
  3
*
  4
*
  5
*
290
     1
  0
ACAMGFILTERDAT
  5
3FB
102
{ACAD_REACTORS
330
3F4
102
}
330
3F4
100
AcAmgFilterDat
 70
    15
  1
HATCH
  2
*
  3
*
  4
*
  5
*
290
     1
  0
ACAMGFILTERDAT
  5
3FC
102
{ACAD_REACTORS
330
3F4
102
}
330
3F4
100
AcAmgFilterDat
 70
    15
  1
ACMFCFRAME,ACMDATUMTARGET,ACMDATUMID,ACMWELDSYM,ACMSURFSYM,ACMFEATID,ACMPARTREF,ACMBALLOON
  2
*
  3
*
  4
*
  5
*
290
     1
  0
LAYER_INDEX
  5
554
102
{ACAD_REACTORS
330
553
102
}
330
553
100
AcDbIndex
 40
2456352.440172894
100
AcDbLayerIndex
  8
0
360
555
 90
        1
  8
Visible Edges
360
556
 90
        0
  8
AM_5
360
557
 90
        0
  8
Defpoints
360
558
 90
        0
  8
AM_3
360
559
 90
        0
  0
DICTIONARY
  5
E59
330
20
100
AcDbDictionary
280
     1
281
     1
  3
ACAD_XREC_ROUNDTRIP
360
E5A
  0
DICTIONARY
  5
E5D
330
28
100
AcDbDictionary
280
     1
281
     1
  3
ACAD_XREC_ROUNDTRIP
360
E5E
  0
DICTIONARY
  5
E5B
330
24
100
AcDbDictionary
280
     1
281
     1
  3
ACAD_XREC_ROUNDTRIP
360
E5C
  0
DICTIONARY
  5
236
330
235
100
AcDbDictionary
280
     1
281
     1
  3
ACAD_XREC_ROUNDTRIP
360
8A6
  3
BUMPTILE
360
238
  3
DIFFUSETILE
360
237
  3
OPACITYTILE
360
23B
  3
REFLECTIONTILE
360
23A
  3
REFRACTIONTILE
360
23C
  3
SPECULARTILE
360
239
  0
DICTIONARY
  5
22E
330
22D
100
AcDbDictionary
280
     1
281
     1
  3
ACAD_XREC_ROUNDTRIP
360
8A5
  3
BUMPTILE
360
230
  3
DIFFUSETILE
360
22F
  3
OPACITYTILE
360
233
  3
REFLECTIONTILE
360
232
  3
REFRACTIONTILE
360
234
  3
SPECULARTILE
360
231
  0
DICTIONARY
  5
23E
330
23D
100
AcDbDictionary
280
     1
281
     1
  3
ACAD_XREC_ROUNDTRIP
360
8A7
  3
BUMPTILE
360
240
  3
DIFFUSETILE
360
23F
  3
OPACITYTILE
360
243
  3
REFLECTIONTILE
360
242
  3
REFRACTIONTILE
360
244
  3
SPECULARTILE
360
241
  0
DICTIONARY
  5
89B
330
257
100
AcDbDictionary
280
     1
281
     1
  3
ACAD_ROUNDTRIP_2008_TABLESTYLE_CELLSTYLEMAP
360
E57
  3
ACAD_XREC_ROUNDTRIP
360
E5F
  0
IDBUFFER
  5
555
330
0
100
AcDbIdBuffer
330
E56
  0
IDBUFFER
  5
556
330
0
100
AcDbIdBuffer
  0
IDBUFFER
  5
557
330
0
100
AcDbIdBuffer
  0
IDBUFFER
  5
558
330
0
100
AcDbIdBuffer
  0
IDBUFFER
  5
559
330
0
100
AcDbIdBuffer
  0
XRECORD
  5
E5A
102
{ACAD_REACTORS
330
E59
102
}
330
E59
100
AcDbXrecord
280
     1
102
SHADEPLOT
 70
     0
102
SHADEPLOTRESLEVEL
 70
     2
102
SHADEPLOTCUSTOMDPI
 70
   300
  0
XRECORD
  5
E5E
102
{ACAD_REACTORS
330
E5D
102
}
330
E5D
100
AcDbXrecord
280
     1
102
SHADEPLOT
 70
     0
102
SHADEPLOTRESLEVEL
 70
     2
102
SHADEPLOTCUSTOMDPI
 70
   300
  0
XRECORD
  5
E5C
102
{ACAD_REACTORS
330
E5B
102
}
330
E5B
100
AcDbXrecord
280
     1
102
SHADEPLOT
 70
     0
102
SHADEPLOTRESLEVEL
 70
     2
102
SHADEPLOTCUSTOMDPI
 70
   300
  0
XRECORD
  5
8A6
102
{ACAD_REACTORS
330
236
102
}
330
236
100
AcDbXrecord
280
     1
102
MATERIAL
148
0.0
149
0.0
149
0.0
 93
        0
 94
      127
282
     0
 72
     0
 77
     0
171
     0
175
     0
179
     0
273
     0
  0
XRECORD
  5
238
102
{ACAD_REACTORS
330
236
102
}
330
236
100
AcDbXrecord
280
     1
270
     1
271
     1
  0
XRECORD
  5
237
102
{ACAD_REACTORS
330
236
102
}
330
236
100
AcDbXrecord
280
     1
270
     1
271
     1
  0
XRECORD
  5
23B
102
{ACAD_REACTORS
330
236
102
}
330
236
100
AcDbXrecord
280
     1
270
     1
271
     1
  0
XRECORD
  5
23A
102
{ACAD_REACTORS
330
236
102
}
330
236
100
AcDbXrecord
280
     1
270
     1
271
     1
  0
XRECORD
  5
23C
102
{ACAD_REACTORS
330
236
102
}
330
236
100
AcDbXrecord
280
     1
270
     1
271
     1
  0
XRECORD
  5
239
102
{ACAD_REACTORS
330
236
102
}
330
236
100
AcDbXrecord
280
     1
270
     1
271
     1
  0
XRECORD
  5
8A5
102
{ACAD_REACTORS
330
22E
102
}
330
22E
100
AcDbXrecord
280
     1
102
MATERIAL
148
0.0
149
0.0
149
0.0
 93
        0
 94
      127
282
     0
 72
     0
 77
     0
171
     0
175
     0
179
     0
273
     0
  0
XRECORD
  5
230
102
{ACAD_REACTORS
330
22E
102
}
330
22E
100
AcDbXrecord
280
     1
270
     1
271
     1
  0
XRECORD
  5
22F
102
{ACAD_REACTORS
330
22E
102
}
330
22E
100
AcDbXrecord
280
     1
270
     1
271
     1
  0
XRECORD
  5
233
102
{ACAD_REACTORS
330
22E
102
}
330
22E
100
AcDbXrecord
280
     1
270
     1
271
     1
  0
XRECORD
  5
232
102
{ACAD_REACTORS
330
22E
102
}
330
22E
100
AcDbXrecord
280
     1
270
     1
271
     1
  0
XRECORD
  5
234
102
{ACAD_REACTORS
330
22E
102
}
330
22E
100
AcDbXrecord
280
     1
270
     1
271
     1
  0
XRECORD
  5
231
102
{ACAD_REACTORS
330
22E
102
}
330
22E
100
AcDbXrecord
280
     1
270
     1
271
     1
  0
XRECORD
  5
8A7
102
{ACAD_REACTORS
330
23E
102
}
330
23E
100
AcDbXrecord
280
     1
102
MATERIAL
148
0.0
149
0.0
149
0.0
 93
        0
 94
      127
282
     0
 72
     0
 77
     0
171
     0
175
     0
179
     0
273
     0
  0
XRECORD
  5
240
102
{ACAD_REACTORS
330
23E
102
}
330
23E
100
AcDbXrecord
280
     1
270
     1
271
     1
  0
XRECORD
  5
23F
102
{ACAD_REACTORS
330
23E
102
}
330
23E
100
AcDbXrecord
280
     1
270
     1
271
     1
  0
XRECORD
  5
243
102
{ACAD_REACTORS
330
23E
102
}
330
23E
100
AcDbXrecord
280
     1
270
     1
271
     1
  0
XRECORD
  5
242
102
{ACAD_REACTORS
330
23E
102
}
330
23E
100
AcDbXrecord
280
     1
270
     1
271
     1
  0
XRECORD
  5
244
102
{ACAD_REACTORS
330
23E
102
}
330
23E
100
AcDbXrecord
280
     1
270
     1
271
     1
  0
XRECORD
  5
241
102
{ACAD_REACTORS
330
23E
102
}
330
23E
100
AcDbXrecord
280
     1
270
     1
271
     1
  0
CELLSTYLEMAP
  5
E57
102
{ACAD_REACTORS
330
89B
102
}
330
89B
100
AcDbCellStyleMap
 90
        3
300
CELLSTYLE
  1
TABLEFORMAT_BEGIN
 90
        5
170
     1
 91
        0
 92
    32768
 62
   257
 93
        1
300
CONTENTFORMAT
  1
CONTENTFORMAT_BEGIN
 90
        0
 91
        0
 92
      512
 93
        0
300

 40
0.0
140
1.0
 94
        5
 62
     0
340
11
144
6.0
309
CONTENTFORMAT_END
171
     1
301
MARGIN
  1
CELLMARGIN_BEGIN
 40
1.5
 40
1.5
 40
1.5
 40
1.5
 40
0.18
 40
0.18
309
CELLMARGIN_END
 94
        6
 95
        1
302
GRIDFORMAT
  1
GRIDFORMAT_BEGIN
 90
        0
 91
        1
 62
     0
 92
       -2
340
0
 93
        0
 40
1.125
309
GRIDFORMAT_END
 95
        2
302
GRIDFORMAT
  1
GRIDFORMAT_BEGIN
 90
        0
 91
        1
 62
     0
 92
       -2
340
0
 93
        0
 40
1.125
309
GRIDFORMAT_END
 95
        4
302
GRIDFORMAT
  1
GRIDFORMAT_BEGIN
 90
        0
 91
        1
 62
     0
 92
       -2
340
0
 93
        0
 40
1.125
309
GRIDFORMAT_END
 95
        8
302
GRIDFORMAT
  1
GRIDFORMAT_BEGIN
 90
        0
 91
        1
 62
     0
 92
       -2
340
0
 93
        0
 40
1.125
309
GRIDFORMAT_END
 95
       16
302
GRIDFORMAT
  1
GRIDFORMAT_BEGIN
 90
        0
 91
        1
 62
     0
 92
       -2
340
0
 93
        0
 40
1.125
309
GRIDFORMAT_END
 95
       32
302
GRIDFORMAT
  1
GRIDFORMAT_BEGIN
 90
        0
 91
        1
 62
     0
 92
       -2
340
0
 93
        0
 40
1.125
309
GRIDFORMAT_END
309
TABLEFORMAT_END
  1
CELLSTYLE_BEGIN
 90
        1
 91
        1
300
_TITLE
309
CELLSTYLE_END
300
CELLSTYLE
  1
TABLEFORMAT_BEGIN
 90
        5
170
     1
 91
        0
 92
        0
 62
   257
 93
        1
300
CONTENTFORMAT
  1
CONTENTFORMAT_BEGIN
 90
        0
 91
        0
 92
      512
 93
        0
300

 40
0.0
140
1.0
 94
        5
 62
     0
340
11
144
4.5
309
CONTENTFORMAT_END
171
     1
301
MARGIN
  1
CELLMARGIN_BEGIN
 40
1.5
 40
1.5
 40
1.5
 40
1.5
 40
0.18
 40
0.18
309
CELLMARGIN_END
 94
        6
 95
        1
302
GRIDFORMAT
  1
GRIDFORMAT_BEGIN
 90
        0
 91
        1
 62
     0
 92
       -2
340
0
 93
        0
 40
1.125
309
GRIDFORMAT_END
 95
        2
302
GRIDFORMAT
  1
GRIDFORMAT_BEGIN
 90
        0
 91
        1
 62
     0
 92
       -2
340
0
 93
        0
 40
1.125
309
GRIDFORMAT_END
 95
        4
302
GRIDFORMAT
  1
GRIDFORMAT_BEGIN
 90
        0
 91
        1
 62
     0
 92
       -2
340
0
 93
        0
 40
1.125
309
GRIDFORMAT_END
 95
        8
302
GRIDFORMAT
  1
GRIDFORMAT_BEGIN
 90
        0
 91
        1
 62
     0
 92
       -2
340
0
 93
        0
 40
1.125
309
GRIDFORMAT_END
 95
       16
302
GRIDFORMAT
  1
GRIDFORMAT_BEGIN
 90
        0
 91
        1
 62
     0
 92
       -2
340
0
 93
        0
 40
1.125
309
GRIDFORMAT_END
 95
       32
302
GRIDFORMAT
  1
GRIDFORMAT_BEGIN
 90
        0
 91
        1
 62
     0
 92
       -2
340
0
 93
        0
 40
1.125
309
GRIDFORMAT_END
309
TABLEFORMAT_END
  1
CELLSTYLE_BEGIN
 90
        2
 91
        1
300
_HEADER
309
CELLSTYLE_END
300
CELLSTYLE
  1
TABLEFORMAT_BEGIN
 90
        5
170
     1
 91
        0
 92
        0
 62
   257
 93
        1
300
CONTENTFORMAT
  1
CONTENTFORMAT_BEGIN
 90
        0
 91
        0
 92
      512
 93
        0
300

 40
0.0
140
1.0
 94
        2
 62
     0
340
11
144
4.5
309
CONTENTFORMAT_END
171
     1
301
MARGIN
  1
CELLMARGIN_BEGIN
 40
1.5
 40
1.5
 40
1.5
 40
1.5
 40
0.18
 40
0.18
309
CELLMARGIN_END
 94
        6
 95
        1
302
GRIDFORMAT
  1
GRIDFORMAT_BEGIN
 90
        0
 91
        1
 62
     0
 92
       -2
340
0
 93
        0
 40
1.125
309
GRIDFORMAT_END
 95
        2
302
GRIDFORMAT
  1
GRIDFORMAT_BEGIN
 90
        0
 91
        1
 62
     0
 92
       -2
340
0
 93
        0
 40
1.125
309
GRIDFORMAT_END
 95
        4
302
GRIDFORMAT
  1
GRIDFORMAT_BEGIN
 90
        0
 91
        1
 62
     0
 92
       -2
340
0
 93
        0
 40
1.125
309
GRIDFORMAT_END
 95
        8
302
GRIDFORMAT
  1
GRIDFORMAT_BEGIN
 90
        0
 91
        1
 62
     0
 92
       -2
340
0
 93
        0
 40
1.125
309
GRIDFORMAT_END
 95
       16
302
GRIDFORMAT
  1
GRIDFORMAT_BEGIN
 90
        0
 91
        1
 62
     0
 92
       -2
340
0
 93
        0
 40
1.125
309
GRIDFORMAT_END
 95
       32
302
GRIDFORMAT
  1
GRIDFORMAT_BEGIN
 90
        0
 91
        1
 62
     0
 92
       -2
340
0
 93
        0
 40
1.125
309
GRIDFORMAT_END
309
TABLEFORMAT_END
  1
CELLSTYLE_BEGIN
 90
        3
 91
        2
300
_DATA
309
CELLSTYLE_END
  0
XRECORD
  5
E5F
102
{ACAD_REACTORS
330
89B
102
}
330
89B
100
AcDbXrecord
280
     1
102
ACAD_ROUNDTRIP_PRE2007_TABLESTYLE
 90
      512
 91
        0
  1

 92
      512
 93
        0
  2

 94
      512
 95
        0
  3

  0
ENDSEC
  0
EOF
