  0
SECTION
  2
HEADER
  9
$ACADVER
  1
AC1015
  9
$ACADMAINTVER
 70
    20
  9
$DWGCODEPAGE
  3
ANSI_1252
  9
$INSBASE
 10
0.0
 20
0.0
 30
0.0
  9
$EXTMIN
 10
21.66471764774068
 20
57.6069813444748
 30
0.0
  9
$EXTMAX
 10
248.4877366684096
 20
241.3906695800479
 30
0.0
  9
$LIMMIN
 10
0.0
 20
0.0
  9
$LIMMAX
 10
709.676
 20
548.3859999999999
  9
$ORTHOMODE
 70
     1
  9
$REGENMODE
 70
     1
  9
$FILLMODE
 70
     1
  9
$QTEXTMODE
 70
     0
  9
$MIRRTEXT
 70
     0
  9
$LTSCALE
 40
1.0
  9
$ATTMODE
 70
     1
  9
$TEXTSIZE
 40
3.5
  9
$TRACEWID
 40
0.05
  9
$TEXTSTYLE
  7
STANDARD
  9
$CLAYER
  8
AM_3
  9
$CELTYPE
  6
ByLayer
  9
$CECOLOR
 62
   256
  9
$CELTSCALE
 40
1.0
  9
$DISPSILH
 70
     0
  9
$DIMSCALE
 40
1.0
  9
$DIMASZ
 40
2.5
  9
$DIMEXO
 40
1.0
  9
$DIMDLI
 40
10.0
  9
$DIMRND
 40
0.0
  9
$DIMDLE
 40
0.0
  9
$DIMEXE
 40
1.0
  9
$DIMTP
 40
0.1
  9
$DIMTM
 40
0.1
  9
$DIMTXT
 40
3.5
  9
$DIMCEN
 40
0.0
  9
$DIMTSZ
 40
0.0
  9
$DIMTOL
 70
     0
  9
$DIMLIM
 70
     0
  9
$DIMTIH
 70
     0
  9
$DIMTOH
 70
     0
  9
$DIMSE1
 70
     0
  9
$DIMSE2
 70
     0
  9
$DIMTAD
 70
     1
  9
$DIMZIN
 70
     8
  9
$DIMBLK
  1

  9
$DIMASO
 70
     1
  9
$DIMSHO
 70
     1
  9
$DIMPOST
  1

  9
$DIMAPOST
  1
"
  9
$DIMALT
 70
     0
  9
$DIMALTD
 70
     3
  9
$DIMALTF
 40
0.0393701
  9
$DIMLFAC
 40
1.0
  9
$DIMTOFL
 70
     1
  9
$DIMTVP
 40
0.0
  9
$DIMTIX
 70
     0
  9
$DIMSOXD
 70
     0
  9
$DIMSAH
 70
     0
  9
$DIMBLK1
  1

  9
$DIMBLK2
  1

  9
$DIMSTYLE
  2
AM_ISO
  9
$DIMCLRD
 70
   256
  9
$DIMCLRE
 70
   256
  9
$DIMCLRT
 70
     2
  9
$DIMTFAC
 40
0.71
  9
$DIMGAP
 40
1.5
  9
$DIMJUST
 70
     0
  9
$DIMSD1
 70
     0
  9
$DIMSD2
 70
     0
  9
$DIMTOLJ
 70
     0
  9
$DIMTZIN
 70
     8
  9
$DIMALTZ
 70
     0
  9
$DIMALTTZ
 70
     0
  9
$DIMUPT
 70
     0
  9
$DIMDEC
 70
     2
  9
$DIMTDEC
 70
     2
  9
$DIMALTU
 70
     2
  9
$DIMALTTD
 70
     3
  9
$DIMTXSTY
  7
STANDARD
  9
$DIMAUNIT
 70
     0
  9
$DIMADEC
 70
     0
  9
$DIMALTRND
 40
0.0
  9
$DIMAZIN
 70
     2
  9
$DIMDSEP
 70
    46
  9
$DIMATFIT
 70
     3
  9
$DIMFRAC
 70
     0
  9
$DIMLDRBLK
  1

  9
$DIMLUNIT
 70
     2
  9
$DIMLWD
 70
    -1
  9
$DIMLWE
 70
    -1
  9
$DIMTMOVE
 70
     0
  9
$LUNITS
 70
     2
  9
$LUPREC
 70
     2
  9
$SKETCHINC
 40
0.1
  9
$FILLETRAD
 40
0.0
  9
$AUNITS
 70
     0
  9
$AUPREC
 70
     0
  9
$MENU
  1
.
  9
$ELEVATION
 40
0.0
  9
$PELEVATION
 40
0.0
  9
$THICKNESS
 40
0.0
  9
$LIMCHECK
 70
     0
  9
$CHAMFERA
 40
2.5
  9
$CHAMFERB
 40
2.5
  9
$CHAMFERC
 40
0.0
  9
$CHAMFERD
 40
0.0
  9
$SKPOLY
 70
     0
  9
$TDCREATE
 40
2453018.563407118
  9
$TDUCREATE
 40
2453018.521740452
  9
$TDUPDATE
 40
2456352.441651273
  9
$TDUUPDATE
 40
2456352.399984607
  9
$TDINDWG
 40
0.0173700000
  9
$TDUSRTIMER
 40
0.0173697801
  9
$USRTIMER
 70
     1
  9
$ANGBASE
 50
0.0
  9
$ANGDIR
 70
     0
  9
$PDMODE
 70
     0
  9
$PDSIZE
 40
0.0
  9
$PLINEWID
 40
0.0
  9
$SPLFRAME
 70
     0
  9
$SPLINETYPE
 70
     6
  9
$SPLINESEGS
 70
     8
  9
$HANDSEED
  5
FFA
  9
$SURFTAB1
 70
     6
  9
$SURFTAB2
 70
     6
  9
$SURFTYPE
 70
     6
  9
$SURFU
 70
     6
  9
$SURFV
 70
     6
  9
$UCSBASE
  2

  9
$UCSNAME
  2

  9
$UCSORG
 10
0.0
 20
0.0
 30
0.0
  9
$UCSXDIR
 10
1.0
 20
0.0
 30
0.0
  9
$UCSYDIR
 10
0.0
 20
1.0
 30
0.0
  9
$UCSORTHOREF
  2

  9
$UCSORTHOVIEW
 70
     0
  9
$UCSORGTOP
 10
0.0
 20
0.0
 30
0.0
  9
$UCSORGBOTTOM
 10
0.0
 20
0.0
 30
0.0
  9
$UCSORGLEFT
 10
0.0
 20
0.0
 30
0.0
  9
$UCSORGRIGHT
 10
0.0
 20
0.0
 30
0.0
  9
$UCSORGFRONT
 10
0.0
 20
0.0
 30
0.0
  9
$UCSORGBACK
 10
0.0
 20
0.0
 30
0.0
  9
$PUCSBASE
  2

  9
$PUCSNAME
  2

  9
$PUCSORG
 10
0.0
 20
0.0
 30
0.0
  9
$PUCSXDIR
 10
1.0
 20
0.0
 30
0.0
  9
$PUCSYDIR
 10
0.0
 20
1.0
 30
0.0
  9
$PUCSORTHOREF
  2

  9
$PUCSORTHOVIEW
 70
     0
  9
$PUCSORGTOP
 10
0.0
 20
0.0
 30
0.0
  9
$PUCSORGBOTTOM
 10
0.0
 20
0.0
 30
0.0
  9
$PUCSORGLEFT
 10
0.0
 20
0.0
 30
0.0
  9
$PUCSORGRIGHT
 10
0.0
 20
0.0
 30
0.0
  9
$PUCSORGFRONT
 10
0.0
 20
0.0
 30
0.0
  9
$PUCSORGBACK
 10
0.0
 20
0.0
 30
0.0
  9
$USERI1
 70
     0
  9
$USERI2
 70
     0
  9
$USERI3
 70
     0
  9
$USERI4
 70
     0
  9
$USERI5
 70
     0
  9
$USERR1
 40
0.0
  9
$USERR2
 40
0.0
  9
$USERR3
 40
0.0
  9
$USERR4
 40
0.0
  9
$USERR5
 40
0.0
  9
$WORLDVIEW
 70
     1
  9
$SHADEDGE
 70
     3
  9
$SHADEDIF
 70
    70
  9
$TILEMODE
 70
     1
  9
$MAXACTVP
 70
    64
  9
$PINSBASE
 10
0.0
 20
0.0
 30
0.0
  9
$PLIMCHECK
 70
     0
  9
$PEXTMIN
 10
0.0
 20
0.0
 30
0.0
  9
$PEXTMAX
 10
709.676
 20
548.3859999999999
 30
0.0
  9
$PLIMMIN
 10
0.0
 20
0.0
  9
$PLIMMAX
 10
709.676
 20
548.3859999999999
  9
$UNITMODE
 70
     0
  9
$VISRETAIN
 70
     1
  9
$PLINEGEN
 70
     0
  9
$PSLTSCALE
 70
     1
  9
$TREEDEPTH
 70
  3020
  9
$CMLSTYLE
  2
Standard
  9
$CMLJUST
 70
     0
  9
$CMLSCALE
 40
1.0
  9
$PROXYGRAPHICS
 70
     1
  9
$MEASUREMENT
 70
     1
  9
$CELWEIGHT
370
    -1
  9
$ENDCAPS
280
     0
  9
$JOINSTYLE
280
     0
  9
$LWDISPLAY
290
     0
  9
$INSUNITS
 70
     0
  9
$HYPERLINKBASE
  1

  9
$STYLESHEET
  1

  9
$XEDIT
290
     1
  9
$CEPSNTYPE
380
     0
  9
$PSTYLEMODE
290
     1
  9
$FINGERPRINTGUID
  2
{CF051137-6429-4ACA-ADFC-C3CE2E6B565A}
  9
$VERSIONGUID
  2
{ABDD4650-731E-4861-A617-BDC742FE3DB2}
  9
$EXTNAMES
290
     1
  9
$PSVPSCALE
 40
0.0
  9
$OLESTARTUP
290
     0
  0
ENDSEC
  0
SECTION
  2
CLASSES
  0
CLASS
  1
ACDBDICTIONARYWDFLT
  2
AcDbDictionaryWithDefault
  3
ObjectDBX Classes
 90
        0
280
     0
281
     0
  0
CLASS
  1
DICTIONARYVAR
  2
AcDbDictionaryVar
  3
ObjectDBX Classes
 90
        0
280
     0
281
     0
  0
CLASS
  1
ACDBPLACEHOLDER
  2
AcDbPlaceHolder
  3
ObjectDBX Classes
 90
        0
280
     0
281
     0
  0
CLASS
  1
LAYOUT
  2
AcDbLayout
  3
ObjectDBX Classes
 90
        0
280
     0
281
     0
  0
CLASS
  1
MATERIAL
  2
AcDbMaterial
  3
ObjectDBX Classes
 90
     1153
280
     0
281
     0
  0
CLASS
  1
VISUALSTYLE
  2
AcDbVisualStyle
  3
ObjectDBX Classes
 90
     4095
280
     0
281
     0
  0
CLASS
  1
TABLESTYLE
  2
AcDbTableStyle
  3
ObjectDBX Classes
 90
     4095
280
     0
281
     0
  0
CLASS
  1
SCALE
  2
AcDbScale
  3
ObjectDBX Classes
 90
     1153
280
     0
281
     0
  0
CLASS
  1
MLEADERSTYLE
  2
AcDbMLeaderStyle
  3
ACDB_MLEADERSTYLE_CLASS
 90
     4095
280
     0
281
     0
  0
CLASS
  1
AMGSETTINGSOBJ
  2
AmgSettingsObj
  3
"AcadM|Product Description: AutoCAD Mechanical|Company: Autodesk, Inc."
 90
     1024
280
     0
281
     0
  0
CLASS
  1
AMGOBJPROPCFG
  2
AmgObjPropCfg
  3
"AmgLay|Product Description: AutoCAD Mechanical|Company: Autodesk, Inc."
 90
     1025
280
     0
281
     0
  0
CLASS
  1
ACMESCOPE
  2
AcMeScope
  3
AcMeServices
 90
     1024
280
     0
281
     0
  0
CLASS
  1
ACGREFMASTER
  2
AcGrefMaster
  3
AcAttribServices
 90
     1024
280
     0
281
     0
  0
CLASS
  1
ACME_DOCUMENT
  2
AcMeDbDoc
  3
AcMeServices
 90
     1024
280
     0
281
     0
  0
CLASS
  1
ACMECOMMANDHISTORY
  2
AcMeCommandHistory
  3
AcMeServices
 90
     1024
280
     0
281
     0
  0
CLASS
  1
ACIMSYSVARMAN
  2
AcImSysVarManager
  3
AcMeServices
 90
     1024
280
     0
281
     0
  0
CLASS
  1
ACIMREALSYSVAR
  2
AcImRealSysVar
  3
AcMeServices
 90
     1024
280
     0
281
     0
  0
CLASS
  1
ACIMINTSYSVAR
  2
AcImIntSysVar
  3
AcMeServices
 90
     1024
280
     0
281
     0
  0
CLASS
  1
ACMEDRAWINGMAN
  2
AcMeDrawingMan
  3
AcMeServices
 90
     1024
280
     0
281
     0
  0
CLASS
  1
ACMEVIEW
  2
AcMeView
  3
AcMeServices
 90
     1024
280
     0
281
     0
  0
CLASS
  1
ACDBENTITYCACHE
  2
AcMeEntityCache
  3
AcMeServices
 90
     1024
280
     0
281
     0
  0
CLASS
  1
GSMANAGER
  2
AcMeGSManager
  3
AcMeServices
 90
     1024
280
     0
281
     0
  0
CLASS
  1
AMDTINTERNALREACTOR
  2
AmdtInternalReactor
  3
AcMeServices
 90
     1024
280
     0
281
     0
  0
CLASS
  1
ACMESTATEMGR
  2
AcMeStateMgr
  3
AcMeServices
 90
     1024
280
     0
281
     0
  0
CLASS
  1
AM_DRAWING_MGR
  2
AcDmDwgMgr
  3
AcMechDwgViewMgmt
 90
     1024
280
     0
281
     0
  0
CLASS
  1
AM_DWG_DOCUMENT
  2
AcDmDwgDocument
  3
AcMechDwgViewMgmt
 90
     1024
280
     0
281
     0
  0
CLASS
  1
AM_DWG_SHEET
  2
AcDmSheet
  3
AcMechDwgViewMgmt
 90
     1024
280
     0
281
     0
  0
CLASS
  1
AM_VIEWDIMPARMAP
  2
AcDmViewDimParMap
  3
AcMechDwgViewMgmt
 90
     1024
280
     0
281
     0
  0
CLASS
  1
AM_DWGMGR_NAME
  2
AcDmDwgMgrName
  3
AcMechDwgViewMgmt
 90
     1024
280
     0
281
     0
  0
CLASS
  1
ACME_DATABASE
  2
AcMeDbDatabase
  3
AcMeServices
 90
     1024
280
     0
281
     0
  0
CLASS
  1
ACRFINSADJUSTERMGR
  2
AcRfInsAdjusterMgr
  3
AcMeServices
 90
     1024
280
     0
281
     0
  0
CLASS
  1
ACGREFACADMASTER
  2
AcGrefacadMaster
  3
AcGrefServices
 90
     1024
280
     0
281
     0
  0
CLASS
  1
AMDTMENUSTATEMGR
  2
AmdtMenuStateMgr
  3
McadcomServices
 90
     1024
280
     0
281
     0
  0
CLASS
  1
AMDTMCOMMENUSTATE
  2
AmdtMcomMenuState
  3
McadcomServices
 90
     1024
280
     0
281
     0
  0
CLASS
  1
AMIMASTER
  2
AmiMaster
  3
AmiServices
 90
     1024
280
     0
281
     0
  0
CLASS
  1
ASAPP
  2
AcAsAppObject
  3
AutoSurfServices
 90
     1024
280
     0
281
     0
  0
CLASS
  1
IM_STATIC_MAN
  2
AcImStaticVarManager
  3
AcMeServices
 90
     1024
280
     0
281
     0
  0
CLASS
  1
ACIMSTRSYSVAR
  2
AcImStrSysVar
  3
AcMeServices
 90
     1024
280
     0
281
     0
  0
CLASS
  1
ACIMDBLSTATICVAR
  2
AcImDblStaticVar
  3
AcMeServices
 90
     1024
280
     0
281
     0
  0
CLASS
  1
ACIMSTRSTATICVAR
  2
AcImStrStaticVar
  3
AcMeServices
 90
     1024
280
     0
281
     0
  0
CLASS
  1
ACIMINTSTATICVAR
  2
AcImIntStaticVar
  3
AcMeServices
 90
     1024
280
     0
281
     0
  0
CLASS
  1
ACASGREFMASTER
  2
AcAsGrefMaster
  3
AutoSurfResolverServices
 90
     1024
280
     0
281
     0
  0
CLASS
  1
ACADGREFMODULE
  2
AcAdGrefModule
  3
AdGrefServices
 90
     1024
280
     0
281
     0
  0
CLASS
  1
AMDTMAPISURFMOUDULE
  2
AmdtMApiSurfModule
  3
MApiSurfServices
 90
     1024
280
     0
281
     0
  0
CLASS
  1
MAPIAMMOUDLE
  2
MApiAmModule
  3
MApiAmServices
 90
     1024
280
     0
281
     0
  0
CLASS
  1
ACMSTANDARDANSI
  2
AcmStandardANSI
  3
"Amdt_StdImp|Product Description: AutoCAD Mechanical|Company: Autodesk, Inc."
 90
     1024
280
     0
281
     0
  0
CLASS
  1
ACMSURFSTANDARDANSI
  2
AcmSurfTextStdANSI
  3
"Amdt_StdImp|Product Description: AutoCAD Mechanical|Company: Autodesk, Inc."
 90
     1024
280
     0
281
     0
  0
CLASS
  1
ACMFCFSTANDARDANSI
  2
AcmFCFStdANSI
  3
"Amdt_StdImp|Product Description: AutoCAD Mechanical|Company: Autodesk, Inc."
 90
     1024
280
     0
281
     0
  0
CLASS
  1
ACMWELDSTANDARDANSI
  2
AcmWeldingStdANSI
  3
"Amdt_StdImp|Product Description: AutoCAD Mechanical|Company: Autodesk, Inc."
 90
     1024
280
     0
281
     0
  0
CLASS
  1
ACMIDSTANDARDANSI
  2
AcmIdStdANSI
  3
"Amdt_StdImp|Product Description: AutoCAD Mechanical|Company: Autodesk, Inc."
 90
     1024
280
     0
281
     0
  0
CLASS
  1
ACMDATUMSTANDARDANSI
  2
AcmDatumStdANSI
  3
"Amdt_StdImp|Product Description: AutoCAD Mechanical|Company: Autodesk, Inc."
 90
     1024
280
     0
281
     0
  0
CLASS
  1
ACMBOMSTANDARDANSI
  2
AcmBOMStdANSI
  3
"Amdt_StdImp|Product Description: AutoCAD Mechanical|Company: Autodesk, Inc."
 90
     1024
280
     0
281
     0
  0
CLASS
  1
ACMDETAILSTANDARDANSI
  2
AmdtDetailSymStdANSI
  3
"Amdt_StdImp|Product Description: AutoCAD Mechanical|Company: Autodesk, Inc."
 90
     1024
280
     0
281
     0
  0
CLASS
  1
ACMSECTIONSTANDARDANSI
  2
AmdtSectionSymStdANSI
  3
"Amdt_StdImp|Product Description: AutoCAD Mechanical|Company: Autodesk, Inc."
 90
     1024
280
     0
281
     0
  0
CLASS
  1
ACMCENTERLINESTANDARDANSI
  2
AmdtCenterLineStdANSI
  3
"Amdt_StdImp|Product Description: AutoCAD Mechanical|Company: Autodesk, Inc."
 90
     1024
280
     0
281
     0
  0
CLASS
  1
ACMTHREADLINESTANDARDANSI
  2
AmdtThreadLineStdANSI
  3
"Amdt_StdImp|Product Description: AutoCAD Mechanical|Company: Autodesk, Inc."
 90
     1024
280
     0
281
     0
  0
CLASS
  1
ACMNOTESTANDARDANSI
  2
AmdtNoteStdANSI
  3
"Amdt_StdImp|Product Description: AutoCAD Mechanical|Company: Autodesk, Inc."
 90
     1024
280
     0
281
     0
  0
CLASS
  1
AMDTNOTETEMPLATEDB
  2
AmdtNoteTemplateDB
  3
AcmSymBB|Product Description: AutoCAD Mechanical|Company: Autodesk, Inc.
 90
     1024
280
     0
281
     0
  0
CLASS
  1
ACAMGLAYSTD
  2
AcAmgLayStd
  3
"AmgLay|Product Description: AutoCAD Mechanical|Company: Autodesk, Inc."
 90
     1024
280
     0
281
     0
  0
CLASS
  1
ACAMGDIMSTD
  2
AcAmgDimStd
  3
"AmgDim|Product Description: AutoCAD Mechanical|Company: Autodesk, Inc."
 90
     1024
280
     0
281
     0
  0
CLASS
  1
ACAMGHOLECHARTSTDANSI
  2
AcAmgHoleChartStdANSI
  3
AmgDim|Product Description: AutoCAD Mechanical|Company: Autodesk, Inc.
 90
     1024
280
     0
281
     0
  0
CLASS
  1
ACAMGTITLESTD
  2
AcAmgTitleStd
  3
"AmgTitle|Product Description: AutoCAD Mechanical|Company: Autodesk, Inc."
 90
     4095
280
     0
281
     0
  0
CLASS
  1
ACMTAPERSTANDARDANSI
  2
AcmTaperStdANSI
  3
"Amdt_StdImp|Product Description: AutoCAD Mechanical|Company: Autodesk, Inc."
 90
     1024
280
     0
281
     0
  0
CLASS
  1
ACMANOOTATIONVIEWSTANDARDANSI
  2
AmdtAnViewStdANSI
  3
"Amdt_StdImp|Product Description: AutoCAD Mechanical|Company: Autodesk, Inc."
 90
     1024
280
     0
281
     0
  0
CLASS
  1
ACMSTANDARDISO
  2
AcmStandardISO
  3
"Amdt_StdImp|Product Description: AutoCAD Mechanical|Company: Autodesk, Inc."
 90
     1024
280
     0
281
     0
  0
CLASS
  1
AMDTEDGESTANDARDISO
  2
AmdtEdgeStdISO
  3
"Amdt_StdImp|Product Description: AutoCAD Mechanical|Company: Autodesk, Inc."
 90
     1024
280
     0
281
     0
  0
CLASS
  1
ACMSURFSTANDARDISO
  2
AcmSurfTextStdISO
  3
"Amdt_StdImp|Product Description: AutoCAD Mechanical|Company: Autodesk, Inc."
 90
     1024
280
     0
281
     0
  0
CLASS
  1
ACMFCFSTANDARDISO
  2
AcmFCFStdISO
  3
"Amdt_StdImp|Product Description: AutoCAD Mechanical|Company: Autodesk, Inc."
 90
     1024
280
     0
281
     0
  0
CLASS
  1
ACMWELDSTANDARDISO
  2
AcmWeldingStdISO
  3
"Amdt_StdImp|Product Description: AutoCAD Mechanical|Company: Autodesk, Inc."
 90
     1024
280
     0
281
     0
  0
CLASS
  1
ACMIDSTANDARDISO
  2
AcmIdStdISO
  3
"Amdt_StdImp|Product Description: AutoCAD Mechanical|Company: Autodesk, Inc."
 90
     1024
280
     0
281
     0
  0
CLASS
  1
ACMDATUMSTANDARDISO
  2
AcmDatumStdISO
  3
"Amdt_StdImp|Product Description: AutoCAD Mechanical|Company: Autodesk, Inc."
 90
     1024
280
     0
281
     0
  0
CLASS
  1
ACMBOMSTANDARDISO
  2
AcmBOMStdISO
  3
"Amdt_StdImp|Product Description: AutoCAD Mechanical|Company: Autodesk, Inc."
 90
     1024
280
     0
281
     0
  0
CLASS
  1
ACMDETAILSTANDARDISO
  2
AmdtDetailSymStdISO
  3
"Amdt_StdImp|Product Description: AutoCAD Mechanical|Company: Autodesk, Inc."
 90
     1024
280
     0
281
     0
  0
CLASS
  1
ACMSECTIONSTANDARDISO
  2
AmdtSectionSymStdISO
  3
"Amdt_StdImp|Product Description: AutoCAD Mechanical|Company: Autodesk, Inc."
 90
     1024
280
     0
281
     0
  0
CLASS
  1
ACMCENTERLINESTANDARDISO
  2
AmdtCenterLineStdISO
  3
"Amdt_StdImp|Product Description: AutoCAD Mechanical|Company: Autodesk, Inc."
 90
     1024
280
     0
281
     0
  0
CLASS
  1
ACMTHREADLINESTANDARDISO
  2
AmdtThreadLineStdISO
  3
"Amdt_StdImp|Product Description: AutoCAD Mechanical|Company: Autodesk, Inc."
 90
     1024
280
     0
281
     0
  0
CLASS
  1
ACMNOTESTANDARDISO
  2
AmdtNoteStdISO
  3
"Amdt_StdImp|Product Description: AutoCAD Mechanical|Company: Autodesk, Inc."
 90
     1024
280
     0
281
     0
  0
CLASS
  1
ACAMGHOLECHARTSTDISO
  2
AcAmgHoleChartStdISO
  3
AmgDim|Product Description: AutoCAD Mechanical|Company: Autodesk, Inc.
 90
     1024
280
     0
281
     0
  0
CLASS
  1
ACMTAPERSTANDARDISO
  2
AcmTaperStdISO
  3
"Amdt_StdImp|Product Description: AutoCAD Mechanical|Company: Autodesk, Inc."
 90
     1024
280
     0
281
     0
  0
CLASS
  1
ACMANOOTATIONVIEWSTANDARDISO
  2
AmdtAnViewStdISO
  3
"Amdt_StdImp|Product Description: AutoCAD Mechanical|Company: Autodesk, Inc."
 90
     1024
280
     0
281
     0
  0
CLASS
  1
AMDTADMENUSTATE
  2
AmdtAdMenuState
  3
DesignerServices
 90
     1024
280
     0
281
     0
  0
CLASS
  1
ADAPPL
  2
AcAdAppl
  3
DesignerServices
 90
     1024
280
     0
281
     0
  0
CLASS
  1
DEPMGR
  2
AcAdDepMgr
  3
DesignerServices
 90
     1024
280
     0
281
     0
  0
CLASS
  1
PARAMMGR
  2
AcAdParamMgr
  3
DesignerServices
 90
     1024
280
     0
281
     0
  0
CLASS
  1
PARAMSCOPE
  2
AcAdParamScope
  3
DesignerServices
 90
     1024
280
     0
281
     0
  0
CLASS
  1
NAMEDAPPL
  2
AcAdNamedAppl
  3
DesignerServices
 90
     1024
280
     0
281
     0
  0
CLASS
  1
AMDTDMMENUSTATE
  2
AmdtDmMenuState
  3
AcMechDwgViewMgmt
 90
     1024
280
     0
281
     0
  0
CLASS
  1
MAPIADMODULE
  2
MApiAdModule
  3
MApiAdServices
 90
     1024
280
     0
281
     0
  0
CLASS
  1
AMDTAMMENUSTATE
  2
AmdtAmMenuState
  3
DesignerAssemblies
 90
     1024
280
     0
281
     0
  0
CLASS
  1
ACAMPROJECT
  2
AcAmProject
  3
DesignerAssemblies
 90
     1024
280
     0
281
     0
  0
CLASS
  1
ACAMGRCOMPDEF
  2
AcAmGrCompDef
  3
DesignerAssemblies
 90
     1024
280
     0
281
     0
  0
CLASS
  1
ACCMCONTEXT
  2
AcCmContext
  3
DesignerAssemblies
 90
     1024
280
     0
281
     0
  0
CLASS
  1
ACAMCOMPDEF
  2
AcAmCompDef
  3
DesignerAssemblies
 90
     1024
280
     0
281
     0
  0
CLASS
  1
ACAMCOMPDEFMGR
  2
AcAmCompDefMgr
  3
DesignerAssemblies
 90
     1024
280
     0
281
     0
  0
CLASS
  1
AMCONTEXTMGR
  2
AcAmContextMgr
  3
DesignerAssemblies
 90
     1024
280
     0
281
     0
  0
CLASS
  1
ACAMCONTEXTMODELER
  2
AcAmContextModeler
  3
DesignerAssemblies
 90
     1024
280
     0
281
     0
  0
CLASS
  1
ACMDATADICTIONARY
  2
AcmDataDictionary
  3
"AcmSymBB|Product Description: AutoCAD Mechanical|Company: Autodesk, Inc."
 90
     1024
280
     0
281
     0
  0
CLASS
  1
ACMDATAENTRYBLOCK
  2
AcmDataEntryBlock
  3
AcmSymBB|Product Description: AutoCAD Mechanical|Company: Autodesk, Inc.
 90
     1024
280
     0
281
     0
  0
CLASS
  1
ACRFATTGENMGR
  2
AcRfAttGeneralMgr
  3
AcAttribServices
 90
     1024
280
     0
281
     0
  0
CLASS
  1
ACRFOBJATTMGR
  2
AcRfObjAttGroupMgr
  3
AcAttribServices
 90
     1024
280
     0
281
     0
  0
CLASS
  1
ACRFMCADAPIATTHOLDER
  2
AcRfMCADAPIAttHolder
  3
AcAttribServices
 90
     1024
280
     0
281
     0
  0
CLASS
  1
AMDTSYSATTR
  2
AmdtSystemAttribute
  3
AcAttribServices
 90
     1024
280
     0
281
     0
  0
CLASS
  1
CATALOGSTATE
  2
AcAmCatalogState
  3
DesignerAssemblies
 90
     1024
280
     0
281
     0
  0
CLASS
  1
ACAMGRCOMPDEFSET
  2
AcAmGrCompDefSet
  3
DesignerAssemblies
 90
     1024
280
     0
281
     0
  0
CLASS
  1
AMDTBROWSERDBTAB
  2
AmdtBrowserDbTab
  3
McadcomServices
 90
     1024
280
     0
281
     0
  0
CLASS
  1
CBROWSERAPPOBJECT
  2
CBrowserAppObject
  3
McadcomServices
 90
     1024
280
     0
281
     0
  0
CLASS
  1
DM_PLACEHOLDER
  2
AcDmSelsetPlaceholder
  3
AcMechDwgViewMgmt
 90
     1024
280
     0
281
     0
  0
CLASS
  1
ACAMGFILTERDAT
  2
AcAmgFilterDat
  3
"AcadM|Product Description: AutoCAD Mechanical|Company: Autodesk, Inc."
 90
     1024
280
     0
281
     0
  0
CLASS
  1
DIMASSOC
  2
AcDbDimAssoc
  3
"AcDbDimAssoc|Product Desc:     AcDim ARX App For Dimension|Company:          Autodesk, Inc.|WEB Address:      www.autodesk.com"
 90
        0
280
     0
281
     0
  0
CLASS
  1
SORTENTSTABLE
  2
AcDbSortentsTable
  3
ObjectDBX Classes
 90
        0
280
     0
281
     0
  0
CLASS
  1
AEC_REFEDIT_STATUS_TRACKER
  2
AecDbRefEditStatusTracker
  3
AecArchBase50|Product Desc: Autodesk Architectural Desktop 2007 |Company: Autodesk,Inc. |WEB Address: www.autodesk.com
 90
      129
280
     0
281
     0
  0
CLASS
  1
NPOCOLLECTION
  2
AcDbImpNonPersistentObjectsCollection
  3
ObjectDBX Classes
 90
     1153
280
     0
281
     0
  0
CLASS
  1
LAYER_INDEX
  2
AcDbLayerIndex
  3
ObjectDBX Classes
 90
        0
280
     0
281
     0
  0
CLASS
  1
IDBUFFER
  2
AcDbIdBuffer
  3
ObjectDBX Classes
 90
        0
280
     0
281
     0
  0
CLASS
  1
CELLSTYLEMAP
  2
AcDbCellStyleMap
  3
ObjectDBX Classes
 90
     1152
280
     0
281
     0
  0
ENDSEC
  0
SECTION
  2
TABLES
  0
TABLE
  2
VPORT
  5
8
330
0
100
AcDbSymbolTable
 70
     1
  0
VPORT
  5
13
330
8
100
AcDbSymbolTableRecord
100
AcDbViewportTableRecord
  2
*Active
 70
     0
 10
0.0
 20
0.0
 11
1.0
 21
1.0
 12
84.02580241921851
 22
-46.81418891320276
 13
0.0
 23
0.0
 14
2.5
 24
2.5
 15
10.0
 25
10.0
 16
0.0
 26
0.0
 36
1.0
 17
265.6911393567272
 27
143.6312500616439
 37
0.0
 40
397.6290997098467
 41
1.762174405436013
 42
50.0
 43
0.0
 44
0.0
 50
0.0
 51
0.0
 71
     0
 72
   100
 73
     1
 74
     1
 75
     0
 76
     0
 77
     0
 78
     0
281
     0
 65
     0
110
0.0
120
0.0
130
0.0
111
1.0
121
0.0
131
0.0
112
0.0
122
1.0
132
0.0
 79
     0
146
0.0
  0
ENDTAB
  0
TABLE
  2
LTYPE
  5
5
330
0
100
AcDbSymbolTable
 70
    21
  0
LTYPE
  5
14
330
5
100
AcDbSymbolTableRecord
100
AcDbLinetypeTableRecord
  2
ByBlock
 70
     0
  3

 72
    65
 73
     0
 40
0.0
  0
LTYPE
  5
15
330
5
100
AcDbSymbolTableRecord
100
AcDbLinetypeTableRecord
  2
ByLayer
 70
     0
  3

 72
    65
 73
     0
 40
0.0
  0
LTYPE
  5
16
330
5
100
AcDbSymbolTableRecord
100
AcDbLinetypeTableRecord
  2
Continuous
 70
     0
  3
Solid line
 72
    65
 73
     0
 40
0.0
  0
LTYPE
  5
3C
330
5
100
AcDbSymbolTableRecord
100
AcDbLinetypeTableRecord
  2
CENTER
 70
     0
  3
____ _ ____ _ ____ _ ____ _ ____ _ ____ _ ____ 
 72
    65
 73
     4
 40
2.0
 49
1.25
 74
     0
 49
-0.25
 74
     0
 49
0.25
 74
     0
 49
-0.25
 74
     0
  0
LTYPE
  5
3D
330
5
100
AcDbSymbolTableRecord
100
AcDbLinetypeTableRecord
  2
CENTER2
 70
     0
  3
Center (.5x) ___ _ ___ _ ___ _ ___ _ ___ _ ___
 72
    65
 73
     4
 40
1.125
 49
0.75
 74
     0
 49
-0.125
 74
     0
 49
0.125
 74
     0
 49
-0.125
 74
     0
  0
LTYPE
  5
49
330
5
100
AcDbSymbolTableRecord
100
AcDbLinetypeTableRecord
  2
HIDDEN
 70
     0
  3
__ __ __ __ __ __ __ __ __ __ __ __ __ __ __ __
 72
    65
 73
     2
 40
0.375
 49
0.25
 74
     0
 49
-0.125
 74
     0
  0
LTYPE
  5
4A
330
5
100
AcDbSymbolTableRecord
100
AcDbLinetypeTableRecord
  2
HIDDEN2
 70
     0
  3
Hidden (.5x) _ _ _ _ _ _ _ _ _ _ _ _ _ _ _ _ _
 72
    65
 73
     2
 40
0.1875
 49
0.125
 74
     0
 49
-0.0625
 74
     0
  0
LTYPE
  5
4D
330
5
100
AcDbSymbolTableRecord
100
AcDbLinetypeTableRecord
  2
PHANTOM2
 70
     0
  3
___ _ _ ___ _ _ ___ _ _ ___ _ _ ___ _ _ ___ _ _
 72
    65
 73
     6
 40
1.25
 49
0.625
 74
     0
 49
-0.125
 74
     0
 49
0.125
 74
     0
 49
-0.125
 74
     0
 49
0.125
 74
     0
 49
-0.125
 74
     0
  0
LTYPE
  5
28A
330
5
100
AcDbSymbolTableRecord
100
AcDbLinetypeTableRecord
  2
AM_ISO02W050
 70
     0
  3
__ __ __ __ __ __ __ __ __ __ __ __ __ __ __
 72
    65
 73
     2
 40
7.5
 49
6.0
 74
     0
 49
-1.5
 74
     0
  0
LTYPE
  5
28B
330
5
100
AcDbSymbolTableRecord
100
AcDbLinetypeTableRecord
  2
AM_ISO08W050
 70
     0
  3
____ . ____ . ____ . ____ . ____ . ____ . ____
 72
    65
 73
     4
 40
18.0
 49
12.0
 74
     0
 49
-1.5
 74
     0
 49
3.0
 74
     0
 49
-1.5
 74
     0
  0
LTYPE
  5
28C
330
5
100
AcDbSymbolTableRecord
100
AcDbLinetypeTableRecord
  2
AM_ISO09W050
 70
     0
  3
_____ . . _____ . . _____ . . ____ .. ____
 72
    65
 73
     6
 40
22.5
 49
12.0
 74
     0
 49
-1.5
 74
     0
 49
3.0
 74
     0
 49
-1.5
 74
     0
 49
3.0
 74
     0
 49
-1.5
 74
     0
  0
LTYPE
  5
28D
330
5
100
AcDbSymbolTableRecord
100
AcDbLinetypeTableRecord
  2
Amconstr
 70
     0
  3
_______________________
 72
    65
 73
     2
 40
9999.0
 49
9999.0
 74
     0
 49
0.0
 74
     0
  0
LTYPE
  5
28E
330
5
100
AcDbSymbolTableRecord
100
AcDbLinetypeTableRecord
  2
AM_ISO08W050x2
 70
     0
  3
__ . __ . __ . __ . __ . __
 72
    65
 73
     4
 40
9.0
 49
6.0
 74
     0
 49
-0.75
 74
     0
 49
1.5
 74
     0
 49
-0.75
 74
     0
  0
LTYPE
  5
28F
330
5
100
AcDbSymbolTableRecord
100
AcDbLinetypeTableRecord
  2
AM_ISO02W050x2
 70
     0
  3
 _ _ _ _ _ _ _ _ _ _ _ _
 72
    65
 73
     2
 40
3.75
 49
3.0
 74
     0
 49
-0.75
 74
     0
  0
LTYPE
  5
290
330
5
100
AcDbSymbolTableRecord
100
AcDbLinetypeTableRecord
  2
Amzigzag
 70
     0
  3
/\/-/\/-/\/-/\/-/\/-/\/
 72
    65
 73
     2
 40
11.0001
 49
0.0001
 74
     4
 75
   135
340
5E
 46
0.04
 50
0.0
 44
0.0
 45
0.0
 49
-11.0
 74
     0
  0
LTYPE
  5
31F
330
5
100
AcDbSymbolTableRecord
100
AcDbLinetypeTableRecord
  2
ACANSTGB
 70
     0
  3
__ . . __ . .
 72
    65
 73
     6
 40
0.35433070866
 49
0.15748031496
 74
     0
 49
-0.03937007874
 74
     0
 49
0.03937007874
 74
     0
 49
-0.03937007874
 74
     0
 49
0.03937007874
 74
     0
 49
-0.03937007874
 74
     0
  0
LTYPE
  5
320
330
5
100
AcDbSymbolTableRecord
100
AcDbLinetypeTableRecord
  2
ACANSTGL
 70
     0
  3
_ _ _ _ _
 72
    65
 73
     2
 40
0.11811023622
 49
0.07874015748
 74
     0
 49
-0.03937007874
 74
     0
  0
LTYPE
  5
339
330
5
100
AcDbSymbolTableRecord
100
AcDbLinetypeTableRecord
  2
Amzigzag2
 70
     0
  3
/\/-/\/-/\/-/\/-/\/-/\/
 72
    65
 73
     2
 40
0.4401
 49
0.0001
 74
     4
 75
   135
340
5E
 46
0.0016
 50
0.0
 44
0.0
 45
0.0
 49
-0.4400000000000001
 74
     0
  0
LTYPE
  5
350
330
5
100
AcDbSymbolTableRecord
100
AcDbLinetypeTableRecord
  2
ACISOWELD
 70
     0
  3
_ _ _ _ _
 72
    65
 73
     2
 40
2.0
 49
2.0
 74
     0
 49
-1.0
 74
     0
  0
LTYPE
  5
353
330
5
100
AcDbSymbolTableRecord
100
AcDbLinetypeTableRecord
  2
ACISOTGB
 70
     0
  3
__ . . __ . .
 72
    65
 73
     6
 40
9.0
 49
4.0
 74
     0
 49
-1.0
 74
     0
 49
1.0
 74
     0
 49
-1.0
 74
     0
 49
1.0
 74
     0
 49
-1.0
 74
     0
  0
LTYPE
  5
354
330
5
100
AcDbSymbolTableRecord
100
AcDbLinetypeTableRecord
  2
ACISOTGL
 70
     0
  3
_ _ _ _ _
 72
    65
 73
     2
 40
3.0
 49
2.0
 74
     0
 49
-1.0
 74
     0
  0
ENDTAB
  0
TABLE
  2
LAYER
  5
2
102
{ACAD_XDICTIONARY
360
434
102
}
330
0
100
AcDbSymbolTable
 70
     5
  0
LAYER
  5
10
102
{ACAD_XDICTIONARY
360
8A2
102
}
330
2
100
AcDbSymbolTableRecord
100
AcDbLayerTableRecord
  2
0
 70
     0
 62
     7
  6
Continuous
370
    -3
390
F
  0
LAYER
  5
7F
102
{ACAD_XDICTIONARY
360
8A4
102
}
330
2
100
AcDbSymbolTableRecord
100
AcDbLayerTableRecord
  2
Visible Edges
 70
     0
 62
     7
  6
Continuous
370
    18
390
F
  0
LAYER
  5
436
102
{ACAD_XDICTIONARY
360
8A8
102
}
330
2
100
AcDbSymbolTableRecord
100
AcDbLayerTableRecord
  2
AM_5
 70
     0
 62
     3
  6
Continuous
370
    25
390
F
1001
AcAecLayerStandard
1000

1000

  0
LAYER
  5
43B
330
2
100
AcDbSymbolTableRecord
100
AcDbLayerTableRecord
  2
Defpoints
 70
     0
 62
     7
  6
Continuous
290
     0
370
    -3
390
F
  0
LAYER
  5
A97
330
2
100
AcDbSymbolTableRecord
100
AcDbLayerTableRecord
  2
AM_3
 70
     0
 62
     6
  6
AM_ISO02W050
370
    25
390
F
1001
AcAecLayerStandard
1000

1000

  0
ENDTAB
  0
TABLE
  2
STYLE
  5
3
330
0
100
AcDbSymbolTable
 70
     6
  0
STYLE
  5
11
330
3
100
AcDbSymbolTableRecord
100
AcDbTextStyleTableRecord
  2
STANDARD
 70
     0
 40
0.0
 41
1.0
 50
0.0
 71
     0
 42
3.5
  3
ISOCP.SHX
  4

  0
STYLE
  5
5E
330
3
100
AcDbSymbolTableRecord
100
AcDbTextStyleTableRecord
  2

 70
     1
 40
0.0
 41
1.0
 50
0.0
 71
     0
 42
0.2
  3
ltypeshp.shx
  4

  0
STYLE
  5
318
330
3
100
AcDbSymbolTableRecord
100
AcDbTextStyleTableRecord
  2
ACANSTS
 70
     0
 40
1.0
 41
1.0
 50
0.0
 71
     0
 42
3.5
  3
romans.shx
  4

  0
STYLE
  5
31B
330
3
100
AcDbSymbolTableRecord
100
AcDbTextStyleTableRecord
  2
ACANSGDT
 70
     0
 40
0.0
 41
1.0
 50
0.0
 71
     0
 42
3.5
  3
amgdt.shx
  4

  0
STYLE
  5
34A
330
3
100
AcDbSymbolTableRecord
100
AcDbTextStyleTableRecord
  2
ACISOTS
 70
     0
 40
1.0
 41
1.0
 50
0.0
 71
     0
 42
2.5
  3
isocp.shx
  4

  0
STYLE
  5
34E
330
3
100
AcDbSymbolTableRecord
100
AcDbTextStyleTableRecord
  2
ACISOGDT
 70
     0
 40
0.0
 41
1.0
 50
0.0
 71
     0
 42
2.5
  3
amgdt.shx
  4

  0
ENDTAB
  0
TABLE
  2
VIEW
  5
6
330
0
100
AcDbSymbolTable
 70
     0
  0
ENDTAB
  0
TABLE
  2
UCS
  5
7
330
0
100
AcDbSymbolTable
 70
     0
  0
ENDTAB
  0
TABLE
  2
APPID
  5
9
330
0
100
AcDbSymbolTable
 70
    21
  0
APPID
  5
12
330
9
100
AcDbSymbolTableRecord
100
AcDbRegAppTableRecord
  2
ACAD
 70
     0
  0
APPID
  5
26F
330
9
100
AcDbSymbolTableRecord
100
AcDbRegAppTableRecord
  2
ACAD_MLEADERVER
 70
     0
  0
APPID
  5
277
330
9
100
AcDbSymbolTableRecord
100
AcDbRegAppTableRecord
  2
AD_DRAW
 70
     0
  0
APPID
  5
278
330
9
100
AcDbSymbolTableRecord
100
AcDbRegAppTableRecord
  2
DESIGNERASSEMBLIES
 70
     0
  0
APPID
  5
279
330
9
100
AcDbSymbolTableRecord
100
AcDbRegAppTableRecord
  2
MCAD_NO_VIS
 70
     0
  0
APPID
  5
27A
330
9
100
AcDbSymbolTableRecord
100
AcDbRegAppTableRecord
  2
ASURF_PCURVE_APPNAME
 70
     0
  0
APPID
  5
27B
330
9
100
AcDbSymbolTableRecord
100
AcDbRegAppTableRecord
  2
ACAD_TEMP_GRAPHIC
 70
     0
  0
APPID
  5
27C
330
9
100
AcDbSymbolTableRecord
100
AcDbRegAppTableRecord
  2
ACATTRIBSERVICES
 70
     0
  0
APPID
  5
27D
330
9
100
AcDbSymbolTableRecord
100
AcDbRegAppTableRecord
  2
ACADM_DIM_EDIT
 70
     0
  0
APPID
  5
27E
330
9
100
AcDbSymbolTableRecord
100
AcDbRegAppTableRecord
  2
GENIUS_GENDIM_13
 70
     0
  0
APPID
  5
27F
330
9
100
AcDbSymbolTableRecord
100
AcDbRegAppTableRecord
  2
GENIUS_GENDTOL_13
 70
     0
  0
APPID
  5
280
330
9
100
AcDbSymbolTableRecord
100
AcDbRegAppTableRecord
  2
GENIUS_GE3DTOL_13
 70
     0
  0
APPID
  5
281
330
9
100
AcDbSymbolTableRecord
100
AcDbRegAppTableRecord
  2
AMG_3D2D_5.0
 70
     0
  0
APPID
  5
282
330
9
100
AcDbSymbolTableRecord
100
AcDbRegAppTableRecord
  2
AMDT_DM_ADJ
 70
     0
  0
APPID
  5
283
330
9
100
AcDbSymbolTableRecord
100
AcDbRegAppTableRecord
  2
ACAD_PSEXT
 70
     0
  0
APPID
  5
284
330
9
100
AcDbSymbolTableRecord
100
AcDbRegAppTableRecord
  2
DCO15
 70
     0
  0
APPID
  5
285
330
9
100
AcDbSymbolTableRecord
100
AcDbRegAppTableRecord
  2
ACAD_DSTYLE_DIMTEXT_FILL
 70
     0
  0
APPID
  5
286
330
9
100
AcDbSymbolTableRecord
100
AcDbRegAppTableRecord
  2
AcAecLayerStandard
 70
     0
  0
APPID
  5
453
330
9
100
AcDbSymbolTableRecord
100
AcDbRegAppTableRecord
  2
ACAD_DSTYLE_DIMINSPECT
 70
     0
  0
APPID
  5
8C6
330
9
100
AcDbSymbolTableRecord
100
AcDbRegAppTableRecord
  2
AcDbAttr
 70
     0
  0
APPID
  5
D9B
330
9
100
AcDbSymbolTableRecord
100
AcDbRegAppTableRecord
  2
ACAD_DSTYLE_DIMRADIAL_EXTENSION
 70
     0
  0
ENDTAB
  0
TABLE
  2
DIMSTYLE
  5
A
330
0
100
AcDbSymbolTable
 70
    14
100
AcDbDimStyleTable
 71
     1
340
35D
  0
DIMSTYLE
105
33B
330
A
100
AcDbSymbolTableRecord
100
AcDbDimStyleTableRecord
  2
AM_ANSI
 70
     0
  4
mm
 41
0.1
 42
0.05
 43
0.5
 44
0.1
 47
0.1
 48
0.1
 78
     7
 79
     2
140
0.12
141
0.0
146
0.71
147
0.06
176
   256
177
   256
178
     2
274
     4
284
     7
340
11
371
    -1
372
    -1
  0
DIMSTYLE
105
33C
330
A
100
AcDbSymbolTableRecord
100
AcDbDimStyleTableRecord
  2
AM_ANSI$3
 70
     0
  4
mm
 41
0.1
 42
0.05
 43
0.5
 44
0.1
 47
0.1
 48
0.1
 78
     7
 79
     2
140
0.12
141
0.0
146
0.71
147
0.06
176
   256
177
   256
178
     2
274
     4
284
     7
288
     1
289
     0
340
11
371
    -1
372
    -1
  0
DIMSTYLE
105
33D
330
A
100
AcDbSymbolTableRecord
100
AcDbDimStyleTableRecord
  2
AM_ANSI$4
 70
     0
  4
mm
 41
0.1
 42
0.05
 43
0.5
 44
0.1
 47
0.1
 48
0.1
 78
     7
 79
     2
140
0.12
141
0.0
146
0.71
147
0.06
176
   256
177
   256
178
     2
274
     4
284
     7
288
     1
289
     0
340
11
371
    -1
372
    -1
  0
DIMSTYLE
105
33E
330
A
100
AcDbSymbolTableRecord
100
AcDbDimStyleTableRecord
  2
AM_ANSI$7
 70
     0
  4
mm
 41
0.1
 42
0.05
 43
0.5
 44
0.1
 47
0.1
 48
0.1
 78
     7
 79
     2
140
0.24
141
0.0
146
0.71
147
0.06
176
   256
177
   256
178
     2
274
     4
284
     7
340
11
371
    -1
372
    -1
  0
DIMSTYLE
105
33F
330
A
100
AcDbSymbolTableRecord
100
AcDbDimStyleTableRecord
  2
AM_ANSI$SF
 70
     0
  4
mm
 41
0.1
 42
0.05
 43
0.5
 44
0.1
 47
0.1
 48
0.1
 75
     1
 76
     1
 78
     7
 79
     2
140
0.12
141
0.0
146
0.71
147
0.06
176
   256
177
   256
178
     2
274
     4
284
     7
340
11
371
    -1
372
    -1
  0
DIMSTYLE
105
340
330
A
100
AcDbSymbolTableRecord
100
AcDbDimStyleTableRecord
  2
AM_ANSI$SH
 70
     0
  4
mm
 41
0.1
 42
0.05
 43
0.5
 44
0.1
 47
0.1
 48
0.1
 75
     1
 76
     1
 78
     7
 79
     2
140
0.12
141
0.0
146
0.71
147
0.06
173
     1
176
   256
177
   256
178
     2
274
     4
284
     7
340
11
343
341
371
    -1
372
    -1
  0
DIMSTYLE
105
35D
330
A
100
AcDbSymbolTableRecord
100
AcDbDimStyleTableRecord
  2
AM_ISO
 70
     0
  4
"
 41
2.5
 42
1.0
 43
10.0
 44
1.0
 47
0.1
 48
0.1
 73
     0
 74
     0
 77
     1
 78
     8
 79
     2
140
3.5
141
0.0
143
0.0393701
146
0.71
147
1.5
171
     3
172
     1
176
   256
177
   256
178
     2
271
     2
272
     2
274
     3
283
     0
284
     8
340
11
371
    -1
372
    -1
  0
DIMSTYLE
105
35E
330
A
100
AcDbSymbolTableRecord
100
AcDbDimStyleTableRecord
  2
AM_ISO$3
 70
     0
  4
"
 41
2.5
 42
1.0
 43
10.0
 44
1.0
 47
0.1
 48
0.1
 73
     0
 77
     1
 78
     8
 79
     2
140
3.5
141
0.0
143
0.0393701
146
0.71
147
1.5
176
   256
177
   256
178
     2
271
     2
272
     3
274
     4
283
     0
284
     8
288
     1
289
     0
340
11
371
    -1
372
    -1
  0
DIMSTYLE
105
35F
330
A
100
AcDbSymbolTableRecord
100
AcDbDimStyleTableRecord
  2
AM_ISO$4
 70
     0
  4
"
 41
2.5
 42
1.0
 43
10.0
 44
1.0
 47
0.1
 48
0.1
 73
     0
 77
     1
 78
     8
 79
     2
140
3.5
141
0.0
143
0.0393701
146
0.71
147
1.5
176
   256
177
   256
178
     2
271
     2
272
     3
274
     4
283
     0
284
     8
288
     1
289
     0
340
11
371
    -1
372
    -1
  0
DIMSTYLE
105
360
330
A
100
AcDbSymbolTableRecord
100
AcDbDimStyleTableRecord
  2
AM_ISO$6
 70
     0
  4
"
 41
2.5
 42
1.0
 43
10.0
 44
1.0
 47
0.1
 48
0.1
 73
     0
 74
     0
 78
     8
 79
     2
140
3.5
141
0.0
143
0.0393701
146
0.71
147
1.5
172
     1
176
   256
177
   256
178
     2
271
     2
272
     3
274
     4
283
     0
284
     8
340
11
371
    -1
372
    -1
  0
DIMSTYLE
105
361
330
A
100
AcDbSymbolTableRecord
100
AcDbDimStyleTableRecord
  2
AM_ISO$7
 70
     0
  4
"
 41
2.5
 42
1.0
 43
10.0
 44
1.0
 47
0.1
 48
0.1
 73
     0
 74
     0
 77
     1
 78
     8
 79
     2
140
5.0
141
0.0
143
0.0393701
146
0.71
147
1.5
172
     1
176
   256
177
   256
178
     2
271
     2
272
     3
274
     4
283
     0
284
     8
340
11
371
    -1
372
    -1
  0
DIMSTYLE
105
362
330
A
100
AcDbSymbolTableRecord
100
AcDbDimStyleTableRecord
  2
AM_ISO$SF
 70
     0
  4
"
 41
2.5
 42
1.0
 43
10.0
 44
1.0
 47
0.1
 48
0.1
 73
     0
 74
     0
 75
     1
 76
     1
 77
     1
 78
     8
 79
     2
140
3.5
141
0.0
143
0.0393701
146
0.71
147
1.5
172
     1
176
   256
177
   256
178
     2
271
     2
272
     3
274
     4
283
     0
284
     8
340
11
371
    -1
372
    -1
  0
DIMSTYLE
105
363
330
A
100
AcDbSymbolTableRecord
100
AcDbDimStyleTableRecord
  2
AM_ISO$SH
 70
     0
  4
"
 41
2.5
 42
1.0
 43
10.0
 44
1.0
 47
0.1
 48
0.1
 73
     0
 74
     0
 75
     1
 76
     1
 77
     1
 78
     8
 79
     2
140
3.5
141
0.0
143
0.0393701
144
2.0
146
0.71
147
1.5
172
     1
173
     1
176
   256
177
   256
178
     2
271
     2
272
     3
274
     4
283
     0
284
     8
340
11
343
341
371
    -1
372
    -1
  0
ENDTAB
  0
TABLE
  2
BLOCK_RECORD
  5
1
330
0
100
AcDbSymbolTable
 70
     8
  0
BLOCK_RECORD
  5
21
102
{ACAD_XDICTIONARY
360
602
102
}
330
1
100
AcDbSymbolTableRecord
100
AcDbBlockTableRecord
  2
*Model_Space
340
24
  0
BLOCK_RECORD
  5
1D
330
1
100
AcDbSymbolTableRecord
100
AcDbBlockTableRecord
  2
*Paper_Space
340
20
  0
BLOCK_RECORD
  5
25
330
1
100
AcDbSymbolTableRecord
100
AcDbBlockTableRecord
  2
*Paper_Space0
340
28
  0
BLOCK_RECORD
  5
341
330
1
100
AcDbSymbolTableRecord
100
AcDbBlockTableRecord
  2
GENAXEH
340
0
  0
BLOCK_RECORD
  5
7CD
330
1
100
AcDbSymbolTableRecord
100
AcDbBlockTableRecord
  2
info
340
0
310
2800000020000000200000000100080000000000000400000000000000000000000000000000000000000000000080000080000000808000800000008000800080800000C0C0C000C0DCC000F0CAA6000020400000206000002080000020A0000020C0000020E00000400000004020000040400000406000004080000040A0
310
000040C0000040E00000600000006020000060400000606000006080000060A0000060C0000060E00000800000008020000080400000806000008080000080A0000080C0000080E00000A0000000A0200000A0400000A0600000A0800000A0A00000A0C00000A0E00000C0000000C0200000C0400000C0600000C0800000C0
310
A00000C0C00000C0E00000E0000000E0200000E0400000E0600000E0800000E0A00000E0C00000E0E00040000000400020004000400040006000400080004000A0004000C0004000E00040200000402020004020400040206000402080004020A0004020C0004020E000404000004040200040404000404060004040800040
310
40A0004040C0004040E00040600000406020004060400040606000406080004060A0004060C0004060E00040800000408020004080400040806000408080004080A0004080C0004080E00040A0000040A0200040A0400040A0600040A0800040A0A00040A0C00040A0E00040C0000040C0200040C0400040C0600040C08000
310
40C0A00040C0C00040C0E00040E0000040E0200040E0400040E0600040E0800040E0A00040E0C00040E0E00080000000800020008000400080006000800080008000A0008000C0008000E00080200000802020008020400080206000802080008020A0008020C0008020E00080400000804020008040400080406000804080
310
008040A0008040C0008040E00080600000806020008060400080606000806080008060A0008060C0008060E00080800000808020008080400080806000808080008080A0008080C0008080E00080A0000080A0200080A0400080A0600080A0800080A0A00080A0C00080A0E00080C0000080C0200080C0400080C0600080C0
310
800080C0A00080C0C00080C0E00080E0000080E0200080E0400080E0600080E0800080E0A00080E0C00080E0E000C0000000C0002000C0004000C0006000C0008000C000A000C000C000C000E000C0200000C0202000C0204000C0206000C0208000C020A000C020C000C020E000C0400000C0402000C0404000C0406000C0
310
408000C040A000C040C000C040E000C0600000C0602000C0604000C0606000C0608000C060A000C060C000C060E000C0800000C0802000C0804000C0806000C0808000C080A000C080C000C080E000C0A00000C0A02000C0A04000C0A06000C0A08000C0A0A000C0A0C000C0A0E000C0C00000C0C02000C0C04000C0C06000
310
C0C08000C0C0A000F0FBFF00A4A0A000808080000000FF0000FF000000FFFF00FF000000FF00FF00FFFF0000FFFFFF00FFFFFFFFFFFFFFFFFFFFFFFFFFFFFFFFFFFFFFFFFFFFFFFFFFFFFFFFFFFFFFFFFFFFFFFFFFFFFFFFFFFFFFFFFFFFFFFFFFFFFFFFFFFFFFFFFFFFFFFFFFFFFFFFFFFFFFFFFFFFFFFFFFFFFFFFFFFFFF
310
FFFFFFFFFFFFFFFFFFFFFFFFFFFFFFFFFFFFFFFFFFFFFFFFFFFFFFFFFFFFFFFFFFFFFFFFFFFFFFFFFFFFFFFFFFFFFFFFFFFFFFFFFFFFFFFFFFFFFFFF00FFFFFFFFFFFFFFFFFFFFFFFFFFFFFFFFFFFFFFFFFFFFFFFFFFFFFFFFFFFF00FFFFFFFFFFFFFFFFFFFFFFFFFFFFFFFFFFFFFFFFFFFFFFFFFFFFFFFFFFFF00FFFFFFFF
310
FFFFFFFFFFFFFFFFFFFFFFFFFFFFFFFFFFFF0000000000FFFFFF00FFFFFFFF00FFFFFF00FFFF000000FFFF0000000000FFFFFFFFFFFFFF000000FFFFFFFFFF00FFFFFF00FF00FFFFFF00FFFFFF00FFFF00FFFFFFFFFFFFFF0000FFFFFFFFFF00FFFFFF00FFFFFFFFFF00FFFFFF00FFFF00FFFFFFFFFFFF00FF00FFFFFFFFFF
310
0000000000FFFFFFFFFF00FFFFFF00FFFF00FFFFFFFFFF00FFFFFF00FFFFFFFF00FFFFFF00FFFFFFFFFF00FFFFFF00FFFF00FFFFFFFF00FFFFFFFF00FFFFFFFF00FFFFFF00FFFFFFFFFF00FFFFFF00FFFF00FF00FF00FFFFFFFFFF00FFFFFFFF00FFFFFF00FFFFFFFFFF00FF0000000000FFFFFF00FFFFFFFFFFFFFF00FFFF
310
FFFFFFFFFFFFFFFFFFFFFFFFFFFFFFFFFFFFFFFF00FF00FFFFFFFFFF00FFFFFFFFFFFFFFFFFFFFFFFFFFFFFFFFFFFFFFFFFFFFFFFFFFFF00FFFFFFFF00FFFFFFFFFFFFFFFFFFFFFFFFFFFFFFFFFFFFFFFFFFFFFFFFFFFFFF00FFFFFF00FFFFFFFFFFFFFFFFFFFFFFFFFFFFFFFFFFFFFFFFFFFFFFFFFFFFFFFF00FF00FFFFFF
310
FFFF00000000FFFF00FFFFFF00FF0000000000FFFFFFFFFFFFFFFF0000FFFFFFFFFFFF00FFFF00FF00FFFF00FFFFFFFF00FFFF00FFFFFFFFFFFF000000FFFFFFFFFFFF00FFFF00FF00FF00FFFFFFFFFF00FFFF00FF0000000000FFFFFF00FFFFFFFFFF000000FFFF00000000FFFFFFFF00FFFF00FFFFFFFFFFFFFFFFFFFF00
310
FFFFFFFF00FFFF00FF00FFFFFF00FFFFFF00FFFF00FFFFFFFFFFFFFFFFFFFFFF00FFFFFF00FFFF00FF00FFFFFF00FFFFFF00FFFF00FFFFFFFFFFFFFFFFFFFFFFFF00FF00000000FFFF00000000FFFF0000000000FFFFFFFFFFFFFFFFFFFFFFFFFFFFFFFFFFFFFFFFFFFFFFFFFFFFFFFFFFFFFFFFFFFFFFFFFFFFFFFFFFFFFF
310
FFFFFFFFFFFFFFFFFFFFFFFFFFFFFFFFFFFFFFFFFFFFFFFFFFFFFFFFFFFFFFFFFFFFFFFFFFFFFFFFFFFFFFFFFFFFFFFFFFFFFFFFFFFFFFFFFFFFFFFFFFFFFFFFFFFFFFFFFFFFFFFFFFFFFFFFFFFFFFFFFFFFFFFFFFFFFFFFFFFFFFFFFFFFFFFFFFFFFFFFFFFFFFFFFFFFFFFFFFFFFFFFFFFFFFFFFFFFFFFFFFFFFFFFFFFFFF
310
FFFFFFFFFFFFFFFFFFFFFFFFFFFFFFFFFFFFFFFFFFFFFFFFFFFFFFFFFFFFFFFFFFFFFFFFFFFFFFFFFFFFFFFFFFFFFFFFFFFFFFFFFFFFFFFF
102
{BLKREFS
331
B96
331
FD7
102
}
1001
ACAD
1000
DesignCenter Data
1002
{
1070
     1
1070
     4
1002
}
  0
BLOCK_RECORD
  5
DDA
330
1
100
AcDbSymbolTableRecord
100
AcDbBlockTableRecord
  2
RX125
340
0
310
2800000020000000200000000100080000000000000400000000000000000000000000000000000000000000000080000080000000808000800000008000800080800000C0C0C000C0DCC000F0CAA6000020400000206000002080000020A0000020C0000020E00000400000004020000040400000406000004080000040A0
310
000040C0000040E00000600000006020000060400000606000006080000060A0000060C0000060E00000800000008020000080400000806000008080000080A0000080C0000080E00000A0000000A0200000A0400000A0600000A0800000A0A00000A0C00000A0E00000C0000000C0200000C0400000C0600000C0800000C0
310
A00000C0C00000C0E00000E0000000E0200000E0400000E0600000E0800000E0A00000E0C00000E0E00040000000400020004000400040006000400080004000A0004000C0004000E00040200000402020004020400040206000402080004020A0004020C0004020E000404000004040200040404000404060004040800040
310
40A0004040C0004040E00040600000406020004060400040606000406080004060A0004060C0004060E00040800000408020004080400040806000408080004080A0004080C0004080E00040A0000040A0200040A0400040A0600040A0800040A0A00040A0C00040A0E00040C0000040C0200040C0400040C0600040C08000
310
40C0A00040C0C00040C0E00040E0000040E0200040E0400040E0600040E0800040E0A00040E0C00040E0E00080000000800020008000400080006000800080008000A0008000C0008000E00080200000802020008020400080206000802080008020A0008020C0008020E00080400000804020008040400080406000804080
310
008040A0008040C0008040E00080600000806020008060400080606000806080008060A0008060C0008060E00080800000808020008080400080806000808080008080A0008080C0008080E00080A0000080A0200080A0400080A0600080A0800080A0A00080A0C00080A0E00080C0000080C0200080C0400080C0600080C0
310
800080C0A00080C0C00080C0E00080E0000080E0200080E0400080E0600080E0800080E0A00080E0C00080E0E000C0000000C0002000C0004000C0006000C0008000C000A000C000C000C000E000C0200000C0202000C0204000C0206000C0208000C020A000C020C000C020E000C0400000C0402000C0404000C0406000C0
310
408000C040A000C040C000C040E000C0600000C0602000C0604000C0606000C0608000C060A000C060C000C060E000C0800000C0802000C0804000C0806000C0808000C080A000C080C000C080E000C0A00000C0A02000C0A04000C0A06000C0A08000C0A0A000C0A0C000C0A0E000C0C00000C0C02000C0C04000C0C06000
310
C0C08000C0C0A000F0FBFF00A4A0A000808080000000FF0000FF000000FFFF00FF000000FF00FF00FFFF0000FFFFFF0000000000000000000000000000000000000000000000000000000000000000000000000000000000000000000000000000000000000000000000000000000000000000000000000000000000000000
310
0000FFFF00000000000000000000000000000000000000000000000000FFFFFDFDFDFDFDFDFDFF000000000000000000000000000000000000000000FFFDFD0000FFFFFF0000FDFDFF0000000000000000000000000000000000FFFDFD00000000FFFFFF00000000FDFFFF00000000000000000000000000FFFFFD000000FF
310
FFFF000000FFFF000000FD00FF000000000000000000000000FFFD0000FFFF0000000000000000FFFF0000FD00FF00000000000000000000FFFD00FFFF0000FFFF00000000FFFFFF00FFFF00FDFF00000000000000000000FFFDFFFFFFFF00FFFF00000000FFFF0000FF00FFFFFDFF0000000000FAFAFAFAFDFAFAFAFAFFFF
310
FFFFFFFFFFFFFFFFFFFF0000FFFFFFFD0000000000FA0000FFFD00FF00FFFF00000000000000000000FF00FF00FF00FDFF00000000FA0000FD00FF00FFFFFF00000000000000000000FFFFFF00FF0000FD000000FBFB00FFFD00FF00FFFFFF00000000000000000000FFFFFF00FF0000FD000000FBFB00FFFD00FF000000FF
310
00000000000000000000FF00000000FF00FDFF0000FBFB00FFFD00FF000000FF00000000000000000000FF00000000FF00FDFF0000FBFB00FFFD00FF000000FF00000000000000000000FF00000000FF00FDFF0000FBFB00FFFD00FF000000FF00000000000000000000FF00000000FF00FD00000000FA0000FD00FF00FFFF
310
FF00000000000000000000FFFFFF00FF0000FD00000000FA0000FFFDFF00FFFFFF00000000000000000000FFFFFF00FF0000FD00000000FA0000FFFDFFFF0000FF00000000000000000000FF0000FFFFFFFD0000000000FAFAFAFAFDFAFAFAFAFFFFFFFFFFFFFFFFFFFFFFFFFF00FFFFFDFF000000000000000000FFFD00FF
310
FFFF00FFFF00000000FFFFFF00FFFF0000FDFF00000000000000000000FD0000FF0000FFFF00000000FFFF000000FF00FDFF0000000000000000000000FFFD0000FFFF000000000000000000FFFF00FDFF00000000000000000000000000FFFDFD0000FFFFFFFFFFFFFFFFFF00FAFDFF000000000000000000000000000000
310
00FFFDFD000000FFFFFF0000FDFDFDFAFAFBFAFB0000000000000000000000000000FFFFFDFDFDFDFDFDFDFDFAFAFFFBFBFBFBFB0000000000000000000000000000000000FFFFFFFFFFFFFFFFFBFBFBFBFB000000000000000000000000000000000000000000000000000000FBFBFBFBFB00000000000000000000000000
310
0000000000000000000000000000000000000000000000000000000000000000000000000000000000000000000000000000000000000000
102
{BLKREFS
331
FE8
102
}
  0
ENDTAB
  0
ENDSEC
  0
SECTION
  2
BLOCKS
  0
BLOCK
  5
22
330
21
100
AcDbEntity
  8
0
100
AcDbBlockBegin
  2
*Model_Space
 70
     0
 10
0.0
 20
0.0
 30
0.0
  3
*Model_Space
  1

  0
ENDBLK
  5
23
330
21
100
AcDbEntity
  8
0
100
AcDbBlockEnd
  0
BLOCK
  5
1E
330
1D
100
AcDbEntity
 67
     1
  8
0
100
AcDbBlockBegin
  2
*Paper_Space
 70
     0
 10
0.0
 20
0.0
 30
0.0
  3
*Paper_Space
  1

  0
ENDBLK
  5
1F
330
1D
100
AcDbEntity
 67
     1
  8
0
100
AcDbBlockEnd
  0
BLOCK
  5
26
330
25
100
AcDbEntity
 67
     1
  8
0
100
AcDbBlockBegin
  2
*Paper_Space0
 70
     0
 10
0.0
 20
0.0
 30
0.0
  3
*Paper_Space0
  1

  0
ENDBLK
  5
27
330
25
100
AcDbEntity
 67
     1
  8
0
100
AcDbBlockEnd
  0
BLOCK
  5
C64
330
341
100
AcDbEntity
  8
0
100
AcDbBlockBegin
  2
GENAXEH
 70
     0
 10
0.0
 20
0.0
 30
0.0
  3
GENAXEH
  1

  0
LINE
  5
C65
330
341
100
AcDbEntity
  8
0
100
AcDbLine
 10
-1.0
 20
0.0
 30
0.0
 11
1.0
 21
0.0
 31
0.0
  0
ENDBLK
  5
C66
330
341
100
AcDbEntity
  8
0
100
AcDbBlockEnd
  0
BLOCK
  5
7CE
330
7CD
100
AcDbEntity
  8
0
100
AcDbBlockBegin
  2
info
 70
     2
 10
0.0
 20
0.0
 30
0.0
  3
info
  1

  0
POINT
  5
7CF
330
7CD
100
AcDbEntity
  8
0
100
AcDbPoint
 10
0.0
 20
0.0
 30
0.0
  0
ATTDEF
  5
7D0
330
7CD
100
AcDbEntity
  8
0
100
AcDbText
 10
9.467092950319427
 20
2.891095235479383
 30
0.00000001
 40
5.0
  1

100
AcDbAttributeDefinition
  3
bredd
  2
BRD
 70
     1
1001
AcDbAttr
1070
     0
1070
     1
  0
ATTDEF
  5
7D1
330
7CD
100
AcDbEntity
  8
0
100
AcDbText
 10
9.467092950319427
 20
-5.442238097853946
 30
0.00000001
 40
5.0
  1

100
AcDbAttributeDefinition
  3
Höjd
  2
HJD
 70
     1
1001
AcDbAttr
1070
     0
1070
     1
  0
ENDBLK
  5
7D2
330
7CD
100
AcDbEntity
  8
0
100
AcDbBlockEnd
  0
BLOCK
  5
DDB
330
DDA
100
AcDbEntity
  8
0
100
AcDbBlockBegin
  2
RX125
 70
     0
 10
0.0
 20
0.0
 30
0.0
  3
RX125
  1

  0
CIRCLE
  5
F3A
330
DDA
100
AcDbEntity
  8
Visible Edges
  6
Continuous
370
    18
100
AcDbCircle
 10
-67.11696879329543
 20
-38.75000000000003
 30
0.0
 40
5.25
  0
CIRCLE
  5
F3B
330
DDA
100
AcDbEntity
  8
Visible Edges
  6
Continuous
370
    18
100
AcDbCircle
 10
-67.11696879329547
 20
38.75000000000003
 30
0.0
 40
5.25
  0
CIRCLE
  5
F3C
330
DDA
100
AcDbEntity
  8
Visible Edges
  6
Continuous
370
    18
100
AcDbCircle
 10
-0.000000000002899
 20
0.0
 30
0.0
 40
90.0
  0
ARC
  5
F3D
330
DDA
100
AcDbEntity
  8
Visible Edges
  6
Continuous
370
    18
100
AcDbCircle
 10
0.0000000000213447
 20
-0.0000000000217995
 30
0.0
 40
62.74999999996914
100
AcDbArc
 50
314.0868811956981
 51
315.913118804303
  0
ARC
  5
F3E
330
DDA
100
AcDbEntity
  8
Visible Edges
  6
Continuous
370
    18
100
AcDbCircle
 10
-0.0000000000044906
 20
-0.0000000000037232
 30
0.0
 40
62.74999999999465
100
AcDbArc
 50
224.0868811956981
 51
225.913118804303
  0
ARC
  5
F3F
330
DDA
100
AcDbEntity
  8
Visible Edges
  6
Continuous
370
    18
100
AcDbCircle
 10
0.0000000000130171
 20
-0.0000000000135003
 30
0.0
 40
62.75000000001917
100
AcDbArc
 50
134.0868811956981
 51
135.9131188043018
  0
ARC
  5
F40
330
DDA
100
AcDbEntity
  8
Visible Edges
  6
Continuous
370
    18
100
AcDbCircle
 10
0.0000000000212026
 20
0.0000000000218847
 30
0.0
 40
62.74999999996914
100
AcDbArc
 50
44.08688119569702
 51
45.91311880430185
  0
ARC
  5
F41
330
DDA
100
AcDbEntity
  8
Visible Edges
  6
Continuous
370
    18
100
AcDbCircle
 10
0.0000000000131308
 20
-0.000000000013813
 30
0.0
 40
69.84999999998056
100
AcDbArc
 50
314.1380269791909
 51
315.8619730208102
  0
ARC
  5
F42
330
DDA
100
AcDbEntity
  8
Visible Edges
  6
Continuous
370
    18
100
AcDbCircle
 10
-0.0000000000138982
 20
-0.0000000000133014
 30
0.0
 40
69.84999999998115
100
AcDbArc
 50
224.138026979191
 51
225.8619730208102
  0
ARC
  5
F43
330
DDA
100
AcDbEntity
  8
Visible Edges
  6
Continuous
370
    18
100
AcDbCircle
 10
0.0000000000071054
 20
-0.0000000000073896
 30
0.0
 40
69.85000000001064
100
AcDbArc
 50
134.1380269791909
 51
135.861973020809
  0
ARC
  5
F44
330
DDA
100
AcDbEntity
  8
Visible Edges
  6
Continuous
370
    18
100
AcDbCircle
 10
0.0000000000149214
 20
0.0000000000152909
 30
0.0
 40
69.84999999997825
100
AcDbArc
 50
44.13802697919094
 51
45.86197302080906
  0
CIRCLE
  5
F45
330
DDA
100
AcDbEntity
  8
Visible Edges
  6
Continuous
370
    18
100
AcDbCircle
 10
-0.0000000000014779
 20
-77.49999999999997
 30
0.0
 40
5.25
  0
CIRCLE
  5
F46
330
DDA
100
AcDbEntity
  8
Visible Edges
  6
Continuous
370
    18
100
AcDbCircle
 10
67.11696879329261
 20
38.75000000000003
 30
0.0
 40
5.249999999999999
  0
CIRCLE
  5
F47
330
DDA
100
AcDbEntity
  8
Visible Edges
  6
Continuous
370
    18
100
AcDbCircle
 10
-0.0000000000014779
 20
77.50000000000003
 30
0.0
 40
5.25
  0
CIRCLE
  5
F48
330
DDA
100
AcDbEntity
  8
Visible Edges
  6
Continuous
370
    18
100
AcDbCircle
 10
67.11696879329261
 20
-38.75000000000003
 30
0.0
 40
5.25
  0
CIRCLE
  5
F49
330
DDA
100
AcDbEntity
  8
Visible Edges
  6
Continuous
370
    18
100
AcDbCircle
 10
22.00000000000233
 20
-49.00000000000003
 30
0.0
 40
3.000000000000001
  0
CIRCLE
  5
F4A
330
DDA
100
AcDbEntity
  8
Visible Edges
  6
Continuous
370
    18
100
AcDbCircle
 10
-21.99999999999767
 20
-49.00000000000003
 30
0.0
 40
3.000000000000001
  0
CIRCLE
  5
F4B
330
DDA
100
AcDbEntity
  8
Visible Edges
  6
Continuous
370
    18
100
AcDbCircle
 10
49.00000000000233
 20
22.0
 30
0.0
 40
3.000000000000001
  0
CIRCLE
  5
F4C
330
DDA
100
AcDbEntity
  8
Visible Edges
  6
Continuous
370
    18
100
AcDbCircle
 10
49.00000000000233
 20
-22.00000000000001
 30
0.0
 40
3.000000000000001
  0
CIRCLE
  5
F4D
330
DDA
100
AcDbEntity
  8
Visible Edges
  6
Continuous
370
    18
100
AcDbCircle
 10
-21.99999999999767
 20
49.00000000000003
 30
0.0
 40
3.000000000000001
  0
CIRCLE
  5
F4E
330
DDA
100
AcDbEntity
  8
Visible Edges
  6
Continuous
370
    18
100
AcDbCircle
 10
22.00000000000233
 20
49.00000000000003
 30
0.0
 40
3.000000000000001
  0
LINE
  5
F4F
330
DDA
100
AcDbEntity
  8
Visible Edges
  6
Continuous
370
    18
100
AcDbLine
 10
-27.77350269189418
 20
-49.00000000000003
 30
0.0
 11
-24.88675134594607
 21
-44.00000000000011
 31
0.0
  0
LINE
  5
F50
330
DDA
100
AcDbEntity
  8
Visible Edges
  6
Continuous
370
    18
100
AcDbLine
 10
-24.88675134594607
 20
-44.00000000000011
 30
0.0
 11
-19.11324865404987
 21
-44.0
 31
0.0
  0
LINE
  5
F51
330
DDA
100
AcDbEntity
  8
Visible Edges
  6
Continuous
370
    18
100
AcDbLine
 10
-19.11324865404987
 20
-44.0
 30
0.0
 11
-16.22649730810167
 21
-49.00000000000003
 31
0.0
  0
LINE
  5
F52
330
DDA
100
AcDbEntity
  8
Visible Edges
  6
Continuous
370
    18
100
AcDbLine
 10
-16.22649730810167
 20
-49.00000000000003
 30
0.0
 11
-19.11324865404987
 21
-54.00000000000003
 31
0.0
  0
LINE
  5
F53
330
DDA
100
AcDbEntity
  8
Visible Edges
  6
Continuous
370
    18
100
AcDbLine
 10
-19.11324865404987
 20
-54.00000000000003
 30
0.0
 11
-24.88675134594607
 21
-54.00000000000003
 31
0.0
  0
LINE
  5
F54
330
DDA
100
AcDbEntity
  8
Visible Edges
  6
Continuous
370
    18
100
AcDbLine
 10
-24.88675134594607
 20
-54.00000000000003
 30
0.0
 11
-27.77350269189418
 21
-49.00000000000003
 31
0.0
  0
LINE
  5
F55
330
DDA
100
AcDbEntity
  8
Visible Edges
  6
Continuous
370
    18
100
AcDbLine
 10
16.22649730810571
 20
-49.00000000000003
 30
0.0
 11
19.1132486540539
 21
-44.0
 31
0.0
  0
LINE
  5
F56
330
DDA
100
AcDbEntity
  8
Visible Edges
  6
Continuous
370
    18
100
AcDbLine
 10
19.1132486540539
 20
-44.0
 30
0.0
 11
24.88675134595013
 21
-44.0
 31
0.0
  0
LINE
  5
F57
330
DDA
100
AcDbEntity
  8
Visible Edges
  6
Continuous
370
    18
100
AcDbLine
 10
24.88675134595013
 20
-44.0
 30
0.0
 11
27.77350269189819
 21
-49.00000000000003
 31
0.0
  0
LINE
  5
F58
330
DDA
100
AcDbEntity
  8
Visible Edges
  6
Continuous
370
    18
100
AcDbLine
 10
27.77350269189819
 20
-49.00000000000003
 30
0.0
 11
24.88675134595013
 21
-54.00000000000003
 31
0.0
  0
LINE
  5
F59
330
DDA
100
AcDbEntity
  8
Visible Edges
  6
Continuous
370
    18
100
AcDbLine
 10
24.88675134595013
 20
-54.00000000000003
 30
0.0
 11
19.1132486540539
 21
-54.00000000000003
 31
0.0
  0
LINE
  5
F5A
330
DDA
100
AcDbEntity
  8
Visible Edges
  6
Continuous
370
    18
100
AcDbLine
 10
19.1132486540539
 20
-54.00000000000003
 30
0.0
 11
16.22649730810571
 21
-49.00000000000003
 31
0.0
  0
LINE
  5
F5B
330
DDA
100
AcDbEntity
  8
Visible Edges
  6
Continuous
370
    18
100
AcDbLine
 10
49.00000000000201
 20
-27.7735026918962
 30
0.0
 11
44.00000000000213
 21
-24.8867513459481
 31
0.0
  0
LINE
  5
F5C
330
DDA
100
AcDbEntity
  8
0
  6
Continuous
370
    18
100
AcDbLine
 10
44.00000000000213
 20
-24.8867513459481
 30
0.0
 11
44.00000000000213
 21
-19.11324865405191
 31
0.0
  0
LINE
  5
F5D
330
DDA
100
AcDbEntity
  8
Visible Edges
  6
Continuous
370
    18
100
AcDbLine
 10
44.00000000000213
 20
-19.11324865405191
 30
0.0
 11
49.00000000000213
 21
-16.2264973081038
 31
0.0
  0
LINE
  5
F5E
330
DDA
100
AcDbEntity
  8
Visible Edges
  6
Continuous
370
    18
100
AcDbLine
 10
49.00000000000213
 20
-16.2264973081038
 30
0.0
 11
54.00000000000201
 21
-19.11324865405191
 31
0.0
  0
LINE
  5
F5F
330
DDA
100
AcDbEntity
  8
Visible Edges
  6
Continuous
370
    18
100
AcDbLine
 10
54.00000000000201
 20
-19.11324865405191
 30
0.0
 11
54.00000000000201
 21
-24.8867513459481
 31
0.0
  0
LINE
  5
F60
330
DDA
100
AcDbEntity
  8
Visible Edges
  6
Continuous
370
    18
100
AcDbLine
 10
54.00000000000201
 20
-24.8867513459481
 30
0.0
 11
49.00000000000201
 21
-27.7735026918962
 31
0.0
  0
LINE
  5
F61
330
DDA
100
AcDbEntity
  8
Visible Edges
  6
Continuous
370
    18
100
AcDbLine
 10
49.00000000000213
 20
16.2264973081038
 30
0.0
 11
44.00000000000213
 21
19.11324865405189
 31
0.0
  0
LINE
  5
F62
330
DDA
100
AcDbEntity
  8
0
  6
Continuous
370
    18
100
AcDbLine
 10
44.00000000000213
 20
19.11324865405189
 30
0.0
 11
44.00000000000213
 21
24.8867513459482
 31
0.0
  0
LINE
  5
F63
330
DDA
100
AcDbEntity
  8
Visible Edges
  6
Continuous
370
    18
100
AcDbLine
 10
44.00000000000213
 20
24.8867513459482
 30
0.0
 11
49.00000000000213
 21
27.77350269189629
 31
0.0
  0
LINE
  5
F64
330
DDA
100
AcDbEntity
  8
Visible Edges
  6
Continuous
370
    18
100
AcDbLine
 10
49.00000000000213
 20
27.77350269189629
 30
0.0
 11
54.00000000000201
 21
24.8867513459482
 31
0.0
  0
LINE
  5
F65
330
DDA
100
AcDbEntity
  8
Visible Edges
  6
Continuous
370
    18
100
AcDbLine
 10
54.00000000000201
 20
24.8867513459482
 30
0.0
 11
54.00000000000201
 21
19.11324865405189
 31
0.0
  0
LINE
  5
F66
330
DDA
100
AcDbEntity
  8
Visible Edges
  6
Continuous
370
    18
100
AcDbLine
 10
54.00000000000201
 20
19.11324865405189
 30
0.0
 11
49.00000000000213
 21
16.2264973081038
 31
0.0
  0
LINE
  5
F67
330
DDA
100
AcDbEntity
  8
Visible Edges
  6
Continuous
370
    18
100
AcDbLine
 10
27.77350269189819
 20
49.00000000000003
 30
0.0
 11
24.88675134595013
 21
44.00000000000011
 31
0.0
  0
LINE
  5
F68
330
DDA
100
AcDbEntity
  8
Visible Edges
  6
Continuous
370
    18
100
AcDbLine
 10
24.88675134595013
 20
44.00000000000011
 30
0.0
 11
19.1132486540539
 21
44.00000000000003
 31
0.0
  0
LINE
  5
F69
330
DDA
100
AcDbEntity
  8
Visible Edges
  6
Continuous
370
    18
100
AcDbLine
 10
19.1132486540539
 20
44.00000000000003
 30
0.0
 11
16.22649730810571
 21
49.00000000000003
 31
0.0
  0
LINE
  5
F6A
330
DDA
100
AcDbEntity
  8
Visible Edges
  6
Continuous
370
    18
100
AcDbLine
 10
16.22649730810571
 20
49.00000000000003
 30
0.0
 11
19.1132486540539
 21
54.00000000000011
 31
0.0
  0
LINE
  5
F6B
330
DDA
100
AcDbEntity
  8
Visible Edges
  6
Continuous
370
    18
100
AcDbLine
 10
19.1132486540539
 20
54.00000000000011
 30
0.0
 11
24.88675134595013
 21
54.00000000000011
 31
0.0
  0
LINE
  5
F6C
330
DDA
100
AcDbEntity
  8
Visible Edges
  6
Continuous
370
    18
100
AcDbLine
 10
24.88675134595013
 20
54.00000000000011
 30
0.0
 11
27.77350269189819
 21
49.00000000000003
 31
0.0
  0
LINE
  5
F6D
330
DDA
100
AcDbEntity
  8
Visible Edges
  6
Continuous
370
    18
100
AcDbLine
 10
-16.22649730810167
 20
49.00000000000003
 30
0.0
 11
-19.11324865404987
 21
44.00000000000003
 31
0.0
  0
LINE
  5
F6E
330
DDA
100
AcDbEntity
  8
Visible Edges
  6
Continuous
370
    18
100
AcDbLine
 10
-19.11324865404987
 20
44.00000000000003
 30
0.0
 11
-24.88675134594607
 21
44.00000000000003
 31
0.0
  0
LINE
  5
F6F
330
DDA
100
AcDbEntity
  8
Visible Edges
  6
Continuous
370
    18
100
AcDbLine
 10
-24.88675134594607
 20
44.00000000000003
 30
0.0
 11
-27.77350269189426
 21
49.00000000000003
 31
0.0
  0
LINE
  5
F70
330
DDA
100
AcDbEntity
  8
Visible Edges
  6
Continuous
370
    18
100
AcDbLine
 10
-27.77350269189426
 20
49.00000000000003
 30
0.0
 11
-24.88675134594607
 21
54.00000000000011
 31
0.0
  0
LINE
  5
F71
330
DDA
100
AcDbEntity
  8
Visible Edges
  6
Continuous
370
    18
100
AcDbLine
 10
-24.88675134594607
 20
54.00000000000011
 30
0.0
 11
-19.11324865404987
 21
54.00000000000011
 31
0.0
  0
LINE
  5
F72
330
DDA
100
AcDbEntity
  8
Visible Edges
  6
Continuous
370
    18
100
AcDbLine
 10
-19.11324865404987
 20
54.00000000000011
 30
0.0
 11
-16.22649730810167
 21
49.00000000000003
 31
0.0
  0
ARC
  5
F73
330
DDA
100
AcDbEntity
  8
Visible Edges
  6
Continuous
370
    18
100
AcDbCircle
 10
-21.99999999999957
 20
-49.00000000000003
 30
0.0
 40
5.750000000000002
100
AcDbArc
 50
300.4081542060494
 51
359.5918457939514
  0
ARC
  5
F74
330
DDA
100
AcDbEntity
  8
Visible Edges
  6
Continuous
370
    18
100
AcDbCircle
 10
-21.99999999999957
 20
-49.00000000000003
 30
0.0
 40
5.749999999999992
100
AcDbArc
 50
240.4081542060496
 51
299.5918457939504
  0
ARC
  5
F75
330
DDA
100
AcDbEntity
  8
Visible Edges
  6
Continuous
370
    18
100
AcDbCircle
 10
-21.99999999999949
 20
-49.00000000000003
 30
0.0
 40
5.750000000000017
100
AcDbArc
 50
180.4081542060486
 51
239.5918457939514
  0
ARC
  5
F76
330
DDA
100
AcDbEntity
  8
Visible Edges
  6
Continuous
370
    18
100
AcDbCircle
 10
-21.99999999999949
 20
-49.00000000000003
 30
0.0
 40
5.750000000000037
100
AcDbArc
 50
120.4081542060495
 51
179.5918457939514
  0
ARC
  5
F77
330
DDA
100
AcDbEntity
  8
Visible Edges
  6
Continuous
370
    18
100
AcDbCircle
 10
-21.99999999999957
 20
-49.00000000000003
 30
0.0
 40
5.749999999999992
100
AcDbArc
 50
60.40815420604957
 51
119.5918457939504
  0
ARC
  5
F78
330
DDA
100
AcDbEntity
  8
Visible Edges
  6
Continuous
370
    18
100
AcDbCircle
 10
-21.99999999999957
 20
-49.00000000000003
 30
0.0
 40
5.750000000000002
100
AcDbArc
 50
0.4081542060485955
 51
59.59184579395053
  0
ARC
  5
F79
330
DDA
100
AcDbEntity
  8
Visible Edges
  6
Continuous
370
    18
100
AcDbCircle
 10
22.00000000000043
 20
-48.99999999999995
 30
0.0
 40
5.75000000000003
100
AcDbArc
 50
300.4081542060494
 51
359.5918457939514
  0
ARC
  5
F7A
330
DDA
100
AcDbEntity
  8
Visible Edges
  6
Continuous
370
    18
100
AcDbCircle
 10
22.00000000000054
 20
-49.00000000000003
 30
0.0
 40
5.749999999999976
100
AcDbArc
 50
240.4081542060496
 51
299.5918457939504
  0
ARC
  5
F7B
330
DDA
100
AcDbEntity
  8
Visible Edges
  6
Continuous
370
    18
100
AcDbCircle
 10
22.00000000000054
 20
-48.99999999999995
 30
0.0
 40
5.750000000000013
100
AcDbArc
 50
180.4081542060486
 51
239.5918457939505
  0
ARC
  5
F7C
330
DDA
100
AcDbEntity
  8
Visible Edges
  6
Continuous
370
    18
100
AcDbCircle
 10
22.00000000000054
 20
-48.99999999999995
 30
0.0
 40
5.749999999999985
100
AcDbArc
 50
120.4081542060495
 51
179.5918457939514
  0
ARC
  5
F7D
330
DDA
100
AcDbEntity
  8
Visible Edges
  6
Continuous
370
    18
100
AcDbCircle
 10
22.00000000000054
 20
-48.99999999999995
 30
0.0
 40
5.749999999999992
100
AcDbArc
 50
60.40815420604957
 51
119.5918457939504
  0
ARC
  5
F7E
330
DDA
100
AcDbEntity
  8
Visible Edges
  6
Continuous
370
    18
100
AcDbCircle
 10
22.00000000000054
 20
-48.99999999999995
 30
0.0
 40
5.749999999999985
100
AcDbArc
 50
0.4081542060485955
 51
59.59184579395053
  0
ARC
  5
F7F
330
DDA
100
AcDbEntity
  8
Visible Edges
  6
Continuous
370
    18
100
AcDbCircle
 10
49.00000000000054
 20
-22.00000000000001
 30
0.0
 40
5.750000000000007
100
AcDbArc
 50
30.40815420604948
 51
89.5918457939514
  0
ARC
  5
F80
330
DDA
100
AcDbEntity
  8
Visible Edges
  6
Continuous
370
    18
100
AcDbCircle
 10
49.00000000000054
 20
-22.00000000000001
 30
0.0
 40
5.749999999999982
100
AcDbArc
 50
330.4081542060496
 51
29.59184579395044
  0
ARC
  5
F81
330
DDA
100
AcDbEntity
  8
Visible Edges
  6
Continuous
370
    18
100
AcDbCircle
 10
49.00000000000054
 20
-22.00000000000001
 30
0.0
 40
5.750000000000017
100
AcDbArc
 50
270.4081542060486
 51
329.5918457939505
  0
ARC
  5
F82
330
DDA
100
AcDbEntity
  8
Visible Edges
  6
Continuous
370
    18
100
AcDbCircle
 10
49.00000000000054
 20
-22.00000000000001
 30
0.0
 40
5.750000000000023
100
AcDbArc
 50
210.4081542060495
 51
269.5918457939514
  0
ARC
  5
F83
330
DDA
100
AcDbEntity
  8
0
  6
Continuous
370
    18
100
AcDbCircle
 10
49.00000000000054
 20
-22.00000000000001
 30
0.0
 40
5.749999999999982
100
AcDbArc
 50
150.4081542060495
 51
209.5918457939505
  0
ARC
  5
F84
330
DDA
100
AcDbEntity
  8
Visible Edges
  6
Continuous
370
    18
100
AcDbCircle
 10
49.00000000000054
 20
-22.00000000000001
 30
0.0
 40
5.750000000000013
100
AcDbArc
 50
90.40815420604859
 51
149.5918457939513
  0
ARC
  5
F85
330
DDA
100
AcDbEntity
  8
Visible Edges
  6
Continuous
370
    18
100
AcDbCircle
 10
49.00000000000054
 20
22.0
 30
0.0
 40
5.750000000000002
100
AcDbArc
 50
30.40815420604948
 51
89.5918457939514
  0
ARC
  5
F86
330
DDA
100
AcDbEntity
  8
Visible Edges
  6
Continuous
370
    18
100
AcDbCircle
 10
49.00000000000054
 20
22.0
 30
0.0
 40
5.75
100
AcDbArc
 50
330.4081542060496
 51
29.59184579395044
  0
ARC
  5
F87
330
DDA
100
AcDbEntity
  8
Visible Edges
  6
Continuous
370
    18
100
AcDbCircle
 10
49.00000000000054
 20
22.0
 30
0.0
 40
5.749999999999992
100
AcDbArc
 50
270.4081542060502
 51
329.5918457939505
  0
ARC
  5
F88
330
DDA
100
AcDbEntity
  8
Visible Edges
  6
Continuous
370
    18
100
AcDbCircle
 10
49.00000000000054
 20
22.0
 30
0.0
 40
5.750000000000007
100
AcDbArc
 50
210.4081542060495
 51
269.5918457939514
  0
ARC
  5
F89
330
DDA
100
AcDbEntity
  8
0
  6
Continuous
370
    18
100
AcDbCircle
 10
49.00000000000054
 20
22.0
 30
0.0
 40
5.750000000000002
100
AcDbArc
 50
150.4081542060495
 51
209.5918457939505
  0
ARC
  5
F8A
330
DDA
100
AcDbEntity
  8
Visible Edges
  6
Continuous
370
    18
100
AcDbCircle
 10
49.00000000000054
 20
22.0
 30
0.0
 40
5.749999999999976
100
AcDbArc
 50
90.40815420604859
 51
149.5918457939505
  0
ARC
  5
F8B
330
DDA
100
AcDbEntity
  8
Visible Edges
  6
Continuous
370
    18
100
AcDbCircle
 10
22.00000000000043
 20
49.00000000000003
 30
0.0
 40
5.750000000000002
100
AcDbArc
 50
120.4081542060495
 51
179.5918457939514
  0
ARC
  5
F8C
330
DDA
100
AcDbEntity
  8
Visible Edges
  6
Continuous
370
    18
100
AcDbCircle
 10
22.00000000000043
 20
49.00000000000003
 30
0.0
 40
5.749999999999992
100
AcDbArc
 50
60.40815420604957
 51
119.5918457939504
  0
ARC
  5
F8D
330
DDA
100
AcDbEntity
  8
Visible Edges
  6
Continuous
370
    18
100
AcDbCircle
 10
22.00000000000043
 20
49.00000000000003
 30
0.0
 40
5.750000000000017
100
AcDbArc
 50
0.4081542060485955
 51
59.59184579395135
  0
ARC
  5
F8E
330
DDA
100
AcDbEntity
  8
Visible Edges
  6
Continuous
370
    18
100
AcDbCircle
 10
22.00000000000043
 20
49.00000000000011
 30
0.0
 40
5.750000000000037
100
AcDbArc
 50
300.4081542060486
 51
359.5918457939514
  0
ARC
  5
F8F
330
DDA
100
AcDbEntity
  8
Visible Edges
  6
Continuous
370
    18
100
AcDbCircle
 10
22.00000000000043
 20
49.00000000000003
 30
0.0
 40
5.749999999999992
100
AcDbArc
 50
240.4081542060496
 51
299.5918457939504
  0
ARC
  5
F90
330
DDA
100
AcDbEntity
  8
Visible Edges
  6
Continuous
370
    18
100
AcDbCircle
 10
22.00000000000043
 20
49.00000000000003
 30
0.0
 40
5.750000000000002
100
AcDbArc
 50
180.4081542060486
 51
239.5918457939514
  0
ARC
  5
F91
330
DDA
100
AcDbEntity
  8
Visible Edges
  6
Continuous
370
    18
100
AcDbCircle
 10
-21.99999999999949
 20
49.00000000000003
 30
0.0
 40
5.75000000000003
100
AcDbArc
 50
120.4081542060495
 51
179.5918457939514
  0
ARC
  5
F92
330
DDA
100
AcDbEntity
  8
Visible Edges
  6
Continuous
370
    18
100
AcDbCircle
 10
-21.99999999999957
 20
49.00000000000003
 30
0.0
 40
5.749999999999976
100
AcDbArc
 50
60.40815420604957
 51
119.5918457939504
  0
ARC
  5
F93
330
DDA
100
AcDbEntity
  8
Visible Edges
  6
Continuous
370
    18
100
AcDbCircle
 10
-21.99999999999957
 20
49.00000000000003
 30
0.0
 40
5.750000000000013
100
AcDbArc
 50
0.4081542060485955
 51
59.59184579395053
  0
ARC
  5
F94
330
DDA
100
AcDbEntity
  8
Visible Edges
  6
Continuous
370
    18
100
AcDbCircle
 10
-21.99999999999957
 20
49.00000000000003
 30
0.0
 40
5.749999999999985
100
AcDbArc
 50
300.4081542060494
 51
359.5918457939514
  0
ARC
  5
F95
330
DDA
100
AcDbEntity
  8
Visible Edges
  6
Continuous
370
    18
100
AcDbCircle
 10
-21.99999999999957
 20
49.00000000000003
 30
0.0
 40
5.749999999999992
100
AcDbArc
 50
240.4081542060496
 51
299.5918457939504
  0
ARC
  5
F96
330
DDA
100
AcDbEntity
  8
Visible Edges
  6
Continuous
370
    18
100
AcDbCircle
 10
-21.99999999999957
 20
49.00000000000003
 30
0.0
 40
5.749999999999985
100
AcDbArc
 50
180.4081542060486
 51
239.5918457939505
  0
ARC
  5
F97
330
DDA
100
AcDbEntity
  8
Visible Edges
  6
Continuous
370
    18
100
AcDbCircle
 10
-47.34434967826828
 20
-50.87988358420108
 30
0.0
 40
1.500000000000011
100
AcDbArc
 50
135.0
 51
227.0614439864702
  0
LINE
  5
F98
330
DDA
100
AcDbEntity
  8
Visible Edges
  6
Continuous
370
    18
100
AcDbLine
 10
-48.40500985004819
 20
-49.81922341242125
 30
0.0
 11
-38.58578643762688
 21
-40.0
 31
0.0
  0
ARC
  5
F99
330
DDA
100
AcDbEntity
  8
Visible Edges
  6
Continuous
370
    18
100
AcDbCircle
 10
0.0
 20
0.0
 30
0.0
 40
71.00000000000003
100
AcDbArc
 50
227.0614439864702
 51
312.9385560135298
  0
ARC
  5
F9A
330
DDA
100
AcDbEntity
  8
Visible Edges
  6
Continuous
370
    18
100
AcDbCircle
 10
47.34434967826831
 20
-50.87988358420104
 30
0.0
 40
1.500000000000025
100
AcDbArc
 50
312.9385560135298
 51
44.99999999999885
  0
LINE
  5
F9B
330
DDA
100
AcDbEntity
  8
Visible Edges
  6
Continuous
370
    18
100
AcDbLine
 10
38.58578643762692
 20
-40.0
 30
0.0
 11
48.4050098500482
 21
-49.81922341242122
 31
0.0
  0
ARC
  5
F9C
330
DDA
100
AcDbEntity
  8
Visible Edges
  6
Continuous
370
    18
100
AcDbCircle
 10
50.87988358420111
 20
-47.34434967826831
 30
0.0
 40
1.500000000000011
100
AcDbArc
 50
225.0
 51
317.0614439864713
  0
LINE
  5
F9D
330
DDA
100
AcDbEntity
  8
Visible Edges
  6
Continuous
370
    18
100
AcDbLine
 10
49.81922341242134
 20
-48.40500985004812
 30
0.0
 11
39.99999999999943
 21
-38.58578643762633
 31
0.0
  0
ARC
  5
F9E
330
DDA
100
AcDbEntity
  8
Visible Edges
  6
Continuous
370
    18
100
AcDbCircle
 10
0.0
 20
0.0
 30
0.0
 40
71.00000000000004
100
AcDbArc
 50
317.0614439864702
 51
42.93855601352978
  0
ARC
  5
F9F
330
DDA
100
AcDbEntity
  8
Visible Edges
  6
Continuous
370
    18
100
AcDbCircle
 10
50.87988358420111
 20
47.34434967826837
 30
0.0
 40
1.500000000000006
100
AcDbArc
 50
42.93855601353096
 51
134.9999999999988
  0
LINE
  5
FA0
330
DDA
100
AcDbEntity
  8
Visible Edges
  6
Continuous
370
    18
100
AcDbLine
 10
39.99999999999943
 20
38.58578643762636
 30
0.0
 11
49.81922341242134
 21
48.4050098500482
 31
0.0
  0
ARC
  5
FA1
330
DDA
100
AcDbEntity
  8
Visible Edges
  6
Continuous
370
    18
100
AcDbCircle
 10
47.34434967826831
 20
50.87988358420111
 30
0.0
 40
1.500000000000011
100
AcDbArc
 50
315.0
 51
47.06144398647253
  0
LINE
  5
FA2
330
DDA
100
AcDbEntity
  8
Visible Edges
  6
Continuous
370
    18
100
AcDbLine
 10
48.4050098500482
 20
49.81922341242128
 30
0.0
 11
38.58578643762704
 21
40.00000000000011
 31
0.0
  0
ARC
  5
FA3
330
DDA
100
AcDbEntity
  8
Visible Edges
  6
Continuous
370
    18
100
AcDbCircle
 10
0.0
 20
0.0
 30
0.0
 40
71.00000000000003
100
AcDbArc
 50
47.06144398647022
 51
132.9385560135298
  0
ARC
  5
FA4
330
DDA
100
AcDbEntity
  8
Visible Edges
  6
Continuous
370
    18
100
AcDbCircle
 10
-47.34434967826828
 20
50.87988358420111
 30
0.0
 40
1.500000000000025
100
AcDbArc
 50
132.9385560135298
 51
225.0
  0
LINE
  5
FA5
330
DDA
100
AcDbEntity
  8
Visible Edges
  6
Continuous
370
    18
100
AcDbLine
 10
-38.585786437627
 20
40.00000000000011
 30
0.0
 11
-48.40500985004819
 21
49.81922341242128
 31
0.0
  0
ARC
  5
FA6
330
DDA
100
AcDbEntity
  8
Visible Edges
  6
Continuous
370
    18
100
AcDbCircle
 10
-0.0000000000078728
 20
0.0000000000075886
 30
0.0
 40
62.49999999998948
100
AcDbArc
 50
134.0832284093649
 51
135.916771590635
  0
LINE
  5
FA7
330
DDA
100
AcDbEntity
  8
0
  6
Continuous
370
    18
100
AcDbLine
 10
-40.00000000000059
 20
38.58578643762687
 30
0.0
 11
-40.00000000000059
 21
40.00000000000011
 31
0.0
  0
LINE
  5
FA8
330
DDA
100
AcDbEntity
  8
0
  6
Continuous
370
    18
100
AcDbLine
 10
-40.00000000000059
 20
40.00000000000011
 30
0.0
 11
-38.58578643762746
 21
40.00000000000011
 31
0.0
  0
ARC
  5
FA9
330
DDA
100
AcDbEntity
  8
Visible Edges
  6
Continuous
370
    18
100
AcDbCircle
 10
-0.0000000000291607
 20
-0.0000000000288196
 30
0.0
 40
62.50000000004067
100
AcDbArc
 50
44.08322840936608
 51
45.91677159063506
  0
LINE
  5
FAA
330
DDA
100
AcDbEntity
  8
0
  6
Continuous
370
    18
100
AcDbLine
 10
38.58578643762633
 20
40.00000000000011
 30
0.0
 11
39.99999999999943
 21
40.00000000000011
 31
0.0
  0
LINE
  5
FAB
330
DDA
100
AcDbEntity
  8
0
  6
Continuous
370
    18
100
AcDbLine
 10
39.99999999999943
 20
40.00000000000011
 30
0.0
 11
39.99999999999943
 21
38.58578643762701
 31
0.0
  0
LINE
  5
FAC
330
DDA
100
AcDbEntity
  8
0
  6
Continuous
370
    18
100
AcDbLine
 10
-38.58578643762746
 20
-40.0
 30
0.0
 11
-40.00000000000059
 21
-40.0
 31
0.0
  0
LINE
  5
FAD
330
DDA
100
AcDbEntity
  8
0
  6
Continuous
370
    18
100
AcDbLine
 10
-40.00000000000059
 20
-40.0
 30
0.0
 11
-40.00000000000059
 21
-38.58578643762689
 31
0.0
  0
ARC
  5
FAE
330
DDA
100
AcDbEntity
  8
Visible Edges
  6
Continuous
370
    18
100
AcDbCircle
 10
0.0000000000100329
 20
0.0000000000106013
 30
0.0
 40
62.50000000001502
100
AcDbArc
 50
224.0832284093661
 51
225.916771590635
  0
ARC
  5
FAF
330
DDA
100
AcDbEntity
  8
Visible Edges
  6
Continuous
370
    18
100
AcDbCircle
 10
-0.0000000000459011
 20
0.0000000000453895
 30
0.0
 40
62.50000000006414
100
AcDbArc
 50
314.0832284093661
 51
315.9167715906339
  0
LINE
  5
FB0
330
DDA
100
AcDbEntity
  8
0
  6
Continuous
370
    18
100
AcDbLine
 10
39.99999999999943
 20
-38.58578643762689
 30
0.0
 11
39.99999999999943
 21
-40.0
 31
0.0
  0
LINE
  5
FB1
330
DDA
100
AcDbEntity
  8
0
  6
Continuous
370
    18
100
AcDbLine
 10
39.99999999999943
 20
-40.0
 30
0.0
 11
38.58578643762633
 21
-40.0
 31
0.0
  0
CIRCLE
  5
FB2
330
DDA
100
AcDbEntity
  8
Visible Edges
  6
Continuous
370
    18
100
AcDbCircle
 10
-48.99999999999768
 20
-22.00000000000001
 30
0.0
 40
3.000000000000001
  0
CIRCLE
  5
FB3
330
DDA
100
AcDbEntity
  8
Visible Edges
  6
Continuous
370
    18
100
AcDbCircle
 10
-48.99999999999768
 20
22.0
 30
0.0
 40
3.000000000000001
  0
LINE
  5
FB4
330
DDA
100
AcDbEntity
  8
Visible Edges
  6
Continuous
370
    18
100
AcDbLine
 10
-48.99999999999798
 20
27.7735026918962
 30
0.0
 11
-43.99999999999798
 21
24.88675134594809
 31
0.0
  0
LINE
  5
FB5
330
DDA
100
AcDbEntity
  8
0
  6
Continuous
370
    18
100
AcDbLine
 10
-43.99999999999798
 20
24.88675134594809
 30
0.0
 11
-43.99999999999798
 21
19.11324865405189
 31
0.0
  0
LINE
  5
FB6
330
DDA
100
AcDbEntity
  8
Visible Edges
  6
Continuous
370
    18
100
AcDbLine
 10
-43.99999999999798
 20
19.11324865405189
 30
0.0
 11
-48.99999999999798
 21
16.2264973081038
 31
0.0
  0
LINE
  5
FB7
330
DDA
100
AcDbEntity
  8
Visible Edges
  6
Continuous
370
    18
100
AcDbLine
 10
-48.99999999999798
 20
16.2264973081038
 30
0.0
 11
-53.99999999999798
 21
19.11324865405189
 31
0.0
  0
LINE
  5
FB8
330
DDA
100
AcDbEntity
  8
Visible Edges
  6
Continuous
370
    18
100
AcDbLine
 10
-53.99999999999798
 20
19.11324865405189
 30
0.0
 11
-53.99999999999798
 21
24.88675134594809
 31
0.0
  0
LINE
  5
FB9
330
DDA
100
AcDbEntity
  8
Visible Edges
  6
Continuous
370
    18
100
AcDbLine
 10
-53.99999999999798
 20
24.88675134594809
 30
0.0
 11
-48.99999999999798
 21
27.7735026918962
 31
0.0
  0
LINE
  5
FBA
330
DDA
100
AcDbEntity
  8
Visible Edges
  6
Continuous
370
    18
100
AcDbLine
 10
-48.99999999999798
 20
-16.22649730810372
 30
0.0
 11
-43.99999999999798
 21
-19.11324865405191
 31
0.0
  0
LINE
  5
FBB
330
DDA
100
AcDbEntity
  8
0
  6
Continuous
370
    18
100
AcDbLine
 10
-43.99999999999798
 20
-19.11324865405191
 30
0.0
 11
-43.99999999999798
 21
-24.8867513459481
 31
0.0
  0
LINE
  5
FBC
330
DDA
100
AcDbEntity
  8
Visible Edges
  6
Continuous
370
    18
100
AcDbLine
 10
-43.99999999999798
 20
-24.8867513459481
 30
0.0
 11
-48.99999999999798
 21
-27.7735026918962
 31
0.0
  0
LINE
  5
FBD
330
DDA
100
AcDbEntity
  8
Visible Edges
  6
Continuous
370
    18
100
AcDbLine
 10
-48.99999999999798
 20
-27.7735026918962
 30
0.0
 11
-53.99999999999798
 21
-24.8867513459481
 31
0.0
  0
LINE
  5
FBE
330
DDA
100
AcDbEntity
  8
Visible Edges
  6
Continuous
370
    18
100
AcDbLine
 10
-53.99999999999798
 20
-24.8867513459481
 30
0.0
 11
-53.99999999999798
 21
-19.11324865405191
 31
0.0
  0
LINE
  5
FBF
330
DDA
100
AcDbEntity
  8
Visible Edges
  6
Continuous
370
    18
100
AcDbLine
 10
-53.99999999999798
 20
-19.11324865405191
 30
0.0
 11
-48.99999999999798
 21
-16.22649730810372
 31
0.0
  0
ARC
  5
FC0
330
DDA
100
AcDbEntity
  8
Visible Edges
  6
Continuous
370
    18
100
AcDbCircle
 10
-48.99999999999957
 20
22.0
 30
0.0
 40
5.749999999999986
100
AcDbArc
 50
210.4081542060495
 51
269.5918457939514
  0
ARC
  5
FC1
330
DDA
100
AcDbEntity
  8
Visible Edges
  6
Continuous
370
    18
100
AcDbCircle
 10
-48.99999999999957
 20
22.0
 30
0.0
 40
5.750000000000002
100
AcDbArc
 50
150.4081542060495
 51
209.5918457939505
  0
ARC
  5
FC2
330
DDA
100
AcDbEntity
  8
Visible Edges
  6
Continuous
370
    18
100
AcDbCircle
 10
-48.99999999999957
 20
22.0
 30
0.0
 40
5.749999999999976
100
AcDbArc
 50
90.40815420604859
 51
149.5918457939513
  0
ARC
  5
FC3
330
DDA
100
AcDbEntity
  8
Visible Edges
  6
Continuous
370
    18
100
AcDbCircle
 10
-48.99999999999957
 20
22.0
 30
0.0
 40
5.750000000000006
100
AcDbArc
 50
30.40815420604948
 51
89.5918457939514
  0
ARC
  5
FC4
330
DDA
100
AcDbEntity
  8
0
  6
Continuous
370
    18
100
AcDbCircle
 10
-48.99999999999947
 20
22.0
 30
0.0
 40
5.749999999999976
100
AcDbArc
 50
330.4081542060496
 51
29.59184579395044
  0
ARC
  5
FC5
330
DDA
100
AcDbEntity
  8
Visible Edges
  6
Continuous
370
    18
100
AcDbCircle
 10
-48.99999999999957
 20
22.0
 30
0.0
 40
5.750000000000013
100
AcDbArc
 50
270.4081542060486
 51
329.5918457939514
  0
ARC
  5
FC6
330
DDA
100
AcDbEntity
  8
Visible Edges
  6
Continuous
370
    18
100
AcDbCircle
 10
-48.99999999999957
 20
-22.00000000000001
 30
0.0
 40
5.749999999999986
100
AcDbArc
 50
210.4081542060495
 51
269.5918457939514
  0
ARC
  5
FC7
330
DDA
100
AcDbEntity
  8
Visible Edges
  6
Continuous
370
    18
100
AcDbCircle
 10
-48.99999999999957
 20
-22.00000000000001
 30
0.0
 40
5.749999999999982
100
AcDbArc
 50
150.4081542060495
 51
209.5918457939505
  0
ARC
  5
FC8
330
DDA
100
AcDbEntity
  8
Visible Edges
  6
Continuous
370
    18
100
AcDbCircle
 10
-48.99999999999957
 20
-22.00000000000001
 30
0.0
 40
5.749999999999996
100
AcDbArc
 50
90.40815420604859
 51
149.5918457939505
  0
ARC
  5
FC9
330
DDA
100
AcDbEntity
  8
Visible Edges
  6
Continuous
370
    18
100
AcDbCircle
 10
-48.99999999999957
 20
-22.00000000000001
 30
0.0
 40
5.750000000000002
100
AcDbArc
 50
30.40815420604948
 51
89.5918457939514
  0
ARC
  5
FCA
330
DDA
100
AcDbEntity
  8
0
  6
Continuous
370
    18
100
AcDbCircle
 10
-48.99999999999957
 20
-22.00000000000001
 30
0.0
 40
5.750000000000007
100
AcDbArc
 50
330.4081542060496
 51
29.59184579395044
  0
ARC
  5
FCB
330
DDA
100
AcDbEntity
  8
Visible Edges
  6
Continuous
370
    18
100
AcDbCircle
 10
-48.99999999999947
 20
-22.00000000000001
 30
0.0
 40
5.749999999999981
100
AcDbArc
 50
270.4081542060486
 51
329.5918457939505
  0
ARC
  5
FCC
330
DDA
100
AcDbEntity
  8
Visible Edges
  6
Continuous
370
    18
100
AcDbCircle
 10
-50.87988358420107
 20
47.34434967826831
 30
0.0
 40
1.500000000000004
100
AcDbArc
 50
45.0
 51
137.0614439864702
  0
ARC
  5
FCD
330
DDA
100
AcDbEntity
  8
Visible Edges
  6
Continuous
370
    18
100
AcDbCircle
 10
-50.87988358420107
 20
-47.34434967826831
 30
0.0
 40
1.500000000000022
100
AcDbArc
 50
222.9385560135298
 51
314.9999999999988
  0
LINE
  5
FCE
330
DDA
100
AcDbEntity
  8
Visible Edges
  6
Continuous
370
    18
100
AcDbLine
 10
-49.81922341242125
 20
48.4050098500482
 30
0.0
 11
-40.00000000000059
 21
38.58578643762755
 31
0.0
  0
ARC
  5
FCF
330
DDA
100
AcDbEntity
  8
Visible Edges
  6
Continuous
370
    18
100
AcDbCircle
 10
0.0
 20
0.0
 30
0.0
 40
71.00000000000003
100
AcDbArc
 50
137.0614439864702
 51
222.9385560135298
  0
LINE
  5
FD0
330
DDA
100
AcDbEntity
  8
Visible Edges
  6
Continuous
370
    18
100
AcDbLine
 10
-40.00000000000059
 20
-38.58578643762753
 30
0.0
 11
-49.81922341242125
 21
-48.40500985004817
 31
0.0
  0
LINE
  5
FD1
330
DDA
100
AcDbEntity
  8
AM_5
100
AcDbLine
 10
-41.00000000000057
 20
40.00000000000011
 30
0.0
 11
-103.3146775085524
 21
40.00000000000014
 31
0.0
  0
LINE
  5
FD2
330
DDA
100
AcDbEntity
  8
AM_5
100
AcDbLine
 10
-41.00000000000057
 20
-40.0
 30
0.0
 11
-103.3146775085524
 21
-40.0
 31
0.0
  0
LINE
  5
FD3
330
DDA
100
AcDbEntity
  8
AM_5
100
AcDbLine
 10
-102.3146775085524
 20
37.50000000000014
 30
0.0
 11
-102.3146775085524
 21
-37.5
 31
0.0
  0
SOLID
  5
FD4
330
DDA
100
AcDbEntity
  8
AM_5
100
AcDbTrace
 10
-102.731344175219
 20
37.50000000000014
 30
0.0
 11
-101.8980108418857
 21
37.50000000000014
 31
0.0
 12
-102.3146775085524
 22
40.00000000000014
 32
0.0
 13
-102.3146775085524
 23
40.00000000000014
 33
0.0
  0
SOLID
  5
FD5
330
DDA
100
AcDbEntity
  8
AM_5
100
AcDbTrace
 10
-102.731344175219
 20
-37.5
 30
0.0
 11
-101.8980108418857
 21
-37.5
 31
0.0
 12
-102.3146775085524
 22
-40.0
 32
0.0
 13
-102.3146775085524
 23
-40.0
 33
0.0
  0
MTEXT
  5
FD6
330
DDA
100
AcDbEntity
  8
AM_5
 62
     2
100
AcDbMText
 10
-105.7396775085524
 20
0.0000000000000853
 30
0.0
 40
3.5
 41
0.0
 71
     5
 72
     1
  1
{\Famgdt;o}80 [3.150"]
 11
0.0000000000000001
 21
1.0
 31
0.0
 73
     1
 44
1.0
1001
ACAD
1000
MTEXTBEGIN
1070
    73
1070
     1
1070
    44
1040
1.0
1070
    74
1070
     0
1000
MTEXTEND
  0
INSERT
  5
FD7
330
DDA
100
AcDbEntity
  8
0
100
AcDbBlockReference
 66
     1
  2
info
 10
-40.00000133255992
 20
-40.00000102780314
 30
0.0
 50
270.0
  0
ATTRIB
  5
FD8
330
FD7
100
AcDbEntity
  8
0
100
AcDbText
 10
-37.10890609708045
 20
-49.46709397812265
 30
0.00000001
 40
5.0
  1
80
 50
270.0
100
AcDbAttribute
  2
BRD
 70
     1
1001
AcDbAttr
1070
     0
1070
     1
  0
ATTRIB
  5
FD9
330
FD7
100
AcDbEntity
  8
0
100
AcDbText
 10
-45.44223943041368
 20
-49.46709397812265
 30
0.00000001
 40
5.0
  1
80
 50
270.0
100
AcDbAttribute
  2
HJD
 70
     1
1001
AcDbAttr
1070
     0
1070
     1
  0
SEQEND
  5
FDA
330
FD7
100
AcDbEntity
  8
0
  0
CIRCLE
  5
FDB
330
DDA
100
AcDbEntity
  8
AM_3
100
AcDbCircle
 10
0.0
 20
0.0
 30
0.0
 40
85.0
  0
LINE
  5
FDC
330
DDA
100
AcDbEntity
  8
AM_5
100
AcDbLine
 10
33.79654947506623
 20
86.10483867692469
 30
0.0
 11
34.70996973114919
 21
88.43199647900375
 31
0.0
  0
LINE
  5
FDD
330
DDA
100
AcDbEntity
  8
AM_5
100
AcDbLine
 10
34.70996973114919
 20
88.43199647900375
 30
0.0
 11
62.82219988787912
 21
88.43199647900366
 31
0.0
  0
SOLID
  5
FDE
330
DDA
100
AcDbEntity
  8
AM_5
100
AcDbTrace
 10
33.40868984138641
 20
86.25707538627182
 30
0.0
 11
34.18440910874608
 21
85.95260196757752
 31
0.0
 12
32.8831292189833
 22
83.77768087484563
 32
0.0
 13
32.8831292189833
 23
83.77768087484563
 33
0.0
  0
MTEXT
  5
FDF
102
{ACAD_XDICTIONARY
360
FF6
102
}
330
DDA
100
AcDbEntity
  8
AM_5
 62
     2
100
AcDbMText
 10
49.51608480951415
 20
91.85784235728817
 30
0.0
 40
3.5
 41
0.0
 71
     5
 72
     1
  1
\U+2205180 [\U+22057.09"]
 73
     1
 44
1.0
1001
ACAD
1000
MTEXTBEGIN
1070
    73
1070
     1
1070
    44
1040
1.0
1070
    74
1070
     0
1000
MTEXTEND
  0
LINE
  5
FE0
330
DDA
100
AcDbEntity
  8
AM_5
100
AcDbLine
 10
48.03804389809357
 20
73.1340983293351
 30
0.0
 11
50.79618755945983
 21
77.33315252406251
 31
0.0
  0
LINE
  5
FE1
330
DDA
100
AcDbEntity
  8
AM_5
100
AcDbLine
 10
50.79618755945983
 20
77.33315252406251
 30
0.0
 11
78.9084177161898
 21
77.33315252406251
 31
0.0
  0
SOLID
  5
FE2
330
DDA
100
AcDbEntity
  8
AM_5
100
AcDbTrace
 10
47.68978628700142
 20
73.36285091932609
 30
0.0
 11
48.38630150918556
 21
72.90534573934426
 31
0.0
 12
46.66552835814795
 22
71.04455266278273
 32
0.0
 13
46.66552835814795
 23
71.04455266278273
 33
0.0
  0
MTEXT
  5
FE3
102
{ACAD_XDICTIONARY
360
FF8
102
}
330
DDA
100
AcDbEntity
  8
AM_5
 62
     2
100
AcDbMText
 10
65.60230263782466
 20
80.75899840234702
 30
0.0
 40
3.5
 41
0.0
 71
     5
 72
     1
  1
\U+2205170 [\U+22056.69"]
 73
     1
 44
1.0
1001
ACAD
1000
MTEXTBEGIN
1070
    73
1070
     1
1070
    44
1040
1.0
1070
    74
1070
     0
1000
MTEXTEND
  0
LINE
  5
FE4
330
DDA
100
AcDbEntity
  8
0
100
AcDbLine
 10
-40.00000000000059
 20
40.00000000000011
 30
0.0
 11
39.99999999999943
 21
40.00000000000011
 31
0.0
  0
LINE
  5
FE5
330
DDA
100
AcDbEntity
  8
0
100
AcDbLine
 10
39.99999999999943
 20
40.00000000000011
 30
0.0
 11
39.99999999999943
 21
-40.0
 31
0.0
  0
LINE
  5
FE6
330
DDA
100
AcDbEntity
  8
0
100
AcDbLine
 10
39.99999999999943
 20
-40.0
 30
0.0
 11
-40.00000000000059
 21
-40.0
 31
0.0
  0
LINE
  5
FE7
330
DDA
100
AcDbEntity
  8
0
100
AcDbLine
 10
-40.00000000000059
 20
-40.0
 30
0.0
 11
-40.00000000000059
 21
40.00000000000011
 31
0.0
  0
ENDBLK
  5
DDC
330
DDA
100
AcDbEntity
  8
0
100
AcDbBlockEnd
  0
ENDSEC
  0
SECTION
  2
ENTITIES
  0
INSERT
  5
FE8
330
21
100
AcDbEntity
  8
AM_3
100
AcDbBlockReference
  2
RX125
 10
158.4877366684125
 20
147.6069813444748
 30
0.0
  0
ENDSEC
  0
SECTION
  2
OBJECTS
  0
DICTIONARY
  5
C
330
0
100
AcDbDictionary
281
     1
  3
ACAD_COLOR
350
1C
  3
ACAD_GROUP
350
D
  3
ACAD_LAYOUT
350
1A
  3
ACAD_MATERIAL
350
1B
  3
ACAD_MLEADERSTYLE
350
26D
  3
ACAD_MLINESTYLE
350
17
  3
ACAD_PLOTSETTINGS
350
19
  3
ACAD_PLOTSTYLENAME
350
E
  3
ACAD_SCALELIST
350
25B
  3
ACAD_TABLESTYLE
350
259
  3
ACAD_VISUALSTYLE
350
248
  3
ACDB_RECOMPOSE_DATA
350
8BA
  3
AcDbVariableDictionary
350
220
  3
AcmDictionary
350
315
  3
AEC_PROPERTY_SET_DEFS
350
7E0
  3
AMG
350
275
  3
AMGSNAPSETTINGS
350
3A4
  3
DWGPROPS
350
FEA
  3
MAPISURF_MODULE
350
C36
  0
DICTIONARY
  5
434
330
2
100
AcDbDictionary
280
     1
281
     1
  3
ACAD_LAYERSTATES
360
7D5
  3
AMLAYER_GROUPCOLORS
360
435
  0
DICTIONARY
  5
8A2
330
10
100
AcDbDictionary
280
     1
281
     1
  3
ADSK_XREC_LAYER_RECONCILED
360
8A3
  0
DICTIONARY
  5
8A4
330
7F
100
AcDbDictionary
280
     1
281
     1
  3
ADSK_XREC_LAYER_RECONCILED
360
8A5
  0
DICTIONARY
  5
8A8
330
436
100
AcDbDictionary
280
     1
281
     1
  3
ADSK_XREC_LAYER_RECONCILED
360
8A9
  0
DICTIONARY
  5
602
330
21
100
AcDbDictionary
280
     1
281
     1
  3
ACAD_INDEX
360
8AB
  3
ACAD_SORTENTS
360
603
  0
DICTIONARY
  5
FF6
330
FDF
100
AcDbDictionary
280
     1
281
     1
  3
ACAD_MTEXT_RT
360
FF7
  0
DICTIONARY
  5
FF8
330
FE3
100
AcDbDictionary
280
     1
281
     1
  3
ACAD_MTEXT_RT
360
FF9
  0
DICTIONARY
  5
1C
102
{ACAD_REACTORS
330
C
102
}
330
C
100
AcDbDictionary
281
     1
  0
DICTIONARY
  5
D
102
{ACAD_REACTORS
330
C
102
}
330
C
100
AcDbDictionary
281
     1
  0
DICTIONARY
  5
1A
102
{ACAD_REACTORS
330
C
102
}
330
C
100
AcDbDictionary
281
     1
  3
Layout1
350
20
  3
Layout2
350
28
  3
Model
350
24
  0
DICTIONARY
  5
1B
102
{ACAD_REACTORS
330
C
102
}
330
C
100
AcDbDictionary
281
     1
  3
ByBlock
350
238
  3
ByLayer
350
230
  3
Global
350
240
  0
DICTIONARY
  5
26D
102
{ACAD_REACTORS
330
C
102
}
330
C
100
AcDbDictionary
281
     1
  3
Standard
350
26E
  0
DICTIONARY
  5
17
102
{ACAD_REACTORS
330
C
102
}
330
C
100
AcDbDictionary
281
     1
  3
Standard
350
18
  0
DICTIONARY
  5
19
102
{ACAD_REACTORS
330
C
102
}
330
C
100
AcDbDictionary
281
     1
  0
ACDBDICTIONARYWDFLT
  5
E
102
{ACAD_REACTORS
330
C
102
}
330
C
100
AcDbDictionary
281
     1
  3
Normal
350
F
100
AcDbDictionaryWithDefault
340
F
  0
DICTIONARY
  5
25B
102
{ACAD_REACTORS
330
C
102
}
330
C
100
AcDbDictionary
281
     1
  3
A0
350
25C
  3
A1
350
25D
  3
A2
350
25E
  3
A3
350
25F
  3
A4
350
260
  3
A5
350
261
  3
A6
350
262
  3
A7
350
263
  3
A8
350
264
  3
A9
350
265
  3
B0
350
266
  3
B1
350
267
  3
B2
350
268
  3
B3
350
269
  3
B4
350
26A
  3
B5
350
26B
  3
B6
350
26C
  0
DICTIONARY
  5
259
102
{ACAD_REACTORS
330
C
102
}
330
C
100
AcDbDictionary
281
     1
  3
Standard
350
25A
  0
DICTIONARY
  5
248
102
{ACAD_REACTORS
330
C
102
}
330
C
100
AcDbDictionary
281
     1
  3
2dWireframe
350
24E
  3
3D Hidden
350
250
  3
3dWireframe
350
24F
  3
Basic
350
24D
  3
Brighten
350
254
  3
ColorChange
350
258
  3
Conceptual
350
251
  3
Dim
350
253
  3
Facepattern
350
257
  3
Flat
350
249
  3
FlatWithEdges
350
24A
  3
Gouraud
350
24B
  3
GouraudWithEdges
350
24C
  3
Linepattern
350
256
  3
Realistic
350
252
  3
Thicken
350
255
  0
XRECORD
  5
8BA
102
{ACAD_REACTORS
330
C
102
}
330
C
100
AcDbXrecord
280
     1
 90
        1
330
25A
  0
DICTIONARY
  5
220
102
{ACAD_REACTORS
330
C
102
}
330
C
100
AcDbDictionary
281
     1
  3
CANNOSCALE
350
8B5
  3
CMLEADERSTYLE
350
8B4
  3
CTABLESTYLE
350
8B3
  3
DIMASSOC
350
222
  3
HIDETEXT
350
221
  3
INDEXCTL
350
8B7
  3
PROJECTNAME
350
223
  3
SORTENTS
350
8B6
  0
DICTIONARY
  5
315
102
{ACAD_REACTORS
330
C
102
}
330
C
100
AcDbDictionary
281
     1
  3
AcmStdDictionary
350
316
  3
AMDTSECTSYM_ARROWCOLOR
350
42B
  0
DICTIONARY
  5
7E0
102
{ACAD_REACTORS
330
C
102
}
330
C
100
AcDbDictionary
281
     1
  0
DICTIONARY
  5
275
102
{ACAD_REACTORS
330
C
102
}
330
C
100
AcDbDictionary
281
     1
  3
AcMgSettings
350
276
  0
DICTIONARY
  5
3A4
102
{ACAD_REACTORS
330
C
102
}
330
C
100
AcDbDictionary
281
     1
  3
DIMENSION
350
42C
  3
FEA
350
42D
  3
HATCH
350
42E
  3
SYMBOLS
350
42F
  0
XRECORD
  5
FEA
102
{ACAD_REACTORS
330
C
102
}
330
C
100
AcDbXrecord
280
     1
  1
DWGPROPS COOKIE
  2

  3

  4
LAH
  6

  7

  8
se-jenboh
  9

300
AmdtFileType=84
301
=
302
=
303
=
304
=
305
=
306
=
307
=
308
=
309
=
 40
0.0173699189814815
 41
2453018.563407118
 42
2456352.441651273
  1

 90
        1
  0
DICTIONARY
  5
7D5
102
{ACAD_REACTORS
330
434
102
}
330
434
100
AcDbDictionary
281
     1
  0
DICTIONARY
  5
435
102
{ACAD_REACTORS
330
434
102
}
330
434
100
AcDbDictionary
280
     1
281
     1
  0
XRECORD
  5
8A3
102
{ACAD_REACTORS
330
8A2
102
}
330
8A2
100
AcDbXrecord
280
     1
290
     1
  0
XRECORD
  5
8A5
102
{ACAD_REACTORS
330
8A4
102
}
330
8A4
100
AcDbXrecord
280
     1
290
     1
  0
XRECORD
  5
8A9
102
{ACAD_REACTORS
330
8A8
102
}
330
8A8
100
AcDbXrecord
280
     1
290
     1
  0
DICTIONARY
  5
8AB
102
{ACAD_REACTORS
330
602
102
}
330
602
100
AcDbDictionary
281
     1
  3
*A1
350
8AC
  0
SORTENTSTABLE
  5
603
102
{ACAD_REACTORS
330
602
102
}
330
602
100
AcDbSortentsTable
330
21
  0
XRECORD
  5
FF7
102
{ACAD_REACTORS
330
FF6
102
}
330
FF6
100
AcDbXrecord
280
     1
 40
18446.0
  1
\U+2205180 [\U+22057.09"]
  0
XRECORD
  5
FF9
102
{ACAD_REACTORS
330
FF8
102
}
330
FF8
100
AcDbXrecord
280
     1
 40
18549.0
  1
\U+2205170 [\U+22056.69"]
  0
LAYOUT
  5
20
102
{ACAD_XDICTIONARY
360
FEB
102
}
102
{ACAD_REACTORS
330
1A
102
}
330
1A
100
AcDbPlotSettings
  1

  2

  4

  6

 40
0.0
 41
0.0
 42
0.0
 43
0.0
 44
0.0
 45
0.0
 46
0.0
 47
0.0
 48
0.0
 49
0.0
140
0.0
141
0.0
142
1.0
143
1.0
 70
   688
 72
     0
 73
     0
 74
     5
  7

 75
    16
147
1.0
148
0.0
149
0.0
100
AcDbLayout
  1
Layout1
 70
     1
 71
     1
 10
0.0
 20
0.0
 11
709.676
 21
548.3859999999999
 12
0.0
 22
0.0
 32
0.0
 14
0.0
 24
0.0
 34
0.0
 15
709.676
 25
548.3859999999999
 35
0.0
146
0.0
 13
0.0
 23
0.0
 33
0.0
 16
1.0
 26
0.0
 36
0.0
 17
0.0
 27
1.0
 37
0.0
 76
     0
330
1D
  0
LAYOUT
  5
28
102
{ACAD_XDICTIONARY
360
FEF
102
}
102
{ACAD_REACTORS
330
1A
102
}
330
1A
100
AcDbPlotSettings
  1

  2

  4

  6

 40
0.0
 41
0.0
 42
0.0
 43
0.0
 44
0.0
 45
0.0
 46
0.0
 47
0.0
 48
0.0
 49
0.0
140
0.0
141
0.0
142
1.0
143
1.0
 70
   688
 72
     0
 73
     0
 74
     5
  7

 75
    16
147
1.0
148
0.0
149
0.0
100
AcDbLayout
  1
Layout2
 70
     1
 71
     2
 10
0.0
 20
0.0
 11
12.0
 21
9.0
 12
0.0
 22
0.0
 32
0.0
 14
0.0
 24
0.0
 34
0.0
 15
0.0
 25
0.0
 35
0.0
146
0.0
 13
0.0
 23
0.0
 33
0.0
 16
1.0
 26
0.0
 36
0.0
 17
0.0
 27
1.0
 37
0.0
 76
     0
330
25
  0
LAYOUT
  5
24
102
{ACAD_XDICTIONARY
360
FED
102
}
102
{ACAD_REACTORS
330
1A
102
}
330
1A
100
AcDbPlotSettings
  1

  2

  4

  6

 40
0.0
 41
0.0
 42
0.0
 43
0.0
 44
0.0
 45
0.0
 46
0.0
 47
0.0
 48
0.0
 49
0.0
140
0.0
141
0.0
142
1.0
143
1.0
 70
  1712
 72
     0
 73
     0
 74
     0
  7

 75
     0
147
1.0
148
0.0
149
0.0
100
AcDbLayout
  1
Model
 70
     1
 71
     0
 10
0.0
 20
0.0
 11
12.0
 21
9.0
 12
0.0
 22
0.0
 32
0.0
 14
0.0
 24
0.0
 34
0.0
 15
0.0
 25
0.0
 35
0.0
146
0.0
 13
0.0
 23
0.0
 33
0.0
 16
1.0
 26
0.0
 36
0.0
 17
0.0
 27
1.0
 37
0.0
 76
     0
330
21
331
13
  0
MATERIAL
  5
238
102
{ACAD_XDICTIONARY
360
239
102
}
102
{ACAD_REACTORS
330
1B
102
}
330
1B
100
AcDbMaterial
  1
ByBlock
 72
     0
 43
0.0208333333333333
 43
0.0
 43
0.0
 43
0.0
 43
0.0
 43
0.0208333333333333
 43
0.0
 43
0.0
 43
0.0
 43
0.0
 43
1.0
 43
0.0
 43
0.0
 43
0.0
 43
0.0
 43
1.0
 77
     0
 47
0.0208333333333333
 47
0.0
 47
0.0
 47
0.0
 47
0.0
 47
0.0208333333333333
 47
0.0
 47
0.0
 47
0.0
 47
0.0
 47
1.0
 47
0.0
 47
0.0
 47
0.0
 47
0.0
 47
1.0
171
     0
 49
0.0208333333333333
 49
0.0
 49
0.0
 49
0.0
 49
0.0
 49
0.0208333333333333
 49
0.0
 49
0.0
 49
0.0
 49
0.0
 49
1.0
 49
0.0
 49
0.0
 49
0.0
 49
0.0
 49
1.0
175
     0
142
0.0208333333333333
142
0.0
142
0.0
142
0.0
142
0.0
142
0.0208333333333333
142
0.0
142
0.0
142
0.0
142
0.0
142
1.0
142
0.0
142
0.0
142
0.0
142
0.0
142
1.0
179
     0
144
0.0208333333333333
144
0.0
144
0.0
144
0.0
144
0.0
144
0.0208333333333333
144
0.0
144
0.0
144
0.0
144
0.0
144
1.0
144
0.0
144
0.0
144
0.0
144
0.0
144
1.0
147
0.0208333333333333
147
0.0
147
0.0
147
0.0
147
0.0
147
0.0208333333333333
147
0.0
147
0.0
147
0.0
147
0.0
147
1.0
147
0.0
147
0.0
147
0.0
147
0.0
147
1.0
  0
MATERIAL
  5
230
102
{ACAD_XDICTIONARY
360
231
102
}
102
{ACAD_REACTORS
330
1B
102
}
330
1B
100
AcDbMaterial
  1
ByLayer
 72
     0
 43
0.0208333333333333
 43
0.0
 43
0.0
 43
0.0
 43
0.0
 43
0.0208333333333333
 43
0.0
 43
0.0
 43
0.0
 43
0.0
 43
1.0
 43
0.0
 43
0.0
 43
0.0
 43
0.0
 43
1.0
 77
     0
 47
0.0208333333333333
 47
0.0
 47
0.0
 47
0.0
 47
0.0
 47
0.0208333333333333
 47
0.0
 47
0.0
 47
0.0
 47
0.0
 47
1.0
 47
0.0
 47
0.0
 47
0.0
 47
0.0
 47
1.0
171
     0
 49
0.0208333333333333
 49
0.0
 49
0.0
 49
0.0
 49
0.0
 49
0.0208333333333333
 49
0.0
 49
0.0
 49
0.0
 49
0.0
 49
1.0
 49
0.0
 49
0.0
 49
0.0
 49
0.0
 49
1.0
175
     0
142
0.0208333333333333
142
0.0
142
0.0
142
0.0
142
0.0
142
0.0208333333333333
142
0.0
142
0.0
142
0.0
142
0.0
142
1.0
142
0.0
142
0.0
142
0.0
142
0.0
142
1.0
179
     0
144
0.0208333333333333
144
0.0
144
0.0
144
0.0
144
0.0
144
0.0208333333333333
144
0.0
144
0.0
144
0.0
144
0.0
144
1.0
144
0.0
144
0.0
144
0.0
144
0.0
144
1.0
147
0.0208333333333333
147
0.0
147
0.0
147
0.0
147
0.0
147
0.0208333333333333
147
0.0
147
0.0
147
0.0
147
0.0
147
1.0
147
0.0
147
0.0
147
0.0
147
0.0
147
1.0
  0
MATERIAL
  5
240
102
{ACAD_XDICTIONARY
360
241
102
}
102
{ACAD_REACTORS
330
1B
102
}
330
1B
100
AcDbMaterial
  1
Global
 72
     0
 43
0.0208333333333333
 43
0.0
 43
0.0
 43
0.0
 43
0.0
 43
0.0208333333333333
 43
0.0
 43
0.0
 43
0.0
 43
0.0
 43
1.0
 43
0.0
 43
0.0
 43
0.0
 43
0.0
 43
1.0
 77
     0
 47
0.0208333333333333
 47
0.0
 47
0.0
 47
0.0
 47
0.0
 47
0.0208333333333333
 47
0.0
 47
0.0
 47
0.0
 47
0.0
 47
1.0
 47
0.0
 47
0.0
 47
0.0
 47
0.0
 47
1.0
171
     0
 49
0.0208333333333333
 49
0.0
 49
0.0
 49
0.0
 49
0.0
 49
0.0208333333333333
 49
0.0
 49
0.0
 49
0.0
 49
0.0
 49
1.0
 49
0.0
 49
0.0
 49
0.0
 49
0.0
 49
1.0
175
     0
142
0.0208333333333333
142
0.0
142
0.0
142
0.0
142
0.0
142
0.0208333333333333
142
0.0
142
0.0
142
0.0
142
0.0
142
1.0
142
0.0
142
0.0
142
0.0
142
0.0
142
1.0
179
     0
144
0.0208333333333333
144
0.0
144
0.0
144
0.0
144
0.0
144
0.0208333333333333
144
0.0
144
0.0
144
0.0
144
0.0
144
1.0
144
0.0
144
0.0
144
0.0
144
0.0
144
1.0
147
0.0208333333333333
147
0.0
147
0.0
147
0.0
147
0.0
147
0.0208333333333333
147
0.0
147
0.0
147
0.0
147
0.0
147
1.0
147
0.0
147
0.0
147
0.0
147
0.0
147
1.0
  0
MLEADERSTYLE
  5
26E
102
{ACAD_REACTORS
330
26D
102
}
330
26D
100
AcDbMLeaderStyle
170
     2
171
     1
172
     0
 90
        2
 40
0.0
 41
0.0
173
     1
 91
-1056964608
340
14
 92
       -2
290
     1
 42
2.0
291
     1
 43
0.36
  3
Standard
 44
4.0
300

342
11
174
     1
178
     6
175
     1
176
     0
 93
-1056964608
 45
4.0
292
     0
297
     0
 46
4.0
 94
-1056964608
 47
1.0
 49
1.0
140
1.0
293
     1
141
0.0
294
     1
177
     0
142
1.0
295
     0
296
     0
143
0.125
1001
ACAD_MLEADERVER
1070
     2
  0
MLINESTYLE
  5
18
102
{ACAD_REACTORS
330
17
102
}
330
17
100
AcDbMlineStyle
  2
STANDARD
 70
     0
  3

 62
   256
 51
90.0
 52
90.0
 71
     2
 49
0.5
 62
   256
  6
BYLAYER
 49
-0.5
 62
   256
  6
BYLAYER
  0
ACDBPLACEHOLDER
  5
F
102
{ACAD_REACTORS
330
E
102
}
330
E
  0
SCALE
  5
25C
102
{ACAD_REACTORS
330
25B
102
}
330
25B
100
AcDbScale
 70
     0
300
1:1
140
1.0
141
1.0
290
     1
  0
SCALE
  5
25D
102
{ACAD_REACTORS
330
25B
102
}
330
25B
100
AcDbScale
 70
     0
300
1:2
140
1.0
141
2.0
290
     0
  0
SCALE
  5
25E
102
{ACAD_REACTORS
330
25B
102
}
330
25B
100
AcDbScale
 70
     0
300
1:4
140
1.0
141
4.0
290
     0
  0
SCALE
  5
25F
102
{ACAD_REACTORS
330
25B
102
}
330
25B
100
AcDbScale
 70
     0
300
1:5
140
1.0
141
5.0
290
     0
  0
SCALE
  5
260
102
{ACAD_REACTORS
330
25B
102
}
330
25B
100
AcDbScale
 70
     0
300
1:8
140
1.0
141
8.0
290
     0
  0
SCALE
  5
261
102
{ACAD_REACTORS
330
25B
102
}
330
25B
100
AcDbScale
 70
     0
300
1:10
140
1.0
141
10.0
290
     0
  0
SCALE
  5
262
102
{ACAD_REACTORS
330
25B
102
}
330
25B
100
AcDbScale
 70
     0
300
1:16
140
1.0
141
16.0
290
     0
  0
SCALE
  5
263
102
{ACAD_REACTORS
330
25B
102
}
330
25B
100
AcDbScale
 70
     0
300
1:20
140
1.0
141
20.0
290
     0
  0
SCALE
  5
264
102
{ACAD_REACTORS
330
25B
102
}
330
25B
100
AcDbScale
 70
     0
300
1:30
140
1.0
141
30.0
290
     0
  0
SCALE
  5
265
102
{ACAD_REACTORS
330
25B
102
}
330
25B
100
AcDbScale
 70
     0
300
1:40
140
1.0
141
40.0
290
     0
  0
SCALE
  5
266
102
{ACAD_REACTORS
330
25B
102
}
330
25B
100
AcDbScale
 70
     0
300
1:50
140
1.0
141
50.0
290
     0
  0
SCALE
  5
267
102
{ACAD_REACTORS
330
25B
102
}
330
25B
100
AcDbScale
 70
     0
300
1:100
140
1.0
141
100.0
290
     0
  0
SCALE
  5
268
102
{ACAD_REACTORS
330
25B
102
}
330
25B
100
AcDbScale
 70
     0
300
2:1
140
2.0
141
1.0
290
     0
  0
SCALE
  5
269
102
{ACAD_REACTORS
330
25B
102
}
330
25B
100
AcDbScale
 70
     0
300
4:1
140
4.0
141
1.0
290
     0
  0
SCALE
  5
26A
102
{ACAD_REACTORS
330
25B
102
}
330
25B
100
AcDbScale
 70
     0
300
8:1
140
8.0
141
1.0
290
     0
  0
SCALE
  5
26B
102
{ACAD_REACTORS
330
25B
102
}
330
25B
100
AcDbScale
 70
     0
300
10:1
140
10.0
141
1.0
290
     0
  0
SCALE
  5
26C
102
{ACAD_REACTORS
330
25B
102
}
330
25B
100
AcDbScale
 70
     0
300
100:1
140
100.0
141
1.0
290
     0
  0
TABLESTYLE
  5
25A
102
{ACAD_XDICTIONARY
360
8B8
102
}
102
{ACAD_REACTORS
330
259
102
}
330
259
100
AcDbTableStyle
  3
Standard
 70
     0
 71
     0
 40
1.5
 41
1.5
280
     0
281
     0
  7
STANDARD
140
4.5
170
     2
 62
     0
 63
     7
283
     0
274
    -2
284
     1
 64
     0
275
    -2
285
     1
 65
     0
276
    -2
286
     1
 66
     0
277
    -2
287
     1
 67
     0
278
    -2
288
     1
 68
     0
279
    -2
289
     1
 69
     0
  7
STANDARD
140
6.0
170
     5
 62
     0
 63
     7
283
     0
274
    -2
284
     1
 64
     0
275
    -2
285
     1
 65
     0
276
    -2
286
     1
 66
     0
277
    -2
287
     1
 67
     0
278
    -2
288
     1
 68
     0
279
    -2
289
     1
 69
     0
  7
STANDARD
140
4.5
170
     5
 62
     0
 63
     7
283
     0
274
    -2
284
     1
 64
     0
275
    -2
285
     1
 65
     0
276
    -2
286
     1
 66
     0
277
    -2
287
     1
 67
     0
278
    -2
288
     1
 68
     0
279
    -2
289
     1
 69
     0
  0
VISUALSTYLE
  5
24E
102
{ACAD_REACTORS
330
248
102
}
330
248
100
AcDbVisualStyle
  2
2dWireframe
 70
     4
 71
     0
 72
     2
 73
     0
 90
        0
 40
-0.6
 41
-30.0
 62
     5
 63
     7
 74
     1
 91
        4
 64
     7
 65
   257
 75
     1
175
     1
 42
1.0
 92
        0
 66
   257
 43
1.0
 76
     1
 77
     6
 78
     2
 67
     7
 79
     5
170
     0
171
     0
290
     0
174
     0
 93
        1
 44
0.0
173
     0
291
     0
 45
0.0
1001
ACAD
1000
AcDbSavedByObjectVersion
1070
     0
1000
AcDbSavedByObjectVersion
1070
     0
1000
AcDbSavedByObjectVersion
1070
     0
  0
VISUALSTYLE
  5
250
102
{ACAD_REACTORS
330
248
102
}
330
248
100
AcDbVisualStyle
  2
3D Hidden
 70
     6
 71
     1
 72
     2
 73
     2
 90
        0
 40
-0.6
 41
-30.0
 62
     5
 63
     7
 74
     2
 91
        2
 64
     7
 65
   257
 75
     2
175
     1
 42
40.0
 92
        0
 66
   257
 43
1.0
 76
     1
 77
     6
 78
     2
 67
     7
 79
     3
170
     0
171
     0
290
     0
174
     0
 93
        1
 44
0.0
173
     0
291
     0
 45
0.0
1001
ACAD
1000
AcDbSavedByObjectVersion
1070
     0
1000
AcDbSavedByObjectVersion
1070
     0
1000
AcDbSavedByObjectVersion
1070
     0
  0
VISUALSTYLE
  5
24F
102
{ACAD_REACTORS
330
248
102
}
330
248
100
AcDbVisualStyle
  2
3dWireframe
 70
     5
 71
     0
 72
     2
 73
     0
 90
        0
 40
-0.6
 41
-30.0
 62
     5
 63
     7
 74
     1
 91
        4
 64
     7
 65
   257
 75
     1
175
     1
 42
1.0
 92
        0
 66
   257
 43
1.0
 76
     1
 77
     6
 78
     2
 67
     7
 79
     5
170
     0
171
     0
290
     0
174
     0
 93
        1
 44
0.0
173
     0
291
     0
 45
0.0
1001
ACAD
1000
AcDbSavedByObjectVersion
1070
     0
1000
AcDbSavedByObjectVersion
1070
     0
1000
AcDbSavedByObjectVersion
1070
     0
  0
VISUALSTYLE
  5
24D
102
{ACAD_REACTORS
330
248
102
}
330
248
100
AcDbVisualStyle
  2
Basic
 70
     7
 71
     1
 72
     0
 73
     1
 90
        0
 40
-0.6
 41
-30.0
 62
     5
 63
     7
 74
     0
 91
        4
 64
     7
 65
   257
 75
     1
175
     1
 42
1.0
 92
        8
 66
     7
 43
1.0
 76
     1
 77
     6
 78
     2
 67
     7
 79
     5
170
     0
171
     0
290
     0
174
     0
 93
        1
 44
0.0
173
     0
291
     1
 45
0.0
1001
ACAD
1000
AcDbSavedByObjectVersion
1070
     0
1000
AcDbSavedByObjectVersion
1070
     0
1000
AcDbSavedByObjectVersion
1070
     0
  0
VISUALSTYLE
  5
254
102
{ACAD_REACTORS
330
248
102
}
330
248
100
AcDbVisualStyle
  2
Brighten
 70
    12
 71
     2
 72
     2
 73
     0
 90
        0
 40
-0.6
 41
-30.0
 62
     5
 63
     7
 74
     1
 91
        4
 64
     7
 65
   257
 75
     1
175
     1
 42
1.0
 92
        8
 66
     7
 43
1.0
 76
     1
 77
     6
 78
     2
 67
     7
 79
     5
170
     0
171
     0
290
     0
174
     0
 93
        1
 44
50.0
173
     0
291
     1
 45
0.0
1001
ACAD
1000
AcDbSavedByObjectVersion
1070
     0
1000
AcDbSavedByObjectVersion
1070
     0
1000
AcDbSavedByObjectVersion
1070
     0
  0
VISUALSTYLE
  5
258
102
{ACAD_REACTORS
330
248
102
}
330
248
100
AcDbVisualStyle
  2
ColorChange
 70
    16
 71
     2
 72
     2
 73
     3
 90
        0
 40
-0.6
 41
-30.0
 62
     5
 63
     8
 74
     1
 91
        4
 64
     7
 65
   257
 75
     1
175
     1
 42
1.0
 92
        8
 66
     8
 43
1.0
 76
     1
 77
     6
 78
     2
 67
     7
 79
     5
170
     0
171
     0
290
     0
174
     0
 93
        1
 44
0.0
173
     0
291
     1
 45
0.0
1001
ACAD
1000
AcDbSavedByObjectVersion
1070
     0
1000
AcDbSavedByObjectVersion
1070
     0
1000
AcDbSavedByObjectVersion
1070
     0
  0
VISUALSTYLE
  5
251
102
{ACAD_REACTORS
330
248
102
}
330
248
100
AcDbVisualStyle
  2
Conceptual
 70
     9
 71
     3
 72
     2
 73
     0
 90
        0
 40
-0.6
 41
-30.0
 62
     5
 63
     7
 74
     2
 91
        2
 64
     7
 65
   257
 75
     1
175
     1
 42
40.0
 92
        8
 66
     7
 43
1.0
 76
     1
 77
     6
 78
     2
 67
     7
 79
     3
170
     0
171
     0
290
     0
174
     0
 93
        1
 44
0.0
173
     0
291
     0
 45
0.0
1001
ACAD
1000
AcDbSavedByObjectVersion
1070
     0
1000
AcDbSavedByObjectVersion
1070
     0
1000
AcDbSavedByObjectVersion
1070
     0
  0
VISUALSTYLE
  5
253
102
{ACAD_REACTORS
330
248
102
}
330
248
100
AcDbVisualStyle
  2
Dim
 70
    11
 71
     2
 72
     2
 73
     0
 90
        0
 40
-0.6
 41
-30.0
 62
     5
 63
     7
 74
     1
 91
        4
 64
     7
 65
   257
 75
     1
175
     1
 42
1.0
 92
        8
 66
     7
 43
1.0
 76
     1
 77
     6
 78
     2
 67
     7
 79
     5
170
     0
171
     0
290
     0
174
     0
 93
        1
 44
-50.0
173
     0
291
     1
 45
0.0
1001
ACAD
1000
AcDbSavedByObjectVersion
1070
     0
1000
AcDbSavedByObjectVersion
1070
     0
1000
AcDbSavedByObjectVersion
1070
     0
  0
VISUALSTYLE
  5
257
102
{ACAD_REACTORS
330
248
102
}
330
248
100
AcDbVisualStyle
  2
Facepattern
 70
    15
 71
     2
 72
     2
 73
     0
 90
        0
 40
-0.6
 41
-30.0
 62
     5
 63
     7
 74
     1
 91
        4
 64
     7
 65
   257
 75
     1
175
     1
 42
1.0
 92
        8
 66
     7
 43
1.0
 76
     1
 77
     6
 78
     2
 67
     7
 79
     5
170
     0
171
     0
290
     0
174
     0
 93
        1
 44
0.0
173
     0
291
     1
 45
0.0
1001
ACAD
1000
AcDbSavedByObjectVersion
1070
     0
1000
AcDbSavedByObjectVersion
1070
     0
1000
AcDbSavedByObjectVersion
1070
     0
  0
VISUALSTYLE
  5
249
102
{ACAD_REACTORS
330
248
102
}
330
248
100
AcDbVisualStyle
  2
Flat
 70
     0
 71
     2
 72
     1
 73
     1
 90
        2
 40
-0.6
 41
30.0
 62
     5
 63
     7
 74
     0
 91
        4
 64
     7
 65
   257
 75
     1
175
     1
 42
1.0
 92
        8
 66
     7
 43
1.0
 76
     1
 77
     6
 78
     2
 67
     7
 79
     5
170
     0
171
     0
290
     0
174
     0
 93
       13
 44
0.0
173
     0
291
     1
 45
0.0
1001
ACAD
1000
AcDbSavedByObjectVersion
1070
     0
1000
AcDbSavedByObjectVersion
1070
     0
1000
AcDbSavedByObjectVersion
1070
     0
  0
VISUALSTYLE
  5
24A
102
{ACAD_REACTORS
330
248
102
}
330
248
100
AcDbVisualStyle
  2
FlatWithEdges
 70
     1
 71
     2
 72
     1
 73
     1
 90
        2
 40
-0.6
 41
30.0
 62
     5
 63
     7
 74
     1
 91
        4
 64
     7
 65
   257
 75
     1
175
     1
 42
1.0
 92
        0
 66
   257
 43
1.0
 76
     1
 77
     6
 78
     2
 67
     7
 79
     5
170
     0
171
     0
290
     0
174
     0
 93
       13
 44
0.0
173
     0
291
     1
 45
0.0
1001
ACAD
1000
AcDbSavedByObjectVersion
1070
     0
1000
AcDbSavedByObjectVersion
1070
     0
1000
AcDbSavedByObjectVersion
1070
     0
  0
VISUALSTYLE
  5
24B
102
{ACAD_REACTORS
330
248
102
}
330
248
100
AcDbVisualStyle
  2
Gouraud
 70
     2
 71
     2
 72
     2
 73
     1
 90
        2
 40
-0.6
 41
30.0
 62
     5
 63
     7
 74
     0
 91
        4
 64
     7
 65
   257
 75
     1
175
     1
 42
1.0
 92
        0
 66
     7
 43
1.0
 76
     1
 77
     6
 78
     2
 67
     7
 79
     5
170
     0
171
     0
290
     0
174
     0
 93
       13
 44
0.0
173
     0
291
     1
 45
0.0
1001
ACAD
1000
AcDbSavedByObjectVersion
1070
     0
1000
AcDbSavedByObjectVersion
1070
     0
1000
AcDbSavedByObjectVersion
1070
     0
  0
VISUALSTYLE
  5
24C
102
{ACAD_REACTORS
330
248
102
}
330
248
100
AcDbVisualStyle
  2
GouraudWithEdges
 70
     3
 71
     2
 72
     2
 73
     1
 90
        2
 40
-0.6
 41
30.0
 62
     5
 63
     7
 74
     1
 91
        4
 64
     7
 65
   257
 75
     1
175
     1
 42
1.0
 92
        0
 66
   257
 43
1.0
 76
     1
 77
     6
 78
     2
 67
     7
 79
     5
170
     0
171
     0
290
     0
174
     0
 93
       13
 44
0.0
173
     0
291
     1
 45
0.0
1001
ACAD
1000
AcDbSavedByObjectVersion
1070
     0
1000
AcDbSavedByObjectVersion
1070
     0
1000
AcDbSavedByObjectVersion
1070
     0
  0
VISUALSTYLE
  5
256
102
{ACAD_REACTORS
330
248
102
}
330
248
100
AcDbVisualStyle
  2
Linepattern
 70
    14
 71
     2
 72
     2
 73
     0
 90
        0
 40
-0.6
 41
-30.0
 62
     5
 63
     7
 74
     1
 91
        4
 64
     7
 65
   257
 75
     7
175
     7
 42
1.0
 92
        8
 66
     7
 43
1.0
 76
     1
 77
     6
 78
     2
 67
     7
 79
     5
170
     0
171
     0
290
     0
174
     0
 93
        1
 44
0.0
173
     0
291
     1
 45
0.0
1001
ACAD
1000
AcDbSavedByObjectVersion
1070
     0
1000
AcDbSavedByObjectVersion
1070
     0
1000
AcDbSavedByObjectVersion
1070
     0
  0
VISUALSTYLE
  5
252
102
{ACAD_REACTORS
330
248
102
}
330
248
100
AcDbVisualStyle
  2
Realistic
 70
     8
 71
     2
 72
     2
 73
     0
 90
        0
 40
-0.6
 41
-30.0
 62
     5
 63
     7
 74
     1
 91
        0
 64
     7
 65
   257
 75
     1
175
     1
 42
1.0
 92
        8
 66
     8
 43
1.0
 76
     1
 77
     6
 78
     2
 67
     7
 79
     5
170
     0
171
     0
290
     0
174
     0
 93
       13
 44
0.0
173
     0
291
     0
 45
0.0
1001
ACAD
1000
AcDbSavedByObjectVersion
1070
     0
1000
AcDbSavedByObjectVersion
1070
     0
1000
AcDbSavedByObjectVersion
1070
     0
  0
VISUALSTYLE
  5
255
102
{ACAD_REACTORS
330
248
102
}
330
248
100
AcDbVisualStyle
  2
Thicken
 70
    13
 71
     2
 72
     2
 73
     0
 90
        0
 40
-0.6
 41
-30.0
 62
     5
 63
     7
 74
     1
 91
        4
 64
     7
 65
   257
 75
     1
175
     1
 42
1.0
 92
       12
 66
     7
 43
1.0
 76
     1
 77
     6
 78
     2
 67
     7
 79
     5
170
     0
171
     0
290
     0
174
     0
 93
        1
 44
0.0
173
     0
291
     1
 45
0.0
1001
ACAD
1000
AcDbSavedByObjectVersion
1070
     0
1000
AcDbSavedByObjectVersion
1070
     0
1000
AcDbSavedByObjectVersion
1070
     0
  0
DICTIONARYVAR
  5
8B5
102
{ACAD_REACTORS
330
220
102
}
330
220
100
DictionaryVariables
280
     0
  1
1:1
  0
DICTIONARYVAR
  5
8B4
102
{ACAD_REACTORS
330
220
102
}
330
220
100
DictionaryVariables
280
     0
  1
STANDARD
  0
DICTIONARYVAR
  5
8B3
102
{ACAD_REACTORS
330
220
102
}
330
220
100
DictionaryVariables
280
     0
  1
STANDARD
  0
DICTIONARYVAR
  5
222
102
{ACAD_REACTORS
330
220
102
}
330
220
100
DictionaryVariables
280
     0
  1
2
  0
DICTIONARYVAR
  5
221
102
{ACAD_REACTORS
330
220
102
}
330
220
100
DictionaryVariables
280
     0
  1
1
  0
DICTIONARYVAR
  5
8B7
102
{ACAD_REACTORS
330
220
102
}
330
220
100
DictionaryVariables
280
     0
  1
1
  0
DICTIONARYVAR
  5
223
102
{ACAD_REACTORS
330
220
102
}
330
220
100
DictionaryVariables
280
     0
  1

  0
DICTIONARYVAR
  5
8B6
102
{ACAD_REACTORS
330
220
102
}
330
220
100
DictionaryVariables
280
     0
  1
127
  0
DICTIONARY
  5
316
102
{ACAD_REACTORS
330
315
102
}
330
315
100
AcDbDictionary
281
     1
  0
XRECORD
  5
42B
102
{ACAD_REACTORS
330
315
102
}
330
315
100
AcDbXrecord
280
     1
 90
-1056964608
  0
DICTIONARY
  5
276
102
{ACAD_REACTORS
330
275
102
}
330
275
100
AcDbDictionary
281
     1
  3
DWGSETTINGS
350
BB2
  3
TRANSSETTINGS
350
BB6
  0
ACAMGFILTERDAT
  5
42C
102
{ACAD_REACTORS
330
3A4
102
}
330
3A4
100
AcAmgFilterDat
 70
    15
  1
DIMENSION,AMDT_*_DIM
  2
*
  3
*
  4
*
  5
*
290
     1
  0
ACAMGFILTERDAT
  5
42D
102
{ACAD_REACTORS
330
3A4
102
}
330
3A4
100
AcAmgFilterDat
 70
    15
  1
*
  2
AM_FEA-AM_*
  3
*
  4
*
  5
*
290
     1
  0
ACAMGFILTERDAT
  5
42E
102
{ACAD_REACTORS
330
3A4
102
}
330
3A4
100
AcAmgFilterDat
 70
    15
  1
HATCH
  2
*
  3
*
  4
*
  5
*
290
     1
  0
ACAMGFILTERDAT
  5
42F
102
{ACAD_REACTORS
330
3A4
102
}
330
3A4
100
AcAmgFilterDat
 70
    15
  1
ACMFCFRAME,ACMDATUMTARGET,ACMDATUMID,ACMWELDSYM,ACMSURFSYM,ACMFEATID,ACMPARTREF,ACMBALLOON
  2
*
  3
*
  4
*
  5
*
290
     1
  0
LAYER_INDEX
  5
8AC
102
{ACAD_REACTORS
330
8AB
102
}
330
8AB
100
AcDbIndex
 40
2456352.441651273
100
AcDbLayerIndex
  8
0
360
8AD
 90
        0
  8
Visible Edges
360
8AE
 90
        0
  8
AM_5
360
8AF
 90
        0
  8
Defpoints
360
8B0
 90
        0
  8
AM_3
360
8B1
 90
        1
  0
DICTIONARY
  5
FEB
330
20
100
AcDbDictionary
280
     1
281
     1
  3
ACAD_XREC_ROUNDTRIP
360
FEC
  0
DICTIONARY
  5
FEF
330
28
100
AcDbDictionary
280
     1
281
     1
  3
ACAD_XREC_ROUNDTRIP
360
FF0
  0
DICTIONARY
  5
FED
330
24
100
AcDbDictionary
280
     1
281
     1
  3
ACAD_XREC_ROUNDTRIP
360
FEE
  0
DICTIONARY
  5
239
330
238
100
AcDbDictionary
280
     1
281
     1
  3
ACAD_XREC_ROUNDTRIP
360
8C3
  3
BUMPTILE
360
23B
  3
DIFFUSETILE
360
23A
  3
OPACITYTILE
360
23E
  3
REFLECTIONTILE
360
23D
  3
REFRACTIONTILE
360
23F
  3
SPECULARTILE
360
23C
  0
DICTIONARY
  5
231
330
230
100
AcDbDictionary
280
     1
281
     1
  3
ACAD_XREC_ROUNDTRIP
360
8C2
  3
BUMPTILE
360
233
  3
DIFFUSETILE
360
232
  3
OPACITYTILE
360
236
  3
REFLECTIONTILE
360
235
  3
REFRACTIONTILE
360
237
  3
SPECULARTILE
360
234
  0
DICTIONARY
  5
241
330
240
100
AcDbDictionary
280
     1
281
     1
  3
ACAD_XREC_ROUNDTRIP
360
8C4
  3
BUMPTILE
360
243
  3
DIFFUSETILE
360
242
  3
OPACITYTILE
360
246
  3
REFLECTIONTILE
360
245
  3
REFRACTIONTILE
360
247
  3
SPECULARTILE
360
244
  0
DICTIONARY
  5
8B8
330
25A
100
AcDbDictionary
280
     1
281
     1
  3
ACAD_ROUNDTRIP_2008_TABLESTYLE_CELLSTYLEMAP
360
FE9
  3
ACAD_XREC_ROUNDTRIP
360
FF1
  0
IDBUFFER
  5
8AD
330
0
100
AcDbIdBuffer
  0
IDBUFFER
  5
8AE
330
0
100
AcDbIdBuffer
  0
IDBUFFER
  5
8AF
330
0
100
AcDbIdBuffer
  0
IDBUFFER
  5
8B0
330
0
100
AcDbIdBuffer
  0
IDBUFFER
  5
8B1
330
0
100
AcDbIdBuffer
330
FE8
  0
XRECORD
  5
FEC
102
{ACAD_REACTORS
330
FEB
102
}
330
FEB
100
AcDbXrecord
280
     1
102
SHADEPLOT
 70
     0
102
SHADEPLOTRESLEVEL
 70
     2
102
SHADEPLOTCUSTOMDPI
 70
   300
  0
XRECORD
  5
FF0
102
{ACAD_REACTORS
330
FEF
102
}
330
FEF
100
AcDbXrecord
280
     1
102
SHADEPLOT
 70
     0
102
SHADEPLOTRESLEVEL
 70
     2
102
SHADEPLOTCUSTOMDPI
 70
   300
  0
XRECORD
  5
FEE
102
{ACAD_REACTORS
330
FED
102
}
330
FED
100
AcDbXrecord
280
     1
102
SHADEPLOT
 70
     0
102
SHADEPLOTRESLEVEL
 70
     2
102
SHADEPLOTCUSTOMDPI
 70
   300
  0
XRECORD
  5
8C3
102
{ACAD_REACTORS
330
239
102
}
330
239
100
AcDbXrecord
280
     1
102
MATERIAL
148
0.0
149
0.0
149
0.0
 93
        0
 94
      127
282
     0
 72
     0
 77
     0
171
     0
175
     0
179
     0
273
     0
  0
XRECORD
  5
23B
102
{ACAD_REACTORS
330
239
102
}
330
239
100
AcDbXrecord
280
     1
270
     1
271
     1
  0
XRECORD
  5
23A
102
{ACAD_REACTORS
330
239
102
}
330
239
100
AcDbXrecord
280
     1
270
     1
271
     1
  0
XRECORD
  5
23E
102
{ACAD_REACTORS
330
239
102
}
330
239
100
AcDbXrecord
280
     1
270
     1
271
     1
  0
XRECORD
  5
23D
102
{ACAD_REACTORS
330
239
102
}
330
239
100
AcDbXrecord
280
     1
270
     1
271
     1
  0
XRECORD
  5
23F
102
{ACAD_REACTORS
330
239
102
}
330
239
100
AcDbXrecord
280
     1
270
     1
271
     1
  0
XRECORD
  5
23C
102
{ACAD_REACTORS
330
239
102
}
330
239
100
AcDbXrecord
280
     1
270
     1
271
     1
  0
XRECORD
  5
8C2
102
{ACAD_REACTORS
330
231
102
}
330
231
100
AcDbXrecord
280
     1
102
MATERIAL
148
0.0
149
0.0
149
0.0
 93
        0
 94
      127
282
     0
 72
     0
 77
     0
171
     0
175
     0
179
     0
273
     0
  0
XRECORD
  5
233
102
{ACAD_REACTORS
330
231
102
}
330
231
100
AcDbXrecord
280
     1
270
     1
271
     1
  0
XRECORD
  5
232
102
{ACAD_REACTORS
330
231
102
}
330
231
100
AcDbXrecord
280
     1
270
     1
271
     1
  0
XRECORD
  5
236
102
{ACAD_REACTORS
330
231
102
}
330
231
100
AcDbXrecord
280
     1
270
     1
271
     1
  0
XRECORD
  5
235
102
{ACAD_REACTORS
330
231
102
}
330
231
100
AcDbXrecord
280
     1
270
     1
271
     1
  0
XRECORD
  5
237
102
{ACAD_REACTORS
330
231
102
}
330
231
100
AcDbXrecord
280
     1
270
     1
271
     1
  0
XRECORD
  5
234
102
{ACAD_REACTORS
330
231
102
}
330
231
100
AcDbXrecord
280
     1
270
     1
271
     1
  0
XRECORD
  5
8C4
102
{ACAD_REACTORS
330
241
102
}
330
241
100
AcDbXrecord
280
     1
102
MATERIAL
148
0.0
149
0.0
149
0.0
 93
        0
 94
      127
282
     0
 72
     0
 77
     0
171
     0
175
     0
179
     0
273
     0
  0
XRECORD
  5
243
102
{ACAD_REACTORS
330
241
102
}
330
241
100
AcDbXrecord
280
     1
270
     1
271
     1
  0
XRECORD
  5
242
102
{ACAD_REACTORS
330
241
102
}
330
241
100
AcDbXrecord
280
     1
270
     1
271
     1
  0
XRECORD
  5
246
102
{ACAD_REACTORS
330
241
102
}
330
241
100
AcDbXrecord
280
     1
270
     1
271
     1
  0
XRECORD
  5
245
102
{ACAD_REACTORS
330
241
102
}
330
241
100
AcDbXrecord
280
     1
270
     1
271
     1
  0
XRECORD
  5
247
102
{ACAD_REACTORS
330
241
102
}
330
241
100
AcDbXrecord
280
     1
270
     1
271
     1
  0
XRECORD
  5
244
102
{ACAD_REACTORS
330
241
102
}
330
241
100
AcDbXrecord
280
     1
270
     1
271
     1
  0
CELLSTYLEMAP
  5
FE9
102
{ACAD_REACTORS
330
8B8
102
}
330
8B8
100
AcDbCellStyleMap
 90
        3
300
CELLSTYLE
  1
TABLEFORMAT_BEGIN
 90
        5
170
     1
 91
        0
 92
    32768
 62
   257
 93
        1
300
CONTENTFORMAT
  1
CONTENTFORMAT_BEGIN
 90
        0
 91
        0
 92
      512
 93
        0
300

 40
0.0
140
1.0
 94
        5
 62
     0
340
11
144
6.0
309
CONTENTFORMAT_END
171
     1
301
MARGIN
  1
CELLMARGIN_BEGIN
 40
1.5
 40
1.5
 40
1.5
 40
1.5
 40
0.18
 40
0.18
309
CELLMARGIN_END
 94
        6
 95
        1
302
GRIDFORMAT
  1
GRIDFORMAT_BEGIN
 90
        0
 91
        1
 62
     0
 92
       -2
340
0
 93
        0
 40
1.125
309
GRIDFORMAT_END
 95
        2
302
GRIDFORMAT
  1
GRIDFORMAT_BEGIN
 90
        0
 91
        1
 62
     0
 92
       -2
340
0
 93
        0
 40
1.125
309
GRIDFORMAT_END
 95
        4
302
GRIDFORMAT
  1
GRIDFORMAT_BEGIN
 90
        0
 91
        1
 62
     0
 92
       -2
340
0
 93
        0
 40
1.125
309
GRIDFORMAT_END
 95
        8
302
GRIDFORMAT
  1
GRIDFORMAT_BEGIN
 90
        0
 91
        1
 62
     0
 92
       -2
340
0
 93
        0
 40
1.125
309
GRIDFORMAT_END
 95
       16
302
GRIDFORMAT
  1
GRIDFORMAT_BEGIN
 90
        0
 91
        1
 62
     0
 92
       -2
340
0
 93
        0
 40
1.125
309
GRIDFORMAT_END
 95
       32
302
GRIDFORMAT
  1
GRIDFORMAT_BEGIN
 90
        0
 91
        1
 62
     0
 92
       -2
340
0
 93
        0
 40
1.125
309
GRIDFORMAT_END
309
TABLEFORMAT_END
  1
CELLSTYLE_BEGIN
 90
        1
 91
        1
300
_TITLE
309
CELLSTYLE_END
300
CELLSTYLE
  1
TABLEFORMAT_BEGIN
 90
        5
170
     1
 91
        0
 92
        0
 62
   257
 93
        1
300
CONTENTFORMAT
  1
CONTENTFORMAT_BEGIN
 90
        0
 91
        0
 92
      512
 93
        0
300

 40
0.0
140
1.0
 94
        5
 62
     0
340
11
144
4.5
309
CONTENTFORMAT_END
171
     1
301
MARGIN
  1
CELLMARGIN_BEGIN
 40
1.5
 40
1.5
 40
1.5
 40
1.5
 40
0.18
 40
0.18
309
CELLMARGIN_END
 94
        6
 95
        1
302
GRIDFORMAT
  1
GRIDFORMAT_BEGIN
 90
        0
 91
        1
 62
     0
 92
       -2
340
0
 93
        0
 40
1.125
309
GRIDFORMAT_END
 95
        2
302
GRIDFORMAT
  1
GRIDFORMAT_BEGIN
 90
        0
 91
        1
 62
     0
 92
       -2
340
0
 93
        0
 40
1.125
309
GRIDFORMAT_END
 95
        4
302
GRIDFORMAT
  1
GRIDFORMAT_BEGIN
 90
        0
 91
        1
 62
     0
 92
       -2
340
0
 93
        0
 40
1.125
309
GRIDFORMAT_END
 95
        8
302
GRIDFORMAT
  1
GRIDFORMAT_BEGIN
 90
        0
 91
        1
 62
     0
 92
       -2
340
0
 93
        0
 40
1.125
309
GRIDFORMAT_END
 95
       16
302
GRIDFORMAT
  1
GRIDFORMAT_BEGIN
 90
        0
 91
        1
 62
     0
 92
       -2
340
0
 93
        0
 40
1.125
309
GRIDFORMAT_END
 95
       32
302
GRIDFORMAT
  1
GRIDFORMAT_BEGIN
 90
        0
 91
        1
 62
     0
 92
       -2
340
0
 93
        0
 40
1.125
309
GRIDFORMAT_END
309
TABLEFORMAT_END
  1
CELLSTYLE_BEGIN
 90
        2
 91
        1
300
_HEADER
309
CELLSTYLE_END
300
CELLSTYLE
  1
TABLEFORMAT_BEGIN
 90
        5
170
     1
 91
        0
 92
        0
 62
   257
 93
        1
300
CONTENTFORMAT
  1
CONTENTFORMAT_BEGIN
 90
        0
 91
        0
 92
      512
 93
        0
300

 40
0.0
140
1.0
 94
        2
 62
     0
340
11
144
4.5
309
CONTENTFORMAT_END
171
     1
301
MARGIN
  1
CELLMARGIN_BEGIN
 40
1.5
 40
1.5
 40
1.5
 40
1.5
 40
0.18
 40
0.18
309
CELLMARGIN_END
 94
        6
 95
        1
302
GRIDFORMAT
  1
GRIDFORMAT_BEGIN
 90
        0
 91
        1
 62
     0
 92
       -2
340
0
 93
        0
 40
1.125
309
GRIDFORMAT_END
 95
        2
302
GRIDFORMAT
  1
GRIDFORMAT_BEGIN
 90
        0
 91
        1
 62
     0
 92
       -2
340
0
 93
        0
 40
1.125
309
GRIDFORMAT_END
 95
        4
302
GRIDFORMAT
  1
GRIDFORMAT_BEGIN
 90
        0
 91
        1
 62
     0
 92
       -2
340
0
 93
        0
 40
1.125
309
GRIDFORMAT_END
 95
        8
302
GRIDFORMAT
  1
GRIDFORMAT_BEGIN
 90
        0
 91
        1
 62
     0
 92
       -2
340
0
 93
        0
 40
1.125
309
GRIDFORMAT_END
 95
       16
302
GRIDFORMAT
  1
GRIDFORMAT_BEGIN
 90
        0
 91
        1
 62
     0
 92
       -2
340
0
 93
        0
 40
1.125
309
GRIDFORMAT_END
 95
       32
302
GRIDFORMAT
  1
GRIDFORMAT_BEGIN
 90
        0
 91
        1
 62
     0
 92
       -2
340
0
 93
        0
 40
1.125
309
GRIDFORMAT_END
309
TABLEFORMAT_END
  1
CELLSTYLE_BEGIN
 90
        3
 91
        2
300
_DATA
309
CELLSTYLE_END
  0
XRECORD
  5
FF1
102
{ACAD_REACTORS
330
8B8
102
}
330
8B8
100
AcDbXrecord
280
     1
102
ACAD_ROUNDTRIP_PRE2007_TABLESTYLE
 90
      512
 91
        0
  1

 92
      512
 93
        0
  2

 94
      512
 95
        0
  3

  0
ENDSEC
  0
EOF
