  0
SECTION
  2
HEADER
  9
$ACADVER
  1
AC1015
  9
$ACADMAINTVER
 70
    20
  9
$DWGCODEPAGE
  3
ANSI_1252
  9
$INSBASE
 10
0.0
 20
0.0
 30
0.0
  9
$EXTMIN
 10
36.69187102586244
 20
70.1069813444748
 30
0.0
  9
$EXTMAX
 10
235.98773666841
 20
230.7132242664973
 30
0.0
  9
$LIMMIN
 10
0.0
 20
0.0
  9
$LIMMAX
 10
709.676
 20
548.3859999999999
  9
$ORTHOMODE
 70
     1
  9
$REGENMODE
 70
     1
  9
$FILLMODE
 70
     1
  9
$QTEXTMODE
 70
     0
  9
$MIRRTEXT
 70
     0
  9
$LTSCALE
 40
1.0
  9
$ATTMODE
 70
     1
  9
$TEXTSIZE
 40
3.5
  9
$TRACEWID
 40
0.05
  9
$TEXTSTYLE
  7
STANDARD
  9
$CLAYER
  8
AM_3
  9
$CELTYPE
  6
ByLayer
  9
$CECOLOR
 62
   256
  9
$CELTSCALE
 40
1.0
  9
$DISPSILH
 70
     0
  9
$DIMSCALE
 40
1.0
  9
$DIMASZ
 40
2.5
  9
$DIMEXO
 40
1.0
  9
$DIMDLI
 40
10.0
  9
$DIMRND
 40
0.0
  9
$DIMDLE
 40
0.0
  9
$DIMEXE
 40
1.0
  9
$DIMTP
 40
0.1
  9
$DIMTM
 40
0.1
  9
$DIMTXT
 40
3.5
  9
$DIMCEN
 40
0.0
  9
$DIMTSZ
 40
0.0
  9
$DIMTOL
 70
     0
  9
$DIMLIM
 70
     0
  9
$DIMTIH
 70
     0
  9
$DIMTOH
 70
     0
  9
$DIMSE1
 70
     0
  9
$DIMSE2
 70
     0
  9
$DIMTAD
 70
     1
  9
$DIMZIN
 70
     8
  9
$DIMBLK
  1

  9
$DIMASO
 70
     1
  9
$DIMSHO
 70
     1
  9
$DIMPOST
  1

  9
$DIMAPOST
  1
"
  9
$DIMALT
 70
     0
  9
$DIMALTD
 70
     3
  9
$DIMALTF
 40
0.0393701
  9
$DIMLFAC
 40
1.0
  9
$DIMTOFL
 70
     1
  9
$DIMTVP
 40
0.0
  9
$DIMTIX
 70
     0
  9
$DIMSOXD
 70
     0
  9
$DIMSAH
 70
     0
  9
$DIMBLK1
  1

  9
$DIMBLK2
  1

  9
$DIMSTYLE
  2
AM_ISO
  9
$DIMCLRD
 70
   256
  9
$DIMCLRE
 70
   256
  9
$DIMCLRT
 70
     2
  9
$DIMTFAC
 40
0.71
  9
$DIMGAP
 40
1.5
  9
$DIMJUST
 70
     0
  9
$DIMSD1
 70
     0
  9
$DIMSD2
 70
     0
  9
$DIMTOLJ
 70
     0
  9
$DIMTZIN
 70
     8
  9
$DIMALTZ
 70
     0
  9
$DIMALTTZ
 70
     0
  9
$DIMUPT
 70
     0
  9
$DIMDEC
 70
     2
  9
$DIMTDEC
 70
     2
  9
$DIMALTU
 70
     2
  9
$DIMALTTD
 70
     3
  9
$DIMTXSTY
  7
STANDARD
  9
$DIMAUNIT
 70
     0
  9
$DIMADEC
 70
     0
  9
$DIMALTRND
 40
0.0
  9
$DIMAZIN
 70
     2
  9
$DIMDSEP
 70
    46
  9
$DIMATFIT
 70
     3
  9
$DIMFRAC
 70
     0
  9
$DIMLDRBLK
  1

  9
$DIMLUNIT
 70
     2
  9
$DIMLWD
 70
    -1
  9
$DIMLWE
 70
    -1
  9
$DIMTMOVE
 70
     0
  9
$LUNITS
 70
     2
  9
$LUPREC
 70
     2
  9
$SKETCHINC
 40
0.1
  9
$FILLETRAD
 40
1.0
  9
$AUNITS
 70
     0
  9
$AUPREC
 70
     0
  9
$MENU
  1
.
  9
$ELEVATION
 40
0.0
  9
$PELEVATION
 40
0.0
  9
$THICKNESS
 40
0.0
  9
$LIMCHECK
 70
     0
  9
$CHAMFERA
 40
2.5
  9
$CHAMFERB
 40
2.5
  9
$CHAMFERC
 40
0.0
  9
$CHAMFERD
 40
0.0
  9
$SKPOLY
 70
     0
  9
$TDCREATE
 40
2453018.565677616
  9
$TDUCREATE
 40
2453018.524010949
  9
$TDUPDATE
 40
2456352.443437315
  9
$TDUUPDATE
 40
2456352.401770648
  9
$TDINDWG
 40
0.0203998148
  9
$TDUSRTIMER
 40
0.0203995486
  9
$USRTIMER
 70
     1
  9
$ANGBASE
 50
0.0
  9
$ANGDIR
 70
     0
  9
$PDMODE
 70
     0
  9
$PDSIZE
 40
0.0
  9
$PLINEWID
 40
0.0
  9
$SPLFRAME
 70
     0
  9
$SPLINETYPE
 70
     6
  9
$SPLINESEGS
 70
     8
  9
$HANDSEED
  5
167F
  9
$SURFTAB1
 70
     6
  9
$SURFTAB2
 70
     6
  9
$SURFTYPE
 70
     6
  9
$SURFU
 70
     6
  9
$SURFV
 70
     6
  9
$UCSBASE
  2

  9
$UCSNAME
  2

  9
$UCSORG
 10
0.0
 20
0.0
 30
0.0
  9
$UCSXDIR
 10
1.0
 20
0.0
 30
0.0
  9
$UCSYDIR
 10
0.0
 20
1.0
 30
0.0
  9
$UCSORTHOREF
  2

  9
$UCSORTHOVIEW
 70
     0
  9
$UCSORGTOP
 10
0.0
 20
0.0
 30
0.0
  9
$UCSORGBOTTOM
 10
0.0
 20
0.0
 30
0.0
  9
$UCSORGLEFT
 10
0.0
 20
0.0
 30
0.0
  9
$UCSORGRIGHT
 10
0.0
 20
0.0
 30
0.0
  9
$UCSORGFRONT
 10
0.0
 20
0.0
 30
0.0
  9
$UCSORGBACK
 10
0.0
 20
0.0
 30
0.0
  9
$PUCSBASE
  2

  9
$PUCSNAME
  2

  9
$PUCSORG
 10
0.0
 20
0.0
 30
0.0
  9
$PUCSXDIR
 10
1.0
 20
0.0
 30
0.0
  9
$PUCSYDIR
 10
0.0
 20
1.0
 30
0.0
  9
$PUCSORTHOREF
  2

  9
$PUCSORTHOVIEW
 70
     0
  9
$PUCSORGTOP
 10
0.0
 20
0.0
 30
0.0
  9
$PUCSORGBOTTOM
 10
0.0
 20
0.0
 30
0.0
  9
$PUCSORGLEFT
 10
0.0
 20
0.0
 30
0.0
  9
$PUCSORGRIGHT
 10
0.0
 20
0.0
 30
0.0
  9
$PUCSORGFRONT
 10
0.0
 20
0.0
 30
0.0
  9
$PUCSORGBACK
 10
0.0
 20
0.0
 30
0.0
  9
$USERI1
 70
     0
  9
$USERI2
 70
     0
  9
$USERI3
 70
     0
  9
$USERI4
 70
     0
  9
$USERI5
 70
     0
  9
$USERR1
 40
0.0
  9
$USERR2
 40
0.0
  9
$USERR3
 40
0.0
  9
$USERR4
 40
0.0
  9
$USERR5
 40
0.0
  9
$WORLDVIEW
 70
     1
  9
$SHADEDGE
 70
     3
  9
$SHADEDIF
 70
    70
  9
$TILEMODE
 70
     1
  9
$MAXACTVP
 70
    64
  9
$PINSBASE
 10
0.0
 20
0.0
 30
0.0
  9
$PLIMCHECK
 70
     0
  9
$PEXTMIN
 10
0.0
 20
0.0
 30
0.0
  9
$PEXTMAX
 10
709.676
 20
548.3859999999999
 30
0.0
  9
$PLIMMIN
 10
0.0
 20
0.0
  9
$PLIMMAX
 10
709.676
 20
548.3859999999999
  9
$UNITMODE
 70
     0
  9
$VISRETAIN
 70
     1
  9
$PLINEGEN
 70
     0
  9
$PSLTSCALE
 70
     1
  9
$TREEDEPTH
 70
  3020
  9
$CMLSTYLE
  2
Standard
  9
$CMLJUST
 70
     0
  9
$CMLSCALE
 40
1.0
  9
$PROXYGRAPHICS
 70
     1
  9
$MEASUREMENT
 70
     1
  9
$CELWEIGHT
370
    -1
  9
$ENDCAPS
280
     0
  9
$JOINSTYLE
280
     0
  9
$LWDISPLAY
290
     0
  9
$INSUNITS
 70
     0
  9
$HYPERLINKBASE
  1

  9
$STYLESHEET
  1

  9
$XEDIT
290
     1
  9
$CEPSNTYPE
380
     0
  9
$PSTYLEMODE
290
     1
  9
$FINGERPRINTGUID
  2
{B0184E5F-87AD-4316-912D-AAC181AF2DAA}
  9
$VERSIONGUID
  2
{3E68E55D-6616-4465-B6BE-032B6DB4F371}
  9
$EXTNAMES
290
     1
  9
$PSVPSCALE
 40
0.0
  9
$OLESTARTUP
290
     0
  0
ENDSEC
  0
SECTION
  2
CLASSES
  0
CLASS
  1
ACDBDICTIONARYWDFLT
  2
AcDbDictionaryWithDefault
  3
ObjectDBX Classes
 90
        0
280
     0
281
     0
  0
CLASS
  1
DICTIONARYVAR
  2
AcDbDictionaryVar
  3
ObjectDBX Classes
 90
        0
280
     0
281
     0
  0
CLASS
  1
ACDBPLACEHOLDER
  2
AcDbPlaceHolder
  3
ObjectDBX Classes
 90
        0
280
     0
281
     0
  0
CLASS
  1
LAYOUT
  2
AcDbLayout
  3
ObjectDBX Classes
 90
        0
280
     0
281
     0
  0
CLASS
  1
MATERIAL
  2
AcDbMaterial
  3
ObjectDBX Classes
 90
     1153
280
     0
281
     0
  0
CLASS
  1
VISUALSTYLE
  2
AcDbVisualStyle
  3
ObjectDBX Classes
 90
     4095
280
     0
281
     0
  0
CLASS
  1
TABLESTYLE
  2
AcDbTableStyle
  3
ObjectDBX Classes
 90
     4095
280
     0
281
     0
  0
CLASS
  1
SCALE
  2
AcDbScale
  3
ObjectDBX Classes
 90
     1153
280
     0
281
     0
  0
CLASS
  1
MLEADERSTYLE
  2
AcDbMLeaderStyle
  3
ACDB_MLEADERSTYLE_CLASS
 90
     4095
280
     0
281
     0
  0
CLASS
  1
AMGSETTINGSOBJ
  2
AmgSettingsObj
  3
"AcadM|Product Description: AutoCAD Mechanical|Company: Autodesk, Inc."
 90
     1024
280
     0
281
     0
  0
CLASS
  1
AMGOBJPROPCFG
  2
AmgObjPropCfg
  3
"AmgLay|Product Description: AutoCAD Mechanical|Company: Autodesk, Inc."
 90
     1025
280
     0
281
     0
  0
CLASS
  1
ACMESCOPE
  2
AcMeScope
  3
AcMeServices
 90
     1024
280
     0
281
     0
  0
CLASS
  1
ACGREFMASTER
  2
AcGrefMaster
  3
AcAttribServices
 90
     1024
280
     0
281
     0
  0
CLASS
  1
ACME_DOCUMENT
  2
AcMeDbDoc
  3
AcMeServices
 90
     1024
280
     0
281
     0
  0
CLASS
  1
ACMECOMMANDHISTORY
  2
AcMeCommandHistory
  3
AcMeServices
 90
     1024
280
     0
281
     0
  0
CLASS
  1
ACIMSYSVARMAN
  2
AcImSysVarManager
  3
AcMeServices
 90
     1024
280
     0
281
     0
  0
CLASS
  1
ACIMREALSYSVAR
  2
AcImRealSysVar
  3
AcMeServices
 90
     1024
280
     0
281
     0
  0
CLASS
  1
ACIMINTSYSVAR
  2
AcImIntSysVar
  3
AcMeServices
 90
     1024
280
     0
281
     0
  0
CLASS
  1
ACMEDRAWINGMAN
  2
AcMeDrawingMan
  3
AcMeServices
 90
     1024
280
     0
281
     0
  0
CLASS
  1
ACMEVIEW
  2
AcMeView
  3
AcMeServices
 90
     1024
280
     0
281
     0
  0
CLASS
  1
ACDBENTITYCACHE
  2
AcMeEntityCache
  3
AcMeServices
 90
     1024
280
     0
281
     0
  0
CLASS
  1
GSMANAGER
  2
AcMeGSManager
  3
AcMeServices
 90
     1024
280
     0
281
     0
  0
CLASS
  1
AMDTINTERNALREACTOR
  2
AmdtInternalReactor
  3
AcMeServices
 90
     1024
280
     0
281
     0
  0
CLASS
  1
ACMESTATEMGR
  2
AcMeStateMgr
  3
AcMeServices
 90
     1024
280
     0
281
     0
  0
CLASS
  1
AM_DRAWING_MGR
  2
AcDmDwgMgr
  3
AcMechDwgViewMgmt
 90
     1024
280
     0
281
     0
  0
CLASS
  1
AM_DWG_DOCUMENT
  2
AcDmDwgDocument
  3
AcMechDwgViewMgmt
 90
     1024
280
     0
281
     0
  0
CLASS
  1
AM_DWG_SHEET
  2
AcDmSheet
  3
AcMechDwgViewMgmt
 90
     1024
280
     0
281
     0
  0
CLASS
  1
AM_VIEWDIMPARMAP
  2
AcDmViewDimParMap
  3
AcMechDwgViewMgmt
 90
     1024
280
     0
281
     0
  0
CLASS
  1
AM_DWGMGR_NAME
  2
AcDmDwgMgrName
  3
AcMechDwgViewMgmt
 90
     1024
280
     0
281
     0
  0
CLASS
  1
ACME_DATABASE
  2
AcMeDbDatabase
  3
AcMeServices
 90
     1024
280
     0
281
     0
  0
CLASS
  1
ACRFINSADJUSTERMGR
  2
AcRfInsAdjusterMgr
  3
AcMeServices
 90
     1024
280
     0
281
     0
  0
CLASS
  1
ACGREFACADMASTER
  2
AcGrefacadMaster
  3
AcGrefServices
 90
     1024
280
     0
281
     0
  0
CLASS
  1
AMDTMENUSTATEMGR
  2
AmdtMenuStateMgr
  3
McadcomServices
 90
     1024
280
     0
281
     0
  0
CLASS
  1
AMDTMCOMMENUSTATE
  2
AmdtMcomMenuState
  3
McadcomServices
 90
     1024
280
     0
281
     0
  0
CLASS
  1
AMIMASTER
  2
AmiMaster
  3
AmiServices
 90
     1024
280
     0
281
     0
  0
CLASS
  1
ASAPP
  2
AcAsAppObject
  3
AutoSurfServices
 90
     1024
280
     0
281
     0
  0
CLASS
  1
IM_STATIC_MAN
  2
AcImStaticVarManager
  3
AcMeServices
 90
     1024
280
     0
281
     0
  0
CLASS
  1
ACIMSTRSYSVAR
  2
AcImStrSysVar
  3
AcMeServices
 90
     1024
280
     0
281
     0
  0
CLASS
  1
ACIMDBLSTATICVAR
  2
AcImDblStaticVar
  3
AcMeServices
 90
     1024
280
     0
281
     0
  0
CLASS
  1
ACIMSTRSTATICVAR
  2
AcImStrStaticVar
  3
AcMeServices
 90
     1024
280
     0
281
     0
  0
CLASS
  1
ACIMINTSTATICVAR
  2
AcImIntStaticVar
  3
AcMeServices
 90
     1024
280
     0
281
     0
  0
CLASS
  1
ACASGREFMASTER
  2
AcAsGrefMaster
  3
AutoSurfResolverServices
 90
     1024
280
     0
281
     0
  0
CLASS
  1
ACADGREFMODULE
  2
AcAdGrefModule
  3
AdGrefServices
 90
     1024
280
     0
281
     0
  0
CLASS
  1
AMDTMAPISURFMOUDULE
  2
AmdtMApiSurfModule
  3
MApiSurfServices
 90
    33792
280
     0
281
     0
  0
CLASS
  1
MAPIAMMOUDLE
  2
MApiAmModule
  3
MApiAmServices
 90
     1024
280
     0
281
     0
  0
CLASS
  1
ACMSTANDARDANSI
  2
AcmStandardANSI
  3
"Amdt_StdImp|Product Description: AutoCAD Mechanical|Company: Autodesk, Inc."
 90
     1024
280
     0
281
     0
  0
CLASS
  1
ACMSURFSTANDARDANSI
  2
AcmSurfTextStdANSI
  3
"Amdt_StdImp|Product Description: AutoCAD Mechanical|Company: Autodesk, Inc."
 90
     1024
280
     0
281
     0
  0
CLASS
  1
ACMFCFSTANDARDANSI
  2
AcmFCFStdANSI
  3
"Amdt_StdImp|Product Description: AutoCAD Mechanical|Company: Autodesk, Inc."
 90
     1024
280
     0
281
     0
  0
CLASS
  1
ACMWELDSTANDARDANSI
  2
AcmWeldingStdANSI
  3
"Amdt_StdImp|Product Description: AutoCAD Mechanical|Company: Autodesk, Inc."
 90
     1024
280
     0
281
     0
  0
CLASS
  1
ACMIDSTANDARDANSI
  2
AcmIdStdANSI
  3
"Amdt_StdImp|Product Description: AutoCAD Mechanical|Company: Autodesk, Inc."
 90
     1024
280
     0
281
     0
  0
CLASS
  1
ACMDATUMSTANDARDANSI
  2
AcmDatumStdANSI
  3
"Amdt_StdImp|Product Description: AutoCAD Mechanical|Company: Autodesk, Inc."
 90
     1024
280
     0
281
     0
  0
CLASS
  1
ACMBOMSTANDARDANSI
  2
AcmBOMStdANSI
  3
"Amdt_StdImp|Product Description: AutoCAD Mechanical|Company: Autodesk, Inc."
 90
     1024
280
     0
281
     0
  0
CLASS
  1
ACMDETAILSTANDARDANSI
  2
AmdtDetailSymStdANSI
  3
"Amdt_StdImp|Product Description: AutoCAD Mechanical|Company: Autodesk, Inc."
 90
     1024
280
     0
281
     0
  0
CLASS
  1
ACMSECTIONSTANDARDANSI
  2
AmdtSectionSymStdANSI
  3
"Amdt_StdImp|Product Description: AutoCAD Mechanical|Company: Autodesk, Inc."
 90
     1024
280
     0
281
     0
  0
CLASS
  1
ACMCENTERLINESTANDARDANSI
  2
AmdtCenterLineStdANSI
  3
"Amdt_StdImp|Product Description: AutoCAD Mechanical|Company: Autodesk, Inc."
 90
     1024
280
     0
281
     0
  0
CLASS
  1
ACMTHREADLINESTANDARDANSI
  2
AmdtThreadLineStdANSI
  3
"Amdt_StdImp|Product Description: AutoCAD Mechanical|Company: Autodesk, Inc."
 90
     1024
280
     0
281
     0
  0
CLASS
  1
ACMNOTESTANDARDANSI
  2
AmdtNoteStdANSI
  3
"Amdt_StdImp|Product Description: AutoCAD Mechanical|Company: Autodesk, Inc."
 90
     1024
280
     0
281
     0
  0
CLASS
  1
AMDTNOTETEMPLATEDB
  2
AmdtNoteTemplateDB
  3
AcmSymBB|Product Description: AutoCAD Mechanical|Company: Autodesk, Inc.
 90
     1024
280
     0
281
     0
  0
CLASS
  1
ACAMGLAYSTD
  2
AcAmgLayStd
  3
"AmgLay|Product Description: AutoCAD Mechanical|Company: Autodesk, Inc."
 90
     1024
280
     0
281
     0
  0
CLASS
  1
ACAMGDIMSTD
  2
AcAmgDimStd
  3
"AmgDim|Product Description: AutoCAD Mechanical|Company: Autodesk, Inc."
 90
     1024
280
     0
281
     0
  0
CLASS
  1
ACAMGHOLECHARTSTDANSI
  2
AcAmgHoleChartStdANSI
  3
AmgDim|Product Description: AutoCAD Mechanical|Company: Autodesk, Inc.
 90
     1024
280
     0
281
     0
  0
CLASS
  1
ACAMGTITLESTD
  2
AcAmgTitleStd
  3
"AmgTitle|Product Description: AutoCAD Mechanical|Company: Autodesk, Inc."
 90
     4095
280
     0
281
     0
  0
CLASS
  1
ACMTAPERSTANDARDANSI
  2
AcmTaperStdANSI
  3
"Amdt_StdImp|Product Description: AutoCAD Mechanical|Company: Autodesk, Inc."
 90
     1024
280
     0
281
     0
  0
CLASS
  1
ACMANOOTATIONVIEWSTANDARDANSI
  2
AmdtAnViewStdANSI
  3
"Amdt_StdImp|Product Description: AutoCAD Mechanical|Company: Autodesk, Inc."
 90
     1024
280
     0
281
     0
  0
CLASS
  1
ACMSTANDARDISO
  2
AcmStandardISO
  3
"Amdt_StdImp|Product Description: AutoCAD Mechanical|Company: Autodesk, Inc."
 90
     1024
280
     0
281
     0
  0
CLASS
  1
AMDTEDGESTANDARDISO
  2
AmdtEdgeStdISO
  3
"Amdt_StdImp|Product Description: AutoCAD Mechanical|Company: Autodesk, Inc."
 90
     1024
280
     0
281
     0
  0
CLASS
  1
ACMSURFSTANDARDISO
  2
AcmSurfTextStdISO
  3
"Amdt_StdImp|Product Description: AutoCAD Mechanical|Company: Autodesk, Inc."
 90
     1024
280
     0
281
     0
  0
CLASS
  1
ACMFCFSTANDARDISO
  2
AcmFCFStdISO
  3
"Amdt_StdImp|Product Description: AutoCAD Mechanical|Company: Autodesk, Inc."
 90
     1024
280
     0
281
     0
  0
CLASS
  1
ACMWELDSTANDARDISO
  2
AcmWeldingStdISO
  3
"Amdt_StdImp|Product Description: AutoCAD Mechanical|Company: Autodesk, Inc."
 90
     1024
280
     0
281
     0
  0
CLASS
  1
ACMIDSTANDARDISO
  2
AcmIdStdISO
  3
"Amdt_StdImp|Product Description: AutoCAD Mechanical|Company: Autodesk, Inc."
 90
     1024
280
     0
281
     0
  0
CLASS
  1
ACMDATUMSTANDARDISO
  2
AcmDatumStdISO
  3
"Amdt_StdImp|Product Description: AutoCAD Mechanical|Company: Autodesk, Inc."
 90
     1024
280
     0
281
     0
  0
CLASS
  1
ACMBOMSTANDARDISO
  2
AcmBOMStdISO
  3
"Amdt_StdImp|Product Description: AutoCAD Mechanical|Company: Autodesk, Inc."
 90
     1024
280
     0
281
     0
  0
CLASS
  1
ACMDETAILSTANDARDISO
  2
AmdtDetailSymStdISO
  3
"Amdt_StdImp|Product Description: AutoCAD Mechanical|Company: Autodesk, Inc."
 90
     1024
280
     0
281
     0
  0
CLASS
  1
ACMSECTIONSTANDARDISO
  2
AmdtSectionSymStdISO
  3
"Amdt_StdImp|Product Description: AutoCAD Mechanical|Company: Autodesk, Inc."
 90
     1024
280
     0
281
     0
  0
CLASS
  1
ACMCENTERLINESTANDARDISO
  2
AmdtCenterLineStdISO
  3
"Amdt_StdImp|Product Description: AutoCAD Mechanical|Company: Autodesk, Inc."
 90
     1024
280
     0
281
     0
  0
CLASS
  1
ACMTHREADLINESTANDARDISO
  2
AmdtThreadLineStdISO
  3
"Amdt_StdImp|Product Description: AutoCAD Mechanical|Company: Autodesk, Inc."
 90
     1024
280
     0
281
     0
  0
CLASS
  1
ACMNOTESTANDARDISO
  2
AmdtNoteStdISO
  3
"Amdt_StdImp|Product Description: AutoCAD Mechanical|Company: Autodesk, Inc."
 90
     1024
280
     0
281
     0
  0
CLASS
  1
ACAMGHOLECHARTSTDISO
  2
AcAmgHoleChartStdISO
  3
AmgDim|Product Description: AutoCAD Mechanical|Company: Autodesk, Inc.
 90
     1024
280
     0
281
     0
  0
CLASS
  1
ACMTAPERSTANDARDISO
  2
AcmTaperStdISO
  3
"Amdt_StdImp|Product Description: AutoCAD Mechanical|Company: Autodesk, Inc."
 90
     1024
280
     0
281
     0
  0
CLASS
  1
ACMANOOTATIONVIEWSTANDARDISO
  2
AmdtAnViewStdISO
  3
"Amdt_StdImp|Product Description: AutoCAD Mechanical|Company: Autodesk, Inc."
 90
     1024
280
     0
281
     0
  0
CLASS
  1
AMDTADMENUSTATE
  2
AmdtAdMenuState
  3
DesignerServices
 90
     1024
280
     0
281
     0
  0
CLASS
  1
ADAPPL
  2
AcAdAppl
  3
DesignerServices
 90
     1024
280
     0
281
     0
  0
CLASS
  1
DEPMGR
  2
AcAdDepMgr
  3
DesignerServices
 90
     1024
280
     0
281
     0
  0
CLASS
  1
PARAMMGR
  2
AcAdParamMgr
  3
DesignerServices
 90
     1024
280
     0
281
     0
  0
CLASS
  1
PARAMSCOPE
  2
AcAdParamScope
  3
DesignerServices
 90
     1024
280
     0
281
     0
  0
CLASS
  1
NAMEDAPPL
  2
AcAdNamedAppl
  3
DesignerServices
 90
     1024
280
     0
281
     0
  0
CLASS
  1
AMDTDMMENUSTATE
  2
AmdtDmMenuState
  3
AcMechDwgViewMgmt
 90
     1024
280
     0
281
     0
  0
CLASS
  1
MAPIADMODULE
  2
MApiAdModule
  3
MApiAdServices
 90
     1024
280
     0
281
     0
  0
CLASS
  1
AMDTAMMENUSTATE
  2
AmdtAmMenuState
  3
DesignerAssemblies
 90
     1024
280
     0
281
     0
  0
CLASS
  1
ACAMPROJECT
  2
AcAmProject
  3
DesignerAssemblies
 90
     1024
280
     0
281
     0
  0
CLASS
  1
ACAMGRCOMPDEF
  2
AcAmGrCompDef
  3
DesignerAssemblies
 90
     1024
280
     0
281
     0
  0
CLASS
  1
ACCMCONTEXT
  2
AcCmContext
  3
DesignerAssemblies
 90
     1024
280
     0
281
     0
  0
CLASS
  1
ACAMCOMPDEF
  2
AcAmCompDef
  3
DesignerAssemblies
 90
     1024
280
     0
281
     0
  0
CLASS
  1
ACAMCOMPDEFMGR
  2
AcAmCompDefMgr
  3
DesignerAssemblies
 90
     1024
280
     0
281
     0
  0
CLASS
  1
AMCONTEXTMGR
  2
AcAmContextMgr
  3
DesignerAssemblies
 90
     1024
280
     0
281
     0
  0
CLASS
  1
ACAMCONTEXTMODELER
  2
AcAmContextModeler
  3
DesignerAssemblies
 90
     1024
280
     0
281
     0
  0
CLASS
  1
ACMDATADICTIONARY
  2
AcmDataDictionary
  3
"AcmSymBB|Product Description: AutoCAD Mechanical|Company: Autodesk, Inc."
 90
     1024
280
     0
281
     0
  0
CLASS
  1
ACMDATAENTRYBLOCK
  2
AcmDataEntryBlock
  3
AcmSymBB|Product Description: AutoCAD Mechanical|Company: Autodesk, Inc.
 90
     1024
280
     0
281
     0
  0
CLASS
  1
ACRFATTGENMGR
  2
AcRfAttGeneralMgr
  3
AcAttribServices
 90
     1024
280
     0
281
     0
  0
CLASS
  1
ACRFOBJATTMGR
  2
AcRfObjAttGroupMgr
  3
AcAttribServices
 90
     1024
280
     0
281
     0
  0
CLASS
  1
ACRFMCADAPIATTHOLDER
  2
AcRfMCADAPIAttHolder
  3
AcAttribServices
 90
     1024
280
     0
281
     0
  0
CLASS
  1
AMDTSYSATTR
  2
AmdtSystemAttribute
  3
AcAttribServices
 90
     1024
280
     0
281
     0
  0
CLASS
  1
CATALOGSTATE
  2
AcAmCatalogState
  3
DesignerAssemblies
 90
     1024
280
     0
281
     0
  0
CLASS
  1
ACAMGRCOMPDEFSET
  2
AcAmGrCompDefSet
  3
DesignerAssemblies
 90
     1024
280
     0
281
     0
  0
CLASS
  1
AMDTBROWSERDBTAB
  2
AmdtBrowserDbTab
  3
McadcomServices
 90
     1024
280
     0
281
     0
  0
CLASS
  1
CBROWSERAPPOBJECT
  2
CBrowserAppObject
  3
McadcomServices
 90
     1024
280
     0
281
     0
  0
CLASS
  1
DM_PLACEHOLDER
  2
AcDmSelsetPlaceholder
  3
AcMechDwgViewMgmt
 90
     1024
280
     0
281
     0
  0
CLASS
  1
ACAMGFILTERDAT
  2
AcAmgFilterDat
  3
"AcadM|Product Description: AutoCAD Mechanical|Company: Autodesk, Inc."
 90
     1024
280
     0
281
     0
  0
CLASS
  1
SORTENTSTABLE
  2
AcDbSortentsTable
  3
ObjectDBX Classes
 90
        0
280
     0
281
     0
  0
CLASS
  1
AEC_REFEDIT_STATUS_TRACKER
  2
AecDbRefEditStatusTracker
  3
AecArchBase50|Product Desc: Autodesk Architectural Desktop 2007 |Company: Autodesk,Inc. |WEB Address: www.autodesk.com
 90
      129
280
     0
281
     0
  0
CLASS
  1
NPOCOLLECTION
  2
AcDbImpNonPersistentObjectsCollection
  3
ObjectDBX Classes
 90
     1153
280
     0
281
     0
  0
CLASS
  1
DIMASSOC
  2
AcDbDimAssoc
  3
"AcDbDimAssoc|Product Desc:     AcDim ARX App For Dimension|Company:          Autodesk, Inc.|WEB Address:      www.autodesk.com"
 90
        0
280
     0
281
     0
  0
CLASS
  1
LAYER_INDEX
  2
AcDbLayerIndex
  3
ObjectDBX Classes
 90
        0
280
     0
281
     0
  0
CLASS
  1
IDBUFFER
  2
AcDbIdBuffer
  3
ObjectDBX Classes
 90
        0
280
     0
281
     0
  0
CLASS
  1
CELLSTYLEMAP
  2
AcDbCellStyleMap
  3
ObjectDBX Classes
 90
     1152
280
     0
281
     0
  0
ENDSEC
  0
SECTION
  2
TABLES
  0
TABLE
  2
VPORT
  5
8
330
0
100
AcDbSymbolTable
 70
     1
  0
VPORT
  5
13
330
8
100
AcDbSymbolTableRecord
100
AcDbViewportTableRecord
  2
*Active
 70
     0
 10
0.0
 20
0.0
 11
1.0
 21
1.0
 12
-361.6522997101683
 22
-99.54290827996011
 13
0.0
 23
0.0
 14
2.5
 24
2.5
 15
10.0
 25
10.0
 16
0.0
 26
0.0
 36
1.0
 17
700.9782510396533
 27
259.0181489882454
 37
0.0
 40
385.8553009486991
 41
1.762174405436013
 42
50.0
 43
0.0
 44
0.0
 50
0.0
 51
0.0
 71
     0
 72
   100
 73
     1
 74
     1
 75
     0
 76
     0
 77
     0
 78
     0
281
     0
 65
     0
110
0.0
120
0.0
130
0.0
111
1.0
121
0.0
131
0.0
112
0.0
122
1.0
132
0.0
 79
     0
146
0.0
  0
ENDTAB
  0
TABLE
  2
LTYPE
  5
5
330
0
100
AcDbSymbolTable
 70
    21
  0
LTYPE
  5
14
330
5
100
AcDbSymbolTableRecord
100
AcDbLinetypeTableRecord
  2
ByBlock
 70
     0
  3

 72
    65
 73
     0
 40
0.0
  0
LTYPE
  5
15
330
5
100
AcDbSymbolTableRecord
100
AcDbLinetypeTableRecord
  2
ByLayer
 70
     0
  3

 72
    65
 73
     0
 40
0.0
  0
LTYPE
  5
16
330
5
100
AcDbSymbolTableRecord
100
AcDbLinetypeTableRecord
  2
Continuous
 70
     0
  3
Solid line
 72
    65
 73
     0
 40
0.0
  0
LTYPE
  5
3C
330
5
100
AcDbSymbolTableRecord
100
AcDbLinetypeTableRecord
  2
CENTER
 70
     0
  3
____ _ ____ _ ____ _ ____ _ ____ _ ____ _ ____ 
 72
    65
 73
     4
 40
2.0
 49
1.25
 74
     0
 49
-0.25
 74
     0
 49
0.25
 74
     0
 49
-0.25
 74
     0
  0
LTYPE
  5
3D
330
5
100
AcDbSymbolTableRecord
100
AcDbLinetypeTableRecord
  2
CENTER2
 70
     0
  3
Center (.5x) ___ _ ___ _ ___ _ ___ _ ___ _ ___
 72
    65
 73
     4
 40
1.125
 49
0.75
 74
     0
 49
-0.125
 74
     0
 49
0.125
 74
     0
 49
-0.125
 74
     0
  0
LTYPE
  5
49
330
5
100
AcDbSymbolTableRecord
100
AcDbLinetypeTableRecord
  2
HIDDEN
 70
     0
  3
__ __ __ __ __ __ __ __ __ __ __ __ __ __ __ __
 72
    65
 73
     2
 40
0.375
 49
0.25
 74
     0
 49
-0.125
 74
     0
  0
LTYPE
  5
4A
330
5
100
AcDbSymbolTableRecord
100
AcDbLinetypeTableRecord
  2
HIDDEN2
 70
     0
  3
Hidden (.5x) _ _ _ _ _ _ _ _ _ _ _ _ _ _ _ _ _
 72
    65
 73
     2
 40
0.1875
 49
0.125
 74
     0
 49
-0.0625
 74
     0
  0
LTYPE
  5
4D
330
5
100
AcDbSymbolTableRecord
100
AcDbLinetypeTableRecord
  2
PHANTOM2
 70
     0
  3
___ _ _ ___ _ _ ___ _ _ ___ _ _ ___ _ _ ___ _ _
 72
    65
 73
     6
 40
1.25
 49
0.625
 74
     0
 49
-0.125
 74
     0
 49
0.125
 74
     0
 49
-0.125
 74
     0
 49
0.125
 74
     0
 49
-0.125
 74
     0
  0
LTYPE
  5
408
330
5
100
AcDbSymbolTableRecord
100
AcDbLinetypeTableRecord
  2
AM_ISO02W050
 70
     0
  3
__ __ __ __ __ __ __ __ __ __ __ __ __ __ __
 72
    65
 73
     2
 40
7.5
 49
6.0
 74
     0
 49
-1.5
 74
     0
  0
LTYPE
  5
409
330
5
100
AcDbSymbolTableRecord
100
AcDbLinetypeTableRecord
  2
AM_ISO08W050
 70
     0
  3
____ . ____ . ____ . ____ . ____ . ____ . ____
 72
    65
 73
     4
 40
18.0
 49
12.0
 74
     0
 49
-1.5
 74
     0
 49
3.0
 74
     0
 49
-1.5
 74
     0
  0
LTYPE
  5
40A
330
5
100
AcDbSymbolTableRecord
100
AcDbLinetypeTableRecord
  2
AM_ISO09W050
 70
     0
  3
_____ . . _____ . . _____ . . ____ .. ____
 72
    65
 73
     6
 40
22.5
 49
12.0
 74
     0
 49
-1.5
 74
     0
 49
3.0
 74
     0
 49
-1.5
 74
     0
 49
3.0
 74
     0
 49
-1.5
 74
     0
  0
LTYPE
  5
40B
330
5
100
AcDbSymbolTableRecord
100
AcDbLinetypeTableRecord
  2
Amconstr
 70
     0
  3
_______________________
 72
    65
 73
     2
 40
9999.0
 49
9999.0
 74
     0
 49
0.0
 74
     0
  0
LTYPE
  5
40C
330
5
100
AcDbSymbolTableRecord
100
AcDbLinetypeTableRecord
  2
AM_ISO08W050x2
 70
     0
  3
__ . __ . __ . __ . __ . __
 72
    65
 73
     4
 40
9.0
 49
6.0
 74
     0
 49
-0.75
 74
     0
 49
1.5
 74
     0
 49
-0.75
 74
     0
  0
LTYPE
  5
40D
330
5
100
AcDbSymbolTableRecord
100
AcDbLinetypeTableRecord
  2
AM_ISO02W050x2
 70
     0
  3
 _ _ _ _ _ _ _ _ _ _ _ _
 72
    65
 73
     2
 40
3.75
 49
3.0
 74
     0
 49
-0.75
 74
     0
  0
LTYPE
  5
40E
330
5
100
AcDbSymbolTableRecord
100
AcDbLinetypeTableRecord
  2
Amzigzag
 70
     0
  3
/\/-/\/-/\/-/\/-/\/-/\/
 72
    65
 73
     2
 40
11.0001
 49
0.0001
 74
     4
 75
   135
340
5E
 46
0.04
 50
0.0
 44
0.0
 45
0.0
 49
-11.0
 74
     0
  0
LTYPE
  5
49D
330
5
100
AcDbSymbolTableRecord
100
AcDbLinetypeTableRecord
  2
ACANSTGB
 70
     0
  3
__ . . __ . .
 72
    65
 73
     6
 40
0.35433070866
 49
0.15748031496
 74
     0
 49
-0.03937007874
 74
     0
 49
0.03937007874
 74
     0
 49
-0.03937007874
 74
     0
 49
0.03937007874
 74
     0
 49
-0.03937007874
 74
     0
  0
LTYPE
  5
49E
330
5
100
AcDbSymbolTableRecord
100
AcDbLinetypeTableRecord
  2
ACANSTGL
 70
     0
  3
_ _ _ _ _
 72
    65
 73
     2
 40
0.11811023622
 49
0.07874015748
 74
     0
 49
-0.03937007874
 74
     0
  0
LTYPE
  5
4B7
330
5
100
AcDbSymbolTableRecord
100
AcDbLinetypeTableRecord
  2
Amzigzag2
 70
     0
  3
/\/-/\/-/\/-/\/-/\/-/\/
 72
    65
 73
     2
 40
0.4401
 49
0.0001
 74
     4
 75
   135
340
5E
 46
0.0016
 50
0.0
 44
0.0
 45
0.0
 49
-0.4400000000000001
 74
     0
  0
LTYPE
  5
4CE
330
5
100
AcDbSymbolTableRecord
100
AcDbLinetypeTableRecord
  2
ACISOWELD
 70
     0
  3
_ _ _ _ _
 72
    65
 73
     2
 40
2.0
 49
2.0
 74
     0
 49
-1.0
 74
     0
  0
LTYPE
  5
4D1
330
5
100
AcDbSymbolTableRecord
100
AcDbLinetypeTableRecord
  2
ACISOTGB
 70
     0
  3
__ . . __ . .
 72
    65
 73
     6
 40
9.0
 49
4.0
 74
     0
 49
-1.0
 74
     0
 49
1.0
 74
     0
 49
-1.0
 74
     0
 49
1.0
 74
     0
 49
-1.0
 74
     0
  0
LTYPE
  5
4D2
330
5
100
AcDbSymbolTableRecord
100
AcDbLinetypeTableRecord
  2
ACISOTGL
 70
     0
  3
_ _ _ _ _
 72
    65
 73
     2
 40
3.0
 49
2.0
 74
     0
 49
-1.0
 74
     0
  0
ENDTAB
  0
TABLE
  2
LAYER
  5
2
102
{ACAD_XDICTIONARY
360
530
102
}
330
0
100
AcDbSymbolTable
 70
     5
  0
LAYER
  5
10
102
{ACAD_XDICTIONARY
360
811
102
}
330
2
100
AcDbSymbolTableRecord
100
AcDbLayerTableRecord
  2
0
 70
     0
 62
     7
  6
Continuous
370
    -3
390
F
  0
LAYER
  5
7F
102
{ACAD_XDICTIONARY
360
813
102
}
330
2
100
AcDbSymbolTableRecord
100
AcDbLayerTableRecord
  2
Visible Edges
 70
     0
 62
     7
  6
Continuous
370
    18
390
F
  0
LAYER
  5
5D3
102
{ACAD_XDICTIONARY
360
817
102
}
330
2
100
AcDbSymbolTableRecord
100
AcDbLayerTableRecord
  2
AM_5
 70
     0
 62
     3
  6
Continuous
370
    25
390
F
1001
AcAecLayerStandard
1000

1000

  0
LAYER
  5
5D7
330
2
100
AcDbSymbolTableRecord
100
AcDbLayerTableRecord
  2
Defpoints
 70
     0
 62
     7
  6
Continuous
290
     0
370
    -3
390
F
  0
LAYER
  5
B00
330
2
100
AcDbSymbolTableRecord
100
AcDbLayerTableRecord
  2
AM_3
 70
     0
 62
     6
  6
AM_ISO02W050
370
    25
390
F
1001
AcAecLayerStandard
1000

1000

  0
ENDTAB
  0
TABLE
  2
STYLE
  5
3
330
0
100
AcDbSymbolTable
 70
     6
  0
STYLE
  5
11
330
3
100
AcDbSymbolTableRecord
100
AcDbTextStyleTableRecord
  2
STANDARD
 70
     0
 40
0.0
 41
1.0
 50
0.0
 71
     0
 42
3.5
  3
ISOCP.SHX
  4

  0
STYLE
  5
5E
330
3
100
AcDbSymbolTableRecord
100
AcDbTextStyleTableRecord
  2

 70
     1
 40
0.0
 41
1.0
 50
0.0
 71
     0
 42
0.2
  3
ltypeshp.shx
  4

  0
STYLE
  5
496
330
3
100
AcDbSymbolTableRecord
100
AcDbTextStyleTableRecord
  2
ACANSTS
 70
     0
 40
1.0
 41
1.0
 50
0.0
 71
     0
 42
3.5
  3
romans.shx
  4

  0
STYLE
  5
499
330
3
100
AcDbSymbolTableRecord
100
AcDbTextStyleTableRecord
  2
ACANSGDT
 70
     0
 40
0.0
 41
1.0
 50
0.0
 71
     0
 42
3.5
  3
amgdt.shx
  4

  0
STYLE
  5
4C8
330
3
100
AcDbSymbolTableRecord
100
AcDbTextStyleTableRecord
  2
ACISOTS
 70
     0
 40
1.0
 41
1.0
 50
0.0
 71
     0
 42
2.5
  3
isocp.shx
  4

  0
STYLE
  5
4CC
330
3
100
AcDbSymbolTableRecord
100
AcDbTextStyleTableRecord
  2
ACISOGDT
 70
     0
 40
0.0
 41
1.0
 50
0.0
 71
     0
 42
2.5
  3
amgdt.shx
  4

  0
ENDTAB
  0
TABLE
  2
VIEW
  5
6
330
0
100
AcDbSymbolTable
 70
     0
  0
ENDTAB
  0
TABLE
  2
UCS
  5
7
330
0
100
AcDbSymbolTable
 70
     0
  0
ENDTAB
  0
TABLE
  2
APPID
  5
9
330
0
100
AcDbSymbolTable
 70
    21
  0
APPID
  5
12
330
9
100
AcDbSymbolTableRecord
100
AcDbRegAppTableRecord
  2
ACAD
 70
     0
  0
APPID
  5
3ED
330
9
100
AcDbSymbolTableRecord
100
AcDbRegAppTableRecord
  2
ACAD_MLEADERVER
 70
     0
  0
APPID
  5
3F5
330
9
100
AcDbSymbolTableRecord
100
AcDbRegAppTableRecord
  2
AD_DRAW
 70
     0
  0
APPID
  5
3F6
330
9
100
AcDbSymbolTableRecord
100
AcDbRegAppTableRecord
  2
DESIGNERASSEMBLIES
 70
     0
  0
APPID
  5
3F7
330
9
100
AcDbSymbolTableRecord
100
AcDbRegAppTableRecord
  2
MCAD_NO_VIS
 70
     0
  0
APPID
  5
3F8
330
9
100
AcDbSymbolTableRecord
100
AcDbRegAppTableRecord
  2
ASURF_PCURVE_APPNAME
 70
     0
  0
APPID
  5
3F9
330
9
100
AcDbSymbolTableRecord
100
AcDbRegAppTableRecord
  2
ACAD_TEMP_GRAPHIC
 70
     0
  0
APPID
  5
3FA
330
9
100
AcDbSymbolTableRecord
100
AcDbRegAppTableRecord
  2
ACATTRIBSERVICES
 70
     0
  0
APPID
  5
3FB
330
9
100
AcDbSymbolTableRecord
100
AcDbRegAppTableRecord
  2
ACADM_DIM_EDIT
 70
     0
  0
APPID
  5
3FC
330
9
100
AcDbSymbolTableRecord
100
AcDbRegAppTableRecord
  2
GENIUS_GENDIM_13
 70
     0
  0
APPID
  5
3FD
330
9
100
AcDbSymbolTableRecord
100
AcDbRegAppTableRecord
  2
GENIUS_GENDTOL_13
 70
     0
  0
APPID
  5
3FE
330
9
100
AcDbSymbolTableRecord
100
AcDbRegAppTableRecord
  2
GENIUS_GE3DTOL_13
 70
     0
  0
APPID
  5
3FF
330
9
100
AcDbSymbolTableRecord
100
AcDbRegAppTableRecord
  2
AMG_3D2D_5.0
 70
     0
  0
APPID
  5
400
330
9
100
AcDbSymbolTableRecord
100
AcDbRegAppTableRecord
  2
AMDT_DM_ADJ
 70
     0
  0
APPID
  5
401
330
9
100
AcDbSymbolTableRecord
100
AcDbRegAppTableRecord
  2
ACAD_PSEXT
 70
     0
  0
APPID
  5
402
330
9
100
AcDbSymbolTableRecord
100
AcDbRegAppTableRecord
  2
DCO15
 70
     0
  0
APPID
  5
403
330
9
100
AcDbSymbolTableRecord
100
AcDbRegAppTableRecord
  2
ACAD_DSTYLE_DIMTEXT_FILL
 70
     0
  0
APPID
  5
404
330
9
100
AcDbSymbolTableRecord
100
AcDbRegAppTableRecord
  2
AcAecLayerStandard
 70
     0
  0
APPID
  5
5EF
330
9
100
AcDbSymbolTableRecord
100
AcDbRegAppTableRecord
  2
ACAD_DSTYLE_DIMINSPECT
 70
     0
  0
APPID
  5
833
330
9
100
AcDbSymbolTableRecord
100
AcDbRegAppTableRecord
  2
AcDbAttr
 70
     0
  0
APPID
  5
148C
330
9
100
AcDbSymbolTableRecord
100
AcDbRegAppTableRecord
  2
ACAD_DSTYLE_DIMRADIAL_EXTENSION
 70
     0
  0
ENDTAB
  0
TABLE
  2
DIMSTYLE
  5
A
330
0
100
AcDbSymbolTable
 70
    13
100
AcDbDimStyleTable
 71
     1
340
4DB
  0
DIMSTYLE
105
4B9
330
A
100
AcDbSymbolTableRecord
100
AcDbDimStyleTableRecord
  2
AM_ANSI
 70
     0
  4
mm
 41
0.1
 42
0.05
 43
0.5
 44
0.1
 47
0.1
 48
0.1
 78
     7
 79
     2
140
0.12
141
0.0
146
0.71
147
0.06
176
   256
177
   256
178
     2
274
     4
284
     7
340
11
371
    -1
372
    -1
  0
DIMSTYLE
105
4BA
330
A
100
AcDbSymbolTableRecord
100
AcDbDimStyleTableRecord
  2
AM_ANSI$3
 70
     0
  4
mm
 41
0.1
 42
0.05
 43
0.5
 44
0.1
 47
0.1
 48
0.1
 78
     7
 79
     2
140
0.12
141
0.0
146
0.71
147
0.06
176
   256
177
   256
178
     2
274
     4
284
     7
288
     1
289
     0
340
11
371
    -1
372
    -1
  0
DIMSTYLE
105
4BB
330
A
100
AcDbSymbolTableRecord
100
AcDbDimStyleTableRecord
  2
AM_ANSI$4
 70
     0
  4
mm
 41
0.1
 42
0.05
 43
0.5
 44
0.1
 47
0.1
 48
0.1
 78
     7
 79
     2
140
0.12
141
0.0
146
0.71
147
0.06
176
   256
177
   256
178
     2
274
     4
284
     7
288
     1
289
     0
340
11
371
    -1
372
    -1
  0
DIMSTYLE
105
4BC
330
A
100
AcDbSymbolTableRecord
100
AcDbDimStyleTableRecord
  2
AM_ANSI$7
 70
     0
  4
mm
 41
0.1
 42
0.05
 43
0.5
 44
0.1
 47
0.1
 48
0.1
 78
     7
 79
     2
140
0.24
141
0.0
146
0.71
147
0.06
176
   256
177
   256
178
     2
274
     4
284
     7
340
11
371
    -1
372
    -1
  0
DIMSTYLE
105
4BD
330
A
100
AcDbSymbolTableRecord
100
AcDbDimStyleTableRecord
  2
AM_ANSI$SF
 70
     0
  4
mm
 41
0.1
 42
0.05
 43
0.5
 44
0.1
 47
0.1
 48
0.1
 75
     1
 76
     1
 78
     7
 79
     2
140
0.12
141
0.0
146
0.71
147
0.06
176
   256
177
   256
178
     2
274
     4
284
     7
340
11
371
    -1
372
    -1
  0
DIMSTYLE
105
4BE
330
A
100
AcDbSymbolTableRecord
100
AcDbDimStyleTableRecord
  2
AM_ANSI$SH
 70
     0
  4
mm
 41
0.1
 42
0.05
 43
0.5
 44
0.1
 47
0.1
 48
0.1
 75
     1
 76
     1
 78
     7
 79
     2
140
0.12
141
0.0
146
0.71
147
0.06
173
     1
176
   256
177
   256
178
     2
274
     4
284
     7
340
11
343
4BF
371
    -1
372
    -1
  0
DIMSTYLE
105
4DB
330
A
100
AcDbSymbolTableRecord
100
AcDbDimStyleTableRecord
  2
AM_ISO
 70
     0
  4
"
 41
2.5
 42
1.0
 43
10.0
 44
1.0
 47
0.1
 48
0.1
 73
     0
 74
     0
 77
     1
 78
     8
 79
     2
140
3.5
141
0.0
143
0.0393701
146
0.71
147
1.5
171
     3
172
     1
176
   256
177
   256
178
     2
271
     2
272
     2
274
     3
283
     0
284
     8
340
11
371
    -1
372
    -1
  0
DIMSTYLE
105
4DC
330
A
100
AcDbSymbolTableRecord
100
AcDbDimStyleTableRecord
  2
AM_ISO$3
 70
     0
  4
"
 41
2.5
 42
1.0
 43
10.0
 44
1.0
 47
0.1
 48
0.1
 73
     0
 77
     1
 78
     8
 79
     2
140
3.5
141
0.0
143
0.0393701
146
0.71
147
1.5
176
   256
177
   256
178
     2
271
     2
272
     3
274
     4
283
     0
284
     8
288
     1
289
     0
340
11
371
    -1
372
    -1
  0
DIMSTYLE
105
4DD
330
A
100
AcDbSymbolTableRecord
100
AcDbDimStyleTableRecord
  2
AM_ISO$4
 70
     0
  4
"
 41
2.5
 42
1.0
 43
10.0
 44
1.0
 47
0.1
 48
0.1
 73
     0
 77
     1
 78
     8
 79
     2
140
3.5
141
0.0
143
0.0393701
146
0.71
147
1.5
176
   256
177
   256
178
     2
271
     2
272
     3
274
     4
283
     0
284
     8
288
     1
289
     0
340
11
371
    -1
372
    -1
  0
DIMSTYLE
105
4DE
330
A
100
AcDbSymbolTableRecord
100
AcDbDimStyleTableRecord
  2
AM_ISO$6
 70
     0
  4
"
 41
2.5
 42
1.0
 43
10.0
 44
1.0
 47
0.1
 48
0.1
 73
     0
 74
     0
 78
     8
 79
     2
140
3.5
141
0.0
143
0.0393701
146
0.71
147
1.5
172
     1
176
   256
177
   256
178
     2
271
     2
272
     3
274
     4
283
     0
284
     8
340
11
371
    -1
372
    -1
  0
DIMSTYLE
105
4DF
330
A
100
AcDbSymbolTableRecord
100
AcDbDimStyleTableRecord
  2
AM_ISO$7
 70
     0
  4
"
 41
2.5
 42
1.0
 43
10.0
 44
1.0
 47
0.1
 48
0.1
 73
     0
 74
     0
 77
     1
 78
     8
 79
     2
140
5.0
141
0.0
143
0.0393701
146
0.71
147
1.5
172
     1
176
   256
177
   256
178
     2
271
     2
272
     3
274
     4
283
     0
284
     8
340
11
371
    -1
372
    -1
  0
DIMSTYLE
105
4E0
330
A
100
AcDbSymbolTableRecord
100
AcDbDimStyleTableRecord
  2
AM_ISO$SF
 70
     0
  4
"
 41
2.5
 42
1.0
 43
10.0
 44
1.0
 47
0.1
 48
0.1
 73
     0
 74
     0
 75
     1
 76
     1
 77
     1
 78
     8
 79
     2
140
3.5
141
0.0
143
0.0393701
146
0.71
147
1.5
172
     1
176
   256
177
   256
178
     2
271
     2
272
     3
274
     4
283
     0
284
     8
340
11
371
    -1
372
    -1
  0
DIMSTYLE
105
4E1
330
A
100
AcDbSymbolTableRecord
100
AcDbDimStyleTableRecord
  2
AM_ISO$SH
 70
     0
  4
"
 41
2.5
 42
1.0
 43
10.0
 44
1.0
 47
0.1
 48
0.1
 73
     0
 74
     0
 75
     1
 76
     1
 77
     1
 78
     8
 79
     2
140
3.5
141
0.0
143
0.0393701
144
2.0
146
0.71
147
1.5
172
     1
173
     1
176
   256
177
   256
178
     2
271
     2
272
     3
274
     4
283
     0
284
     8
340
11
343
4BF
371
    -1
372
    -1
  0
ENDTAB
  0
TABLE
  2
BLOCK_RECORD
  5
1
330
0
100
AcDbSymbolTable
 70
     8
  0
BLOCK_RECORD
  5
21
102
{ACAD_XDICTIONARY
360
656
102
}
330
1
100
AcDbSymbolTableRecord
100
AcDbBlockTableRecord
  2
*Model_Space
340
24
  0
BLOCK_RECORD
  5
1D
330
1
100
AcDbSymbolTableRecord
100
AcDbBlockTableRecord
  2
*Paper_Space
340
20
  0
BLOCK_RECORD
  5
25
330
1
100
AcDbSymbolTableRecord
100
AcDbBlockTableRecord
  2
*Paper_Space0
340
28
  0
BLOCK_RECORD
  5
4BF
330
1
100
AcDbSymbolTableRecord
100
AcDbBlockTableRecord
  2
GENAXEH
340
0
  0
BLOCK_RECORD
  5
528
330
1
100
AcDbSymbolTableRecord
100
AcDbBlockTableRecord
  2
info
340
0
310
2800000020000000200000000100080000000000000400000000000000000000000000000000000000000000000080000080000000808000800000008000800080800000C0C0C000C0DCC000F0CAA6000020400000206000002080000020A0000020C0000020E00000400000004020000040400000406000004080000040A0
310
000040C0000040E00000600000006020000060400000606000006080000060A0000060C0000060E00000800000008020000080400000806000008080000080A0000080C0000080E00000A0000000A0200000A0400000A0600000A0800000A0A00000A0C00000A0E00000C0000000C0200000C0400000C0600000C0800000C0
310
A00000C0C00000C0E00000E0000000E0200000E0400000E0600000E0800000E0A00000E0C00000E0E00040000000400020004000400040006000400080004000A0004000C0004000E00040200000402020004020400040206000402080004020A0004020C0004020E000404000004040200040404000404060004040800040
310
40A0004040C0004040E00040600000406020004060400040606000406080004060A0004060C0004060E00040800000408020004080400040806000408080004080A0004080C0004080E00040A0000040A0200040A0400040A0600040A0800040A0A00040A0C00040A0E00040C0000040C0200040C0400040C0600040C08000
310
40C0A00040C0C00040C0E00040E0000040E0200040E0400040E0600040E0800040E0A00040E0C00040E0E00080000000800020008000400080006000800080008000A0008000C0008000E00080200000802020008020400080206000802080008020A0008020C0008020E00080400000804020008040400080406000804080
310
008040A0008040C0008040E00080600000806020008060400080606000806080008060A0008060C0008060E00080800000808020008080400080806000808080008080A0008080C0008080E00080A0000080A0200080A0400080A0600080A0800080A0A00080A0C00080A0E00080C0000080C0200080C0400080C0600080C0
310
800080C0A00080C0C00080C0E00080E0000080E0200080E0400080E0600080E0800080E0A00080E0C00080E0E000C0000000C0002000C0004000C0006000C0008000C000A000C000C000C000E000C0200000C0202000C0204000C0206000C0208000C020A000C020C000C020E000C0400000C0402000C0404000C0406000C0
310
408000C040A000C040C000C040E000C0600000C0602000C0604000C0606000C0608000C060A000C060C000C060E000C0800000C0802000C0804000C0806000C0808000C080A000C080C000C080E000C0A00000C0A02000C0A04000C0A06000C0A08000C0A0A000C0A0C000C0A0E000C0C00000C0C02000C0C04000C0C06000
310
C0C08000C0C0A000F0FBFF00A4A0A000808080000000FF0000FF000000FFFF00FF000000FF00FF00FFFF0000FFFFFF00FFFFFFFFFFFFFFFFFFFFFFFFFFFFFFFFFFFFFFFFFFFFFFFFFFFFFFFFFFFFFFFFFFFFFFFFFFFFFFFFFFFFFFFFFFFFFFFFFFFFFFFFFFFFFFFFFFFFFFFFFFFFFFFFFFFFFFFFFFFFFFFFFFFFFFFFFFFFFF
310
FFFFFFFFFFFFFFFFFFFFFFFFFFFFFFFFFFFFFFFFFFFFFFFFFFFFFFFFFFFFFFFFFFFFFFFFFFFFFFFFFFFFFFFFFFFFFFFFFFFFFFFFFFFFFFFFFFFFFFFF00FFFFFFFFFFFFFFFFFFFFFFFFFFFFFFFFFFFFFFFFFFFFFFFFFFFFFFFFFFFF00FFFFFFFFFFFFFFFFFFFFFFFFFFFFFFFFFFFFFFFFFFFFFFFFFFFFFFFFFFFF00FFFFFFFF
310
FFFFFFFFFFFFFFFFFFFFFFFFFFFFFFFFFFFF0000000000FFFFFF00FFFFFFFF00FFFFFF00FFFF000000FFFF0000000000FFFFFFFFFFFFFF000000FFFFFFFFFF00FFFFFF00FF00FFFFFF00FFFFFF00FFFF00FFFFFFFFFFFFFF0000FFFFFFFFFF00FFFFFF00FFFFFFFFFF00FFFFFF00FFFF00FFFFFFFFFFFF00FF00FFFFFFFFFF
310
0000000000FFFFFFFFFF00FFFFFF00FFFF00FFFFFFFFFF00FFFFFF00FFFFFFFF00FFFFFF00FFFFFFFFFF00FFFFFF00FFFF00FFFFFFFF00FFFFFFFF00FFFFFFFF00FFFFFF00FFFFFFFFFF00FFFFFF00FFFF00FF00FF00FFFFFFFFFF00FFFFFFFF00FFFFFF00FFFFFFFFFF00FF0000000000FFFFFF00FFFFFFFFFFFFFF00FFFF
310
FFFFFFFFFFFFFFFFFFFFFFFFFFFFFFFFFFFFFFFF00FF00FFFFFFFFFF00FFFFFFFFFFFFFFFFFFFFFFFFFFFFFFFFFFFFFFFFFFFFFFFFFFFF00FFFFFFFF00FFFFFFFFFFFFFFFFFFFFFFFFFFFFFFFFFFFFFFFFFFFFFFFFFFFFFF00FFFFFF00FFFFFFFFFFFFFFFFFFFFFFFFFFFFFFFFFFFFFFFFFFFFFFFFFFFFFFFF00FF00FFFFFF
310
FFFF00000000FFFF00FFFFFF00FF0000000000FFFFFFFFFFFFFFFF0000FFFFFFFFFFFF00FFFF00FF00FFFF00FFFFFFFF00FFFF00FFFFFFFFFFFF000000FFFFFFFFFFFF00FFFF00FF00FF00FFFFFFFFFF00FFFF00FF0000000000FFFFFF00FFFFFFFFFF000000FFFF00000000FFFFFFFF00FFFF00FFFFFFFFFFFFFFFFFFFF00
310
FFFFFFFF00FFFF00FF00FFFFFF00FFFFFF00FFFF00FFFFFFFFFFFFFFFFFFFFFF00FFFFFF00FFFF00FF00FFFFFF00FFFFFF00FFFF00FFFFFFFFFFFFFFFFFFFFFFFF00FF00000000FFFF00000000FFFF0000000000FFFFFFFFFFFFFFFFFFFFFFFFFFFFFFFFFFFFFFFFFFFFFFFFFFFFFFFFFFFFFFFFFFFFFFFFFFFFFFFFFFFFFF
310
FFFFFFFFFFFFFFFFFFFFFFFFFFFFFFFFFFFFFFFFFFFFFFFFFFFFFFFFFFFFFFFFFFFFFFFFFFFFFFFFFFFFFFFFFFFFFFFFFFFFFFFFFFFFFFFFFFFFFFFFFFFFFFFFFFFFFFFFFFFFFFFFFFFFFFFFFFFFFFFFFFFFFFFFFFFFFFFFFFFFFFFFFFFFFFFFFFFFFFFFFFFFFFFFFFFFFFFFFFFFFFFFFFFFFFFFFFFFFFFFFFFFFFFFFFFFFF
310
FFFFFFFFFFFFFFFFFFFFFFFFFFFFFFFFFFFFFFFFFFFFFFFFFFFFFFFFFFFFFFFFFFFFFFFFFFFFFFFFFFFFFFFFFFFFFFFFFFFFFFFFFFFFFFFF
102
{BLKREFS
331
117A
331
1658
102
}
1001
ACAD
1000
DesignCenter Data
1002
{
1070
     1
1070
     4
1002
}
  0
BLOCK_RECORD
  5
14C4
330
1
100
AcDbSymbolTableRecord
100
AcDbBlockTableRecord
  2
RX100
340
0
310
2800000020000000200000000100080000000000000400000000000000000000000000000000000000000000000080000080000000808000800000008000800080800000C0C0C000C0DCC000F0CAA6000020400000206000002080000020A0000020C0000020E00000400000004020000040400000406000004080000040A0
310
000040C0000040E00000600000006020000060400000606000006080000060A0000060C0000060E00000800000008020000080400000806000008080000080A0000080C0000080E00000A0000000A0200000A0400000A0600000A0800000A0A00000A0C00000A0E00000C0000000C0200000C0400000C0600000C0800000C0
310
A00000C0C00000C0E00000E0000000E0200000E0400000E0600000E0800000E0A00000E0C00000E0E00040000000400020004000400040006000400080004000A0004000C0004000E00040200000402020004020400040206000402080004020A0004020C0004020E000404000004040200040404000404060004040800040
310
40A0004040C0004040E00040600000406020004060400040606000406080004060A0004060C0004060E00040800000408020004080400040806000408080004080A0004080C0004080E00040A0000040A0200040A0400040A0600040A0800040A0A00040A0C00040A0E00040C0000040C0200040C0400040C0600040C08000
310
40C0A00040C0C00040C0E00040E0000040E0200040E0400040E0600040E0800040E0A00040E0C00040E0E00080000000800020008000400080006000800080008000A0008000C0008000E00080200000802020008020400080206000802080008020A0008020C0008020E00080400000804020008040400080406000804080
310
008040A0008040C0008040E00080600000806020008060400080606000806080008060A0008060C0008060E00080800000808020008080400080806000808080008080A0008080C0008080E00080A0000080A0200080A0400080A0600080A0800080A0A00080A0C00080A0E00080C0000080C0200080C0400080C0600080C0
310
800080C0A00080C0C00080C0E00080E0000080E0200080E0400080E0600080E0800080E0A00080E0C00080E0E000C0000000C0002000C0004000C0006000C0008000C000A000C000C000C000E000C0200000C0202000C0204000C0206000C0208000C020A000C020C000C020E000C0400000C0402000C0404000C0406000C0
310
408000C040A000C040C000C040E000C0600000C0602000C0604000C0606000C0608000C060A000C060C000C060E000C0800000C0802000C0804000C0806000C0808000C080A000C080C000C080E000C0A00000C0A02000C0A04000C0A06000C0A08000C0A0A000C0A0C000C0A0E000C0C00000C0C02000C0C04000C0C06000
310
C0C08000C0C0A000F0FBFF00A4A0A000808080000000FF0000FF000000FFFF00FF000000FF00FF00FFFF0000FFFFFF00000000000000000000000000000000000000000000000000000000000000000000000000000000000000000000000000000000000000000000000000000000000000000000000000000000000000FF
310
FFFFFFFF00000000000000000000000000000000000000000000000000FFFFFDFDFDFDFDFDFDFF0000000000000000000000000000000000000000FFFFFDFD0000FFFFFF0000FDFDFF00000000000000000000000000000000FFFFFDFD00000000FFFF0000000000FDFFFF00000000000000000000000000FF00FD000000FF
310
FFFFFFFFFFFFFF000000FD00FF000000000000000000000000FFFD000000FFFFFF00000000FFFFFFFF0000FD00FF00000000000000000000FFFD0000FFFFFF000000FFFFFF0000FFFFFF0000FDFF00000000000000000000FFFDFFFFFFFF00000000FFFF0000000000FFFFFFFFFDFF0000000000FAFAFAFAFDFAFAFAFAFFFF
310
FFFFFFFFFFFFFFFFFFFF00FFFFFFFFFD0000000000FA0000FFFD00FF000000FF000000000000000000FF0000FFFF00FDFF00000000FA0000FD0000FF000000FF000000000000000000FF0000FFFF00FDFF000000FBFB00FFFD00FFFF000000FF000000000000000000FF000000FF00FDFF000000FBFB00FFFD00FFFF00FF00
310
FF000000000000000000FFFF0000FF0000FDFF0000FBFB00FFFD00FFFFFFFFFFFF000000000000000000FFFFFF00FF0000FDFF0000FBFB00FFFD00FFFFFFFFFFFF000000000000000000FFFFFF00FF0000FDFF0000FBFB00FFFD0000FF000000FF000000000000000000FF000000FF00FDFF00000000FA0000FD0000FF0000
310
00FF000000000000000000FF0000FFFF00FDFF00000000FA0000FFFD00FFFF0000FF000000000000000000FF0000FF0000FDFF00000000FAFAFAFAFDFAFAFAFAFAFFFFFFFFFFFFFFFFFFFFFF0000FFFFFFFD000000000000000000FDFFFFFFFF0000000000FFFF0000000000FFFFFFFFFDFF000000000000000000FFFD0000
310
FFFF00000000FFFFFF00000000FFFF0000FD0000000000000000000000FD000000FFFF000000FFFF0000FFFFFF000000FDFF0000000000000000000000FFFDFD000000FFFFFFFFFFFFFFFFFF0000FDFDFF00000000000000000000000000FFFFFDFD000000FFFFFF0000000000FA00FF000000000000000000000000000000
310
00FF00FD000000FFFFFF0000FDFDFAFAFAFBFAFB0000000000000000000000000000FFFFFDFDFDFDFDFDFDFDFA0000FBFBFBFBFB0000000000000000000000000000000000FFFFFFFFFF0000FAFBFBFBFBFB000000000000000000000000000000000000000000000000000000FBFBFBFBFB00000000000000000000000000
310
0000000000000000000000000000000000000000000000000000000000000000000000000000000000000000000000000000000000000000
102
{BLKREFS
331
166D
102
}
  0
ENDTAB
  0
ENDSEC
  0
SECTION
  2
BLOCKS
  0
BLOCK
  5
22
330
21
100
AcDbEntity
  8
0
100
AcDbBlockBegin
  2
*Model_Space
 70
     0
 10
0.0
 20
0.0
 30
0.0
  3
*Model_Space
  1

  0
ENDBLK
  5
23
330
21
100
AcDbEntity
  8
0
100
AcDbBlockEnd
  0
BLOCK
  5
1E
330
1D
100
AcDbEntity
 67
     1
  8
0
100
AcDbBlockBegin
  2
*Paper_Space
 70
     0
 10
0.0
 20
0.0
 30
0.0
  3
*Paper_Space
  1

  0
ENDBLK
  5
1F
330
1D
100
AcDbEntity
 67
     1
  8
0
100
AcDbBlockEnd
  0
BLOCK
  5
26
330
25
100
AcDbEntity
 67
     1
  8
0
100
AcDbBlockBegin
  2
*Paper_Space0
 70
     0
 10
0.0
 20
0.0
 30
0.0
  3
*Paper_Space0
  1

  0
ENDBLK
  5
27
330
25
100
AcDbEntity
 67
     1
  8
0
100
AcDbBlockEnd
  0
BLOCK
  5
1255
330
4BF
100
AcDbEntity
  8
0
100
AcDbBlockBegin
  2
GENAXEH
 70
     0
 10
0.0
 20
0.0
 30
0.0
  3
GENAXEH
  1

  0
LINE
  5
1256
330
4BF
100
AcDbEntity
  8
0
100
AcDbLine
 10
-1.0
 20
0.0
 30
0.0
 11
1.0
 21
0.0
 31
0.0
  0
ENDBLK
  5
1257
330
4BF
100
AcDbEntity
  8
0
100
AcDbBlockEnd
  0
BLOCK
  5
529
330
528
100
AcDbEntity
  8
0
100
AcDbBlockBegin
  2
info
 70
     2
 10
0.0
 20
0.0
 30
0.0
  3
info
  1

  0
POINT
  5
52A
330
528
100
AcDbEntity
  8
0
100
AcDbPoint
 10
0.0
 20
0.0
 30
0.0
  0
ATTDEF
  5
52B
330
528
100
AcDbEntity
  8
0
100
AcDbText
 10
9.467092950319427
 20
2.891095235479383
 30
0.00000001
 40
5.0
  1

100
AcDbAttributeDefinition
  3
bredd
  2
BRD
 70
     1
1001
AcDbAttr
1070
     0
1070
     1
  0
ATTDEF
  5
52C
330
528
100
AcDbEntity
  8
0
100
AcDbText
 10
9.467092950319427
 20
-5.442238097853946
 30
0.00000001
 40
5.0
  1

100
AcDbAttributeDefinition
  3
Höjd
  2
HJD
 70
     1
1001
AcDbAttr
1070
     0
1070
     1
  0
ENDBLK
  5
52D
330
528
100
AcDbEntity
  8
0
100
AcDbBlockEnd
  0
BLOCK
  5
14C5
330
14C4
100
AcDbEntity
  8
0
100
AcDbBlockBegin
  2
RX100
 70
     0
 10
0.0
 20
0.0
 30
0.0
  3
RX100
  1

  0
CIRCLE
  5
14C7
330
14C4
100
AcDbEntity
  8
Visible Edges
  6
Continuous
370
    18
100
AcDbCircle
 10
-56.29165124599239
 20
-32.50000000000003
 30
0.0
 40
5.25
  0
CIRCLE
  5
14C8
330
14C4
100
AcDbEntity
  8
Visible Edges
  6
Continuous
370
    18
100
AcDbCircle
 10
-56.29165124599248
 20
32.50000000000003
 30
0.0
 40
5.25
  0
CIRCLE
  5
14C9
330
14C4
100
AcDbEntity
  8
Visible Edges
  6
Continuous
370
    18
100
AcDbCircle
 10
-0.0000000000054001
 20
0.0
 30
0.0
 40
77.5
  0
ARC
  5
14CA
330
14C4
100
AcDbEntity
  8
Visible Edges
  6
Continuous
370
    18
100
AcDbCircle
 10
-0.0000000000075033
 20
-0.0000000000046043
 30
0.0
 40
50.84999999999358
100
AcDbArc
 50
224.1548988631634
 51
225.8451011368378
  0
ARC
  5
14CB
330
14C4
100
AcDbEntity
  8
Visible Edges
  6
Continuous
370
    18
100
AcDbCircle
 10
0.0000000000117666
 20
0.0000000000146088
 30
0.0
 40
50.84999999997918
100
AcDbArc
 50
44.15489886316218
 51
45.84510113683782
  0
ARC
  5
14CC
330
14C4
100
AcDbEntity
  8
Visible Edges
  6
Continuous
370
    18
100
AcDbCircle
 10
-0.000000000031207
 20
-0.000000000028308
 30
0.0
 40
57.14999999995999
100
AcDbArc
 50
224.2480652986236
 51
225.7519347013787
  0
ARC
  5
14CD
330
14C4
100
AcDbEntity
  8
Visible Edges
  6
Continuous
370
    18
100
AcDbCircle
 10
0.0000000000119087
 20
0.000000000014694
 30
0.0
 40
57.14999999997901
100
AcDbArc
 50
44.24806529862247
 51
45.75193470137639
  0
CIRCLE
  5
14CE
330
14C4
100
AcDbEntity
  8
Visible Edges
  6
Continuous
370
    18
100
AcDbCircle
 10
-0.0000000000038938
 20
-64.99999999999997
 30
0.0
 40
5.25
  0
CIRCLE
  5
14CF
330
14C4
100
AcDbEntity
  8
Visible Edges
  6
Continuous
370
    18
100
AcDbCircle
 10
56.29165124598458
 20
32.50000000000003
 30
0.0
 40
5.249999999999999
  0
CIRCLE
  5
14D0
330
14C4
100
AcDbEntity
  8
Visible Edges
  6
Continuous
370
    18
100
AcDbCircle
 10
-0.0000000000038938
 20
65.00000000000003
 30
0.0
 40
5.25
  0
CIRCLE
  5
14D1
330
14C4
100
AcDbEntity
  8
Visible Edges
  6
Continuous
370
    18
100
AcDbCircle
 10
56.29165124598458
 20
-32.50000000000003
 30
0.0
 40
5.25
  0
CIRCLE
  5
14D2
330
14C4
100
AcDbEntity
  8
Visible Edges
  6
Continuous
370
    18
100
AcDbCircle
 10
0.0
 20
40.00000000000011
 30
0.0
 40
2.5
  0
CIRCLE
  5
14D3
330
14C4
100
AcDbEntity
  8
Visible Edges
  6
Continuous
370
    18
100
AcDbCircle
 10
40.0
 20
0.0
 30
0.0
 40
2.5
  0
CIRCLE
  5
14D4
330
14C4
100
AcDbEntity
  8
Visible Edges
  6
Continuous
370
    18
100
AcDbCircle
 10
0.0
 20
-40.0
 30
0.0
 40
2.5
  0
LINE
  5
14D5
330
14C4
100
AcDbEntity
  8
Visible Edges
  6
Continuous
370
    18
100
AcDbLine
 10
5.773502691895998
 20
40.00000000000002
 30
0.0
 11
2.886751345947885
 21
35.00000000000003
 31
0.0
  0
LINE
  5
14D6
330
14C4
100
AcDbEntity
  8
Visible Edges
  6
Continuous
370
    18
100
AcDbLine
 10
2.886751345947885
 20
35.00000000000003
 30
0.0
 11
-2.886751345948397
 21
35.00000000000011
 31
0.0
  0
LINE
  5
14D7
330
14C4
100
AcDbEntity
  8
Visible Edges
  6
Continuous
370
    18
100
AcDbLine
 10
-2.886751345948397
 20
35.00000000000011
 30
0.0
 11
-5.77350269189651
 21
40.00000000000011
 31
0.0
  0
LINE
  5
14D8
330
14C4
100
AcDbEntity
  8
Visible Edges
  6
Continuous
370
    18
100
AcDbLine
 10
-5.77350269189651
 20
40.00000000000011
 30
0.0
 11
-2.886751345948397
 21
45.00000000000008
 31
0.0
  0
LINE
  5
14D9
330
14C4
100
AcDbEntity
  8
Visible Edges
  6
Continuous
370
    18
100
AcDbLine
 10
-2.886751345948397
 20
45.00000000000008
 30
0.0
 11
2.886751345947885
 21
45.00000000000008
 31
0.0
  0
LINE
  5
14DA
330
14C4
100
AcDbEntity
  8
Visible Edges
  6
Continuous
370
    18
100
AcDbLine
 10
2.886751345947885
 20
45.00000000000008
 30
0.0
 11
5.773502691895998
 21
40.00000000000002
 31
0.0
  0
LINE
  5
14DB
330
14C4
100
AcDbEntity
  8
Visible Edges
  6
Continuous
370
    18
100
AcDbLine
 10
39.99999999999969
 20
-5.773502691896283
 30
0.0
 11
34.99999999999969
 21
-2.886751345948113
 31
0.0
  0
LINE
  5
14DC
330
14C4
100
AcDbEntity
  8
Visible Edges
  6
Continuous
370
    18
100
AcDbLine
 10
34.99999999999969
 20
-2.886751345948113
 30
0.0
 11
34.99999999999969
 21
2.886751345948084
 31
0.0
  0
LINE
  5
14DD
330
14C4
100
AcDbEntity
  8
Visible Edges
  6
Continuous
370
    18
100
AcDbLine
 10
34.99999999999969
 20
2.886751345948084
 30
0.0
 11
39.99999999999969
 21
5.773502691896283
 31
0.0
  0
LINE
  5
14DE
330
14C4
100
AcDbEntity
  8
Visible Edges
  6
Continuous
370
    18
100
AcDbLine
 10
39.99999999999969
 20
5.773502691896283
 30
0.0
 11
44.99999999999977
 21
2.886751345948084
 31
0.0
  0
LINE
  5
14DF
330
14C4
100
AcDbEntity
  8
Visible Edges
  6
Continuous
370
    18
100
AcDbLine
 10
44.99999999999977
 20
2.886751345948084
 30
0.0
 11
44.99999999999977
 21
-2.886751345948113
 31
0.0
  0
LINE
  5
14E0
330
14C4
100
AcDbEntity
  8
Visible Edges
  6
Continuous
370
    18
100
AcDbLine
 10
44.99999999999977
 20
-2.886751345948113
 30
0.0
 11
39.99999999999969
 21
-5.773502691896283
 31
0.0
  0
LINE
  5
14E1
330
14C4
100
AcDbEntity
  8
Visible Edges
  6
Continuous
370
    18
100
AcDbLine
 10
-5.773502691896595
 20
-40.0
 30
0.0
 11
-2.886751345948397
 21
-35.00000000000003
 31
0.0
  0
LINE
  5
14E2
330
14C4
100
AcDbEntity
  8
Visible Edges
  6
Continuous
370
    18
100
AcDbLine
 10
-2.886751345948397
 20
-35.00000000000003
 30
0.0
 11
2.886751345947772
 21
-35.00000000000003
 31
0.0
  0
LINE
  5
14E3
330
14C4
100
AcDbEntity
  8
Visible Edges
  6
Continuous
370
    18
100
AcDbLine
 10
2.886751345947772
 20
-35.00000000000003
 30
0.0
 11
5.773502691895998
 21
-40.0
 31
0.0
  0
LINE
  5
14E4
330
14C4
100
AcDbEntity
  8
Visible Edges
  6
Continuous
370
    18
100
AcDbLine
 10
5.773502691895998
 20
-40.0
 30
0.0
 11
2.886751345947772
 21
-45.0
 31
0.0
  0
LINE
  5
14E5
330
14C4
100
AcDbEntity
  8
Visible Edges
  6
Continuous
370
    18
100
AcDbLine
 10
2.886751345947772
 20
-45.0
 30
0.0
 11
-2.886751345948397
 21
-45.0
 31
0.0
  0
LINE
  5
14E6
330
14C4
100
AcDbEntity
  8
Visible Edges
  6
Continuous
370
    18
100
AcDbLine
 10
-2.886751345948397
 20
-45.0
 30
0.0
 11
-5.773502691896595
 21
-40.0
 31
0.0
  0
ARC
  5
14E7
330
14C4
100
AcDbEntity
  8
Visible Edges
  6
Continuous
370
    18
100
AcDbCircle
 10
-0.000000000001819
 20
40.00000000000011
 30
0.0
 40
5.749999999999997
100
AcDbArc
 50
120.4081542060486
 51
179.5918457939514
  0
ARC
  5
14E8
330
14C4
100
AcDbEntity
  8
Visible Edges
  6
Continuous
370
    18
100
AcDbCircle
 10
-0.000000000001819
 20
40.00000000000011
 30
0.0
 40
5.750000000000002
100
AcDbArc
 50
60.40815420604957
 51
119.5918457939504
  0
ARC
  5
14E9
330
14C4
100
AcDbEntity
  8
Visible Edges
  6
Continuous
370
    18
100
AcDbCircle
 10
-0.000000000001819
 20
40.00000000000011
 30
0.0
 40
5.749999999999992
100
AcDbArc
 50
0.4081542060485955
 51
59.59184579395053
  0
ARC
  5
14EA
330
14C4
100
AcDbEntity
  8
Visible Edges
  6
Continuous
370
    18
100
AcDbCircle
 10
-0.000000000001819
 20
40.00000000000011
 30
0.0
 40
5.750000000000007
100
AcDbArc
 50
300.4081542060494
 51
359.5918457939514
  0
ARC
  5
14EB
330
14C4
100
AcDbEntity
  8
Visible Edges
  6
Continuous
370
    18
100
AcDbCircle
 10
-0.000000000001819
 20
40.00000000000002
 30
0.0
 40
5.749999999999982
100
AcDbArc
 50
240.4081542060496
 51
299.5918457939504
  0
ARC
  5
14EC
330
14C4
100
AcDbEntity
  8
Visible Edges
  6
Continuous
370
    18
100
AcDbCircle
 10
-0.000000000001819
 20
40.00000000000002
 30
0.0
 40
5.749999999999992
100
AcDbArc
 50
180.4081542060486
 51
239.5918457939505
  0
ARC
  5
14ED
330
14C4
100
AcDbEntity
  8
Visible Edges
  6
Continuous
370
    18
100
AcDbCircle
 10
39.99999999999818
 20
0.0
 30
0.0
 40
5.750000000000007
100
AcDbArc
 50
30.40815420604948
 51
89.5918457939514
  0
ARC
  5
14EE
330
14C4
100
AcDbEntity
  8
Visible Edges
  6
Continuous
370
    18
100
AcDbCircle
 10
39.99999999999818
 20
0.0
 30
0.0
 40
5.750000000000002
100
AcDbArc
 50
330.4081542060496
 51
29.59184579395044
  0
ARC
  5
14EF
330
14C4
100
AcDbEntity
  8
Visible Edges
  6
Continuous
370
    18
100
AcDbCircle
 10
39.99999999999818
 20
0.0
 30
0.0
 40
5.749999999999992
100
AcDbArc
 50
270.4081542060486
 51
329.5918457939505
  0
ARC
  5
14F0
330
14C4
100
AcDbEntity
  8
Visible Edges
  6
Continuous
370
    18
100
AcDbCircle
 10
39.99999999999818
 20
0.0
 30
0.0
 40
5.750000000000002
100
AcDbArc
 50
210.4081542060495
 51
269.5918457939498
  0
ARC
  5
14F1
330
14C4
100
AcDbEntity
  8
Visible Edges
  6
Continuous
370
    18
100
AcDbCircle
 10
39.99999999999818
 20
0.0
 30
0.0
 40
5.749999999999982
100
AcDbArc
 50
150.4081542060495
 51
209.5918457939505
  0
ARC
  5
14F2
330
14C4
100
AcDbEntity
  8
Visible Edges
  6
Continuous
370
    18
100
AcDbCircle
 10
39.99999999999818
 20
0.0
 30
0.0
 40
5.749999999999996
100
AcDbArc
 50
90.40815420604859
 51
149.5918457939505
  0
ARC
  5
14F3
330
14C4
100
AcDbEntity
  8
Visible Edges
  6
Continuous
370
    18
100
AcDbCircle
 10
-0.000000000001819
 20
-40.0
 30
0.0
 40
5.749999999999997
100
AcDbArc
 50
300.4081542060494
 51
359.5918457939514
  0
ARC
  5
14F4
330
14C4
100
AcDbEntity
  8
Visible Edges
  6
Continuous
370
    18
100
AcDbCircle
 10
-0.000000000001819
 20
-40.0
 30
0.0
 40
5.750000000000002
100
AcDbArc
 50
240.4081542060496
 51
299.5918457939504
  0
ARC
  5
14F5
330
14C4
100
AcDbEntity
  8
Visible Edges
  6
Continuous
370
    18
100
AcDbCircle
 10
-0.000000000001819
 20
-40.0
 30
0.0
 40
5.749999999999992
100
AcDbArc
 50
180.4081542060486
 51
239.5918457939505
  0
ARC
  5
14F6
330
14C4
100
AcDbEntity
  8
Visible Edges
  6
Continuous
370
    18
100
AcDbCircle
 10
-0.000000000001819
 20
-40.0
 30
0.0
 40
5.750000000000007
100
AcDbArc
 50
120.4081542060495
 51
179.5918457939514
  0
ARC
  5
14F7
330
14C4
100
AcDbEntity
  8
Visible Edges
  6
Continuous
370
    18
100
AcDbCircle
 10
-0.000000000001819
 20
-40.0
 30
0.0
 40
5.749999999999982
100
AcDbArc
 50
60.40815420604957
 51
119.5918457939504
  0
ARC
  5
14F8
330
14C4
100
AcDbEntity
  8
Visible Edges
  6
Continuous
370
    18
100
AcDbCircle
 10
-0.000000000001819
 20
-40.0
 30
0.0
 40
5.749999999999992
100
AcDbArc
 50
0.4081542060485955
 51
59.59184579395053
  0
CIRCLE
  5
14F9
330
14C4
100
AcDbEntity
  8
Visible Edges
  6
Continuous
370
    18
100
AcDbCircle
 10
-40.0
 20
0.0
 30
0.0
 40
2.5
  0
LINE
  5
14FA
330
14C4
100
AcDbEntity
  8
Visible Edges
  6
Continuous
370
    18
100
AcDbLine
 10
-40.00000000000031
 20
5.773502691896283
 30
0.0
 11
-35.00000000000031
 21
2.886751345948198
 31
0.0
  0
LINE
  5
14FB
330
14C4
100
AcDbEntity
  8
Visible Edges
  6
Continuous
370
    18
100
AcDbLine
 10
-35.00000000000031
 20
2.886751345948198
 30
0.0
 11
-35.00000000000031
 21
-2.886751345948113
 31
0.0
  0
LINE
  5
14FC
330
14C4
100
AcDbEntity
  8
Visible Edges
  6
Continuous
370
    18
100
AcDbLine
 10
-35.00000000000031
 20
-2.886751345948113
 30
0.0
 11
-40.00000000000031
 21
-5.773502691896197
 31
0.0
  0
LINE
  5
14FD
330
14C4
100
AcDbEntity
  8
Visible Edges
  6
Continuous
370
    18
100
AcDbLine
 10
-40.00000000000031
 20
-5.773502691896197
 30
0.0
 11
-45.00000000000031
 21
-2.886751345948113
 31
0.0
  0
LINE
  5
14FE
330
14C4
100
AcDbEntity
  8
Visible Edges
  6
Continuous
370
    18
100
AcDbLine
 10
-45.00000000000031
 20
-2.886751345948113
 30
0.0
 11
-45.00000000000031
 21
2.886751345948198
 31
0.0
  0
LINE
  5
14FF
330
14C4
100
AcDbEntity
  8
Visible Edges
  6
Continuous
370
    18
100
AcDbLine
 10
-45.00000000000031
 20
2.886751345948198
 30
0.0
 11
-40.00000000000031
 21
5.773502691896283
 31
0.0
  0
ARC
  5
1500
330
14C4
100
AcDbEntity
  8
Visible Edges
  6
Continuous
370
    18
100
AcDbCircle
 10
-40.0000000000018
 20
0.0
 30
0.0
 40
5.750000000000007
100
AcDbArc
 50
210.4081542060495
 51
269.5918457939514
  0
ARC
  5
1501
330
14C4
100
AcDbEntity
  8
Visible Edges
  6
Continuous
370
    18
100
AcDbCircle
 10
-40.0000000000018
 20
0.0
 30
0.0
 40
5.749999999999992
100
AcDbArc
 50
150.4081542060495
 51
209.5918457939505
  0
ARC
  5
1502
330
14C4
100
AcDbEntity
  8
Visible Edges
  6
Continuous
370
    18
100
AcDbCircle
 10
-40.0000000000018
 20
0.0
 30
0.0
 40
5.749999999999992
100
AcDbArc
 50
90.40815420604859
 51
149.5918457939505
  0
ARC
  5
1503
330
14C4
100
AcDbEntity
  8
Visible Edges
  6
Continuous
370
    18
100
AcDbCircle
 10
-40.0000000000018
 20
0.0
 30
0.0
 40
5.750000000000007
100
AcDbArc
 50
30.40815420604948
 51
89.59184579394978
  0
ARC
  5
1504
330
14C4
100
AcDbEntity
  8
Visible Edges
  6
Continuous
370
    18
100
AcDbCircle
 10
-40.0000000000018
 20
0.0
 30
0.0
 40
5.749999999999992
100
AcDbArc
 50
330.4081542060496
 51
29.59184579395044
  0
ARC
  5
1505
330
14C4
100
AcDbEntity
  8
Visible Edges
  6
Continuous
370
    18
100
AcDbCircle
 10
-40.0000000000018
 20
0.0
 30
0.0
 40
5.750000000000013
100
AcDbArc
 50
270.4081542060486
 51
329.5918457939505
  0
POLYLINE
  5
1506
330
14C4
100
AcDbEntity
  8
Visible Edges
  6
Continuous
370
    18
100
AcDb2dPolyline
 66
     1
 10
0.0
 20
0.0
 30
0.0
  0
VERTEX
  5
1507
330
1506
100
AcDbEntity
  8
Visible Edges
  6
Continuous
370
    18
100
AcDbVertex
100
AcDb2dVertex
 10
-40.12485027313362
 20
-41.1855125427246
 30
0.0
  0
VERTEX
  5
1508
330
1506
100
AcDbEntity
  8
Visible Edges
  6
Continuous
370
    18
100
AcDbVertex
100
AcDb2dVertex
 10
-40.11884689331171
 20
-41.19138240814208
 30
0.0
  0
VERTEX
  5
1509
330
1506
100
AcDbEntity
  8
Visible Edges
  6
Continuous
370
    18
100
AcDbVertex
100
AcDb2dVertex
 10
-40.10077476501571
 20
-41.20901107788088
 30
0.0
  0
VERTEX
  5
150A
330
1506
100
AcDbEntity
  8
Visible Edges
  6
Continuous
370
    18
100
AcDbVertex
100
AcDb2dVertex
 10
-40.0705337524424
 20
-41.23843193054199
 30
0.0
  0
VERTEX
  5
150B
330
1506
100
AcDbEntity
  8
Visible Edges
  6
Continuous
370
    18
100
AcDbVertex
100
AcDb2dVertex
 10
-40.02802848816012
 20
-41.27967834472658
 30
0.0
  0
VERTEX
  5
150C
330
1506
100
AcDbEntity
  8
Visible Edges
  6
Continuous
370
    18
100
AcDbVertex
100
AcDb2dVertex
 10
-39.97315168380822
 20
-41.3327836990357
 30
0.0
  0
VERTEX
  5
150D
330
1506
100
AcDbEntity
  8
Visible Edges
  6
Continuous
370
    18
100
AcDbVertex
100
AcDb2dVertex
 10
-39.9058127403267
 20
-41.3977766036987
 30
0.0
  0
VERTEX
  5
150E
330
1506
100
AcDbEntity
  8
Visible Edges
  6
Continuous
370
    18
100
AcDbVertex
100
AcDb2dVertex
 10
-39.82608556747511
 20
-41.47447586059572
 30
0.0
  0
VERTEX
  5
150F
330
1506
100
AcDbEntity
  8
Visible Edges
  6
Continuous
370
    18
100
AcDbVertex
100
AcDb2dVertex
 10
-39.73483085632393
 20
-41.56189441680908
 30
0.0
  0
VERTEX
  5
1510
330
1506
100
AcDbEntity
  8
Visible Edges
  6
Continuous
370
    18
100
AcDbVertex
100
AcDb2dVertex
 10
-39.63312387466491
 20
-41.65888309478759
 30
0.0
  0
VERTEX
  5
1511
330
1506
100
AcDbEntity
  8
Visible Edges
  6
Continuous
370
    18
100
AcDbVertex
100
AcDb2dVertex
 10
-39.52203512191821
 20
-41.76429271698
 30
0.0
  0
VERTEX
  5
1512
330
1506
100
AcDbEntity
  8
Visible Edges
  6
Continuous
370
    18
100
AcDbVertex
100
AcDb2dVertex
 10
-39.40264225006152
 20
-41.87697410583497
 30
0.0
  0
VERTEX
  5
1513
330
1506
100
AcDbEntity
  8
Visible Edges
  6
Continuous
370
    18
100
AcDbVertex
100
AcDb2dVertex
 10
-39.2760157585148
 20
-41.9957685470581
 30
0.0
  0
VERTEX
  5
1514
330
1506
100
AcDbEntity
  8
Visible Edges
  6
Continuous
370
    18
100
AcDbVertex
100
AcDb2dVertex
 10
-39.14027214050333
 20
-42.12229251861572
 30
0.0
  0
VERTEX
  5
1515
330
1506
100
AcDbEntity
  8
Visible Edges
  6
Continuous
370
    18
100
AcDbVertex
100
AcDb2dVertex
 10
-38.99358272552519
 20
-42.25809097290039
 30
0.0
  0
VERTEX
  5
1516
330
1506
100
AcDbEntity
  8
Visible Edges
  6
Continuous
370
    18
100
AcDbVertex
100
AcDb2dVertex
 10
-38.83691787719752
 20
-42.40210056304928
 30
0.0
  0
VERTEX
  5
1517
330
1506
100
AcDbEntity
  8
Visible Edges
  6
Continuous
370
    18
100
AcDbVertex
100
AcDb2dVertex
 10
-38.67125988006612
 20
-42.55324840545656
 30
0.0
  0
VERTEX
  5
1518
330
1506
100
AcDbEntity
  8
Visible Edges
  6
Continuous
370
    18
100
AcDbVertex
100
AcDb2dVertex
 10
-38.49757671356218
 20
-42.71047592163088
 30
0.0
  0
VERTEX
  5
1519
330
1506
100
AcDbEntity
  8
Visible Edges
  6
Continuous
370
    18
100
AcDbVertex
100
AcDb2dVertex
 10
-38.31685066223162
 20
-42.87270545959469
 30
0.0
  0
VERTEX
  5
151A
330
1506
100
AcDbEntity
  8
Visible Edges
  6
Continuous
370
    18
100
AcDbVertex
100
AcDb2dVertex
 10
-38.13013792037981
 20
-43.03879737854001
 30
0.0
  0
VERTEX
  5
151B
330
1506
100
AcDbEntity
  8
Visible Edges
  6
Continuous
370
    18
100
AcDbVertex
100
AcDb2dVertex
 10
-37.93891429901132
 20
-43.20737361907958
 30
0.0
  0
VERTEX
  5
151C
330
1506
100
AcDbEntity
  8
Visible Edges
  6
Continuous
370
    18
100
AcDbVertex
100
AcDb2dVertex
 10
-37.74478197097781
 20
-43.37703227996828
 30
0.0
  0
VERTEX
  5
151D
330
1506
100
AcDbEntity
  8
Visible Edges
  6
Continuous
370
    18
100
AcDbVertex
100
AcDb2dVertex
 10
-37.54933834075931
 20
-43.5463619232178
 30
0.0
  0
VERTEX
  5
151E
330
1506
100
AcDbEntity
  8
Visible Edges
  6
Continuous
370
    18
100
AcDbVertex
100
AcDb2dVertex
 10
-37.35418319702148
 20
-43.71396064758298
 30
0.0
  0
VERTEX
  5
151F
330
1506
100
AcDbEntity
  8
Visible Edges
  6
Continuous
370
    18
100
AcDbVertex
100
AcDb2dVertex
 10
-37.16091394424443
 20
-43.8784265518189
 30
0.0
  0
SEQEND
  5
1520
330
1506
100
AcDbEntity
  8
Visible Edges
  6
Continuous
370
    18
  0
POLYLINE
  5
1521
330
14C4
100
AcDbEntity
  8
Visible Edges
  6
Continuous
370
    18
100
AcDb2dPolyline
 66
     1
 10
0.0
 20
0.0
 30
0.0
  0
VERTEX
  5
1522
330
1521
100
AcDbEntity
  8
Visible Edges
  6
Continuous
370
    18
100
AcDbVertex
100
AcDb2dVertex
 10
-35.38680791854861
 20
-42.10432052612299
 30
0.0
  0
VERTEX
  5
1523
330
1521
100
AcDbEntity
  8
Visible Edges
  6
Continuous
370
    18
100
AcDbVertex
100
AcDb2dVertex
 10
-35.58069229125982
 20
-41.94055080413821
 30
0.0
  0
VERTEX
  5
1524
330
1521
100
AcDbEntity
  8
Visible Edges
  6
Continuous
370
    18
100
AcDbVertex
100
AcDb2dVertex
 10
-35.77644109725961
 20
-41.77361011505129
 30
0.0
  0
VERTEX
  5
1525
330
1521
100
AcDbEntity
  8
Visible Edges
  6
Continuous
370
    18
100
AcDbVertex
100
AcDb2dVertex
 10
-35.97245454788211
 20
-41.60490036010739
 30
0.0
  0
VERTEX
  5
1526
330
1521
100
AcDbEntity
  8
Visible Edges
  6
Continuous
370
    18
100
AcDbVertex
100
AcDb2dVertex
 10
-36.16712331771862
 20
-41.43582344055178
 30
0.0
  0
VERTEX
  5
1527
330
1521
100
AcDbEntity
  8
Visible Edges
  6
Continuous
370
    18
100
AcDbVertex
100
AcDb2dVertex
 10
-36.35884523391741
 20
-41.26778125762939
 30
0.0
  0
VERTEX
  5
1528
330
1521
100
AcDbEntity
  8
Visible Edges
  6
Continuous
370
    18
100
AcDbVertex
100
AcDb2dVertex
 10
-36.54602050781261
 20
-41.10217094421389
 30
0.0
  0
VERTEX
  5
1529
330
1521
100
AcDbEntity
  8
Visible Edges
  6
Continuous
370
    18
100
AcDbVertex
100
AcDb2dVertex
 10
-36.72716617584252
 20
-40.94036102294919
 30
0.0
  0
VERTEX
  5
152A
330
1521
100
AcDbEntity
  8
Visible Edges
  6
Continuous
370
    18
100
AcDbVertex
100
AcDb2dVertex
 10
-36.90122604370143
 20
-40.7835102081299
 30
0.0
  0
VERTEX
  5
152B
330
1521
100
AcDbEntity
  8
Visible Edges
  6
Continuous
370
    18
100
AcDbVertex
100
AcDb2dVertex
 10
-37.06722259521513
 20
-40.6326866149902
 30
0.0
  0
VERTEX
  5
152C
330
1521
100
AcDbEntity
  8
Visible Edges
  6
Continuous
370
    18
100
AcDbVertex
100
AcDb2dVertex
 10
-37.22418546676661
 20
-40.48895835876459
 30
0.0
  0
VERTEX
  5
152D
330
1521
100
AcDbEntity
  8
Visible Edges
  6
Continuous
370
    18
100
AcDbVertex
100
AcDb2dVertex
 10
-37.37113714218171
 20
-40.3533935546875
 30
0.0
  0
VERTEX
  5
152E
330
1521
100
AcDbEntity
  8
Visible Edges
  6
Continuous
370
    18
100
AcDbVertex
100
AcDb2dVertex
 10
-37.50710487365763
 20
-40.2270698547363
 30
0.0
  0
VERTEX
  5
152F
330
1521
100
AcDbEntity
  8
Visible Edges
  6
Continuous
370
    18
100
AcDbVertex
100
AcDb2dVertex
 10
-37.6339221000676
 20
-40.10843753814699
 30
0.0
  0
VERTEX
  5
1530
330
1521
100
AcDbEntity
  8
Visible Edges
  6
Continuous
370
    18
100
AcDbVertex
100
AcDb2dVertex
 10
-37.75347948074389
 20
-39.99590158462522
 30
0.0
  0
VERTEX
  5
1531
330
1521
100
AcDbEntity
  8
Visible Edges
  6
Continuous
370
    18
100
AcDbVertex
100
AcDb2dVertex
 10
-37.86471128463802
 20
-39.8906111717224
 30
0.0
  0
VERTEX
  5
1532
330
1521
100
AcDbEntity
  8
Visible Edges
  6
Continuous
370
    18
100
AcDbVertex
100
AcDb2dVertex
 10
-37.96653985977241
 20
-39.7937154769898
 30
0.0
  0
VERTEX
  5
1533
330
1521
100
AcDbEntity
  8
Visible Edges
  6
Continuous
370
    18
100
AcDbVertex
100
AcDb2dVertex
 10
-38.05789470672682
 20
-39.70637083053589
 30
0.0
  0
VERTEX
  5
1534
330
1521
100
AcDbEntity
  8
Visible Edges
  6
Continuous
370
    18
100
AcDbVertex
100
AcDb2dVertex
 10
-38.13770055770951
 20
-39.62973356246951
 30
0.0
  0
VERTEX
  5
1535
330
1521
100
AcDbEntity
  8
Visible Edges
  6
Continuous
370
    18
100
AcDbVertex
100
AcDb2dVertex
 10
-38.20510387420739
 20
-39.56478118896479
 30
0.0
  0
VERTEX
  5
1536
330
1521
100
AcDbEntity
  8
Visible Edges
  6
Continuous
370
    18
100
AcDbVertex
100
AcDb2dVertex
 10
-38.26002836227514
 20
-39.5117068290711
 30
0.0
  0
VERTEX
  5
1537
330
1521
100
AcDbEntity
  8
Visible Edges
  6
Continuous
370
    18
100
AcDbVertex
100
AcDb2dVertex
 10
-38.30257177353013
 20
-39.47048187255862
 30
0.0
  0
VERTEX
  5
1538
330
1521
100
AcDbEntity
  8
Visible Edges
  6
Continuous
370
    18
100
AcDbVertex
100
AcDb2dVertex
 10
-38.33283662796132
 20
-39.44107532501221
 30
0.0
  0
VERTEX
  5
1539
330
1521
100
AcDbEntity
  8
Visible Edges
  6
Continuous
370
    18
100
AcDbVertex
100
AcDb2dVertex
 10
-38.35092067718619
 20
-39.4234538078308
 30
0.0
  0
VERTEX
  5
153A
330
1521
100
AcDbEntity
  8
Visible Edges
  6
Continuous
370
    18
100
AcDbVertex
100
AcDb2dVertex
 10
-38.3569264411939
 20
-39.41758632659909
 30
0.0
  0
SEQEND
  5
153B
330
1521
100
AcDbEntity
  8
Visible Edges
  6
Continuous
370
    18
  0
LINE
  5
153C
330
14C4
100
AcDbEntity
  8
Visible Edges
  6
Continuous
370
    18
100
AcDbLine
 10
-38.35692682431261
 20
-39.41758699609119
 30
0.0
 11
-40.12485101074398
 21
-41.18551118252256
 31
0.0
  0
POLYLINE
  5
153D
330
14C4
100
AcDbEntity
  8
Visible Edges
  6
Continuous
370
    18
100
AcDb2dPolyline
 66
     1
 10
0.0
 20
0.0
 30
0.0
  0
VERTEX
  5
153E
330
153D
100
AcDbEntity
  8
Visible Edges
  6
Continuous
370
    18
100
AcDbVertex
100
AcDb2dVertex
 10
39.4175863265979
 20
38.35692644119268
 30
0.0
  0
VERTEX
  5
153F
330
153D
100
AcDbEntity
  8
Visible Edges
  6
Continuous
370
    18
100
AcDbVertex
100
AcDb2dVertex
 10
39.42345380782967
 20
38.35092067718509
 30
0.0
  0
VERTEX
  5
1540
330
153D
100
AcDbEntity
  8
Visible Edges
  6
Continuous
370
    18
100
AcDbVertex
100
AcDb2dVertex
 10
39.4410753250111
 20
38.33283662796032
 30
0.0
  0
VERTEX
  5
1541
330
153D
100
AcDbEntity
  8
Visible Edges
  6
Continuous
370
    18
100
AcDbVertex
100
AcDb2dVertex
 10
39.4704818725576
 20
38.30257177352911
 30
0.0
  0
VERTEX
  5
1542
330
153D
100
AcDbEntity
  8
Visible Edges
  6
Continuous
370
    18
100
AcDbVertex
100
AcDb2dVertex
 10
39.51170682907011
 20
38.2600283622742
 30
0.0
  0
VERTEX
  5
1543
330
153D
100
AcDbEntity
  8
Visible Edges
  6
Continuous
370
    18
100
AcDbVertex
100
AcDb2dVertex
 10
39.56478118896402
 20
38.2051038742066
 30
0.0
  0
VERTEX
  5
1544
330
153D
100
AcDbEntity
  8
Visible Edges
  6
Continuous
370
    18
100
AcDbVertex
100
AcDb2dVertex
 10
39.62973356246869
 20
38.1377005577088
 30
0.0
  0
VERTEX
  5
1545
330
153D
100
AcDbEntity
  8
Visible Edges
  6
Continuous
370
    18
100
AcDbVertex
100
AcDb2dVertex
 10
39.70637083053518
 20
38.0578947067261
 30
0.0
  0
VERTEX
  5
1546
330
153D
100
AcDbEntity
  8
Visible Edges
  6
Continuous
370
    18
100
AcDbVertex
100
AcDb2dVertex
 10
39.79371547698909
 20
37.96653985977179
 30
0.0
  0
VERTEX
  5
1547
330
153D
100
AcDbEntity
  8
Visible Edges
  6
Continuous
370
    18
100
AcDbVertex
100
AcDb2dVertex
 10
39.89061117172176
 20
37.86471128463751
 30
0.0
  0
VERTEX
  5
1548
330
153D
100
AcDbEntity
  8
Visible Edges
  6
Continuous
370
    18
100
AcDbVertex
100
AcDb2dVertex
 10
39.99590158462479
 20
37.75347948074352
 30
0.0
  0
VERTEX
  5
1549
330
153D
100
AcDbEntity
  8
Visible Edges
  6
Continuous
370
    18
100
AcDbVertex
100
AcDb2dVertex
 10
40.10843753814649
 20
37.6339221000672
 30
0.0
  0
VERTEX
  5
154A
330
153D
100
AcDbEntity
  8
Visible Edges
  6
Continuous
370
    18
100
AcDbVertex
100
AcDb2dVertex
 10
40.22706985473599
 20
37.50710487365728
 30
0.0
  0
VERTEX
  5
154B
330
153D
100
AcDbEntity
  8
Visible Edges
  6
Continuous
370
    18
100
AcDbVertex
100
AcDb2dVertex
 10
40.35339355468718
 20
37.37113714218151
 30
0.0
  0
VERTEX
  5
154C
330
153D
100
AcDbEntity
  8
Visible Edges
  6
Continuous
370
    18
100
AcDbVertex
100
AcDb2dVertex
 10
40.48895835876439
 20
37.22418546676639
 30
0.0
  0
VERTEX
  5
154D
330
153D
100
AcDbEntity
  8
Visible Edges
  6
Continuous
370
    18
100
AcDbVertex
100
AcDb2dVertex
 10
40.63268661499001
 20
37.06722259521487
 30
0.0
  0
VERTEX
  5
154E
330
153D
100
AcDbEntity
  8
Visible Edges
  6
Continuous
370
    18
100
AcDbVertex
100
AcDb2dVertex
 10
40.78351020812968
 20
36.9012260437012
 30
0.0
  0
VERTEX
  5
154F
330
153D
100
AcDbEntity
  8
Visible Edges
  6
Continuous
370
    18
100
AcDbVertex
100
AcDb2dVertex
 10
40.9403610229491
 20
36.72716617584228
 30
0.0
  0
VERTEX
  5
1550
330
153D
100
AcDbEntity
  8
Visible Edges
  6
Continuous
370
    18
100
AcDbVertex
100
AcDb2dVertex
 10
41.10217094421378
 20
36.54602050781261
 30
0.0
  0
VERTEX
  5
1551
330
153D
100
AcDbEntity
  8
Visible Edges
  6
Continuous
370
    18
100
AcDbVertex
100
AcDb2dVertex
 10
41.26778125762927
 20
36.35884523391729
 30
0.0
  0
VERTEX
  5
1552
330
153D
100
AcDbEntity
  8
Visible Edges
  6
Continuous
370
    18
100
AcDbVertex
100
AcDb2dVertex
 10
41.43582344055167
 20
36.16712331771862
 30
0.0
  0
VERTEX
  5
1553
330
153D
100
AcDbEntity
  8
Visible Edges
  6
Continuous
370
    18
100
AcDbVertex
100
AcDb2dVertex
 10
41.60490036010739
 20
35.97245454788211
 30
0.0
  0
VERTEX
  5
1554
330
153D
100
AcDbEntity
  8
Visible Edges
  6
Continuous
370
    18
100
AcDbVertex
100
AcDb2dVertex
 10
41.77361011505118
 20
35.77644109725958
 30
0.0
  0
VERTEX
  5
1555
330
153D
100
AcDbEntity
  8
Visible Edges
  6
Continuous
370
    18
100
AcDbVertex
100
AcDb2dVertex
 10
41.94055080413806
 20
35.5806922912598
 30
0.0
  0
VERTEX
  5
1556
330
153D
100
AcDbEntity
  8
Visible Edges
  6
Continuous
370
    18
100
AcDbVertex
100
AcDb2dVertex
 10
42.10432052612302
 20
35.38680791854861
 30
0.0
  0
SEQEND
  5
1557
330
153D
100
AcDbEntity
  8
Visible Edges
  6
Continuous
370
    18
  0
POLYLINE
  5
1558
330
14C4
100
AcDbEntity
  8
Visible Edges
  6
Continuous
370
    18
100
AcDb2dPolyline
 66
     1
 10
0.0
 20
0.0
 30
0.0
  0
VERTEX
  5
1559
330
1558
100
AcDbEntity
  8
Visible Edges
  6
Continuous
370
    18
100
AcDbVertex
100
AcDb2dVertex
 10
43.87842655181876
 20
37.16091394424453
 30
0.0
  0
VERTEX
  5
155A
330
1558
100
AcDbEntity
  8
Visible Edges
  6
Continuous
370
    18
100
AcDbVertex
100
AcDb2dVertex
 10
43.71396064758298
 20
37.35418319702151
 30
0.0
  0
VERTEX
  5
155B
330
1558
100
AcDbEntity
  8
Visible Edges
  6
Continuous
370
    18
100
AcDbVertex
100
AcDb2dVertex
 10
43.54636192321777
 20
37.54933834075931
 30
0.0
  0
VERTEX
  5
155C
330
1558
100
AcDbEntity
  8
Visible Edges
  6
Continuous
370
    18
100
AcDbVertex
100
AcDb2dVertex
 10
43.37703227996818
 20
37.74478197097778
 30
0.0
  0
VERTEX
  5
155D
330
1558
100
AcDbEntity
  8
Visible Edges
  6
Continuous
370
    18
100
AcDbVertex
100
AcDb2dVertex
 10
43.20737361907956
 20
37.93891429901129
 30
0.0
  0
VERTEX
  5
155E
330
1558
100
AcDbEntity
  8
Visible Edges
  6
Continuous
370
    18
100
AcDbVertex
100
AcDb2dVertex
 10
43.03879737854001
 20
38.1301379203797
 30
0.0
  0
VERTEX
  5
155F
330
1558
100
AcDbEntity
  8
Visible Edges
  6
Continuous
370
    18
100
AcDbVertex
100
AcDb2dVertex
 10
42.87270545959461
 20
38.3168506622315
 30
0.0
  0
VERTEX
  5
1560
330
1558
100
AcDbEntity
  8
Visible Edges
  6
Continuous
370
    18
100
AcDbVertex
100
AcDb2dVertex
 10
42.71047592163066
 20
38.49757671356213
 30
0.0
  0
VERTEX
  5
1561
330
1558
100
AcDbEntity
  8
Visible Edges
  6
Continuous
370
    18
100
AcDbVertex
100
AcDb2dVertex
 10
42.5532484054564
 20
38.67125988006603
 30
0.0
  0
VERTEX
  5
1562
330
1558
100
AcDbEntity
  8
Visible Edges
  6
Continuous
370
    18
100
AcDbVertex
100
AcDb2dVertex
 10
42.40210056304909
 20
38.8369178771973
 30
0.0
  0
VERTEX
  5
1563
330
1558
100
AcDbEntity
  8
Visible Edges
  6
Continuous
370
    18
100
AcDbVertex
100
AcDb2dVertex
 10
42.25809097290019
 20
38.99358272552502
 30
0.0
  0
VERTEX
  5
1564
330
1558
100
AcDbEntity
  8
Visible Edges
  6
Continuous
370
    18
100
AcDbVertex
100
AcDb2dVertex
 10
42.12229251861541
 20
39.14027214050299
 30
0.0
  0
VERTEX
  5
1565
330
1558
100
AcDbEntity
  8
Visible Edges
  6
Continuous
370
    18
100
AcDbVertex
100
AcDb2dVertex
 10
41.99576854705776
 20
39.27601575851452
 30
0.0
  0
VERTEX
  5
1566
330
1558
100
AcDbEntity
  8
Visible Edges
  6
Continuous
370
    18
100
AcDbVertex
100
AcDb2dVertex
 10
41.87697410583448
 20
39.40264225006109
 30
0.0
  0
VERTEX
  5
1567
330
1558
100
AcDbEntity
  8
Visible Edges
  6
Continuous
370
    18
100
AcDbVertex
100
AcDb2dVertex
 10
41.7642927169795
 20
39.52203512191778
 30
0.0
  0
VERTEX
  5
1568
330
1558
100
AcDbEntity
  8
Visible Edges
  6
Continuous
370
    18
100
AcDbVertex
100
AcDb2dVertex
 10
41.65888309478711
 20
39.63312387466436
 30
0.0
  0
VERTEX
  5
1569
330
1558
100
AcDbEntity
  8
Visible Edges
  6
Continuous
370
    18
100
AcDbVertex
100
AcDb2dVertex
 10
41.56189441680851
 20
39.7348308563233
 30
0.0
  0
VERTEX
  5
156A
330
1558
100
AcDbEntity
  8
Visible Edges
  6
Continuous
370
    18
100
AcDbVertex
100
AcDb2dVertex
 10
41.47447586059499
 20
39.8260855674744
 30
0.0
  0
VERTEX
  5
156B
330
1558
100
AcDbEntity
  8
Visible Edges
  6
Continuous
370
    18
100
AcDbVertex
100
AcDb2dVertex
 10
41.39777660369801
 20
39.90581274032598
 30
0.0
  0
VERTEX
  5
156C
330
1558
100
AcDbEntity
  8
Visible Edges
  6
Continuous
370
    18
100
AcDbVertex
100
AcDb2dVertex
 10
41.33278369903476
 20
39.9731516838074
 30
0.0
  0
VERTEX
  5
156D
330
1558
100
AcDbEntity
  8
Visible Edges
  6
Continuous
370
    18
100
AcDbVertex
100
AcDb2dVertex
 10
41.27967834472568
 20
40.02802848815929
 30
0.0
  0
VERTEX
  5
156E
330
1558
100
AcDbEntity
  8
Visible Edges
  6
Continuous
370
    18
100
AcDbVertex
100
AcDb2dVertex
 10
41.23843193054099
 20
40.07053375244152
 30
0.0
  0
VERTEX
  5
156F
330
1558
100
AcDbEntity
  8
Visible Edges
  6
Continuous
370
    18
100
AcDbVertex
100
AcDb2dVertex
 10
41.20901107787981
 20
40.10077476501471
 30
0.0
  0
VERTEX
  5
1570
330
1558
100
AcDbEntity
  8
Visible Edges
  6
Continuous
370
    18
100
AcDbVertex
100
AcDb2dVertex
 10
41.19138240814092
 20
40.1188468933106
 30
0.0
  0
VERTEX
  5
1571
330
1558
100
AcDbEntity
  8
Visible Edges
  6
Continuous
370
    18
100
AcDbVertex
100
AcDb2dVertex
 10
41.18551254272339
 20
40.12485027313238
 30
0.0
  0
SEQEND
  5
1572
330
1558
100
AcDbEntity
  8
Visible Edges
  6
Continuous
370
    18
  0
LINE
  5
1573
330
14C4
100
AcDbEntity
  8
Visible Edges
  6
Continuous
370
    18
100
AcDbLine
 10
41.18551118252137
 20
40.1248510107429
 30
0.0
 11
39.41758699609002
 21
38.3569268243115
 31
0.0
  0
POLYLINE
  5
1574
330
14C4
100
AcDbEntity
  8
Visible Edges
  6
Continuous
370
    18
100
AcDb2dPolyline
 66
     1
 10
0.0
 20
0.0
 30
0.0
  0
VERTEX
  5
1575
330
1574
100
AcDbEntity
  8
Visible Edges
  6
Continuous
370
    18
100
AcDbVertex
100
AcDb2dVertex
 10
-43.87842655181889
 20
-37.16091394424442
 30
0.0
  0
VERTEX
  5
1576
330
1574
100
AcDbEntity
  8
Visible Edges
  6
Continuous
370
    18
100
AcDbVertex
100
AcDb2dVertex
 10
-43.713960647583
 20
-37.35418319702151
 30
0.0
  0
VERTEX
  5
1577
330
1574
100
AcDbEntity
  8
Visible Edges
  6
Continuous
370
    18
100
AcDbVertex
100
AcDb2dVertex
 10
-43.5463619232178
 20
-37.54933834075931
 30
0.0
  0
VERTEX
  5
1578
330
1574
100
AcDbEntity
  8
Visible Edges
  6
Continuous
370
    18
100
AcDbVertex
100
AcDb2dVertex
 10
-43.37703227996832
 20
-37.74478197097781
 30
0.0
  0
VERTEX
  5
1579
330
1574
100
AcDbEntity
  8
Visible Edges
  6
Continuous
370
    18
100
AcDbVertex
100
AcDb2dVertex
 10
-43.2073736190797
 20
-37.9389142990112
 30
0.0
  0
VERTEX
  5
157A
330
1574
100
AcDbEntity
  8
Visible Edges
  6
Continuous
370
    18
100
AcDbVertex
100
AcDb2dVertex
 10
-43.03879737854019
 20
-38.13013792037961
 30
0.0
  0
VERTEX
  5
157B
330
1574
100
AcDbEntity
  8
Visible Edges
  6
Continuous
370
    18
100
AcDbVertex
100
AcDb2dVertex
 10
-42.87270545959489
 20
-38.31685066223139
 30
0.0
  0
VERTEX
  5
157C
330
1574
100
AcDbEntity
  8
Visible Edges
  6
Continuous
370
    18
100
AcDbVertex
100
AcDb2dVertex
 10
-42.710475921631
 20
-38.49757671356201
 30
0.0
  0
VERTEX
  5
157D
330
1574
100
AcDbEntity
  8
Visible Edges
  6
Continuous
370
    18
100
AcDbVertex
100
AcDb2dVertex
 10
-42.55324840545671
 20
-38.67125988006589
 30
0.0
  0
VERTEX
  5
157E
330
1574
100
AcDbEntity
  8
Visible Edges
  6
Continuous
370
    18
100
AcDbVertex
100
AcDb2dVertex
 10
-42.4021005630496
 20
-38.8369178771973
 30
0.0
  0
VERTEX
  5
157F
330
1574
100
AcDbEntity
  8
Visible Edges
  6
Continuous
370
    18
100
AcDbVertex
100
AcDb2dVertex
 10
-42.2580909729007
 20
-38.9935827255249
 30
0.0
  0
VERTEX
  5
1580
330
1574
100
AcDbEntity
  8
Visible Edges
  6
Continuous
370
    18
100
AcDbVertex
100
AcDb2dVertex
 10
-42.12229251861612
 20
-39.1402721405029
 30
0.0
  0
VERTEX
  5
1581
330
1574
100
AcDbEntity
  8
Visible Edges
  6
Continuous
370
    18
100
AcDbVertex
100
AcDb2dVertex
 10
-41.99576854705847
 20
-39.27601575851439
 30
0.0
  0
VERTEX
  5
1582
330
1574
100
AcDbEntity
  8
Visible Edges
  6
Continuous
370
    18
100
AcDbVertex
100
AcDb2dVertex
 10
-41.87697410583538
 20
-39.40264225006101
 30
0.0
  0
VERTEX
  5
1583
330
1574
100
AcDbEntity
  8
Visible Edges
  6
Continuous
370
    18
100
AcDbVertex
100
AcDb2dVertex
 10
-41.76429271698049
 20
-39.52203512191771
 30
0.0
  0
VERTEX
  5
1584
330
1574
100
AcDbEntity
  8
Visible Edges
  6
Continuous
370
    18
100
AcDbVertex
100
AcDb2dVertex
 10
-41.65888309478819
 20
-39.63312387466428
 30
0.0
  0
VERTEX
  5
1585
330
1574
100
AcDbEntity
  8
Visible Edges
  6
Continuous
370
    18
100
AcDbVertex
100
AcDb2dVertex
 10
-41.56189441680971
 20
-39.7348308563233
 30
0.0
  0
VERTEX
  5
1586
330
1574
100
AcDbEntity
  8
Visible Edges
  6
Continuous
370
    18
100
AcDbVertex
100
AcDb2dVertex
 10
-41.47447586059638
 20
-39.8260855674744
 30
0.0
  0
VERTEX
  5
1587
330
1574
100
AcDbEntity
  8
Visible Edges
  6
Continuous
370
    18
100
AcDbVertex
100
AcDb2dVertex
 10
-41.39777660369951
 20
-39.9058127403259
 30
0.0
  0
VERTEX
  5
1588
330
1574
100
AcDbEntity
  8
Visible Edges
  6
Continuous
370
    18
100
AcDbVertex
100
AcDb2dVertex
 10
-41.33278369903649
 20
-39.9731516838074
 30
0.0
  0
VERTEX
  5
1589
330
1574
100
AcDbEntity
  8
Visible Edges
  6
Continuous
370
    18
100
AcDbVertex
100
AcDb2dVertex
 10
-41.27967834472753
 20
-40.0280284881592
 30
0.0
  0
VERTEX
  5
158A
330
1574
100
AcDbEntity
  8
Visible Edges
  6
Continuous
370
    18
100
AcDbVertex
100
AcDb2dVertex
 10
-41.23843193054298
 20
-40.07053375244137
 30
0.0
  0
VERTEX
  5
158B
330
1574
100
AcDbEntity
  8
Visible Edges
  6
Continuous
370
    18
100
AcDbVertex
100
AcDb2dVertex
 10
-41.20901107788188
 20
-40.10077476501471
 30
0.0
  0
VERTEX
  5
158C
330
1574
100
AcDbEntity
  8
Visible Edges
  6
Continuous
370
    18
100
AcDbVertex
100
AcDb2dVertex
 10
-41.19138240814331
 20
-40.1188468933106
 30
0.0
  0
VERTEX
  5
158D
330
1574
100
AcDbEntity
  8
Visible Edges
  6
Continuous
370
    18
100
AcDbVertex
100
AcDb2dVertex
 10
-41.1855125427258
 20
-40.12485027313229
 30
0.0
  0
SEQEND
  5
158E
330
1574
100
AcDbEntity
  8
Visible Edges
  6
Continuous
370
    18
  0
LINE
  5
158F
330
14C4
100
AcDbEntity
  8
Visible Edges
  6
Continuous
370
    18
100
AcDbLine
 10
-41.1855111825239
 20
-40.12485101074282
 30
0.0
 11
-39.41758699609252
 21
-38.3569268243114
 31
0.0
  0
POLYLINE
  5
1590
330
14C4
100
AcDbEntity
  8
Visible Edges
  6
Continuous
370
    18
100
AcDb2dPolyline
 66
     1
 10
0.0
 20
0.0
 30
0.0
  0
VERTEX
  5
1591
330
1590
100
AcDbEntity
  8
Visible Edges
  6
Continuous
370
    18
100
AcDbVertex
100
AcDb2dVertex
 10
-39.41758632660043
 20
-38.3569264411926
 30
0.0
  0
VERTEX
  5
1592
330
1590
100
AcDbEntity
  8
Visible Edges
  6
Continuous
370
    18
100
AcDbVertex
100
AcDb2dVertex
 10
-39.423453807832
 20
-38.35092067718512
 30
0.0
  0
VERTEX
  5
1593
330
1590
100
AcDbEntity
  8
Visible Edges
  6
Continuous
370
    18
100
AcDbVertex
100
AcDb2dVertex
 10
-39.44107532501332
 20
-38.33283662796024
 30
0.0
  0
VERTEX
  5
1594
330
1590
100
AcDbEntity
  8
Visible Edges
  6
Continuous
370
    18
100
AcDbVertex
100
AcDb2dVertex
 10
-39.47048187255962
 20
-38.30257177352911
 30
0.0
  0
VERTEX
  5
1595
330
1590
100
AcDbEntity
  8
Visible Edges
  6
Continuous
370
    18
100
AcDbVertex
100
AcDb2dVertex
 10
-39.51170682907198
 20
-38.26002836227423
 30
0.0
  0
VERTEX
  5
1596
330
1590
100
AcDbEntity
  8
Visible Edges
  6
Continuous
370
    18
100
AcDbVertex
100
AcDb2dVertex
 10
-39.56478118896569
 20
-38.20510387420652
 30
0.0
  0
VERTEX
  5
1597
330
1590
100
AcDbEntity
  8
Visible Edges
  6
Continuous
370
    18
100
AcDbVertex
100
AcDb2dVertex
 10
-39.62973356247033
 20
-38.13770055770881
 30
0.0
  0
VERTEX
  5
1598
330
1590
100
AcDbEntity
  8
Visible Edges
  6
Continuous
370
    18
100
AcDbVertex
100
AcDb2dVertex
 10
-39.70637083053663
 20
-38.0578947067261
 30
0.0
  0
VERTEX
  5
1599
330
1590
100
AcDbEntity
  8
Visible Edges
  6
Continuous
370
    18
100
AcDbVertex
100
AcDb2dVertex
 10
-39.79371547699043
 20
-37.9665398597717
 30
0.0
  0
VERTEX
  5
159A
330
1590
100
AcDbEntity
  8
Visible Edges
  6
Continuous
370
    18
100
AcDbVertex
100
AcDb2dVertex
 10
-39.89061117172301
 20
-37.86471128463751
 30
0.0
  0
VERTEX
  5
159B
330
1590
100
AcDbEntity
  8
Visible Edges
  6
Continuous
370
    18
100
AcDbVertex
100
AcDb2dVertex
 10
-39.9959015846257
 20
-37.75347948074338
 30
0.0
  0
VERTEX
  5
159C
330
1590
100
AcDbEntity
  8
Visible Edges
  6
Continuous
370
    18
100
AcDbVertex
100
AcDb2dVertex
 10
-40.10843753814739
 20
-37.63392210006711
 30
0.0
  0
VERTEX
  5
159D
330
1590
100
AcDbEntity
  8
Visible Edges
  6
Continuous
370
    18
100
AcDbVertex
100
AcDb2dVertex
 10
-40.22706985473672
 20
-37.50710487365721
 30
0.0
  0
VERTEX
  5
159E
330
1590
100
AcDbEntity
  8
Visible Edges
  6
Continuous
370
    18
100
AcDbVertex
100
AcDb2dVertex
 10
-40.35339355468781
 20
-37.37113714218138
 30
0.0
  0
VERTEX
  5
159F
330
1590
100
AcDbEntity
  8
Visible Edges
  6
Continuous
370
    18
100
AcDbVertex
100
AcDb2dVertex
 10
-40.4889583587649
 20
-37.22418546676641
 30
0.0
  0
VERTEX
  5
15A0
330
1590
100
AcDbEntity
  8
Visible Edges
  6
Continuous
370
    18
100
AcDbVertex
100
AcDb2dVertex
 10
-40.63268661499049
 20
-37.06722259521479
 30
0.0
  0
VERTEX
  5
15A1
330
1590
100
AcDbEntity
  8
Visible Edges
  6
Continuous
370
    18
100
AcDbVertex
100
AcDb2dVertex
 10
-40.78351020813011
 20
-36.9012260437012
 30
0.0
  0
VERTEX
  5
15A2
330
1590
100
AcDbEntity
  8
Visible Edges
  6
Continuous
370
    18
100
AcDbVertex
100
AcDb2dVertex
 10
-40.94036102294937
 20
-36.72716617584228
 30
0.0
  0
VERTEX
  5
15A3
330
1590
100
AcDbEntity
  8
Visible Edges
  6
Continuous
370
    18
100
AcDbVertex
100
AcDb2dVertex
 10
-41.10217094421398
 20
-36.54602050781253
 30
0.0
  0
VERTEX
  5
15A4
330
1590
100
AcDbEntity
  8
Visible Edges
  6
Continuous
370
    18
100
AcDbVertex
100
AcDb2dVertex
 10
-41.2677812576295
 20
-36.35884523391721
 30
0.0
  0
VERTEX
  5
15A5
330
1590
100
AcDbEntity
  8
Visible Edges
  6
Continuous
370
    18
100
AcDbVertex
100
AcDb2dVertex
 10
-41.43582344055181
 20
-36.16712331771849
 30
0.0
  0
VERTEX
  5
15A6
330
1590
100
AcDbEntity
  8
Visible Edges
  6
Continuous
370
    18
100
AcDbVertex
100
AcDb2dVertex
 10
-41.60490036010749
 20
-35.97245454788211
 30
0.0
  0
VERTEX
  5
15A7
330
1590
100
AcDbEntity
  8
Visible Edges
  6
Continuous
370
    18
100
AcDbVertex
100
AcDb2dVertex
 10
-41.77361011505133
 20
-35.77644109725951
 30
0.0
  0
VERTEX
  5
15A8
330
1590
100
AcDbEntity
  8
Visible Edges
  6
Continuous
370
    18
100
AcDbVertex
100
AcDb2dVertex
 10
-41.94055080413818
 20
-35.5806922912598
 30
0.0
  0
VERTEX
  5
15A9
330
1590
100
AcDbEntity
  8
Visible Edges
  6
Continuous
370
    18
100
AcDbVertex
100
AcDb2dVertex
 10
-42.1043205261231
 20
-35.38680791854861
 30
0.0
  0
SEQEND
  5
15AA
330
1590
100
AcDbEntity
  8
Visible Edges
  6
Continuous
370
    18
  0
POLYLINE
  5
15AB
330
14C4
100
AcDbEntity
  8
Visible Edges
  6
Continuous
370
    18
100
AcDb2dPolyline
 66
     1
 10
0.0
 20
0.0
 30
0.0
  0
VERTEX
  5
15AC
330
15AB
100
AcDbEntity
  8
Visible Edges
  6
Continuous
370
    18
100
AcDbVertex
100
AcDb2dVertex
 10
40.1248502731311
 20
41.18551254272472
 30
0.0
  0
VERTEX
  5
15AD
330
15AB
100
AcDbEntity
  8
Visible Edges
  6
Continuous
370
    18
100
AcDbVertex
100
AcDb2dVertex
 10
40.11884689330941
 20
41.19138240814211
 30
0.0
  0
VERTEX
  5
15AE
330
15AB
100
AcDbEntity
  8
Visible Edges
  6
Continuous
370
    18
100
AcDbVertex
100
AcDb2dVertex
 10
40.1007747650136
 20
41.20901107788088
 30
0.0
  0
VERTEX
  5
15AF
330
15AB
100
AcDbEntity
  8
Visible Edges
  6
Continuous
370
    18
100
AcDbVertex
100
AcDb2dVertex
 10
40.07053375244041
 20
41.2384319305421
 30
0.0
  0
VERTEX
  5
15B0
330
15AB
100
AcDbEntity
  8
Visible Edges
  6
Continuous
370
    18
100
AcDbVertex
100
AcDb2dVertex
 10
40.02802848815827
 20
41.27967834472658
 30
0.0
  0
VERTEX
  5
15B1
330
15AB
100
AcDbEntity
  8
Visible Edges
  6
Continuous
370
    18
100
AcDbVertex
100
AcDb2dVertex
 10
39.97315168380649
 20
41.3327836990357
 30
0.0
  0
VERTEX
  5
15B2
330
15AB
100
AcDbEntity
  8
Visible Edges
  6
Continuous
370
    18
100
AcDbVertex
100
AcDb2dVertex
 10
39.90581274032516
 20
41.39777660369879
 30
0.0
  0
VERTEX
  5
15B3
330
15AB
100
AcDbEntity
  8
Visible Edges
  6
Continuous
370
    18
100
AcDbVertex
100
AcDb2dVertex
 10
39.82608556747371
 20
41.47447586059581
 30
0.0
  0
VERTEX
  5
15B4
330
15AB
100
AcDbEntity
  8
Visible Edges
  6
Continuous
370
    18
100
AcDbVertex
100
AcDb2dVertex
 10
39.73483085632259
 20
41.56189441680919
 30
0.0
  0
VERTEX
  5
15B5
330
15AB
100
AcDbEntity
  8
Visible Edges
  6
Continuous
370
    18
100
AcDbVertex
100
AcDb2dVertex
 10
39.63312387466377
 20
41.65888309478771
 30
0.0
  0
VERTEX
  5
15B6
330
15AB
100
AcDbEntity
  8
Visible Edges
  6
Continuous
370
    18
100
AcDbVertex
100
AcDb2dVertex
 10
39.52203512191719
 20
41.76429271698
 30
0.0
  0
VERTEX
  5
15B7
330
15AB
100
AcDbEntity
  8
Visible Edges
  6
Continuous
370
    18
100
AcDbVertex
100
AcDb2dVertex
 10
39.40264225006058
 20
41.87697410583502
 30
0.0
  0
VERTEX
  5
15B8
330
15AB
100
AcDbEntity
  8
Visible Edges
  6
Continuous
370
    18
100
AcDbVertex
100
AcDb2dVertex
 10
39.27601575851398
 20
41.99576854705822
 30
0.0
  0
VERTEX
  5
15B9
330
15AB
100
AcDbEntity
  8
Visible Edges
  6
Continuous
370
    18
100
AcDbVertex
100
AcDb2dVertex
 10
39.14027214050259
 20
42.12229251861578
 30
0.0
  0
VERTEX
  5
15BA
330
15AB
100
AcDbEntity
  8
Visible Edges
  6
Continuous
370
    18
100
AcDbVertex
100
AcDb2dVertex
 10
38.99358272552456
 20
42.2580909729005
 30
0.0
  0
VERTEX
  5
15BB
330
15AB
100
AcDbEntity
  8
Visible Edges
  6
Continuous
370
    18
100
AcDbVertex
100
AcDb2dVertex
 10
38.83691787719707
 20
42.40210056304937
 30
0.0
  0
VERTEX
  5
15BC
330
15AB
100
AcDbEntity
  8
Visible Edges
  6
Continuous
370
    18
100
AcDbVertex
100
AcDb2dVertex
 10
38.67125988006569
 20
42.5532484054566
 30
0.0
  0
VERTEX
  5
15BD
330
15AB
100
AcDbEntity
  8
Visible Edges
  6
Continuous
370
    18
100
AcDbVertex
100
AcDb2dVertex
 10
38.4975767135619
 20
42.71047592163088
 30
0.0
  0
VERTEX
  5
15BE
330
15AB
100
AcDbEntity
  8
Visible Edges
  6
Continuous
370
    18
100
AcDbVertex
100
AcDb2dVertex
 10
38.3168506622313
 20
42.87270545959478
 30
0.0
  0
VERTEX
  5
15BF
330
15AB
100
AcDbEntity
  8
Visible Edges
  6
Continuous
370
    18
100
AcDbVertex
100
AcDb2dVertex
 10
38.13013792037961
 20
43.0387973785401
 30
0.0
  0
VERTEX
  5
15C0
330
15AB
100
AcDbEntity
  8
Visible Edges
  6
Continuous
370
    18
100
AcDbVertex
100
AcDb2dVertex
 10
37.9389142990112
 20
43.20737361907961
 30
0.0
  0
VERTEX
  5
15C1
330
15AB
100
AcDbEntity
  8
Visible Edges
  6
Continuous
370
    18
100
AcDbVertex
100
AcDb2dVertex
 10
37.7447819709777
 20
43.37703227996828
 30
0.0
  0
VERTEX
  5
15C2
330
15AB
100
AcDbEntity
  8
Visible Edges
  6
Continuous
370
    18
100
AcDbVertex
100
AcDb2dVertex
 10
37.54933834075917
 20
43.5463619232178
 30
0.0
  0
VERTEX
  5
15C3
330
15AB
100
AcDbEntity
  8
Visible Edges
  6
Continuous
370
    18
100
AcDbVertex
100
AcDb2dVertex
 10
37.3541831970214
 20
43.71396064758312
 30
0.0
  0
VERTEX
  5
15C4
330
15AB
100
AcDbEntity
  8
Visible Edges
  6
Continuous
370
    18
100
AcDbVertex
100
AcDb2dVertex
 10
37.16091394424438
 20
43.87842655181887
 30
0.0
  0
SEQEND
  5
15C5
330
15AB
100
AcDbEntity
  8
Visible Edges
  6
Continuous
370
    18
  0
POLYLINE
  5
15C6
330
14C4
100
AcDbEntity
  8
Visible Edges
  6
Continuous
370
    18
100
AcDb2dPolyline
 66
     1
 10
0.0
 20
0.0
 30
0.0
  0
VERTEX
  5
15C7
330
15C6
100
AcDbEntity
  8
Visible Edges
  6
Continuous
370
    18
100
AcDbVertex
100
AcDb2dVertex
 10
35.3868079185485
 20
42.1043205261231
 30
0.0
  0
VERTEX
  5
15C8
330
15C6
100
AcDbEntity
  8
Visible Edges
  6
Continuous
370
    18
100
AcDbVertex
100
AcDb2dVertex
 10
35.58069229125968
 20
41.94055080413827
 30
0.0
  0
VERTEX
  5
15C9
330
15C6
100
AcDbEntity
  8
Visible Edges
  6
Continuous
370
    18
100
AcDbVertex
100
AcDb2dVertex
 10
35.77644109725949
 20
41.77361011505129
 30
0.0
  0
VERTEX
  5
15CA
330
15C6
100
AcDbEntity
  8
Visible Edges
  6
Continuous
370
    18
100
AcDbVertex
100
AcDb2dVertex
 10
35.972454547882
 20
41.60490036010753
 30
0.0
  0
VERTEX
  5
15CB
330
15C6
100
AcDbEntity
  8
Visible Edges
  6
Continuous
370
    18
100
AcDbVertex
100
AcDb2dVertex
 10
36.16712331771839
 20
41.43582344055178
 30
0.0
  0
VERTEX
  5
15CC
330
15C6
100
AcDbEntity
  8
Visible Edges
  6
Continuous
370
    18
100
AcDbVertex
100
AcDb2dVertex
 10
36.35884523391721
 20
41.2677812576295
 30
0.0
  0
VERTEX
  5
15CD
330
15C6
100
AcDbEntity
  8
Visible Edges
  6
Continuous
370
    18
100
AcDbVertex
100
AcDb2dVertex
 10
36.54602050781239
 20
41.10217094421389
 30
0.0
  0
VERTEX
  5
15CE
330
15C6
100
AcDbEntity
  8
Visible Edges
  6
Continuous
370
    18
100
AcDbVertex
100
AcDb2dVertex
 10
36.72716617584209
 20
40.94036102294928
 30
0.0
  0
VERTEX
  5
15CF
330
15C6
100
AcDbEntity
  8
Visible Edges
  6
Continuous
370
    18
100
AcDbVertex
100
AcDb2dVertex
 10
36.90122604370098
 20
40.78351020812988
 30
0.0
  0
VERTEX
  5
15D0
330
15C6
100
AcDbEntity
  8
Visible Edges
  6
Continuous
370
    18
100
AcDbVertex
100
AcDb2dVertex
 10
37.06722259521459
 20
40.63268661499029
 30
0.0
  0
VERTEX
  5
15D1
330
15C6
100
AcDbEntity
  8
Visible Edges
  6
Continuous
370
    18
100
AcDbVertex
100
AcDb2dVertex
 10
37.2241854667661
 20
40.48895835876471
 30
0.0
  0
VERTEX
  5
15D2
330
15C6
100
AcDbEntity
  8
Visible Edges
  6
Continuous
370
    18
100
AcDbVertex
100
AcDb2dVertex
 10
37.37113714218109
 20
40.35339355468761
 30
0.0
  0
VERTEX
  5
15D3
330
15C6
100
AcDbEntity
  8
Visible Edges
  6
Continuous
370
    18
100
AcDbVertex
100
AcDb2dVertex
 10
37.50710487365689
 20
40.22706985473639
 30
0.0
  0
VERTEX
  5
15D4
330
15C6
100
AcDbEntity
  8
Visible Edges
  6
Continuous
370
    18
100
AcDbVertex
100
AcDb2dVertex
 10
37.63392210006669
 20
40.10843753814699
 30
0.0
  0
VERTEX
  5
15D5
330
15C6
100
AcDbEntity
  8
Visible Edges
  6
Continuous
370
    18
100
AcDbVertex
100
AcDb2dVertex
 10
37.75347948074293
 20
39.99590158462527
 30
0.0
  0
VERTEX
  5
15D6
330
15C6
100
AcDbEntity
  8
Visible Edges
  6
Continuous
370
    18
100
AcDbVertex
100
AcDb2dVertex
 10
37.86471128463691
 20
39.89061117172253
 30
0.0
  0
VERTEX
  5
15D7
330
15C6
100
AcDbEntity
  8
Visible Edges
  6
Continuous
370
    18
100
AcDbVertex
100
AcDb2dVertex
 10
37.96653985977108
 20
39.79371547698978
 30
0.0
  0
VERTEX
  5
15D8
330
15C6
100
AcDbEntity
  8
Visible Edges
  6
Continuous
370
    18
100
AcDbVertex
100
AcDb2dVertex
 10
38.05789470672539
 20
39.70637083053589
 30
0.0
  0
VERTEX
  5
15D9
330
15C6
100
AcDbEntity
  8
Visible Edges
  6
Continuous
370
    18
100
AcDbVertex
100
AcDb2dVertex
 10
38.13770055770797
 20
39.62973356246951
 30
0.0
  0
VERTEX
  5
15DA
330
15C6
100
AcDbEntity
  8
Visible Edges
  6
Continuous
370
    18
100
AcDbVertex
100
AcDb2dVertex
 10
38.20510387420566
 20
39.56478118896487
 30
0.0
  0
VERTEX
  5
15DB
330
15C6
100
AcDbEntity
  8
Visible Edges
  6
Continuous
370
    18
100
AcDbVertex
100
AcDb2dVertex
 10
38.26002836227329
 20
39.5117068290711
 30
0.0
  0
VERTEX
  5
15DC
330
15C6
100
AcDbEntity
  8
Visible Edges
  6
Continuous
370
    18
100
AcDbVertex
100
AcDb2dVertex
 10
38.302571773528
 20
39.47048187255871
 30
0.0
  0
VERTEX
  5
15DD
330
15C6
100
AcDbEntity
  8
Visible Edges
  6
Continuous
370
    18
100
AcDbVertex
100
AcDb2dVertex
 10
38.3328366279591
 20
39.44107532501226
 30
0.0
  0
VERTEX
  5
15DE
330
15C6
100
AcDbEntity
  8
Visible Edges
  6
Continuous
370
    18
100
AcDbVertex
100
AcDb2dVertex
 10
38.35092067718392
 20
39.42345380783087
 30
0.0
  0
VERTEX
  5
15DF
330
15C6
100
AcDbEntity
  8
Visible Edges
  6
Continuous
370
    18
100
AcDbVertex
100
AcDb2dVertex
 10
38.35692644119141
 20
39.41758632659918
 30
0.0
  0
SEQEND
  5
15E0
330
15C6
100
AcDbEntity
  8
Visible Edges
  6
Continuous
370
    18
  0
LINE
  5
15E1
330
14C4
100
AcDbEntity
  8
Visible Edges
  6
Continuous
370
    18
100
AcDbLine
 10
38.3569268243102
 20
39.4175869960913
 30
0.0
 11
40.12485101074159
 21
41.18551118252267
 31
0.0
  0
POLYLINE
  5
15E2
330
14C4
100
AcDbEntity
  8
Visible Edges
  6
Continuous
370
    18
100
AcDb2dPolyline
 66
     1
 10
0.0
 20
0.0
 30
0.0
  0
VERTEX
  5
15E3
330
15E2
100
AcDbEntity
  8
Visible Edges
  6
Continuous
370
    18
100
AcDbVertex
100
AcDb2dVertex
 10
-36.58898830414051
 20
-37.64964818954471
 30
0.0
  0
VERTEX
  5
15E4
330
15E2
100
AcDbEntity
  8
Visible Edges
  6
Continuous
370
    18
100
AcDbVertex
100
AcDb2dVertex
 10
-36.70085906982651
 20
-37.76151895523071
 30
0.0
  0
VERTEX
  5
15E5
330
15E2
100
AcDbEntity
  8
Visible Edges
  6
Continuous
370
    18
100
AcDbVertex
100
AcDb2dVertex
 10
-36.81655883789293
 20
-37.87721872329709
 30
0.0
  0
VERTEX
  5
15E6
330
15E2
100
AcDbEntity
  8
Visible Edges
  6
Continuous
370
    18
100
AcDbVertex
100
AcDb2dVertex
 10
-36.9334793090843
 20
-37.9941391944885
 30
0.0
  0
VERTEX
  5
15E7
330
15E2
100
AcDbEntity
  8
Visible Edges
  6
Continuous
370
    18
100
AcDbVertex
100
AcDb2dVertex
 10
-37.04901933670269
 20
-38.10967922210691
 30
0.0
  0
VERTEX
  5
15E8
330
15E2
100
AcDbEntity
  8
Visible Edges
  6
Continuous
370
    18
100
AcDbVertex
100
AcDb2dVertex
 10
-37.16056823730693
 20
-38.22122812271121
 30
0.0
  0
VERTEX
  5
15E9
330
15E2
100
AcDbEntity
  8
Visible Edges
  6
Continuous
370
    18
100
AcDbVertex
100
AcDb2dVertex
 10
-37.26552486419902
 20
-38.3261847496033
 30
0.0
  0
VERTEX
  5
15EA
330
15E2
100
AcDbEntity
  8
Visible Edges
  6
Continuous
370
    18
100
AcDbVertex
100
AcDb2dVertex
 10
-37.3672842979453
 20
-38.42794418334961
 30
0.0
  0
VERTEX
  5
15EB
330
15E2
100
AcDbEntity
  8
Visible Edges
  6
Continuous
370
    18
100
AcDbVertex
100
AcDb2dVertex
 10
-37.46952295303564
 20
-38.53018283843989
 30
0.0
  0
VERTEX
  5
15EC
330
15E2
100
AcDbEntity
  8
Visible Edges
  6
Continuous
370
    18
100
AcDbVertex
100
AcDb2dVertex
 10
-37.57003307342742
 20
-38.63069295883179
 30
0.0
  0
VERTEX
  5
15ED
330
15E2
100
AcDbEntity
  8
Visible Edges
  6
Continuous
370
    18
100
AcDbVertex
100
AcDb2dVertex
 10
-37.66660213470669
 20
-38.72726202011111
 30
0.0
  0
VERTEX
  5
15EE
330
15E2
100
AcDbEntity
  8
Visible Edges
  6
Continuous
370
    18
100
AcDbVertex
100
AcDb2dVertex
 10
-37.7570223808309
 20
-38.81768226623541
 30
0.0
  0
VERTEX
  5
15EF
330
15E2
100
AcDbEntity
  8
Visible Edges
  6
Continuous
370
    18
100
AcDbVertex
100
AcDb2dVertex
 10
-37.83908367157193
 20
-38.89974355697629
 30
0.0
  0
VERTEX
  5
15F0
330
15E2
100
AcDbEntity
  8
Visible Edges
  6
Continuous
370
    18
100
AcDbVertex
100
AcDb2dVertex
 10
-37.91524410248012
 20
-38.97590398788451
 30
0.0
  0
VERTEX
  5
15F1
330
15E2
100
AcDbEntity
  8
Visible Edges
  6
Continuous
370
    18
100
AcDbVertex
100
AcDb2dVertex
 10
-37.9884576797505
 20
-39.04911994934082
 30
0.0
  0
VERTEX
  5
15F2
330
15E2
100
AcDbEntity
  8
Visible Edges
  6
Continuous
370
    18
100
AcDbVertex
100
AcDb2dVertex
 10
-38.0572533607502
 20
-39.11791324615482
 30
0.0
  0
VERTEX
  5
15F3
330
15E2
100
AcDbEntity
  8
Visible Edges
  6
Continuous
370
    18
100
AcDbVertex
100
AcDb2dVertex
 10
-38.12014818191719
 20
-39.18080806732181
 30
0.0
  0
VERTEX
  5
15F4
330
15E2
100
AcDbEntity
  8
Visible Edges
  6
Continuous
370
    18
100
AcDbVertex
100
AcDb2dVertex
 10
-38.17566871643251
 20
-39.23633098602289
 30
0.0
  0
VERTEX
  5
15F5
330
15E2
100
AcDbEntity
  8
Visible Edges
  6
Continuous
370
    18
100
AcDbVertex
100
AcDb2dVertex
 10
-38.22234153747743
 20
-39.28300142288211
 30
0.0
  0
VERTEX
  5
15F6
330
15E2
100
AcDbEntity
  8
Visible Edges
  6
Continuous
370
    18
100
AcDbVertex
100
AcDb2dVertex
 10
-38.26130390167413
 20
-39.32196378707891
 30
0.0
  0
VERTEX
  5
15F7
330
15E2
100
AcDbEntity
  8
Visible Edges
  6
Continuous
370
    18
100
AcDbVertex
100
AcDb2dVertex
 10
-38.29434633255181
 20
-39.3550062179566
 30
0.0
  0
VERTEX
  5
15F8
330
15E2
100
AcDbEntity
  8
Visible Edges
  6
Continuous
370
    18
100
AcDbVertex
100
AcDb2dVertex
 10
-38.32094669342211
 20
-39.38160657882689
 30
0.0
  0
VERTEX
  5
15F9
330
15E2
100
AcDbEntity
  8
Visible Edges
  6
Continuous
370
    18
100
AcDbVertex
100
AcDb2dVertex
 10
-38.34059000015421
 20
-39.40124988555911
 30
0.0
  0
VERTEX
  5
15FA
330
15E2
100
AcDbEntity
  8
Visible Edges
  6
Continuous
370
    18
100
AcDbVertex
100
AcDb2dVertex
 10
-38.3527565002457
 20
-39.41341638565061
 30
0.0
  0
VERTEX
  5
15FB
330
15E2
100
AcDbEntity
  8
Visible Edges
  6
Continuous
370
    18
100
AcDbVertex
100
AcDb2dVertex
 10
-38.35692644119422
 20
-39.41758632659909
 30
0.0
  0
SEQEND
  5
15FC
330
15E2
100
AcDbEntity
  8
Visible Edges
  6
Continuous
370
    18
  0
POLYLINE
  5
15FD
330
14C4
100
AcDbEntity
  8
Visible Edges
  6
Continuous
370
    18
100
AcDb2dPolyline
 66
     1
 10
0.0
 20
0.0
 30
0.0
  0
VERTEX
  5
15FE
330
15FD
100
AcDbEntity
  8
Visible Edges
  6
Continuous
370
    18
100
AcDbVertex
100
AcDb2dVertex
 10
39.41758632659759
 20
38.35692644119268
 30
0.0
  0
VERTEX
  5
15FF
330
15FD
100
AcDbEntity
  8
Visible Edges
  6
Continuous
370
    18
100
AcDbVertex
100
AcDb2dVertex
 10
39.41341638564907
 20
38.3527565002442
 30
0.0
  0
VERTEX
  5
1600
330
15FD
100
AcDbEntity
  8
Visible Edges
  6
Continuous
370
    18
100
AcDbVertex
100
AcDb2dVertex
 10
39.40124988555749
 20
38.34059000015262
 30
0.0
  0
VERTEX
  5
1601
330
15FD
100
AcDbEntity
  8
Visible Edges
  6
Continuous
370
    18
100
AcDbVertex
100
AcDb2dVertex
 10
39.3816065788252
 20
38.32094669342053
 30
0.0
  0
VERTEX
  5
1602
330
15FD
100
AcDbEntity
  8
Visible Edges
  6
Continuous
370
    18
100
AcDbVertex
100
AcDb2dVertex
 10
39.35500621795478
 20
38.29434633255011
 30
0.0
  0
VERTEX
  5
1603
330
15FD
100
AcDbEntity
  8
Visible Edges
  6
Continuous
370
    18
100
AcDbVertex
100
AcDb2dVertex
 10
39.3219637870771
 20
38.26130390167239
 30
0.0
  0
VERTEX
  5
1604
330
15FD
100
AcDbEntity
  8
Visible Edges
  6
Continuous
370
    18
100
AcDbVertex
100
AcDb2dVertex
 10
39.28300142288029
 20
38.2223415374757
 30
0.0
  0
VERTEX
  5
1605
330
15FD
100
AcDbEntity
  8
Visible Edges
  6
Continuous
370
    18
100
AcDbVertex
100
AcDb2dVertex
 10
39.23633098602108
 20
38.17566871643069
 30
0.0
  0
VERTEX
  5
1606
330
15FD
100
AcDbEntity
  8
Visible Edges
  6
Continuous
370
    18
100
AcDbVertex
100
AcDb2dVertex
 10
39.1808080673199
 20
38.12014818191528
 30
0.0
  0
VERTEX
  5
1607
330
15FD
100
AcDbEntity
  8
Visible Edges
  6
Continuous
370
    18
100
AcDbVertex
100
AcDb2dVertex
 10
39.11791324615291
 20
38.05725336074841
 30
0.0
  0
VERTEX
  5
1608
330
15FD
100
AcDbEntity
  8
Visible Edges
  6
Continuous
370
    18
100
AcDbVertex
100
AcDb2dVertex
 10
39.04911994933878
 20
37.98845767974859
 30
0.0
  0
VERTEX
  5
1609
330
15FD
100
AcDbEntity
  8
Visible Edges
  6
Continuous
370
    18
100
AcDbVertex
100
AcDb2dVertex
 10
38.97590398788251
 20
37.91524410247808
 30
0.0
  0
VERTEX
  5
160A
330
15FD
100
AcDbEntity
  8
Visible Edges
  6
Continuous
370
    18
100
AcDbVertex
100
AcDb2dVertex
 10
38.89974355697427
 20
37.83908367156988
 30
0.0
  0
VERTEX
  5
160B
330
15FD
100
AcDbEntity
  8
Visible Edges
  6
Continuous
370
    18
100
AcDbVertex
100
AcDb2dVertex
 10
38.81768226623331
 20
37.75702238082889
 30
0.0
  0
VERTEX
  5
160C
330
15FD
100
AcDbEntity
  8
Visible Edges
  6
Continuous
370
    18
100
AcDbVertex
100
AcDb2dVertex
 10
38.72726202010898
 20
37.66660213470462
 30
0.0
  0
VERTEX
  5
160D
330
15FD
100
AcDbEntity
  8
Visible Edges
  6
Continuous
370
    18
100
AcDbVertex
100
AcDb2dVertex
 10
38.63069295882957
 20
37.57003307342541
 30
0.0
  0
VERTEX
  5
160E
330
15FD
100
AcDbEntity
  8
Visible Edges
  6
Continuous
370
    18
100
AcDbVertex
100
AcDb2dVertex
 10
38.53018283843778
 20
37.4695229530335
 30
0.0
  0
VERTEX
  5
160F
330
15FD
100
AcDbEntity
  8
Visible Edges
  6
Continuous
370
    18
100
AcDbVertex
100
AcDb2dVertex
 10
38.42794418334739
 20
37.36728429794317
 30
0.0
  0
VERTEX
  5
1610
330
15FD
100
AcDbEntity
  8
Visible Edges
  6
Continuous
370
    18
100
AcDbVertex
100
AcDb2dVertex
 10
38.32618474960111
 20
37.26552486419681
 30
0.0
  0
VERTEX
  5
1611
330
15FD
100
AcDbEntity
  8
Visible Edges
  6
Continuous
370
    18
100
AcDbVertex
100
AcDb2dVertex
 10
38.22122812270902
 20
37.1605682373048
 30
0.0
  0
VERTEX
  5
1612
330
15FD
100
AcDbEntity
  8
Visible Edges
  6
Continuous
370
    18
100
AcDbVertex
100
AcDb2dVertex
 10
38.10967922210469
 20
37.0490193367005
 30
0.0
  0
VERTEX
  5
1613
330
15FD
100
AcDbEntity
  8
Visible Edges
  6
Continuous
370
    18
100
AcDbVertex
100
AcDb2dVertex
 10
37.99413919448628
 20
36.93347930908209
 30
0.0
  0
VERTEX
  5
1614
330
15FD
100
AcDbEntity
  8
Visible Edges
  6
Continuous
370
    18
100
AcDbVertex
100
AcDb2dVertex
 10
37.87721872329479
 20
36.81655883789071
 30
0.0
  0
VERTEX
  5
1615
330
15FD
100
AcDbEntity
  8
Visible Edges
  6
Continuous
370
    18
100
AcDbVertex
100
AcDb2dVertex
 10
37.7615189552285
 20
36.70085906982428
 30
0.0
  0
VERTEX
  5
1616
330
15FD
100
AcDbEntity
  8
Visible Edges
  6
Continuous
370
    18
100
AcDbVertex
100
AcDb2dVertex
 10
37.6496481895424
 20
36.58898830413821
 30
0.0
  0
SEQEND
  5
1617
330
15FD
100
AcDbEntity
  8
Visible Edges
  6
Continuous
370
    18
  0
POLYLINE
  5
1618
330
14C4
100
AcDbEntity
  8
Visible Edges
  6
Continuous
370
    18
100
AcDb2dPolyline
 66
     1
 10
0.0
 20
0.0
 30
0.0
  0
VERTEX
  5
1619
330
1618
100
AcDbEntity
  8
Visible Edges
  6
Continuous
370
    18
100
AcDbVertex
100
AcDb2dVertex
 10
-39.41758632660068
 20
-38.3569264411926
 30
0.0
  0
VERTEX
  5
161A
330
1618
100
AcDbEntity
  8
Visible Edges
  6
Continuous
370
    18
100
AcDbVertex
100
AcDb2dVertex
 10
-39.41341638565223
 20
-38.35275650024411
 30
0.0
  0
VERTEX
  5
161B
330
1618
100
AcDbEntity
  8
Visible Edges
  6
Continuous
370
    18
100
AcDbVertex
100
AcDb2dVertex
 10
-39.4012498855607
 20
-38.34059000015262
 30
0.0
  0
VERTEX
  5
161C
330
1618
100
AcDbEntity
  8
Visible Edges
  6
Continuous
370
    18
100
AcDbVertex
100
AcDb2dVertex
 10
-39.38160657882861
 20
-38.32094669342041
 30
0.0
  0
VERTEX
  5
161D
330
1618
100
AcDbEntity
  8
Visible Edges
  6
Continuous
370
    18
100
AcDbVertex
100
AcDb2dVertex
 10
-39.35500621795831
 20
-38.29434633255009
 30
0.0
  0
VERTEX
  5
161E
330
1618
100
AcDbEntity
  8
Visible Edges
  6
Continuous
370
    18
100
AcDbVertex
100
AcDb2dVertex
 10
-39.32196378708059
 20
-38.26130390167239
 30
0.0
  0
VERTEX
  5
161F
330
1618
100
AcDbEntity
  8
Visible Edges
  6
Continuous
370
    18
100
AcDbVertex
100
AcDb2dVertex
 10
-39.2830014228839
 20
-38.22234153747562
 30
0.0
  0
VERTEX
  5
1620
330
1618
100
AcDbEntity
  8
Visible Edges
  6
Continuous
370
    18
100
AcDbVertex
100
AcDb2dVertex
 10
-39.2363309860248
 20
-38.17566871643072
 30
0.0
  0
VERTEX
  5
1621
330
1618
100
AcDbEntity
  8
Visible Edges
  6
Continuous
370
    18
100
AcDbVertex
100
AcDb2dVertex
 10
-39.18080806732368
 20
-38.12014818191531
 30
0.0
  0
VERTEX
  5
1622
330
1618
100
AcDbEntity
  8
Visible Edges
  6
Continuous
370
    18
100
AcDbVertex
100
AcDb2dVertex
 10
-39.11791324615669
 20
-38.05725336074832
 30
0.0
  0
VERTEX
  5
1623
330
1618
100
AcDbEntity
  8
Visible Edges
  6
Continuous
370
    18
100
AcDbVertex
100
AcDb2dVertex
 10
-39.04911994934284
 20
-37.98845767974851
 30
0.0
  0
VERTEX
  5
1624
330
1618
100
AcDbEntity
  8
Visible Edges
  6
Continuous
370
    18
100
AcDbVertex
100
AcDb2dVertex
 10
-38.97590398788663
 20
-37.915244102478
 30
0.0
  0
VERTEX
  5
1625
330
1618
100
AcDbEntity
  8
Visible Edges
  6
Continuous
370
    18
100
AcDbVertex
100
AcDb2dVertex
 10
-38.89974355697841
 20
-37.8390836715698
 30
0.0
  0
VERTEX
  5
1626
330
1618
100
AcDbEntity
  8
Visible Edges
  6
Continuous
370
    18
100
AcDbVertex
100
AcDb2dVertex
 10
-38.81768226623743
 20
-37.75702238082891
 30
0.0
  0
VERTEX
  5
1627
330
1618
100
AcDbEntity
  8
Visible Edges
  6
Continuous
370
    18
100
AcDbVertex
100
AcDb2dVertex
 10
-38.72726202011319
 20
-37.66660213470462
 30
0.0
  0
VERTEX
  5
1628
330
1618
100
AcDbEntity
  8
Visible Edges
  6
Continuous
370
    18
100
AcDbVertex
100
AcDb2dVertex
 10
-38.6306929588339
 20
-37.57003307342532
 30
0.0
  0
VERTEX
  5
1629
330
1618
100
AcDbEntity
  8
Visible Edges
  6
Continuous
370
    18
100
AcDbVertex
100
AcDb2dVertex
 10
-38.53018283844212
 20
-37.46952295303341
 30
0.0
  0
VERTEX
  5
162A
330
1618
100
AcDbEntity
  8
Visible Edges
  6
Continuous
370
    18
100
AcDbVertex
100
AcDb2dVertex
 10
-38.4279441833518
 20
-37.3672842979431
 30
0.0
  0
VERTEX
  5
162B
330
1618
100
AcDbEntity
  8
Visible Edges
  6
Continuous
370
    18
100
AcDbVertex
100
AcDb2dVertex
 10
-38.32618474960552
 20
-37.26552486419681
 30
0.0
  0
VERTEX
  5
162C
330
1618
100
AcDbEntity
  8
Visible Edges
  6
Continuous
370
    18
100
AcDbVertex
100
AcDb2dVertex
 10
-38.2212281227134
 20
-37.16056823730472
 30
0.0
  0
VERTEX
  5
162D
330
1618
100
AcDbEntity
  8
Visible Edges
  6
Continuous
370
    18
100
AcDbVertex
100
AcDb2dVertex
 10
-38.10967922210919
 20
-37.0490193367004
 30
0.0
  0
VERTEX
  5
162E
330
1618
100
AcDbEntity
  8
Visible Edges
  6
Continuous
370
    18
100
AcDbVertex
100
AcDb2dVertex
 10
-37.99413919449083
 20
-36.933479309082
 30
0.0
  0
VERTEX
  5
162F
330
1618
100
AcDbEntity
  8
Visible Edges
  6
Continuous
370
    18
100
AcDbVertex
100
AcDb2dVertex
 10
-37.87721872329941
 20
-36.8165588378906
 30
0.0
  0
VERTEX
  5
1630
330
1618
100
AcDbEntity
  8
Visible Edges
  6
Continuous
370
    18
100
AcDbVertex
100
AcDb2dVertex
 10
-37.76151895523302
 20
-36.70085906982419
 30
0.0
  0
VERTEX
  5
1631
330
1618
100
AcDbEntity
  8
Visible Edges
  6
Continuous
370
    18
100
AcDbVertex
100
AcDb2dVertex
 10
-37.64964818954698
 20
-36.58898830413821
 30
0.0
  0
SEQEND
  5
1632
330
1618
100
AcDbEntity
  8
Visible Edges
  6
Continuous
370
    18
  0
POLYLINE
  5
1633
330
14C4
100
AcDbEntity
  8
Visible Edges
  6
Continuous
370
    18
100
AcDb2dPolyline
 66
     1
 10
0.0
 20
0.0
 30
0.0
  0
VERTEX
  5
1634
330
1633
100
AcDbEntity
  8
Visible Edges
  6
Continuous
370
    18
100
AcDbVertex
100
AcDb2dVertex
 10
36.58898830413591
 20
37.64964818954479
 30
0.0
  0
VERTEX
  5
1635
330
1633
100
AcDbEntity
  8
Visible Edges
  6
Continuous
370
    18
100
AcDbVertex
100
AcDb2dVertex
 10
36.700859069822
 20
37.76151895523077
 30
0.0
  0
VERTEX
  5
1636
330
1633
100
AcDbEntity
  8
Visible Edges
  6
Continuous
370
    18
100
AcDbVertex
100
AcDb2dVertex
 10
36.81655883788841
 20
37.87721872329718
 30
0.0
  0
VERTEX
  5
1637
330
1633
100
AcDbEntity
  8
Visible Edges
  6
Continuous
370
    18
100
AcDbVertex
100
AcDb2dVertex
 10
36.93347930907979
 20
37.99413919448858
 30
0.0
  0
VERTEX
  5
1638
330
1633
100
AcDbEntity
  8
Visible Edges
  6
Continuous
370
    18
100
AcDbVertex
100
AcDb2dVertex
 10
37.0490193366982
 20
38.10967922210699
 30
0.0
  0
VERTEX
  5
1639
330
1633
100
AcDbEntity
  8
Visible Edges
  6
Continuous
370
    18
100
AcDbVertex
100
AcDb2dVertex
 10
37.16056823730247
 20
38.22122812271121
 30
0.0
  0
VERTEX
  5
163A
330
1633
100
AcDbEntity
  8
Visible Edges
  6
Continuous
370
    18
100
AcDbVertex
100
AcDb2dVertex
 10
37.26552486419462
 20
38.3261847496033
 30
0.0
  0
VERTEX
  5
163B
330
1633
100
AcDbEntity
  8
Visible Edges
  6
Continuous
370
    18
100
AcDbVertex
100
AcDb2dVertex
 10
37.3672842979409
 20
38.42794418334973
 30
0.0
  0
VERTEX
  5
163C
330
1633
100
AcDbEntity
  8
Visible Edges
  6
Continuous
370
    18
100
AcDbVertex
100
AcDb2dVertex
 10
37.46952295303129
 20
38.53018283844
 30
0.0
  0
VERTEX
  5
163D
330
1633
100
AcDbEntity
  8
Visible Edges
  6
Continuous
370
    18
100
AcDbVertex
100
AcDb2dVertex
 10
37.57003307342308
 20
38.6306929588319
 30
0.0
  0
VERTEX
  5
163E
330
1633
100
AcDbEntity
  8
Visible Edges
  6
Continuous
370
    18
100
AcDbVertex
100
AcDb2dVertex
 10
37.66660213470249
 20
38.72726202011111
 30
0.0
  0
VERTEX
  5
163F
330
1633
100
AcDbEntity
  8
Visible Edges
  6
Continuous
370
    18
100
AcDbVertex
100
AcDb2dVertex
 10
37.75702238082676
 20
38.81768226623538
 30
0.0
  0
VERTEX
  5
1640
330
1633
100
AcDbEntity
  8
Visible Edges
  6
Continuous
370
    18
100
AcDbVertex
100
AcDb2dVertex
 10
37.83908367156778
 20
38.89974355697638
 30
0.0
  0
VERTEX
  5
1641
330
1633
100
AcDbEntity
  8
Visible Edges
  6
Continuous
370
    18
100
AcDbVertex
100
AcDb2dVertex
 10
37.91524410247601
 20
38.97590398788458
 30
0.0
  0
VERTEX
  5
1642
330
1633
100
AcDbEntity
  8
Visible Edges
  6
Continuous
370
    18
100
AcDbVertex
100
AcDb2dVertex
 10
37.9884576797466
 20
39.04911994934088
 30
0.0
  0
VERTEX
  5
1643
330
1633
100
AcDbEntity
  8
Visible Edges
  6
Continuous
370
    18
100
AcDbVertex
100
AcDb2dVertex
 10
38.05725336074639
 20
39.1179132461549
 30
0.0
  0
VERTEX
  5
1644
330
1633
100
AcDbEntity
  8
Visible Edges
  6
Continuous
370
    18
100
AcDbVertex
100
AcDb2dVertex
 10
38.12014818191341
 20
39.18080806732189
 30
0.0
  0
VERTEX
  5
1645
330
1633
100
AcDbEntity
  8
Visible Edges
  6
Continuous
370
    18
100
AcDbVertex
100
AcDb2dVertex
 10
38.17566871642876
 20
39.23633098602301
 30
0.0
  0
VERTEX
  5
1646
330
1633
100
AcDbEntity
  8
Visible Edges
  6
Continuous
370
    18
100
AcDbVertex
100
AcDb2dVertex
 10
38.2223415374738
 20
39.28300142288211
 30
0.0
  0
VERTEX
  5
1647
330
1633
100
AcDbEntity
  8
Visible Edges
  6
Continuous
370
    18
100
AcDbVertex
100
AcDb2dVertex
 10
38.26130390167057
 20
39.32196378707889
 30
0.0
  0
VERTEX
  5
1648
330
1633
100
AcDbEntity
  8
Visible Edges
  6
Continuous
370
    18
100
AcDbVertex
100
AcDb2dVertex
 10
38.29434633254826
 20
39.3550062179566
 30
0.0
  0
VERTEX
  5
1649
330
1633
100
AcDbEntity
  8
Visible Edges
  6
Continuous
370
    18
100
AcDbVertex
100
AcDb2dVertex
 10
38.3209466934187
 20
39.38160657882702
 30
0.0
  0
VERTEX
  5
164A
330
1633
100
AcDbEntity
  8
Visible Edges
  6
Continuous
370
    18
100
AcDbVertex
100
AcDb2dVertex
 10
38.340590000151
 20
39.4012498855592
 30
0.0
  0
VERTEX
  5
164B
330
1633
100
AcDbEntity
  8
Visible Edges
  6
Continuous
370
    18
100
AcDbVertex
100
AcDb2dVertex
 10
38.35275650024258
 20
39.41341638565069
 30
0.0
  0
VERTEX
  5
164C
330
1633
100
AcDbEntity
  8
Visible Edges
  6
Continuous
370
    18
100
AcDbVertex
100
AcDb2dVertex
 10
38.35692644119109
 20
39.41758632659918
 30
0.0
  0
SEQEND
  5
164D
330
1633
100
AcDbEntity
  8
Visible Edges
  6
Continuous
370
    18
  0
LINE
  5
164E
330
14C4
100
AcDbEntity
  8
Visible Edges
  6
Continuous
370
    18
100
AcDbLine
 10
-28.93933982822321
 20
-30.00000000000002
 30
0.0
 11
-30.00000000000301
 21
-30.00000000000002
 31
0.0
  0
LINE
  5
164F
330
14C4
100
AcDbEntity
  8
Visible Edges
  6
Continuous
370
    18
100
AcDbLine
 10
-30.00000000000301
 20
-30.00000000000002
 30
0.0
 11
-30.00000000000301
 21
-28.93933982822021
 31
0.0
  0
ARC
  5
1650
330
14C4
100
AcDbEntity
  8
Visible Edges
  6
Continuous
370
    18
100
AcDbCircle
 10
-0.0000000000269154
 20
-0.0000000000239027
 30
0.0
 40
49.99999999996622
100
AcDbArc
 50
224.1405310751643
 51
225.8594689248369
  0
LINE
  5
1651
330
14C4
100
AcDbEntity
  8
Visible Edges
  6
Continuous
370
    18
100
AcDbLine
 10
29.99999999999699
 20
30.00000000000003
 30
0.0
 11
29.99999999999699
 21
28.9393398282202
 31
0.0
  0
ARC
  5
1652
330
14C4
100
AcDbEntity
  8
Visible Edges
  6
Continuous
370
    18
100
AcDbCircle
 10
-0.0000000000095781
 20
-0.0000000000063949
 30
0.0
 40
50.00000000000927
100
AcDbArc
 50
44.1405310751643
 51
45.8594689248357
  0
LINE
  5
1653
330
14C4
100
AcDbEntity
  8
Visible Edges
  6
Continuous
370
    18
100
AcDbLine
 10
28.93933982821716
 20
30.00000000000003
 30
0.0
 11
29.99999999999699
 21
30.00000000000003
 31
0.0
  0
ARC
  5
1654
330
14C4
100
AcDbEntity
  8
Visible Edges
  6
Continuous
370
    18
100
AcDbCircle
 10
-0.0000000000000853
 20
0.0
 30
0.0
 40
55.00000000000003
100
AcDbArc
 50
229.9544438661178
 51
40.04555613388221
  0
ARC
  5
1655
330
14C4
100
AcDbEntity
  8
Visible Edges
  6
Continuous
370
    18
100
AcDbCircle
 10
-0.0000000000000853
 20
0.0
 30
0.0
 40
57.50000000000003
100
AcDbArc
 50
49.73852951209736
 51
220.2614704879026
  0
ARC
  5
1656
330
14C4
100
AcDbEntity
  8
Visible Edges
  6
Continuous
370
    18
100
AcDbCircle
 10
-0.0000000000000853
 20
0.0
 30
0.0
 40
55.00000000000003
100
AcDbArc
 50
49.95444386611883
 51
220.0455561338822
  0
ARC
  5
1657
330
14C4
100
AcDbEntity
  8
Visible Edges
  6
Continuous
370
    18
100
AcDbCircle
 10
0.0
 20
0.0
 30
0.0
 40
57.50000000000003
100
AcDbArc
 50
229.7385295120974
 51
40.26147048790264
  0
INSERT
  5
1658
330
14C4
100
AcDbEntity
  8
0
100
AcDbBlockReference
 66
     1
  2
info
 10
-30.00000133256236
 20
-30.00000102780315
 30
0.0
 50
270.0
  0
ATTRIB
  5
1659
330
1658
100
AcDbEntity
  8
0
100
AcDbText
 10
-27.10890609708286
 20
-39.46709397812265
 30
0.00000001
 40
5.0
  1
60
 50
270.0
100
AcDbAttribute
  2
BRD
 70
     1
1001
AcDbAttr
1070
     0
1070
     1
  0
ATTRIB
  5
165A
330
1658
100
AcDbEntity
  8
0
100
AcDbText
 10
-35.44223943041612
 20
-39.46709397812265
 30
0.00000001
 40
5.0
  1
60
 50
270.0
100
AcDbAttribute
  2
HJD
 70
     1
1001
AcDbAttr
1070
     0
1070
     1
  0
SEQEND
  5
165B
330
1658
100
AcDbEntity
  8
0
  0
LINE
  5
165C
330
14C4
100
AcDbEntity
  8
AM_5
100
AcDbLine
 10
28.99999999999699
 20
30.00000000000003
 30
0.0
 11
-88.0302358349108
 21
30.00000000000003
 31
0.0
  0
LINE
  5
165D
330
14C4
100
AcDbEntity
  8
AM_5
100
AcDbLine
 10
-31.00000133256236
 20
-30.00000102780315
 30
0.0
 11
-88.0302358349108
 21
-30.00000102780314
 31
0.0
  0
LINE
  5
165E
330
14C4
100
AcDbEntity
  8
AM_5
100
AcDbLine
 10
-87.03023583491079
 20
27.50000000000003
 30
0.0
 11
-87.03023583491079
 21
-27.50000102780314
 31
0.0
  0
SOLID
  5
165F
330
14C4
100
AcDbEntity
  8
AM_5
100
AcDbTrace
 10
-87.44690250157745
 20
27.50000000000003
 30
0.0
 11
-86.61356916824415
 21
27.50000000000003
 31
0.0
 12
-87.03023583491079
 22
30.00000000000003
 32
0.0
 13
-87.03023583491079
 23
30.00000000000003
 33
0.0
  0
SOLID
  5
1660
330
14C4
100
AcDbEntity
  8
AM_5
100
AcDbTrace
 10
-87.44690250157745
 20
-27.50000102780314
 30
0.0
 11
-86.61356916824415
 21
-27.50000102780314
 31
0.0
 12
-87.03023583491079
 22
-30.00000102780314
 32
0.0
 13
-87.03023583491079
 23
-30.00000102780314
 33
0.0
  0
MTEXT
  5
1661
330
14C4
100
AcDbEntity
  8
AM_5
 62
     2
100
AcDbMText
 10
-90.4552358349108
 20
-0.00000051390154
 30
0.0
 40
3.5
 41
0.0
 71
     5
 72
     1
  1
{\Famgdt;o}60 [2.362"]
 11
0.0000000000000001
 21
1.0
 31
0.0
 73
     1
 44
1.0
1001
ACAD
1000
MTEXTBEGIN
1070
    73
1070
     1
1070
    44
1040
1.0
1070
    74
1070
     0
1000
MTEXTEND
  0
CIRCLE
  5
1662
330
14C4
100
AcDbEntity
  8
AM_3
100
AcDbCircle
 10
0.0
 20
0.0
 30
0.0
 40
72.5
  0
LWPOLYLINE
  5
1663
330
14C4
100
AcDbEntity
  8
0
100
AcDbPolyline
 90
        7
 70
     0
 43
0.0
 10
36.58898766107081
 20
37.64964783285288
 10
29.23223304703137
 20
30.29289321881348
 42
-0.1989123673796578
 10
28.52512626584482
 20
30.00000000000003
 10
-30.00000133256236
 20
30.00000000000003
 10
-30.00000133256236
 20
-28.52512759840715
 42
-0.198912367379658
 10
-30.29289455137581
 20
-29.23223437959371
 10
-37.64964783285521
 20
-36.58898766107311
  0
LWPOLYLINE
  5
1664
330
14C4
100
AcDbEntity
  8
0
100
AcDbPolyline
 90
        7
 70
     0
 43
0.0
 10
-36.58898766107532
 20
-37.64964783285291
 10
-29.232234074839
 20
-30.2928942466166
 42
-0.1989123673796578
 10
-28.52512729365244
 20
-30.00000102780315
 10
29.99999999999699
 20
-30.00000102780314
 10
29.99999999999699
 20
28.52512626584638
 42
-0.1989123673796573
 10
30.29289321881043
 20
29.23223304703294
 10
37.64964783285058
 20
36.58898766107311
  0
LINE
  5
1665
330
14C4
100
AcDbEntity
  8
AM_5
100
AcDbLine
 10
26.73651127231173
 20
75.39999313650653
 30
0.0
 11
27.57202724957162
 21
77.75624292202238
 31
0.0
  0
LINE
  5
1666
330
14C4
100
AcDbEntity
  8
AM_5
100
AcDbLine
 10
27.57202724957162
 20
77.75624292202238
 30
0.0
 11
54.97202724957162
 21
77.75624292202238
 31
0.0
  0
SOLID
  5
1667
330
14C4
100
AcDbEntity
  8
AM_5
100
AcDbTrace
 10
26.34380297472572
 20
75.53924579938319
 30
0.0
 11
27.12921956989766
 21
75.26074047362988
 31
0.0
 12
25.90099529505176
 22
73.04374335099069
 32
0.0
 13
25.90099529505176
 23
73.04374335099069
 33
0.0
  0
MTEXT
  5
1668
102
{ACAD_XDICTIONARY
360
167B
102
}
330
14C4
100
AcDbEntity
  8
AM_5
 62
     2
100
AcDbMText
 10
42.0220272495716
 20
81.18124292202237
 30
0.0
 40
3.5
 41
0.0
 71
     5
 72
     1
  1
\U+2205155 [\U+22056.10"]
 73
     1
 44
1.0
1001
ACAD
1000
MTEXTBEGIN
1070
    73
1070
     1
1070
    44
1040
1.0
1070
    74
1070
     0
1000
MTEXTEND
  0
LINE
  5
1669
330
14C4
100
AcDbEntity
  8
AM_5
100
AcDbLine
 10
39.82571199483897
 20
63.55244026867999
 30
0.0
 11
42.17224048807188
 21
67.29694612771556
 31
0.0
  0
LINE
  5
166A
330
14C4
100
AcDbEntity
  8
AM_5
100
AcDbLine
 10
42.17224048807188
 20
67.29694612771556
 30
0.0
 11
69.92224048807187
 21
67.29694612771559
 31
0.0
  0
SOLID
  5
166B
330
14C4
100
AcDbEntity
  8
AM_5
100
AcDbTrace
 10
39.47264288223514
 20
63.77369422420691
 30
0.0
 11
40.17878110744269
 21
63.33118631315315
 31
0.0
 12
38.4981882616776
 22
61.43402559305735
 32
0.0
 13
38.4981882616776
 23
61.43402559305735
 33
0.0
  0
MTEXT
  5
166C
102
{ACAD_XDICTIONARY
360
167D
102
}
330
14C4
100
AcDbEntity
  8
AM_5
 62
     2
100
AcDbMText
 10
56.79724048807182
 20
70.72194612771562
 30
0.0
 40
3.5
 41
0.0
 71
     5
 72
     1
  1
\U+2205145 [\U+22055.71"]
 73
     1
 44
1.0
1001
ACAD
1000
MTEXTBEGIN
1070
    73
1070
     1
1070
    44
1040
1.0
1070
    74
1070
     0
1000
MTEXTEND
  0
ENDBLK
  5
14C6
330
14C4
100
AcDbEntity
  8
0
100
AcDbBlockEnd
  0
ENDSEC
  0
SECTION
  2
ENTITIES
  0
INSERT
  5
166D
330
21
100
AcDbEntity
  8
AM_3
100
AcDbBlockReference
  2
RX100
 10
158.4877366684154
 20
147.6069813444748
 30
0.0
  0
ENDSEC
  0
SECTION
  2
OBJECTS
  0
DICTIONARY
  5
C
330
0
100
AcDbDictionary
281
     1
  3
ACAD_COLOR
350
1C
  3
ACAD_GROUP
350
D
  3
ACAD_LAYOUT
350
1A
  3
ACAD_MATERIAL
350
1B
  3
ACAD_MLEADERSTYLE
350
3EB
  3
ACAD_MLINESTYLE
350
17
  3
ACAD_PLOTSETTINGS
350
19
  3
ACAD_PLOTSTYLENAME
350
E
  3
ACAD_SCALELIST
350
3D9
  3
ACAD_TABLESTYLE
350
3D7
  3
ACAD_VISUALSTYLE
350
3C6
  3
ACDB_RECOMPOSE_DATA
350
827
  3
AcDbVariableDictionary
350
39E
  3
AcmDictionary
350
493
  3
AEC_PROPERTY_SET_DEFS
350
53C
  3
AMG
350
3F3
  3
AMGSNAPSETTINGS
350
522
  3
DWGPROPS
350
166F
  0
DICTIONARY
  5
530
330
2
100
AcDbDictionary
280
     1
281
     1
  3
ACAD_LAYERSTATES
360
531
  3
AMLAYER_GROUPCOLORS
360
5D2
  0
DICTIONARY
  5
811
330
10
100
AcDbDictionary
280
     1
281
     1
  3
ADSK_XREC_LAYER_RECONCILED
360
812
  0
DICTIONARY
  5
813
330
7F
100
AcDbDictionary
280
     1
281
     1
  3
ADSK_XREC_LAYER_RECONCILED
360
814
  0
DICTIONARY
  5
817
330
5D3
100
AcDbDictionary
280
     1
281
     1
  3
ADSK_XREC_LAYER_RECONCILED
360
818
  0
DICTIONARY
  5
656
330
21
100
AcDbDictionary
280
     1
281
     1
  3
ACAD_INDEX
360
819
  3
ACAD_SORTENTS
360
657
  0
DICTIONARY
  5
167B
330
1668
100
AcDbDictionary
280
     1
281
     1
  3
ACAD_MTEXT_RT
360
167C
  0
DICTIONARY
  5
167D
330
166C
100
AcDbDictionary
280
     1
281
     1
  3
ACAD_MTEXT_RT
360
167E
  0
DICTIONARY
  5
1C
102
{ACAD_REACTORS
330
C
102
}
330
C
100
AcDbDictionary
281
     1
  0
DICTIONARY
  5
D
102
{ACAD_REACTORS
330
C
102
}
330
C
100
AcDbDictionary
281
     1
  0
DICTIONARY
  5
1A
102
{ACAD_REACTORS
330
C
102
}
330
C
100
AcDbDictionary
281
     1
  3
Layout1
350
20
  3
Layout2
350
28
  3
Model
350
24
  0
DICTIONARY
  5
1B
102
{ACAD_REACTORS
330
C
102
}
330
C
100
AcDbDictionary
281
     1
  3
ByBlock
350
3B6
  3
ByLayer
350
3AE
  3
Global
350
3BE
  0
DICTIONARY
  5
3EB
102
{ACAD_REACTORS
330
C
102
}
330
C
100
AcDbDictionary
281
     1
  3
Standard
350
3EC
  0
DICTIONARY
  5
17
102
{ACAD_REACTORS
330
C
102
}
330
C
100
AcDbDictionary
281
     1
  3
Standard
350
18
  0
DICTIONARY
  5
19
102
{ACAD_REACTORS
330
C
102
}
330
C
100
AcDbDictionary
281
     1
  0
ACDBDICTIONARYWDFLT
  5
E
102
{ACAD_REACTORS
330
C
102
}
330
C
100
AcDbDictionary
281
     1
  3
Normal
350
F
100
AcDbDictionaryWithDefault
340
F
  0
DICTIONARY
  5
3D9
102
{ACAD_REACTORS
330
C
102
}
330
C
100
AcDbDictionary
281
     1
  3
A0
350
3DA
  3
A1
350
3DB
  3
A2
350
3DC
  3
A3
350
3DD
  3
A4
350
3DE
  3
A5
350
3DF
  3
A6
350
3E0
  3
A7
350
3E1
  3
A8
350
3E2
  3
A9
350
3E3
  3
B0
350
3E4
  3
B1
350
3E5
  3
B2
350
3E6
  3
B3
350
3E7
  3
B4
350
3E8
  3
B5
350
3E9
  3
B6
350
3EA
  0
DICTIONARY
  5
3D7
102
{ACAD_REACTORS
330
C
102
}
330
C
100
AcDbDictionary
281
     1
  3
Standard
350
3D8
  0
DICTIONARY
  5
3C6
102
{ACAD_REACTORS
330
C
102
}
330
C
100
AcDbDictionary
281
     1
  3
2dWireframe
350
3CC
  3
3D Hidden
350
3CE
  3
3dWireframe
350
3CD
  3
Basic
350
3CB
  3
Brighten
350
3D2
  3
ColorChange
350
3D6
  3
Conceptual
350
3CF
  3
Dim
350
3D1
  3
Facepattern
350
3D5
  3
Flat
350
3C7
  3
FlatWithEdges
350
3C8
  3
Gouraud
350
3C9
  3
GouraudWithEdges
350
3CA
  3
Linepattern
350
3D4
  3
Realistic
350
3D0
  3
Thicken
350
3D3
  0
XRECORD
  5
827
102
{ACAD_REACTORS
330
C
102
}
330
C
100
AcDbXrecord
280
     1
 90
        1
330
3D8
  0
DICTIONARY
  5
39E
102
{ACAD_REACTORS
330
C
102
}
330
C
100
AcDbDictionary
281
     1
  3
CANNOSCALE
350
822
  3
CMLEADERSTYLE
350
821
  3
CTABLESTYLE
350
820
  3
DIMASSOC
350
3A0
  3
HIDETEXT
350
39F
  3
INDEXCTL
350
824
  3
PROJECTNAME
350
3A1
  3
SORTENTS
350
823
  0
DICTIONARY
  5
493
102
{ACAD_REACTORS
330
C
102
}
330
C
100
AcDbDictionary
281
     1
  3
AcmStdDictionary
350
494
  3
AMDTSECTSYM_ARROWCOLOR
350
5C9
  0
DICTIONARY
  5
53C
102
{ACAD_REACTORS
330
C
102
}
330
C
100
AcDbDictionary
281
     1
  0
DICTIONARY
  5
3F3
102
{ACAD_REACTORS
330
C
102
}
330
C
100
AcDbDictionary
281
     1
  3
AcMgSettings
350
3F4
  0
DICTIONARY
  5
522
102
{ACAD_REACTORS
330
C
102
}
330
C
100
AcDbDictionary
281
     1
  3
DIMENSION
350
5CA
  3
FEA
350
5CB
  3
HATCH
350
5CC
  3
SYMBOLS
350
5CD
  0
XRECORD
  5
166F
102
{ACAD_REACTORS
330
C
102
}
330
C
100
AcDbXrecord
280
     1
  1
DWGPROPS COOKIE
  2

  3

  4
LAH
  6

  7

  8
se-jenboh
  9

300
AmdtFileType=84
301
=
302
=
303
=
304
=
305
=
306
=
307
=
308
=
309
=
 40
0.0203996875
 41
2453018.565677616
 42
2456352.443437315
  1

 90
        1
  0
DICTIONARY
  5
531
102
{ACAD_REACTORS
330
530
102
}
330
530
100
AcDbDictionary
281
     1
  0
DICTIONARY
  5
5D2
102
{ACAD_REACTORS
330
530
102
}
330
530
100
AcDbDictionary
280
     1
281
     1
  0
XRECORD
  5
812
102
{ACAD_REACTORS
330
811
102
}
330
811
100
AcDbXrecord
280
     1
290
     1
  0
XRECORD
  5
814
102
{ACAD_REACTORS
330
813
102
}
330
813
100
AcDbXrecord
280
     1
290
     1
  0
XRECORD
  5
818
102
{ACAD_REACTORS
330
817
102
}
330
817
100
AcDbXrecord
280
     1
290
     1
  0
DICTIONARY
  5
819
102
{ACAD_REACTORS
330
656
102
}
330
656
100
AcDbDictionary
281
     1
  3
*A1
350
81A
  0
SORTENTSTABLE
  5
657
102
{ACAD_REACTORS
330
656
102
}
330
656
100
AcDbSortentsTable
330
21
  0
XRECORD
  5
167C
102
{ACAD_REACTORS
330
167B
102
}
330
167B
100
AcDbXrecord
280
     1
 40
18264.0
  1
\U+2205155 [\U+22056.10"]
  0
XRECORD
  5
167E
102
{ACAD_REACTORS
330
167D
102
}
330
167D
100
AcDbXrecord
280
     1
 40
18390.0
  1
\U+2205145 [\U+22055.71"]
  0
LAYOUT
  5
20
102
{ACAD_XDICTIONARY
360
1670
102
}
102
{ACAD_REACTORS
330
1A
102
}
330
1A
100
AcDbPlotSettings
  1

  2

  4

  6

 40
0.0
 41
0.0
 42
0.0
 43
0.0
 44
0.0
 45
0.0
 46
0.0
 47
0.0
 48
0.0
 49
0.0
140
0.0
141
0.0
142
1.0
143
1.0
 70
   688
 72
     0
 73
     0
 74
     5
  7

 75
    16
147
1.0
148
0.0
149
0.0
100
AcDbLayout
  1
Layout1
 70
     1
 71
     1
 10
0.0
 20
0.0
 11
709.676
 21
548.3859999999999
 12
0.0
 22
0.0
 32
0.0
 14
0.0
 24
0.0
 34
0.0
 15
709.676
 25
548.3859999999999
 35
0.0
146
0.0
 13
0.0
 23
0.0
 33
0.0
 16
1.0
 26
0.0
 36
0.0
 17
0.0
 27
1.0
 37
0.0
 76
     0
330
1D
  0
LAYOUT
  5
28
102
{ACAD_XDICTIONARY
360
1674
102
}
102
{ACAD_REACTORS
330
1A
102
}
330
1A
100
AcDbPlotSettings
  1

  2

  4

  6

 40
0.0
 41
0.0
 42
0.0
 43
0.0
 44
0.0
 45
0.0
 46
0.0
 47
0.0
 48
0.0
 49
0.0
140
0.0
141
0.0
142
1.0
143
1.0
 70
   688
 72
     0
 73
     0
 74
     5
  7

 75
    16
147
1.0
148
0.0
149
0.0
100
AcDbLayout
  1
Layout2
 70
     1
 71
     2
 10
0.0
 20
0.0
 11
12.0
 21
9.0
 12
0.0
 22
0.0
 32
0.0
 14
0.0
 24
0.0
 34
0.0
 15
0.0
 25
0.0
 35
0.0
146
0.0
 13
0.0
 23
0.0
 33
0.0
 16
1.0
 26
0.0
 36
0.0
 17
0.0
 27
1.0
 37
0.0
 76
     0
330
25
  0
LAYOUT
  5
24
102
{ACAD_XDICTIONARY
360
1672
102
}
102
{ACAD_REACTORS
330
1A
102
}
330
1A
100
AcDbPlotSettings
  1

  2

  4

  6

 40
0.0
 41
0.0
 42
0.0
 43
0.0
 44
0.0
 45
0.0
 46
0.0
 47
0.0
 48
0.0
 49
0.0
140
0.0
141
0.0
142
1.0
143
1.0
 70
  1712
 72
     0
 73
     0
 74
     0
  7

 75
     0
147
1.0
148
0.0
149
0.0
100
AcDbLayout
  1
Model
 70
     1
 71
     0
 10
0.0
 20
0.0
 11
12.0
 21
9.0
 12
0.0
 22
0.0
 32
0.0
 14
0.0
 24
0.0
 34
0.0
 15
0.0
 25
0.0
 35
0.0
146
0.0
 13
0.0
 23
0.0
 33
0.0
 16
1.0
 26
0.0
 36
0.0
 17
0.0
 27
1.0
 37
0.0
 76
     0
330
21
331
13
  0
MATERIAL
  5
3B6
102
{ACAD_XDICTIONARY
360
3B7
102
}
102
{ACAD_REACTORS
330
1B
102
}
330
1B
100
AcDbMaterial
  1
ByBlock
 72
     0
 43
0.0208333333333333
 43
0.0
 43
0.0
 43
0.0
 43
0.0
 43
0.0208333333333333
 43
0.0
 43
0.0
 43
0.0
 43
0.0
 43
1.0
 43
0.0
 43
0.0
 43
0.0
 43
0.0
 43
1.0
 77
     0
 47
0.0208333333333333
 47
0.0
 47
0.0
 47
0.0
 47
0.0
 47
0.0208333333333333
 47
0.0
 47
0.0
 47
0.0
 47
0.0
 47
1.0
 47
0.0
 47
0.0
 47
0.0
 47
0.0
 47
1.0
171
     0
 49
0.0208333333333333
 49
0.0
 49
0.0
 49
0.0
 49
0.0
 49
0.0208333333333333
 49
0.0
 49
0.0
 49
0.0
 49
0.0
 49
1.0
 49
0.0
 49
0.0
 49
0.0
 49
0.0
 49
1.0
175
     0
142
0.0208333333333333
142
0.0
142
0.0
142
0.0
142
0.0
142
0.0208333333333333
142
0.0
142
0.0
142
0.0
142
0.0
142
1.0
142
0.0
142
0.0
142
0.0
142
0.0
142
1.0
179
     0
144
0.0208333333333333
144
0.0
144
0.0
144
0.0
144
0.0
144
0.0208333333333333
144
0.0
144
0.0
144
0.0
144
0.0
144
1.0
144
0.0
144
0.0
144
0.0
144
0.0
144
1.0
147
0.0208333333333333
147
0.0
147
0.0
147
0.0
147
0.0
147
0.0208333333333333
147
0.0
147
0.0
147
0.0
147
0.0
147
1.0
147
0.0
147
0.0
147
0.0
147
0.0
147
1.0
  0
MATERIAL
  5
3AE
102
{ACAD_XDICTIONARY
360
3AF
102
}
102
{ACAD_REACTORS
330
1B
102
}
330
1B
100
AcDbMaterial
  1
ByLayer
 72
     0
 43
0.0208333333333333
 43
0.0
 43
0.0
 43
0.0
 43
0.0
 43
0.0208333333333333
 43
0.0
 43
0.0
 43
0.0
 43
0.0
 43
1.0
 43
0.0
 43
0.0
 43
0.0
 43
0.0
 43
1.0
 77
     0
 47
0.0208333333333333
 47
0.0
 47
0.0
 47
0.0
 47
0.0
 47
0.0208333333333333
 47
0.0
 47
0.0
 47
0.0
 47
0.0
 47
1.0
 47
0.0
 47
0.0
 47
0.0
 47
0.0
 47
1.0
171
     0
 49
0.0208333333333333
 49
0.0
 49
0.0
 49
0.0
 49
0.0
 49
0.0208333333333333
 49
0.0
 49
0.0
 49
0.0
 49
0.0
 49
1.0
 49
0.0
 49
0.0
 49
0.0
 49
0.0
 49
1.0
175
     0
142
0.0208333333333333
142
0.0
142
0.0
142
0.0
142
0.0
142
0.0208333333333333
142
0.0
142
0.0
142
0.0
142
0.0
142
1.0
142
0.0
142
0.0
142
0.0
142
0.0
142
1.0
179
     0
144
0.0208333333333333
144
0.0
144
0.0
144
0.0
144
0.0
144
0.0208333333333333
144
0.0
144
0.0
144
0.0
144
0.0
144
1.0
144
0.0
144
0.0
144
0.0
144
0.0
144
1.0
147
0.0208333333333333
147
0.0
147
0.0
147
0.0
147
0.0
147
0.0208333333333333
147
0.0
147
0.0
147
0.0
147
0.0
147
1.0
147
0.0
147
0.0
147
0.0
147
0.0
147
1.0
  0
MATERIAL
  5
3BE
102
{ACAD_XDICTIONARY
360
3BF
102
}
102
{ACAD_REACTORS
330
1B
102
}
330
1B
100
AcDbMaterial
  1
Global
 72
     0
 43
0.0208333333333333
 43
0.0
 43
0.0
 43
0.0
 43
0.0
 43
0.0208333333333333
 43
0.0
 43
0.0
 43
0.0
 43
0.0
 43
1.0
 43
0.0
 43
0.0
 43
0.0
 43
0.0
 43
1.0
 77
     0
 47
0.0208333333333333
 47
0.0
 47
0.0
 47
0.0
 47
0.0
 47
0.0208333333333333
 47
0.0
 47
0.0
 47
0.0
 47
0.0
 47
1.0
 47
0.0
 47
0.0
 47
0.0
 47
0.0
 47
1.0
171
     0
 49
0.0208333333333333
 49
0.0
 49
0.0
 49
0.0
 49
0.0
 49
0.0208333333333333
 49
0.0
 49
0.0
 49
0.0
 49
0.0
 49
1.0
 49
0.0
 49
0.0
 49
0.0
 49
0.0
 49
1.0
175
     0
142
0.0208333333333333
142
0.0
142
0.0
142
0.0
142
0.0
142
0.0208333333333333
142
0.0
142
0.0
142
0.0
142
0.0
142
1.0
142
0.0
142
0.0
142
0.0
142
0.0
142
1.0
179
     0
144
0.0208333333333333
144
0.0
144
0.0
144
0.0
144
0.0
144
0.0208333333333333
144
0.0
144
0.0
144
0.0
144
0.0
144
1.0
144
0.0
144
0.0
144
0.0
144
0.0
144
1.0
147
0.0208333333333333
147
0.0
147
0.0
147
0.0
147
0.0
147
0.0208333333333333
147
0.0
147
0.0
147
0.0
147
0.0
147
1.0
147
0.0
147
0.0
147
0.0
147
0.0
147
1.0
  0
MLEADERSTYLE
  5
3EC
102
{ACAD_REACTORS
330
3EB
102
}
330
3EB
100
AcDbMLeaderStyle
170
     2
171
     1
172
     0
 90
        2
 40
0.0
 41
0.0
173
     1
 91
-1056964608
340
14
 92
       -2
290
     1
 42
2.0
291
     1
 43
0.36
  3
Standard
 44
4.0
300

342
11
174
     1
178
     6
175
     1
176
     0
 93
-1056964608
 45
4.0
292
     0
297
     0
 46
4.0
 94
-1056964608
 47
1.0
 49
1.0
140
1.0
293
     1
141
0.0
294
     1
177
     0
142
1.0
295
     0
296
     0
143
0.125
1001
ACAD_MLEADERVER
1070
     2
  0
MLINESTYLE
  5
18
102
{ACAD_REACTORS
330
17
102
}
330
17
100
AcDbMlineStyle
  2
STANDARD
 70
     0
  3

 62
   256
 51
90.0
 52
90.0
 71
     2
 49
0.5
 62
   256
  6
BYLAYER
 49
-0.5
 62
   256
  6
BYLAYER
  0
ACDBPLACEHOLDER
  5
F
102
{ACAD_REACTORS
330
E
102
}
330
E
  0
SCALE
  5
3DA
102
{ACAD_REACTORS
330
3D9
102
}
330
3D9
100
AcDbScale
 70
     0
300
1:1
140
1.0
141
1.0
290
     1
  0
SCALE
  5
3DB
102
{ACAD_REACTORS
330
3D9
102
}
330
3D9
100
AcDbScale
 70
     0
300
1:2
140
1.0
141
2.0
290
     0
  0
SCALE
  5
3DC
102
{ACAD_REACTORS
330
3D9
102
}
330
3D9
100
AcDbScale
 70
     0
300
1:4
140
1.0
141
4.0
290
     0
  0
SCALE
  5
3DD
102
{ACAD_REACTORS
330
3D9
102
}
330
3D9
100
AcDbScale
 70
     0
300
1:5
140
1.0
141
5.0
290
     0
  0
SCALE
  5
3DE
102
{ACAD_REACTORS
330
3D9
102
}
330
3D9
100
AcDbScale
 70
     0
300
1:8
140
1.0
141
8.0
290
     0
  0
SCALE
  5
3DF
102
{ACAD_REACTORS
330
3D9
102
}
330
3D9
100
AcDbScale
 70
     0
300
1:10
140
1.0
141
10.0
290
     0
  0
SCALE
  5
3E0
102
{ACAD_REACTORS
330
3D9
102
}
330
3D9
100
AcDbScale
 70
     0
300
1:16
140
1.0
141
16.0
290
     0
  0
SCALE
  5
3E1
102
{ACAD_REACTORS
330
3D9
102
}
330
3D9
100
AcDbScale
 70
     0
300
1:20
140
1.0
141
20.0
290
     0
  0
SCALE
  5
3E2
102
{ACAD_REACTORS
330
3D9
102
}
330
3D9
100
AcDbScale
 70
     0
300
1:30
140
1.0
141
30.0
290
     0
  0
SCALE
  5
3E3
102
{ACAD_REACTORS
330
3D9
102
}
330
3D9
100
AcDbScale
 70
     0
300
1:40
140
1.0
141
40.0
290
     0
  0
SCALE
  5
3E4
102
{ACAD_REACTORS
330
3D9
102
}
330
3D9
100
AcDbScale
 70
     0
300
1:50
140
1.0
141
50.0
290
     0
  0
SCALE
  5
3E5
102
{ACAD_REACTORS
330
3D9
102
}
330
3D9
100
AcDbScale
 70
     0
300
1:100
140
1.0
141
100.0
290
     0
  0
SCALE
  5
3E6
102
{ACAD_REACTORS
330
3D9
102
}
330
3D9
100
AcDbScale
 70
     0
300
2:1
140
2.0
141
1.0
290
     0
  0
SCALE
  5
3E7
102
{ACAD_REACTORS
330
3D9
102
}
330
3D9
100
AcDbScale
 70
     0
300
4:1
140
4.0
141
1.0
290
     0
  0
SCALE
  5
3E8
102
{ACAD_REACTORS
330
3D9
102
}
330
3D9
100
AcDbScale
 70
     0
300
8:1
140
8.0
141
1.0
290
     0
  0
SCALE
  5
3E9
102
{ACAD_REACTORS
330
3D9
102
}
330
3D9
100
AcDbScale
 70
     0
300
10:1
140
10.0
141
1.0
290
     0
  0
SCALE
  5
3EA
102
{ACAD_REACTORS
330
3D9
102
}
330
3D9
100
AcDbScale
 70
     0
300
100:1
140
100.0
141
1.0
290
     0
  0
TABLESTYLE
  5
3D8
102
{ACAD_XDICTIONARY
360
825
102
}
102
{ACAD_REACTORS
330
3D7
102
}
330
3D7
100
AcDbTableStyle
  3
Standard
 70
     0
 71
     0
 40
1.5
 41
1.5
280
     0
281
     0
  7
STANDARD
140
4.5
170
     2
 62
     0
 63
     7
283
     0
274
    -2
284
     1
 64
     0
275
    -2
285
     1
 65
     0
276
    -2
286
     1
 66
     0
277
    -2
287
     1
 67
     0
278
    -2
288
     1
 68
     0
279
    -2
289
     1
 69
     0
  7
STANDARD
140
6.0
170
     5
 62
     0
 63
     7
283
     0
274
    -2
284
     1
 64
     0
275
    -2
285
     1
 65
     0
276
    -2
286
     1
 66
     0
277
    -2
287
     1
 67
     0
278
    -2
288
     1
 68
     0
279
    -2
289
     1
 69
     0
  7
STANDARD
140
4.5
170
     5
 62
     0
 63
     7
283
     0
274
    -2
284
     1
 64
     0
275
    -2
285
     1
 65
     0
276
    -2
286
     1
 66
     0
277
    -2
287
     1
 67
     0
278
    -2
288
     1
 68
     0
279
    -2
289
     1
 69
     0
  0
VISUALSTYLE
  5
3CC
102
{ACAD_REACTORS
330
3C6
102
}
330
3C6
100
AcDbVisualStyle
  2
2dWireframe
 70
     4
 71
     0
 72
     2
 73
     0
 90
        0
 40
-0.6
 41
-30.0
 62
     5
 63
     7
 74
     1
 91
        4
 64
     7
 65
   257
 75
     1
175
     1
 42
1.0
 92
        0
 66
   257
 43
1.0
 76
     1
 77
     6
 78
     2
 67
     7
 79
     5
170
     0
171
     0
290
     0
174
     0
 93
        1
 44
0.0
173
     0
291
     0
 45
0.0
1001
ACAD
1000
AcDbSavedByObjectVersion
1070
     0
1000
AcDbSavedByObjectVersion
1070
     0
1000
AcDbSavedByObjectVersion
1070
     0
1000
AcDbSavedByObjectVersion
1070
     0
  0
VISUALSTYLE
  5
3CE
102
{ACAD_REACTORS
330
3C6
102
}
330
3C6
100
AcDbVisualStyle
  2
3D Hidden
 70
     6
 71
     1
 72
     2
 73
     2
 90
        0
 40
-0.6
 41
-30.0
 62
     5
 63
     7
 74
     2
 91
        2
 64
     7
 65
   257
 75
     2
175
     1
 42
40.0
 92
        0
 66
   257
 43
1.0
 76
     1
 77
     6
 78
     2
 67
     7
 79
     3
170
     0
171
     0
290
     0
174
     0
 93
        1
 44
0.0
173
     0
291
     0
 45
0.0
1001
ACAD
1000
AcDbSavedByObjectVersion
1070
     0
1000
AcDbSavedByObjectVersion
1070
     0
1000
AcDbSavedByObjectVersion
1070
     0
1000
AcDbSavedByObjectVersion
1070
     0
  0
VISUALSTYLE
  5
3CD
102
{ACAD_REACTORS
330
3C6
102
}
330
3C6
100
AcDbVisualStyle
  2
3dWireframe
 70
     5
 71
     0
 72
     2
 73
     0
 90
        0
 40
-0.6
 41
-30.0
 62
     5
 63
     7
 74
     1
 91
        4
 64
     7
 65
   257
 75
     1
175
     1
 42
1.0
 92
        0
 66
   257
 43
1.0
 76
     1
 77
     6
 78
     2
 67
     7
 79
     5
170
     0
171
     0
290
     0
174
     0
 93
        1
 44
0.0
173
     0
291
     0
 45
0.0
1001
ACAD
1000
AcDbSavedByObjectVersion
1070
     0
1000
AcDbSavedByObjectVersion
1070
     0
1000
AcDbSavedByObjectVersion
1070
     0
1000
AcDbSavedByObjectVersion
1070
     0
  0
VISUALSTYLE
  5
3CB
102
{ACAD_REACTORS
330
3C6
102
}
330
3C6
100
AcDbVisualStyle
  2
Basic
 70
     7
 71
     1
 72
     0
 73
     1
 90
        0
 40
-0.6
 41
-30.0
 62
     5
 63
     7
 74
     0
 91
        4
 64
     7
 65
   257
 75
     1
175
     1
 42
1.0
 92
        8
 66
     7
 43
1.0
 76
     1
 77
     6
 78
     2
 67
     7
 79
     5
170
     0
171
     0
290
     0
174
     0
 93
        1
 44
0.0
173
     0
291
     1
 45
0.0
1001
ACAD
1000
AcDbSavedByObjectVersion
1070
     0
1000
AcDbSavedByObjectVersion
1070
     0
1000
AcDbSavedByObjectVersion
1070
     0
1000
AcDbSavedByObjectVersion
1070
     0
  0
VISUALSTYLE
  5
3D2
102
{ACAD_REACTORS
330
3C6
102
}
330
3C6
100
AcDbVisualStyle
  2
Brighten
 70
    12
 71
     2
 72
     2
 73
     0
 90
        0
 40
-0.6
 41
-30.0
 62
     5
 63
     7
 74
     1
 91
        4
 64
     7
 65
   257
 75
     1
175
     1
 42
1.0
 92
        8
 66
     7
 43
1.0
 76
     1
 77
     6
 78
     2
 67
     7
 79
     5
170
     0
171
     0
290
     0
174
     0
 93
        1
 44
50.0
173
     0
291
     1
 45
0.0
1001
ACAD
1000
AcDbSavedByObjectVersion
1070
     0
1000
AcDbSavedByObjectVersion
1070
     0
1000
AcDbSavedByObjectVersion
1070
     0
1000
AcDbSavedByObjectVersion
1070
     0
  0
VISUALSTYLE
  5
3D6
102
{ACAD_REACTORS
330
3C6
102
}
330
3C6
100
AcDbVisualStyle
  2
ColorChange
 70
    16
 71
     2
 72
     2
 73
     3
 90
        0
 40
-0.6
 41
-30.0
 62
     5
 63
     8
 74
     1
 91
        4
 64
     7
 65
   257
 75
     1
175
     1
 42
1.0
 92
        8
 66
     8
 43
1.0
 76
     1
 77
     6
 78
     2
 67
     7
 79
     5
170
     0
171
     0
290
     0
174
     0
 93
        1
 44
0.0
173
     0
291
     1
 45
0.0
1001
ACAD
1000
AcDbSavedByObjectVersion
1070
     0
1000
AcDbSavedByObjectVersion
1070
     0
1000
AcDbSavedByObjectVersion
1070
     0
1000
AcDbSavedByObjectVersion
1070
     0
  0
VISUALSTYLE
  5
3CF
102
{ACAD_REACTORS
330
3C6
102
}
330
3C6
100
AcDbVisualStyle
  2
Conceptual
 70
     9
 71
     3
 72
     2
 73
     0
 90
        0
 40
-0.6
 41
-30.0
 62
     5
 63
     7
 74
     2
 91
        2
 64
     7
 65
   257
 75
     1
175
     1
 42
40.0
 92
        8
 66
     7
 43
1.0
 76
     1
 77
     6
 78
     2
 67
     7
 79
     3
170
     0
171
     0
290
     0
174
     0
 93
        1
 44
0.0
173
     0
291
     0
 45
0.0
1001
ACAD
1000
AcDbSavedByObjectVersion
1070
     0
1000
AcDbSavedByObjectVersion
1070
     0
1000
AcDbSavedByObjectVersion
1070
     0
1000
AcDbSavedByObjectVersion
1070
     0
  0
VISUALSTYLE
  5
3D1
102
{ACAD_REACTORS
330
3C6
102
}
330
3C6
100
AcDbVisualStyle
  2
Dim
 70
    11
 71
     2
 72
     2
 73
     0
 90
        0
 40
-0.6
 41
-30.0
 62
     5
 63
     7
 74
     1
 91
        4
 64
     7
 65
   257
 75
     1
175
     1
 42
1.0
 92
        8
 66
     7
 43
1.0
 76
     1
 77
     6
 78
     2
 67
     7
 79
     5
170
     0
171
     0
290
     0
174
     0
 93
        1
 44
-50.0
173
     0
291
     1
 45
0.0
1001
ACAD
1000
AcDbSavedByObjectVersion
1070
     0
1000
AcDbSavedByObjectVersion
1070
     0
1000
AcDbSavedByObjectVersion
1070
     0
1000
AcDbSavedByObjectVersion
1070
     0
  0
VISUALSTYLE
  5
3D5
102
{ACAD_REACTORS
330
3C6
102
}
330
3C6
100
AcDbVisualStyle
  2
Facepattern
 70
    15
 71
     2
 72
     2
 73
     0
 90
        0
 40
-0.6
 41
-30.0
 62
     5
 63
     7
 74
     1
 91
        4
 64
     7
 65
   257
 75
     1
175
     1
 42
1.0
 92
        8
 66
     7
 43
1.0
 76
     1
 77
     6
 78
     2
 67
     7
 79
     5
170
     0
171
     0
290
     0
174
     0
 93
        1
 44
0.0
173
     0
291
     1
 45
0.0
1001
ACAD
1000
AcDbSavedByObjectVersion
1070
     0
1000
AcDbSavedByObjectVersion
1070
     0
1000
AcDbSavedByObjectVersion
1070
     0
1000
AcDbSavedByObjectVersion
1070
     0
  0
VISUALSTYLE
  5
3C7
102
{ACAD_REACTORS
330
3C6
102
}
330
3C6
100
AcDbVisualStyle
  2
Flat
 70
     0
 71
     2
 72
     1
 73
     1
 90
        2
 40
-0.6
 41
30.0
 62
     5
 63
     7
 74
     0
 91
        4
 64
     7
 65
   257
 75
     1
175
     1
 42
1.0
 92
        8
 66
     7
 43
1.0
 76
     1
 77
     6
 78
     2
 67
     7
 79
     5
170
     0
171
     0
290
     0
174
     0
 93
       13
 44
0.0
173
     0
291
     1
 45
0.0
1001
ACAD
1000
AcDbSavedByObjectVersion
1070
     0
1000
AcDbSavedByObjectVersion
1070
     0
1000
AcDbSavedByObjectVersion
1070
     0
1000
AcDbSavedByObjectVersion
1070
     0
  0
VISUALSTYLE
  5
3C8
102
{ACAD_REACTORS
330
3C6
102
}
330
3C6
100
AcDbVisualStyle
  2
FlatWithEdges
 70
     1
 71
     2
 72
     1
 73
     1
 90
        2
 40
-0.6
 41
30.0
 62
     5
 63
     7
 74
     1
 91
        4
 64
     7
 65
   257
 75
     1
175
     1
 42
1.0
 92
        0
 66
   257
 43
1.0
 76
     1
 77
     6
 78
     2
 67
     7
 79
     5
170
     0
171
     0
290
     0
174
     0
 93
       13
 44
0.0
173
     0
291
     1
 45
0.0
1001
ACAD
1000
AcDbSavedByObjectVersion
1070
     0
1000
AcDbSavedByObjectVersion
1070
     0
1000
AcDbSavedByObjectVersion
1070
     0
1000
AcDbSavedByObjectVersion
1070
     0
  0
VISUALSTYLE
  5
3C9
102
{ACAD_REACTORS
330
3C6
102
}
330
3C6
100
AcDbVisualStyle
  2
Gouraud
 70
     2
 71
     2
 72
     2
 73
     1
 90
        2
 40
-0.6
 41
30.0
 62
     5
 63
     7
 74
     0
 91
        4
 64
     7
 65
   257
 75
     1
175
     1
 42
1.0
 92
        0
 66
     7
 43
1.0
 76
     1
 77
     6
 78
     2
 67
     7
 79
     5
170
     0
171
     0
290
     0
174
     0
 93
       13
 44
0.0
173
     0
291
     1
 45
0.0
1001
ACAD
1000
AcDbSavedByObjectVersion
1070
     0
1000
AcDbSavedByObjectVersion
1070
     0
1000
AcDbSavedByObjectVersion
1070
     0
1000
AcDbSavedByObjectVersion
1070
     0
  0
VISUALSTYLE
  5
3CA
102
{ACAD_REACTORS
330
3C6
102
}
330
3C6
100
AcDbVisualStyle
  2
GouraudWithEdges
 70
     3
 71
     2
 72
     2
 73
     1
 90
        2
 40
-0.6
 41
30.0
 62
     5
 63
     7
 74
     1
 91
        4
 64
     7
 65
   257
 75
     1
175
     1
 42
1.0
 92
        0
 66
   257
 43
1.0
 76
     1
 77
     6
 78
     2
 67
     7
 79
     5
170
     0
171
     0
290
     0
174
     0
 93
       13
 44
0.0
173
     0
291
     1
 45
0.0
1001
ACAD
1000
AcDbSavedByObjectVersion
1070
     0
1000
AcDbSavedByObjectVersion
1070
     0
1000
AcDbSavedByObjectVersion
1070
     0
1000
AcDbSavedByObjectVersion
1070
     0
  0
VISUALSTYLE
  5
3D4
102
{ACAD_REACTORS
330
3C6
102
}
330
3C6
100
AcDbVisualStyle
  2
Linepattern
 70
    14
 71
     2
 72
     2
 73
     0
 90
        0
 40
-0.6
 41
-30.0
 62
     5
 63
     7
 74
     1
 91
        4
 64
     7
 65
   257
 75
     7
175
     7
 42
1.0
 92
        8
 66
     7
 43
1.0
 76
     1
 77
     6
 78
     2
 67
     7
 79
     5
170
     0
171
     0
290
     0
174
     0
 93
        1
 44
0.0
173
     0
291
     1
 45
0.0
1001
ACAD
1000
AcDbSavedByObjectVersion
1070
     0
1000
AcDbSavedByObjectVersion
1070
     0
1000
AcDbSavedByObjectVersion
1070
     0
1000
AcDbSavedByObjectVersion
1070
     0
  0
VISUALSTYLE
  5
3D0
102
{ACAD_REACTORS
330
3C6
102
}
330
3C6
100
AcDbVisualStyle
  2
Realistic
 70
     8
 71
     2
 72
     2
 73
     0
 90
        0
 40
-0.6
 41
-30.0
 62
     5
 63
     7
 74
     1
 91
        0
 64
     7
 65
   257
 75
     1
175
     1
 42
1.0
 92
        8
 66
     8
 43
1.0
 76
     1
 77
     6
 78
     2
 67
     7
 79
     5
170
     0
171
     0
290
     0
174
     0
 93
       13
 44
0.0
173
     0
291
     0
 45
0.0
1001
ACAD
1000
AcDbSavedByObjectVersion
1070
     0
1000
AcDbSavedByObjectVersion
1070
     0
1000
AcDbSavedByObjectVersion
1070
     0
1000
AcDbSavedByObjectVersion
1070
     0
  0
VISUALSTYLE
  5
3D3
102
{ACAD_REACTORS
330
3C6
102
}
330
3C6
100
AcDbVisualStyle
  2
Thicken
 70
    13
 71
     2
 72
     2
 73
     0
 90
        0
 40
-0.6
 41
-30.0
 62
     5
 63
     7
 74
     1
 91
        4
 64
     7
 65
   257
 75
     1
175
     1
 42
1.0
 92
       12
 66
     7
 43
1.0
 76
     1
 77
     6
 78
     2
 67
     7
 79
     5
170
     0
171
     0
290
     0
174
     0
 93
        1
 44
0.0
173
     0
291
     1
 45
0.0
1001
ACAD
1000
AcDbSavedByObjectVersion
1070
     0
1000
AcDbSavedByObjectVersion
1070
     0
1000
AcDbSavedByObjectVersion
1070
     0
1000
AcDbSavedByObjectVersion
1070
     0
  0
DICTIONARYVAR
  5
822
102
{ACAD_REACTORS
330
39E
102
}
330
39E
100
DictionaryVariables
280
     0
  1
1:1
  0
DICTIONARYVAR
  5
821
102
{ACAD_REACTORS
330
39E
102
}
330
39E
100
DictionaryVariables
280
     0
  1
STANDARD
  0
DICTIONARYVAR
  5
820
102
{ACAD_REACTORS
330
39E
102
}
330
39E
100
DictionaryVariables
280
     0
  1
STANDARD
  0
DICTIONARYVAR
  5
3A0
102
{ACAD_REACTORS
330
39E
102
}
330
39E
100
DictionaryVariables
280
     0
  1
2
  0
DICTIONARYVAR
  5
39F
102
{ACAD_REACTORS
330
39E
102
}
330
39E
100
DictionaryVariables
280
     0
  1
1
  0
DICTIONARYVAR
  5
824
102
{ACAD_REACTORS
330
39E
102
}
330
39E
100
DictionaryVariables
280
     0
  1
1
  0
DICTIONARYVAR
  5
3A1
102
{ACAD_REACTORS
330
39E
102
}
330
39E
100
DictionaryVariables
280
     0
  1

  0
DICTIONARYVAR
  5
823
102
{ACAD_REACTORS
330
39E
102
}
330
39E
100
DictionaryVariables
280
     0
  1
127
  0
DICTIONARY
  5
494
102
{ACAD_REACTORS
330
493
102
}
330
493
100
AcDbDictionary
281
     1
  0
XRECORD
  5
5C9
102
{ACAD_REACTORS
330
493
102
}
330
493
100
AcDbXrecord
280
     1
 90
-1056964608
  0
DICTIONARY
  5
3F4
102
{ACAD_REACTORS
330
3F3
102
}
330
3F3
100
AcDbDictionary
281
     1
  3
DWGSETTINGS
350
11A4
  3
TRANSSETTINGS
350
11A8
  0
ACAMGFILTERDAT
  5
5CA
102
{ACAD_REACTORS
330
522
102
}
330
522
100
AcAmgFilterDat
 70
    15
  1
DIMENSION,AMDT_*_DIM
  2
*
  3
*
  4
*
  5
*
290
     1
  0
ACAMGFILTERDAT
  5
5CB
102
{ACAD_REACTORS
330
522
102
}
330
522
100
AcAmgFilterDat
 70
    15
  1
*
  2
AM_FEA-AM_*
  3
*
  4
*
  5
*
290
     1
  0
ACAMGFILTERDAT
  5
5CC
102
{ACAD_REACTORS
330
522
102
}
330
522
100
AcAmgFilterDat
 70
    15
  1
HATCH
  2
*
  3
*
  4
*
  5
*
290
     1
  0
ACAMGFILTERDAT
  5
5CD
102
{ACAD_REACTORS
330
522
102
}
330
522
100
AcAmgFilterDat
 70
    15
  1
ACMFCFRAME,ACMDATUMTARGET,ACMDATUMID,ACMWELDSYM,ACMSURFSYM,ACMFEATID,ACMPARTREF,ACMBALLOON
  2
*
  3
*
  4
*
  5
*
290
     1
  0
LAYER_INDEX
  5
81A
102
{ACAD_REACTORS
330
819
102
}
330
819
100
AcDbIndex
 40
2456352.443437315
100
AcDbLayerIndex
  8
0
360
81B
 90
        0
  8
Visible Edges
360
81C
 90
        0
  8
AM_5
360
81D
 90
        0
  8
Defpoints
360
81E
 90
        0
  8
AM_3
360
81F
 90
        1
  0
DICTIONARY
  5
1670
330
20
100
AcDbDictionary
280
     1
281
     1
  3
ACAD_XREC_ROUNDTRIP
360
1671
  0
DICTIONARY
  5
1674
330
28
100
AcDbDictionary
280
     1
281
     1
  3
ACAD_XREC_ROUNDTRIP
360
1675
  0
DICTIONARY
  5
1672
330
24
100
AcDbDictionary
280
     1
281
     1
  3
ACAD_XREC_ROUNDTRIP
360
1673
  0
DICTIONARY
  5
3B7
330
3B6
100
AcDbDictionary
280
     1
281
     1
  3
ACAD_XREC_ROUNDTRIP
360
830
  3
BUMPTILE
360
3B9
  3
DIFFUSETILE
360
3B8
  3
OPACITYTILE
360
3BC
  3
REFLECTIONTILE
360
3BB
  3
REFRACTIONTILE
360
3BD
  3
SPECULARTILE
360
3BA
  0
DICTIONARY
  5
3AF
330
3AE
100
AcDbDictionary
280
     1
281
     1
  3
ACAD_XREC_ROUNDTRIP
360
82F
  3
BUMPTILE
360
3B1
  3
DIFFUSETILE
360
3B0
  3
OPACITYTILE
360
3B4
  3
REFLECTIONTILE
360
3B3
  3
REFRACTIONTILE
360
3B5
  3
SPECULARTILE
360
3B2
  0
DICTIONARY
  5
3BF
330
3BE
100
AcDbDictionary
280
     1
281
     1
  3
ACAD_XREC_ROUNDTRIP
360
831
  3
BUMPTILE
360
3C1
  3
DIFFUSETILE
360
3C0
  3
OPACITYTILE
360
3C4
  3
REFLECTIONTILE
360
3C3
  3
REFRACTIONTILE
360
3C5
  3
SPECULARTILE
360
3C2
  0
DICTIONARY
  5
825
330
3D8
100
AcDbDictionary
280
     1
281
     1
  3
ACAD_ROUNDTRIP_2008_TABLESTYLE_CELLSTYLEMAP
360
166E
  3
ACAD_XREC_ROUNDTRIP
360
1676
  0
IDBUFFER
  5
81B
330
0
100
AcDbIdBuffer
  0
IDBUFFER
  5
81C
330
0
100
AcDbIdBuffer
  0
IDBUFFER
  5
81D
330
0
100
AcDbIdBuffer
  0
IDBUFFER
  5
81E
330
0
100
AcDbIdBuffer
  0
IDBUFFER
  5
81F
330
0
100
AcDbIdBuffer
330
166D
  0
XRECORD
  5
1671
102
{ACAD_REACTORS
330
1670
102
}
330
1670
100
AcDbXrecord
280
     1
102
SHADEPLOT
 70
     0
102
SHADEPLOTRESLEVEL
 70
     2
102
SHADEPLOTCUSTOMDPI
 70
   300
  0
XRECORD
  5
1675
102
{ACAD_REACTORS
330
1674
102
}
330
1674
100
AcDbXrecord
280
     1
102
SHADEPLOT
 70
     0
102
SHADEPLOTRESLEVEL
 70
     2
102
SHADEPLOTCUSTOMDPI
 70
   300
  0
XRECORD
  5
1673
102
{ACAD_REACTORS
330
1672
102
}
330
1672
100
AcDbXrecord
280
     1
102
SHADEPLOT
 70
     0
102
SHADEPLOTRESLEVEL
 70
     2
102
SHADEPLOTCUSTOMDPI
 70
   300
  0
XRECORD
  5
830
102
{ACAD_REACTORS
330
3B7
102
}
330
3B7
100
AcDbXrecord
280
     1
102
MATERIAL
148
0.0
149
0.0
149
0.0
 93
        0
 94
      127
282
     0
 72
     0
 77
     0
171
     0
175
     0
179
     0
273
     0
  0
XRECORD
  5
3B9
102
{ACAD_REACTORS
330
3B7
102
}
330
3B7
100
AcDbXrecord
280
     1
270
     1
271
     1
  0
XRECORD
  5
3B8
102
{ACAD_REACTORS
330
3B7
102
}
330
3B7
100
AcDbXrecord
280
     1
270
     1
271
     1
  0
XRECORD
  5
3BC
102
{ACAD_REACTORS
330
3B7
102
}
330
3B7
100
AcDbXrecord
280
     1
270
     1
271
     1
  0
XRECORD
  5
3BB
102
{ACAD_REACTORS
330
3B7
102
}
330
3B7
100
AcDbXrecord
280
     1
270
     1
271
     1
  0
XRECORD
  5
3BD
102
{ACAD_REACTORS
330
3B7
102
}
330
3B7
100
AcDbXrecord
280
     1
270
     1
271
     1
  0
XRECORD
  5
3BA
102
{ACAD_REACTORS
330
3B7
102
}
330
3B7
100
AcDbXrecord
280
     1
270
     1
271
     1
  0
XRECORD
  5
82F
102
{ACAD_REACTORS
330
3AF
102
}
330
3AF
100
AcDbXrecord
280
     1
102
MATERIAL
148
0.0
149
0.0
149
0.0
 93
        0
 94
      127
282
     0
 72
     0
 77
     0
171
     0
175
     0
179
     0
273
     0
  0
XRECORD
  5
3B1
102
{ACAD_REACTORS
330
3AF
102
}
330
3AF
100
AcDbXrecord
280
     1
270
     1
271
     1
  0
XRECORD
  5
3B0
102
{ACAD_REACTORS
330
3AF
102
}
330
3AF
100
AcDbXrecord
280
     1
270
     1
271
     1
  0
XRECORD
  5
3B4
102
{ACAD_REACTORS
330
3AF
102
}
330
3AF
100
AcDbXrecord
280
     1
270
     1
271
     1
  0
XRECORD
  5
3B3
102
{ACAD_REACTORS
330
3AF
102
}
330
3AF
100
AcDbXrecord
280
     1
270
     1
271
     1
  0
XRECORD
  5
3B5
102
{ACAD_REACTORS
330
3AF
102
}
330
3AF
100
AcDbXrecord
280
     1
270
     1
271
     1
  0
XRECORD
  5
3B2
102
{ACAD_REACTORS
330
3AF
102
}
330
3AF
100
AcDbXrecord
280
     1
270
     1
271
     1
  0
XRECORD
  5
831
102
{ACAD_REACTORS
330
3BF
102
}
330
3BF
100
AcDbXrecord
280
     1
102
MATERIAL
148
0.0
149
0.0
149
0.0
 93
        0
 94
      127
282
     0
 72
     0
 77
     0
171
     0
175
     0
179
     0
273
     0
  0
XRECORD
  5
3C1
102
{ACAD_REACTORS
330
3BF
102
}
330
3BF
100
AcDbXrecord
280
     1
270
     1
271
     1
  0
XRECORD
  5
3C0
102
{ACAD_REACTORS
330
3BF
102
}
330
3BF
100
AcDbXrecord
280
     1
270
     1
271
     1
  0
XRECORD
  5
3C4
102
{ACAD_REACTORS
330
3BF
102
}
330
3BF
100
AcDbXrecord
280
     1
270
     1
271
     1
  0
XRECORD
  5
3C3
102
{ACAD_REACTORS
330
3BF
102
}
330
3BF
100
AcDbXrecord
280
     1
270
     1
271
     1
  0
XRECORD
  5
3C5
102
{ACAD_REACTORS
330
3BF
102
}
330
3BF
100
AcDbXrecord
280
     1
270
     1
271
     1
  0
XRECORD
  5
3C2
102
{ACAD_REACTORS
330
3BF
102
}
330
3BF
100
AcDbXrecord
280
     1
270
     1
271
     1
  0
CELLSTYLEMAP
  5
166E
102
{ACAD_REACTORS
330
825
102
}
330
825
100
AcDbCellStyleMap
 90
        3
300
CELLSTYLE
  1
TABLEFORMAT_BEGIN
 90
        5
170
     1
 91
        0
 92
    32768
 62
   257
 93
        1
300
CONTENTFORMAT
  1
CONTENTFORMAT_BEGIN
 90
        0
 91
        0
 92
      512
 93
        0
300

 40
0.0
140
1.0
 94
        5
 62
     0
340
11
144
6.0
309
CONTENTFORMAT_END
171
     1
301
MARGIN
  1
CELLMARGIN_BEGIN
 40
1.5
 40
1.5
 40
1.5
 40
1.5
 40
0.18
 40
0.18
309
CELLMARGIN_END
 94
        6
 95
        1
302
GRIDFORMAT
  1
GRIDFORMAT_BEGIN
 90
        0
 91
        1
 62
     0
 92
       -2
340
0
 93
        0
 40
1.125
309
GRIDFORMAT_END
 95
        2
302
GRIDFORMAT
  1
GRIDFORMAT_BEGIN
 90
        0
 91
        1
 62
     0
 92
       -2
340
0
 93
        0
 40
1.125
309
GRIDFORMAT_END
 95
        4
302
GRIDFORMAT
  1
GRIDFORMAT_BEGIN
 90
        0
 91
        1
 62
     0
 92
       -2
340
0
 93
        0
 40
1.125
309
GRIDFORMAT_END
 95
        8
302
GRIDFORMAT
  1
GRIDFORMAT_BEGIN
 90
        0
 91
        1
 62
     0
 92
       -2
340
0
 93
        0
 40
1.125
309
GRIDFORMAT_END
 95
       16
302
GRIDFORMAT
  1
GRIDFORMAT_BEGIN
 90
        0
 91
        1
 62
     0
 92
       -2
340
0
 93
        0
 40
1.125
309
GRIDFORMAT_END
 95
       32
302
GRIDFORMAT
  1
GRIDFORMAT_BEGIN
 90
        0
 91
        1
 62
     0
 92
       -2
340
0
 93
        0
 40
1.125
309
GRIDFORMAT_END
309
TABLEFORMAT_END
  1
CELLSTYLE_BEGIN
 90
        1
 91
        1
300
_TITLE
309
CELLSTYLE_END
300
CELLSTYLE
  1
TABLEFORMAT_BEGIN
 90
        5
170
     1
 91
        0
 92
        0
 62
   257
 93
        1
300
CONTENTFORMAT
  1
CONTENTFORMAT_BEGIN
 90
        0
 91
        0
 92
      512
 93
        0
300

 40
0.0
140
1.0
 94
        5
 62
     0
340
11
144
4.5
309
CONTENTFORMAT_END
171
     1
301
MARGIN
  1
CELLMARGIN_BEGIN
 40
1.5
 40
1.5
 40
1.5
 40
1.5
 40
0.18
 40
0.18
309
CELLMARGIN_END
 94
        6
 95
        1
302
GRIDFORMAT
  1
GRIDFORMAT_BEGIN
 90
        0
 91
        1
 62
     0
 92
       -2
340
0
 93
        0
 40
1.125
309
GRIDFORMAT_END
 95
        2
302
GRIDFORMAT
  1
GRIDFORMAT_BEGIN
 90
        0
 91
        1
 62
     0
 92
       -2
340
0
 93
        0
 40
1.125
309
GRIDFORMAT_END
 95
        4
302
GRIDFORMAT
  1
GRIDFORMAT_BEGIN
 90
        0
 91
        1
 62
     0
 92
       -2
340
0
 93
        0
 40
1.125
309
GRIDFORMAT_END
 95
        8
302
GRIDFORMAT
  1
GRIDFORMAT_BEGIN
 90
        0
 91
        1
 62
     0
 92
       -2
340
0
 93
        0
 40
1.125
309
GRIDFORMAT_END
 95
       16
302
GRIDFORMAT
  1
GRIDFORMAT_BEGIN
 90
        0
 91
        1
 62
     0
 92
       -2
340
0
 93
        0
 40
1.125
309
GRIDFORMAT_END
 95
       32
302
GRIDFORMAT
  1
GRIDFORMAT_BEGIN
 90
        0
 91
        1
 62
     0
 92
       -2
340
0
 93
        0
 40
1.125
309
GRIDFORMAT_END
309
TABLEFORMAT_END
  1
CELLSTYLE_BEGIN
 90
        2
 91
        1
300
_HEADER
309
CELLSTYLE_END
300
CELLSTYLE
  1
TABLEFORMAT_BEGIN
 90
        5
170
     1
 91
        0
 92
        0
 62
   257
 93
        1
300
CONTENTFORMAT
  1
CONTENTFORMAT_BEGIN
 90
        0
 91
        0
 92
      512
 93
        0
300

 40
0.0
140
1.0
 94
        2
 62
     0
340
11
144
4.5
309
CONTENTFORMAT_END
171
     1
301
MARGIN
  1
CELLMARGIN_BEGIN
 40
1.5
 40
1.5
 40
1.5
 40
1.5
 40
0.18
 40
0.18
309
CELLMARGIN_END
 94
        6
 95
        1
302
GRIDFORMAT
  1
GRIDFORMAT_BEGIN
 90
        0
 91
        1
 62
     0
 92
       -2
340
0
 93
        0
 40
1.125
309
GRIDFORMAT_END
 95
        2
302
GRIDFORMAT
  1
GRIDFORMAT_BEGIN
 90
        0
 91
        1
 62
     0
 92
       -2
340
0
 93
        0
 40
1.125
309
GRIDFORMAT_END
 95
        4
302
GRIDFORMAT
  1
GRIDFORMAT_BEGIN
 90
        0
 91
        1
 62
     0
 92
       -2
340
0
 93
        0
 40
1.125
309
GRIDFORMAT_END
 95
        8
302
GRIDFORMAT
  1
GRIDFORMAT_BEGIN
 90
        0
 91
        1
 62
     0
 92
       -2
340
0
 93
        0
 40
1.125
309
GRIDFORMAT_END
 95
       16
302
GRIDFORMAT
  1
GRIDFORMAT_BEGIN
 90
        0
 91
        1
 62
     0
 92
       -2
340
0
 93
        0
 40
1.125
309
GRIDFORMAT_END
 95
       32
302
GRIDFORMAT
  1
GRIDFORMAT_BEGIN
 90
        0
 91
        1
 62
     0
 92
       -2
340
0
 93
        0
 40
1.125
309
GRIDFORMAT_END
309
TABLEFORMAT_END
  1
CELLSTYLE_BEGIN
 90
        3
 91
        2
300
_DATA
309
CELLSTYLE_END
  0
XRECORD
  5
1676
102
{ACAD_REACTORS
330
825
102
}
330
825
100
AcDbXrecord
280
     1
102
ACAD_ROUNDTRIP_PRE2007_TABLESTYLE
 90
      512
 91
        0
  1

 92
      512
 93
        0
  2

 94
      512
 95
        0
  3

  0
ENDSEC
  0
EOF
