  0
SECTION
  2
HEADER
  9
$ACADVER
  1
AC1015
  9
$ACADMAINTVER
 70
    20
  9
$DWGCODEPAGE
  3
ANSI_1252
  9
$INSBASE
 10
0.0
 20
0.0
 30
0.0
  9
$EXTMIN
 10
-22.65006838164127
 20
-18.75047258814149
 30
0.0
  9
$EXTMAX
 10
76.01245264184214
 20
76.00010343329981
 30
0.0
  9
$LIMMIN
 10
0.0
 20
0.0
  9
$LIMMAX
 10
420.0
 20
297.0
  9
$ORTHOMODE
 70
     1
  9
$REGENMODE
 70
     1
  9
$FILLMODE
 70
     1
  9
$QTEXTMODE
 70
     0
  9
$MIRRTEXT
 70
     0
  9
$LTSCALE
 40
1.0
  9
$ATTMODE
 70
     1
  9
$TEXTSIZE
 40
3.5
  9
$TRACEWID
 40
1.0
  9
$TEXTSTYLE
  7
STANDARD
  9
$CLAYER
  8
AM_0
  9
$CELTYPE
  6
BYLAYER
  9
$CECOLOR
 62
   256
  9
$CELTSCALE
 40
1.0
  9
$DISPSILH
 70
     0
  9
$DIMSCALE
 40
0.75
  9
$DIMASZ
 40
2.5
  9
$DIMEXO
 40
1.0
  9
$DIMDLI
 40
10.0
  9
$DIMRND
 40
0.0
  9
$DIMDLE
 40
0.0
  9
$DIMEXE
 40
1.0
  9
$DIMTP
 40
0.1
  9
$DIMTM
 40
0.1
  9
$DIMTXT
 40
3.5
  9
$DIMCEN
 40
0.0
  9
$DIMTSZ
 40
0.0
  9
$DIMTOL
 70
     0
  9
$DIMLIM
 70
     0
  9
$DIMTIH
 70
     0
  9
$DIMTOH
 70
     0
  9
$DIMSE1
 70
     0
  9
$DIMSE2
 70
     0
  9
$DIMTAD
 70
     1
  9
$DIMZIN
 70
     8
  9
$DIMBLK
  1

  9
$DIMASO
 70
     1
  9
$DIMSHO
 70
     1
  9
$DIMPOST
  1

  9
$DIMAPOST
  1
"
  9
$DIMALT
 70
     0
  9
$DIMALTD
 70
     3
  9
$DIMALTF
 40
0.0393701
  9
$DIMLFAC
 40
1.0
  9
$DIMTOFL
 70
     1
  9
$DIMTVP
 40
0.0
  9
$DIMTIX
 70
     0
  9
$DIMSOXD
 70
     0
  9
$DIMSAH
 70
     0
  9
$DIMBLK1
  1

  9
$DIMBLK2
  1

  9
$DIMSTYLE
  2
AM_ISO
  9
$DIMCLRD
 70
   256
  9
$DIMCLRE
 70
   256
  9
$DIMCLRT
 70
     2
  9
$DIMTFAC
 40
0.71
  9
$DIMGAP
 40
1.5
  9
$DIMJUST
 70
     0
  9
$DIMSD1
 70
     0
  9
$DIMSD2
 70
     0
  9
$DIMTOLJ
 70
     0
  9
$DIMTZIN
 70
     8
  9
$DIMALTZ
 70
     0
  9
$DIMALTTZ
 70
     0
  9
$DIMUPT
 70
     0
  9
$DIMDEC
 70
     2
  9
$DIMTDEC
 70
     2
  9
$DIMALTU
 70
     2
  9
$DIMALTTD
 70
     3
  9
$DIMTXSTY
  7
STANDARD
  9
$DIMAUNIT
 70
     0
  9
$DIMADEC
 70
     0
  9
$DIMALTRND
 40
0.0
  9
$DIMAZIN
 70
     2
  9
$DIMDSEP
 70
    46
  9
$DIMATFIT
 70
     3
  9
$DIMFRAC
 70
     0
  9
$DIMLDRBLK
  1

  9
$DIMLUNIT
 70
     2
  9
$DIMLWD
 70
    -1
  9
$DIMLWE
 70
    -1
  9
$DIMTMOVE
 70
     0
  9
$LUNITS
 70
     2
  9
$LUPREC
 70
     2
  9
$SKETCHINC
 40
1.0
  9
$FILLETRAD
 40
0.0
  9
$AUNITS
 70
     0
  9
$AUPREC
 70
     0
  9
$MENU
  1
.
  9
$ELEVATION
 40
0.0
  9
$PELEVATION
 40
0.0
  9
$THICKNESS
 40
0.0
  9
$LIMCHECK
 70
     0
  9
$CHAMFERA
 40
2.5
  9
$CHAMFERB
 40
2.5
  9
$CHAMFERC
 40
20.0
  9
$CHAMFERD
 40
0.0
  9
$SKPOLY
 70
     1
  9
$TDCREATE
 40
2456266.672654688
  9
$TDUCREATE
 40
2456266.630988021
  9
$TDUPDATE
 40
2456349.373987176
  9
$TDUUPDATE
 40
2456349.332320510
  9
$TDINDWG
 40
0.0143943287
  9
$TDUSRTIMER
 40
0.0143941319
  9
$USRTIMER
 70
     1
  9
$ANGBASE
 50
0.0
  9
$ANGDIR
 70
     0
  9
$PDMODE
 70
     0
  9
$PDSIZE
 40
0.0
  9
$PLINEWID
 40
0.0
  9
$SPLFRAME
 70
     0
  9
$SPLINETYPE
 70
     6
  9
$SPLINESEGS
 70
     8
  9
$HANDSEED
  5
1C7D
  9
$SURFTAB1
 70
     6
  9
$SURFTAB2
 70
     6
  9
$SURFTYPE
 70
     6
  9
$SURFU
 70
     6
  9
$SURFV
 70
     6
  9
$UCSBASE
  2

  9
$UCSNAME
  2

  9
$UCSORG
 10
0.0
 20
0.0
 30
0.0
  9
$UCSXDIR
 10
1.0
 20
0.0
 30
0.0
  9
$UCSYDIR
 10
0.0
 20
1.0
 30
0.0
  9
$UCSORTHOREF
  2

  9
$UCSORTHOVIEW
 70
     0
  9
$UCSORGTOP
 10
0.0
 20
0.0
 30
0.0
  9
$UCSORGBOTTOM
 10
0.0
 20
0.0
 30
0.0
  9
$UCSORGLEFT
 10
0.0
 20
0.0
 30
0.0
  9
$UCSORGRIGHT
 10
0.0
 20
0.0
 30
0.0
  9
$UCSORGFRONT
 10
0.0
 20
0.0
 30
0.0
  9
$UCSORGBACK
 10
0.0
 20
0.0
 30
0.0
  9
$PUCSBASE
  2

  9
$PUCSNAME
  2

  9
$PUCSORG
 10
0.0
 20
0.0
 30
0.0
  9
$PUCSXDIR
 10
1.0
 20
0.0
 30
0.0
  9
$PUCSYDIR
 10
0.0
 20
1.0
 30
0.0
  9
$PUCSORTHOREF
  2

  9
$PUCSORTHOVIEW
 70
     0
  9
$PUCSORGTOP
 10
0.0
 20
0.0
 30
0.0
  9
$PUCSORGBOTTOM
 10
0.0
 20
0.0
 30
0.0
  9
$PUCSORGLEFT
 10
0.0
 20
0.0
 30
0.0
  9
$PUCSORGRIGHT
 10
0.0
 20
0.0
 30
0.0
  9
$PUCSORGFRONT
 10
0.0
 20
0.0
 30
0.0
  9
$PUCSORGBACK
 10
0.0
 20
0.0
 30
0.0
  9
$USERI1
 70
     0
  9
$USERI2
 70
     0
  9
$USERI3
 70
     0
  9
$USERI4
 70
     0
  9
$USERI5
 70
     0
  9
$USERR1
 40
0.0
  9
$USERR2
 40
0.0
  9
$USERR3
 40
0.0
  9
$USERR4
 40
0.0
  9
$USERR5
 40
0.0
  9
$WORLDVIEW
 70
     1
  9
$SHADEDGE
 70
     3
  9
$SHADEDIF
 70
    70
  9
$TILEMODE
 70
     1
  9
$MAXACTVP
 70
    48
  9
$PINSBASE
 10
0.0
 20
0.0
 30
0.0
  9
$PLIMCHECK
 70
     0
  9
$PEXTMIN
 10
1.000000000000000E+20
 20
1.000000000000000E+20
 30
1.000000000000000E+20
  9
$PEXTMAX
 10
-1.000000000000000E+20
 20
-1.000000000000000E+20
 30
-1.000000000000000E+20
  9
$PLIMMIN
 10
-0.2500002402958907
 20
-0.2499999962453767
  9
$PLIMMAX
 10
10.74999951940821
 20
8.249999763458731
  9
$UNITMODE
 70
     0
  9
$VISRETAIN
 70
     1
  9
$PLINEGEN
 70
     0
  9
$PSLTSCALE
 70
     1
  9
$TREEDEPTH
 70
  3020
  9
$CMLSTYLE
  2
STANDARD
  9
$CMLJUST
 70
     0
  9
$CMLSCALE
 40
1.0
  9
$PROXYGRAPHICS
 70
     1
  9
$MEASUREMENT
 70
     1
  9
$CELWEIGHT
370
    -1
  9
$ENDCAPS
280
     0
  9
$JOINSTYLE
280
     0
  9
$LWDISPLAY
290
     0
  9
$INSUNITS
 70
     4
  9
$HYPERLINKBASE
  1

  9
$STYLESHEET
  1
@LAYOUT.CTB
  9
$XEDIT
290
     1
  9
$CEPSNTYPE
380
     0
  9
$PSTYLEMODE
290
     1
  9
$FINGERPRINTGUID
  2
{89997ED3-2388-4876-B2FE-547337EF7C29}
  9
$VERSIONGUID
  2
{FCB33B8F-BD8D-4C1F-84FB-7E2151EEF461}
  9
$EXTNAMES
290
     1
  9
$PSVPSCALE
 40
0.0
  9
$OLESTARTUP
290
     0
  0
ENDSEC
  0
SECTION
  2
CLASSES
  0
CLASS
  1
DICTIONARYVAR
  2
AcDbDictionaryVar
  3
ObjectDBX Classes
 90
        0
280
     0
281
     0
  0
CLASS
  1
ACMESTATEMGR
  2
AcMeStateMgr
  3
AcMeServices
 90
     1024
280
     0
281
     0
  0
CLASS
  1
ACMESCOPE
  2
AcMeScope
  3
AcMeServices
 90
     1024
280
     0
281
     0
  0
CLASS
  1
ACMECOMMANDHISTORY
  2
AcMeCommandHistory
  3
AcMeServices
 90
     1024
280
     0
281
     0
  0
CLASS
  1
ACRFINSADJUSTERMGR
  2
AcRfInsAdjusterMgr
  3
AcMeServices
 90
     1024
280
     0
281
     0
  0
CLASS
  1
ACMEDRAWINGMAN
  2
AcMeDrawingMan
  3
AcMeServices
 90
     1024
280
     0
281
     0
  0
CLASS
  1
AMATTR
  2
AcMeAttribute
  3
AcMeServices
 90
    33792
280
     0
281
     0
  0
CLASS
  1
ACMEBOMCOLUMN
  2
AcMeBOMColumn
  3
AcMeServices
 90
    33792
280
     0
281
     0
  0
CLASS
  1
ACMEBOMCONF
  2
AcMeBOMConf
  3
AcMeServices
 90
    33792
280
     0
281
     0
  0
CLASS
  1
ACMEBOMTABLE
  2
AcMeBOMTable
  3
AcMeServices
 90
    33792
280
     0
281
     0
  0
CLASS
  1
ACMEBOMENTRY
  2
AcMeBOMEntry
  3
AcMeServices
 90
    33792
280
     0
281
     0
  0
CLASS
  1
ACMEVIEW
  2
AcMeView
  3
AcMeServices
 90
     1024
280
     0
281
     0
  0
CLASS
  1
ACGREFMASTER
  2
AcGrefMaster
  3
AcAttribServices
 90
     1024
280
     0
281
     0
  0
CLASS
  1
AMIMASTER
  2
AmiMaster
  3
AmiServices
 90
     1024
280
     0
281
     0
  0
CLASS
  1
ACASGREFMASTER
  2
AcAsGrefMaster
  3
AutoSurfResolverServices
 90
     1024
280
     0
281
     0
  0
CLASS
  1
ADAPPL
  2
AcAdAppl
  3
DesignerServices
 90
     1024
280
     0
281
     0
  0
CLASS
  1
DEPMGR
  2
AcAdDepMgr
  3
DesignerServices
 90
     1024
280
     0
281
     0
  0
CLASS
  1
PARAMMGR
  2
AcAdParamMgr
  3
DesignerServices
 90
     1024
280
     0
281
     0
  0
CLASS
  1
PARAMSCOPE
  2
AcAdParamScope
  3
DesignerServices
 90
     1024
280
     0
281
     0
  0
CLASS
  1
ACIMSYSVARMAN
  2
AcImSysVarManager
  3
AcMeServices
 90
     1024
280
     0
281
     0
  0
CLASS
  1
ACIMINTSYSVAR
  2
AcImIntSysVar
  3
AcMeServices
 90
     1024
280
     0
281
     0
  0
CLASS
  1
ACIMREALSYSVAR
  2
AcImRealSysVar
  3
AcMeServices
 90
     1024
280
     0
281
     0
  0
CLASS
  1
ACIMSTRSYSVAR
  2
AcImStrSysVar
  3
AcMeServices
 90
     1024
280
     0
281
     0
  0
CLASS
  1
NAMEDAPPL
  2
AcAdNamedAppl
  3
DesignerServices
 90
     1024
280
     0
281
     0
  0
CLASS
  1
ADHNTMPLT
  2
AdHoleNoteTemplateMgr
  3
DesignerServices
 90
    33792
280
     0
281
     0
  0
CLASS
  1
AM_HNTEMPLATE_MGR_NAME
  2
AdHoleNoteTemplateMgrName
  3
DesignerServices
 90
    33792
280
     0
281
     0
  0
CLASS
  1
ACADGREFMODULE
  2
AcAdGrefModule
  3
AdGrefServices
 90
     1024
280
     0
281
     0
  0
CLASS
  1
AM_DRAWING_MGR
  2
AcDmDwgMgr
  3
AcMechDwgViewMgmt
 90
     1024
280
     0
281
     0
  0
CLASS
  1
AM_DWG_DOCUMENT
  2
AcDmDwgDocument
  3
AcMechDwgViewMgmt
 90
     1024
280
     0
281
     0
  0
CLASS
  1
AM_DWG_SHEET
  2
AcDmSheet
  3
AcMechDwgViewMgmt
 90
     1024
280
     0
281
     0
  0
CLASS
  1
AM_VIEWDIMPARMAP
  2
AcDmViewDimParMap
  3
AcMechDwgViewMgmt
 90
     1024
280
     0
281
     0
  0
CLASS
  1
AM_DWGMGR_NAME
  2
AcDmDwgMgrName
  3
AcMechDwgViewMgmt
 90
     1024
280
     0
281
     0
  0
CLASS
  1
ACAMPROJECT
  2
AcAmProject
  3
DesignerAssemblies
 90
     1024
280
     0
281
     0
  0
CLASS
  1
ACAMGRCOMPSET
  2
AcAmGrCompSet
  3
DesignerAssemblies
 90
    32768
280
     0
281
     0
  0
CLASS
  1
ACAMGRCOMPDEFSET
  2
AcAmGrCompDefSet
  3
DesignerAssemblies
 90
     1024
280
     0
281
     0
  0
CLASS
  1
ACAMGRCOMPDEF
  2
AcAmGrCompDef
  3
DesignerAssemblies
 90
     1024
280
     0
281
     0
  0
CLASS
  1
ACCMCONTEXT
  2
AcCmContext
  3
DesignerAssemblies
 90
     1024
280
     0
281
     0
  0
CLASS
  1
ACAMCOMPDEF
  2
AcAmCompDef
  3
DesignerAssemblies
 90
     1024
280
     0
281
     0
  0
CLASS
  1
ACAMCOMPDEFMGR
  2
AcAmCompDefMgr
  3
DesignerAssemblies
 90
     1024
280
     0
281
     0
  0
CLASS
  1
AMCONTEXTMGR
  2
AcAmContextMgr
  3
DesignerAssemblies
 90
     1024
280
     0
281
     0
  0
CLASS
  1
ACAMCONTEXTMODELER
  2
AcAmContextModeler
  3
DesignerAssemblies
 90
     1024
280
     0
281
     0
  0
CLASS
  1
ACDMVIEWGEOM
  2
AcDmViewGeometry
  3
AcMechDwgViewMgmt
 90
    33792
280
     0
281
     1
  0
CLASS
  1
CBROWSERAPPOBJECT
  2
CBrowserAppObject
  3
McadcomServices
 90
     1024
280
     0
281
     0
  0
CLASS
  1
IM_STATIC_MAN
  2
AcImStaticVarManager
  3
AcMeServices
 90
     1024
280
     0
281
     0
  0
CLASS
  1
ASAPP
  2
AcAsAppObject
  3
AutoSurfServices
 90
     1024
280
     0
281
     0
  0
CLASS
  1
ACIMDBLSTATICVAR
  2
AcImDblStaticVar
  3
AcMeServices
 90
     1024
280
     0
281
     0
  0
CLASS
  1
ACIMSTRSTATICVAR
  2
AcImStrStaticVar
  3
AcMeServices
 90
     1024
280
     0
281
     0
  0
CLASS
  1
ACIMINTSTATICVAR
  2
AcImIntStaticVar
  3
AcMeServices
 90
     1024
280
     0
281
     0
  0
CLASS
  1
CATALOGSTATE
  2
AcAmCatalogState
  3
DesignerAssemblies
 90
     1024
280
     0
281
     0
  0
CLASS
  1
DM_PLACEHOLDER
  2
AcDmSelsetPlaceholder
  3
AcMechDwgViewMgmt
 90
     1024
280
     0
281
     0
  0
CLASS
  1
LAYER_INDEX
  2
AcDbLayerIndex
  3
ObjectDBX Classes
 90
        0
280
     0
281
     0
  0
CLASS
  1
IDBUFFER
  2
AcDbIdBuffer
  3
ObjectDBX Classes
 90
        0
280
     0
281
     0
  0
CLASS
  1
ACMSTANDARDJIS
  2
AcmStandardJIS
  3
"Amdt_StdImp|Product Description: AutoCAD Mechanical|Company: Autodesk, Inc."
 90
    33792
280
     0
281
     0
  0
CLASS
  1
ACMSTANDARDANSI
  2
AcmStandardANSI
  3
"Amdt_StdImp|Product Description: AutoCAD Mechanical|Company: Autodesk, Inc."
 90
     1024
280
     0
281
     0
  0
CLASS
  1
ACMSTANDARDBSI
  2
AcmStandardBSI
  3
"Amdt_StdImp|Product Description: AutoCAD Mechanical|Company: Autodesk, Inc."
 90
    33792
280
     0
281
     0
  0
CLASS
  1
ACMSTANDARDDIN
  2
AcmStandardDIN
  3
"Amdt_StdImp|Product Description: AutoCAD Mechanical|Company: Autodesk, Inc."
 90
    33792
280
     0
281
     0
  0
CLASS
  1
ACMSTANDARDISO
  2
AcmStandardISO
  3
"Amdt_StdImp|Product Description: AutoCAD Mechanical|Company: Autodesk, Inc."
 90
     1024
280
     0
281
     0
  0
CLASS
  1
ACDBDICTIONARYWDFLT
  2
AcDbDictionaryWithDefault
  3
ObjectDBX Classes
 90
        0
280
     0
281
     0
  0
CLASS
  1
ACDBPLACEHOLDER
  2
AcDbPlaceHolder
  3
ObjectDBX Classes
 90
        0
280
     0
281
     0
  0
CLASS
  1
LAYOUT
  2
AcDbLayout
  3
ObjectDBX Classes
 90
        0
280
     0
281
     0
  0
CLASS
  1
ACME_DOCUMENT
  2
AcMeDbDoc
  3
AcMeServices
 90
     1024
280
     0
281
     0
  0
CLASS
  1
AMGSETTINGSOBJ
  2
AmgSettingsObj
  3
"AcadM|Product Description: AutoCAD Mechanical|Company: Autodesk, Inc."
 90
     1024
280
     0
281
     0
  0
CLASS
  1
AMGOBJPROPCFG
  2
AmgObjPropCfg
  3
"AmgLay|Product Description: AutoCAD Mechanical|Company: Autodesk, Inc."
 90
     1025
280
     0
281
     0
  0
CLASS
  1
ACDBENTITYCACHE
  2
AcMeEntityCache
  3
AcMeServices
 90
     1024
280
     0
281
     0
  0
CLASS
  1
GSMANAGER
  2
AcMeGSManager
  3
AcMeServices
 90
     1024
280
     0
281
     0
  0
CLASS
  1
AMDTINTERNALREACTOR
  2
AmdtInternalReactor
  3
AcMeServices
 90
     1024
280
     0
281
     0
  0
CLASS
  1
ACME_DATABASE
  2
AcMeDbDatabase
  3
AcMeServices
 90
     1024
280
     0
281
     0
  0
CLASS
  1
ACGREFACADMASTER
  2
AcGrefacadMaster
  3
AcGrefServices
 90
     1024
280
     0
281
     0
  0
CLASS
  1
AMDTMENUSTATEMGR
  2
AmdtMenuStateMgr
  3
McadcomServices
 90
     1024
280
     0
281
     0
  0
CLASS
  1
AMDTMCOMMENUSTATE
  2
AmdtMcomMenuState
  3
McadcomServices
 90
     1024
280
     0
281
     0
  0
CLASS
  1
MAPIADMODULE
  2
MApiAdModule
  3
MApiAdServices
 90
     1024
280
     0
281
     0
  0
CLASS
  1
AMDTDMMENUSTATE
  2
AmdtDmMenuState
  3
AcMechDwgViewMgmt
 90
     1024
280
     0
281
     0
  0
CLASS
  1
AMDTADMENUSTATE
  2
AmdtAdMenuState
  3
DesignerServices
 90
     1024
280
     0
281
     0
  0
CLASS
  1
AMDTAMMENUSTATE
  2
AmdtAmMenuState
  3
DesignerAssemblies
 90
     1024
280
     0
281
     0
  0
CLASS
  1
ACMDATADICTIONARY
  2
AcmDataDictionary
  3
"AcmSymBB|Product Description: AutoCAD Mechanical|Company: Autodesk, Inc."
 90
     1024
280
     0
281
     0
  0
CLASS
  1
ACMDATAENTRYBLOCK
  2
AcmDataEntryBlock
  3
AcmSymBB|Product Description: AutoCAD Mechanical|Company: Autodesk, Inc.
 90
     1024
280
     0
281
     0
  0
CLASS
  1
ACMSURFSTANDARDJIS
  2
AcmSurfTextStdJIS
  3
"Amdt_StdImp|Product Description: AutoCAD Mechanical|Company: Autodesk, Inc."
 90
    33792
280
     0
281
     0
  0
CLASS
  1
ACMFCFSTANDARDJIS
  2
AcmFCFStdJIS
  3
"Amdt_StdImp|Product Description: AutoCAD Mechanical|Company: Autodesk, Inc."
 90
    33792
280
     0
281
     0
  0
CLASS
  1
ACMWELDSTANDARDJIS
  2
AcmWeldingStdJIS
  3
"Amdt_StdImp|Product Description: AutoCAD Mechanical|Company: Autodesk, Inc."
 90
    33792
280
     0
281
     0
  0
CLASS
  1
ACMIDSTANDARDJIS
  2
AcmIdStdJIS
  3
"Amdt_StdImp|Product Description: AutoCAD Mechanical|Company: Autodesk, Inc."
 90
    33792
280
     0
281
     0
  0
CLASS
  1
ACMDATUMSTANDARDJIS
  2
AcmDatumStdJIS
  3
"Amdt_StdImp|Product Description: AutoCAD Mechanical|Company: Autodesk, Inc."
 90
    33792
280
     0
281
     0
  0
CLASS
  1
ACMBOMSTANDARDJIS
  2
AcmBOMStdJIS
  3
"Amdt_StdImp|Product Description: AutoCAD Mechanical|Company: Autodesk, Inc."
 90
    33792
280
     0
281
     0
  0
CLASS
  1
ACMSURFSTANDARDANSI
  2
AcmSurfTextStdANSI
  3
"Amdt_StdImp|Product Description: AutoCAD Mechanical|Company: Autodesk, Inc."
 90
     1024
280
     0
281
     0
  0
CLASS
  1
ACMFCFSTANDARDANSI
  2
AcmFCFStdANSI
  3
"Amdt_StdImp|Product Description: AutoCAD Mechanical|Company: Autodesk, Inc."
 90
     1024
280
     0
281
     0
  0
CLASS
  1
ACMWELDSTANDARDANSI
  2
AcmWeldingStdANSI
  3
"Amdt_StdImp|Product Description: AutoCAD Mechanical|Company: Autodesk, Inc."
 90
     1024
280
     0
281
     0
  0
CLASS
  1
ACMIDSTANDARDANSI
  2
AcmIdStdANSI
  3
"Amdt_StdImp|Product Description: AutoCAD Mechanical|Company: Autodesk, Inc."
 90
     1024
280
     0
281
     0
  0
CLASS
  1
ACMDATUMSTANDARDANSI
  2
AcmDatumStdANSI
  3
"Amdt_StdImp|Product Description: AutoCAD Mechanical|Company: Autodesk, Inc."
 90
     1024
280
     0
281
     0
  0
CLASS
  1
ACMBOMSTANDARDANSI
  2
AcmBOMStdANSI
  3
"Amdt_StdImp|Product Description: AutoCAD Mechanical|Company: Autodesk, Inc."
 90
     1024
280
     0
281
     0
  0
CLASS
  1
ACMSURFSTANDARDBSI
  2
AcmSurfTextStdBSI
  3
"Amdt_StdImp|Product Description: AutoCAD Mechanical|Company: Autodesk, Inc."
 90
    33792
280
     0
281
     0
  0
CLASS
  1
ACMFCFSTANDARDBSI
  2
AcmFCFStdBSI
  3
"Amdt_StdImp|Product Description: AutoCAD Mechanical|Company: Autodesk, Inc."
 90
    33792
280
     0
281
     0
  0
CLASS
  1
ACMWELDSTANDARDBSI
  2
AcmWeldingStdBSI
  3
"Amdt_StdImp|Product Description: AutoCAD Mechanical|Company: Autodesk, Inc."
 90
    33792
280
     0
281
     0
  0
CLASS
  1
ACMIDSTANDARDBSI
  2
AcmIdStdBSI
  3
"Amdt_StdImp|Product Description: AutoCAD Mechanical|Company: Autodesk, Inc."
 90
    33792
280
     0
281
     0
  0
CLASS
  1
ACMDATUMSTANDARDBSI
  2
AcmDatumStdBSI
  3
"Amdt_StdImp|Product Description: AutoCAD Mechanical|Company: Autodesk, Inc."
 90
    33792
280
     0
281
     0
  0
CLASS
  1
ACMBOMSTANDARDBSI
  2
AcmBOMStdBSI
  3
"Amdt_StdImp|Product Description: AutoCAD Mechanical|Company: Autodesk, Inc."
 90
    33792
280
     0
281
     0
  0
CLASS
  1
AMDTEDGESTANDARDDIN
  2
AmdtEdgeStdDIN
  3
"Amdt_StdImp|Product Description: AutoCAD Mechanical|Company: Autodesk, Inc."
 90
    33792
280
     0
281
     0
  0
CLASS
  1
ACMSURFSTANDARDDIN
  2
AcmSurfTextStdDIN
  3
"Amdt_StdImp|Product Description: AutoCAD Mechanical|Company: Autodesk, Inc."
 90
    33792
280
     0
281
     0
  0
CLASS
  1
ACMFCFSTANDARDDIN
  2
AcmFCFStdDIN
  3
"Amdt_StdImp|Product Description: AutoCAD Mechanical|Company: Autodesk, Inc."
 90
    33792
280
     0
281
     0
  0
CLASS
  1
ACMWELDSTANDARDDIN
  2
AcmWeldingStdDIN
  3
"Amdt_StdImp|Product Description: AutoCAD Mechanical|Company: Autodesk, Inc."
 90
    33792
280
     0
281
     0
  0
CLASS
  1
ACMIDSTANDARDDIN
  2
AcmIdStdDIN
  3
"Amdt_StdImp|Product Description: AutoCAD Mechanical|Company: Autodesk, Inc."
 90
    33792
280
     0
281
     0
  0
CLASS
  1
ACMDATUMSTANDARDDIN
  2
AcmDatumStdDIN
  3
"Amdt_StdImp|Product Description: AutoCAD Mechanical|Company: Autodesk, Inc."
 90
    33792
280
     0
281
     0
  0
CLASS
  1
ACMBOMSTANDARDDIN
  2
AcmBOMStdDIN
  3
"Amdt_StdImp|Product Description: AutoCAD Mechanical|Company: Autodesk, Inc."
 90
    33792
280
     0
281
     0
  0
CLASS
  1
ACMSURFSTANDARDISO
  2
AcmSurfTextStdISO
  3
"Amdt_StdImp|Product Description: AutoCAD Mechanical|Company: Autodesk, Inc."
 90
     1024
280
     0
281
     0
  0
CLASS
  1
ACMFCFSTANDARDISO
  2
AcmFCFStdISO
  3
"Amdt_StdImp|Product Description: AutoCAD Mechanical|Company: Autodesk, Inc."
 90
     1024
280
     0
281
     0
  0
CLASS
  1
ACMWELDSTANDARDISO
  2
AcmWeldingStdISO
  3
"Amdt_StdImp|Product Description: AutoCAD Mechanical|Company: Autodesk, Inc."
 90
     1024
280
     0
281
     0
  0
CLASS
  1
ACMIDSTANDARDISO
  2
AcmIdStdISO
  3
"Amdt_StdImp|Product Description: AutoCAD Mechanical|Company: Autodesk, Inc."
 90
     1024
280
     0
281
     0
  0
CLASS
  1
ACMDATUMSTANDARDISO
  2
AcmDatumStdISO
  3
"Amdt_StdImp|Product Description: AutoCAD Mechanical|Company: Autodesk, Inc."
 90
     1024
280
     0
281
     0
  0
CLASS
  1
ACMBOMSTANDARDISO
  2
AcmBOMStdISO
  3
"Amdt_StdImp|Product Description: AutoCAD Mechanical|Company: Autodesk, Inc."
 90
     1024
280
     0
281
     0
  0
CLASS
  1
AMDTBROWSERDBTAB
  2
AmdtBrowserDbTab
  3
McadcomServices
 90
     1024
280
     0
281
     0
  0
CLASS
  1
ACAMGFILTERDAT
  2
AcAmgFilterDat
  3
"AcadM|Product Description: AutoCAD Mechanical|Company: Autodesk, Inc."
 90
     1024
280
     0
281
     0
  0
CLASS
  1
MAPIAMMOUDLE
  2
MApiAmModule
  3
MApiAmServices
 90
     1024
280
     0
281
     0
  0
CLASS
  1
AMDTMAPISURFMOUDULE
  2
AmdtMApiSurfModule
  3
MApiSurfServices
 90
     1024
280
     0
281
     0
  0
CLASS
  1
ACAMGLAYSTD
  2
AcAmgLayStd
  3
"AmgLay|Product Description: AutoCAD Mechanical|Company: Autodesk, Inc."
 90
     1024
280
     0
281
     0
  0
CLASS
  1
ACAMGDIMSTD
  2
AcAmgDimStd
  3
"AmgDim|Product Description: AutoCAD Mechanical|Company: Autodesk, Inc."
 90
     1024
280
     0
281
     0
  0
CLASS
  1
ACAMGTITLESTD
  2
AcAmgTitleStd
  3
"AmgTitle|Product Description: AutoCAD Mechanical|Company: Autodesk, Inc."
 90
     4095
280
     0
281
     0
  0
CLASS
  1
ACMDETAILSTANDARDJIS
  2
AmdtDetailSymStdJIS
  3
"Amdt_StdImp|Product Description: AutoCAD Mechanical|Company: Autodesk, Inc."
 90
    33792
280
     0
281
     0
  0
CLASS
  1
ACMSECTIONSTANDARDJIS
  2
AmdtSectionSymStdJIS
  3
"Amdt_StdImp|Product Description: AutoCAD Mechanical|Company: Autodesk, Inc."
 90
    33792
280
     0
281
     0
  0
CLASS
  1
ACMCENTERLINESTANDARDJIS
  2
AmdtCenterLineStdJIS
  3
"Amdt_StdImp|Product Description: AutoCAD Mechanical|Company: Autodesk, Inc."
 90
    33792
280
     0
281
     0
  0
CLASS
  1
ACMTHREADLINESTANDARDJIS
  2
AmdtThreadLineStdJIS
  3
"Amdt_StdImp|Product Description: AutoCAD Mechanical|Company: Autodesk, Inc."
 90
    33792
280
     0
281
     0
  0
CLASS
  1
ACMDETAILSTANDARDANSI
  2
AmdtDetailSymStdANSI
  3
"Amdt_StdImp|Product Description: AutoCAD Mechanical|Company: Autodesk, Inc."
 90
     1024
280
     0
281
     0
  0
CLASS
  1
ACMSECTIONSTANDARDANSI
  2
AmdtSectionSymStdANSI
  3
"Amdt_StdImp|Product Description: AutoCAD Mechanical|Company: Autodesk, Inc."
 90
     1024
280
     0
281
     0
  0
CLASS
  1
ACMCENTERLINESTANDARDANSI
  2
AmdtCenterLineStdANSI
  3
"Amdt_StdImp|Product Description: AutoCAD Mechanical|Company: Autodesk, Inc."
 90
     1024
280
     0
281
     0
  0
CLASS
  1
ACMTHREADLINESTANDARDANSI
  2
AmdtThreadLineStdANSI
  3
"Amdt_StdImp|Product Description: AutoCAD Mechanical|Company: Autodesk, Inc."
 90
     1024
280
     0
281
     0
  0
CLASS
  1
ACMDETAILSTANDARDBSI
  2
AmdtDetailSymStdBSI
  3
"Amdt_StdImp|Product Description: AutoCAD Mechanical|Company: Autodesk, Inc."
 90
    33792
280
     0
281
     0
  0
CLASS
  1
ACMSECTIONSTANDARDBSI
  2
AmdtSectionSymStdBSI
  3
"Amdt_StdImp|Product Description: AutoCAD Mechanical|Company: Autodesk, Inc."
 90
    33792
280
     0
281
     0
  0
CLASS
  1
ACMCENTERLINESTANDARDBSI
  2
AmdtCenterLineStdBSI
  3
"Amdt_StdImp|Product Description: AutoCAD Mechanical|Company: Autodesk, Inc."
 90
    33792
280
     0
281
     0
  0
CLASS
  1
ACMTHREADLINESTANDARDBSI
  2
AmdtThreadLineStdBSI
  3
"Amdt_StdImp|Product Description: AutoCAD Mechanical|Company: Autodesk, Inc."
 90
    33792
280
     0
281
     0
  0
CLASS
  1
ACMDETAILSTANDARDDIN
  2
AmdtDetailSymStdDIN
  3
"Amdt_StdImp|Product Description: AutoCAD Mechanical|Company: Autodesk, Inc."
 90
    33792
280
     0
281
     0
  0
CLASS
  1
ACMSECTIONSTANDARDDIN
  2
AmdtSectionSymStdDIN
  3
"Amdt_StdImp|Product Description: AutoCAD Mechanical|Company: Autodesk, Inc."
 90
    33792
280
     0
281
     0
  0
CLASS
  1
ACMCENTERLINESTANDARDDIN
  2
AmdtCenterLineStdDIN
  3
"Amdt_StdImp|Product Description: AutoCAD Mechanical|Company: Autodesk, Inc."
 90
    33792
280
     0
281
     0
  0
CLASS
  1
ACMTHREADLINESTANDARDDIN
  2
AmdtThreadLineStdDIN
  3
"Amdt_StdImp|Product Description: AutoCAD Mechanical|Company: Autodesk, Inc."
 90
    33792
280
     0
281
     0
  0
CLASS
  1
AMDTEDGESTANDARDISO
  2
AmdtEdgeStdISO
  3
"Amdt_StdImp|Product Description: AutoCAD Mechanical|Company: Autodesk, Inc."
 90
     1024
280
     0
281
     0
  0
CLASS
  1
ACMDETAILSTANDARDISO
  2
AmdtDetailSymStdISO
  3
"Amdt_StdImp|Product Description: AutoCAD Mechanical|Company: Autodesk, Inc."
 90
     1024
280
     0
281
     0
  0
CLASS
  1
ACMSECTIONSTANDARDISO
  2
AmdtSectionSymStdISO
  3
"Amdt_StdImp|Product Description: AutoCAD Mechanical|Company: Autodesk, Inc."
 90
     1024
280
     0
281
     0
  0
CLASS
  1
ACMCENTERLINESTANDARDISO
  2
AmdtCenterLineStdISO
  3
"Amdt_StdImp|Product Description: AutoCAD Mechanical|Company: Autodesk, Inc."
 90
     1024
280
     0
281
     0
  0
CLASS
  1
ACMTHREADLINESTANDARDISO
  2
AmdtThreadLineStdISO
  3
"Amdt_StdImp|Product Description: AutoCAD Mechanical|Company: Autodesk, Inc."
 90
     1024
280
     0
281
     0
  0
CLASS
  1
ACMNOTESTANDARDISO
  2
AmdtNoteStdISO
  3
"Amdt_StdImp|Product Description: AutoCAD Mechanical|Company: Autodesk, Inc."
 90
     1024
280
     0
281
     0
  0
CLASS
  1
ACAMGHOLECHARTSTDISO
  2
AcAmgHoleChartStdISO
  3
AmgDim|Product Description: AutoCAD Mechanical|Company: Autodesk, Inc.
 90
     1024
280
     0
281
     0
  0
CLASS
  1
ACMNOTESTANDARDANSI
  2
AmdtNoteStdANSI
  3
"Amdt_StdImp|Product Description: AutoCAD Mechanical|Company: Autodesk, Inc."
 90
     1024
280
     0
281
     0
  0
CLASS
  1
AMDTNOTETEMPLATEDB
  2
AmdtNoteTemplateDB
  3
AcmSymBB|Product Description: AutoCAD Mechanical|Company: Autodesk, Inc.
 90
     1024
280
     0
281
     0
  0
CLASS
  1
ACAMGHOLECHARTSTDANSI
  2
AcAmgHoleChartStdANSI
  3
AmgDim|Product Description: AutoCAD Mechanical|Company: Autodesk, Inc.
 90
     1024
280
     0
281
     0
  0
CLASS
  1
TABLESTYLE
  2
AcDbTableStyle
  3
ObjectDBX Classes
 90
     4095
280
     0
281
     0
  0
CLASS
  1
ACAD_TABLE
  2
AcDbTable
  3
ObjectDBX Classes
 90
    33793
280
     0
281
     1
  0
CLASS
  1
MATERIAL
  2
AcDbMaterial
  3
ObjectDBX Classes
 90
     1153
280
     0
281
     0
  0
CLASS
  1
VISUALSTYLE
  2
AcDbVisualStyle
  3
ObjectDBX Classes
 90
     4095
280
     0
281
     0
  0
CLASS
  1
SCALE
  2
AcDbScale
  3
ObjectDBX Classes
 90
     1153
280
     0
281
     0
  0
CLASS
  1
MLEADERSTYLE
  2
AcDbMLeaderStyle
  3
ACDB_MLEADERSTYLE_CLASS
 90
     4095
280
     0
281
     0
  0
CLASS
  1
ACRFATTGENMGR
  2
AcRfAttGeneralMgr
  3
AcAttribServices
 90
     1024
280
     0
281
     0
  0
CLASS
  1
ACRFOBJATTMGR
  2
AcRfObjAttGroupMgr
  3
AcAttribServices
 90
     1024
280
     0
281
     0
  0
CLASS
  1
ACRFMCADAPIATTHOLDER
  2
AcRfMCADAPIAttHolder
  3
AcAttribServices
 90
     1024
280
     0
281
     0
  0
CLASS
  1
AMDTSYSATTR
  2
AmdtSystemAttribute
  3
AcAttribServices
 90
     1024
280
     0
281
     0
  0
CLASS
  1
ACMTAPERSTANDARDISO
  2
AcmTaperStdISO
  3
"Amdt_StdImp|Product Description: AutoCAD Mechanical|Company: Autodesk, Inc."
 90
     1024
280
     0
281
     0
  0
CLASS
  1
ACMANOOTATIONVIEWSTANDARDISO
  2
AmdtAnViewStdISO
  3
"Amdt_StdImp|Product Description: AutoCAD Mechanical|Company: Autodesk, Inc."
 90
     1024
280
     0
281
     0
  0
CLASS
  1
ACMTAPERSTANDARDANSI
  2
AcmTaperStdANSI
  3
"Amdt_StdImp|Product Description: AutoCAD Mechanical|Company: Autodesk, Inc."
 90
     1024
280
     0
281
     0
  0
CLASS
  1
ACMANOOTATIONVIEWSTANDARDANSI
  2
AmdtAnViewStdANSI
  3
"Amdt_StdImp|Product Description: AutoCAD Mechanical|Company: Autodesk, Inc."
 90
     1024
280
     0
281
     0
  0
CLASS
  1
CELLSTYLEMAP
  2
AcDbCellStyleMap
  3
ObjectDBX Classes
 90
     1152
280
     0
281
     0
  0
CLASS
  1
CAMSSTRUCTBTNSTATE
  2
StructBtnState
  3
DesignerAssemblies
 90
    33792
280
     0
281
     0
  0
CLASS
  1
DIMASSOC
  2
AcDbDimAssoc
  3
"AcDbDimAssoc|Product Desc:     AcDim ARX App For Dimension|Company:          Autodesk, Inc.|WEB Address:      www.autodesk.com"
 90
    32768
280
     0
281
     0
  0
CLASS
  1
SORTENTSTABLE
  2
AcDbSortentsTable
  3
ObjectDBX Classes
 90
        0
280
     0
281
     0
  0
CLASS
  1
AEC_REFEDIT_STATUS_TRACKER
  2
AecDbRefEditStatusTracker
  3
AecArchBase50|Product Desc: Autodesk Architectural Desktop 2007 |Company: Autodesk,Inc. |WEB Address: www.autodesk.com
 90
      129
280
     0
281
     0
  0
CLASS
  1
NPOCOLLECTION
  2
AcDbImpNonPersistentObjectsCollection
  3
ObjectDBX Classes
 90
     1153
280
     0
281
     0
  0
ENDSEC
  0
SECTION
  2
TABLES
  0
TABLE
  2
VPORT
  5
8
330
0
100
AcDbSymbolTable
 70
     1
  0
VPORT
  5
A35
330
8
100
AcDbSymbolTableRecord
100
AcDbViewportTableRecord
  2
*Active
 70
     0
 10
0.0
 20
0.0
 11
1.0
 21
1.0
 12
-20.91620266135783
 22
-75.54474390823802
 13
0.0
 23
0.0
 14
2.5
 24
2.5
 15
10.0
 25
10.0
 16
0.0
 26
0.0
 36
1.0
 17
52.24003314668195
 27
154.2108585830673
 37
0.0
 40
466.3085275587553
 41
0.4650059311981021
 42
50.0
 43
0.0
 44
0.0
 50
0.0
 51
0.0
 71
     0
 72
   100
 73
     1
 74
     1
 75
     0
 76
     0
 77
     0
 78
     0
281
     0
 65
     0
110
0.0
120
0.0
130
0.0
111
1.0
121
0.0
131
0.0
112
0.0
122
1.0
132
0.0
 79
     0
146
0.0
  0
ENDTAB
  0
TABLE
  2
LTYPE
  5
5
330
0
100
AcDbSymbolTable
 70
    21
  0
LTYPE
  5
14
330
5
100
AcDbSymbolTableRecord
100
AcDbLinetypeTableRecord
  2
BYBLOCK
 70
     0
  3

 72
    65
 73
     0
 40
0.0
  0
LTYPE
  5
15
330
5
100
AcDbSymbolTableRecord
100
AcDbLinetypeTableRecord
  2
BYLAYER
 70
     0
  3

 72
    65
 73
     0
 40
0.0
  0
LTYPE
  5
16
330
5
100
AcDbSymbolTableRecord
100
AcDbLinetypeTableRecord
  2
CONTINUOUS
 70
     0
  3
Solid line
 72
    65
 73
     0
 40
0.0
  0
LTYPE
  5
BD
330
5
100
AcDbSymbolTableRecord
100
AcDbLinetypeTableRecord
  2
HIDDEN
 70
     0
  3
__ __ __ __ __ __ __ __ __ __ __ __ __ __ __ __
 72
    65
 73
     2
 40
0.375
 49
0.25
 74
     0
 49
-0.125
 74
     0
  0
LTYPE
  5
BF
330
5
100
AcDbSymbolTableRecord
100
AcDbLinetypeTableRecord
  2
PHANTOM2
 70
     0
  3
___ _ _ ___ _ _ ___ _ _ ___ _ _ ___ _ _ ___ _ _
 72
    65
 73
     6
 40
1.25
 49
0.625
 74
     0
 49
-0.125
 74
     0
 49
0.125
 74
     0
 49
-0.125
 74
     0
 49
0.125
 74
     0
 49
-0.125
 74
     0
  0
LTYPE
  5
CA
330
5
100
AcDbSymbolTableRecord
100
AcDbLinetypeTableRecord
  2
CENTER
 70
     0
  3
____ _ ____ _ ____ _ ____ _ ____ _ ____ _ ____ 
 72
    65
 73
     4
 40
2.0
 49
1.25
 74
     0
 49
-0.25
 74
     0
 49
0.25
 74
     0
 49
-0.25
 74
     0
  0
LTYPE
  5
14D
330
5
100
AcDbSymbolTableRecord
100
AcDbLinetypeTableRecord
  2
ACANSTGB
 70
     0
  3
__ . . __ . .
 72
    65
 73
     6
 40
0.35433070866
 49
0.15748031496
 74
     0
 49
-0.03937007874
 74
     0
 49
0.03937007874
 74
     0
 49
-0.03937007874
 74
     0
 49
0.03937007874
 74
     0
 49
-0.03937007874
 74
     0
  0
LTYPE
  5
14E
330
5
100
AcDbSymbolTableRecord
100
AcDbLinetypeTableRecord
  2
ACANSTGL
 70
     0
  3
_ _ _ _ _
 72
    65
 73
     2
 40
0.11811023622
 49
0.07874015748
 74
     0
 49
-0.03937007874
 74
     0
  0
LTYPE
  5
15B
330
5
100
AcDbSymbolTableRecord
100
AcDbLinetypeTableRecord
  2
ACISOWELD
 70
     0
  3
_ _ _ _ _
 72
    65
 73
     2
 40
2.0
 49
2.0
 74
     0
 49
-1.0
 74
     0
  0
LTYPE
  5
15C
330
5
100
AcDbSymbolTableRecord
100
AcDbLinetypeTableRecord
  2
ACISOTGB
 70
     0
  3
__ . . __ . .
 72
    65
 73
     6
 40
9.0
 49
4.0
 74
     0
 49
-1.0
 74
     0
 49
1.0
 74
     0
 49
-1.0
 74
     0
 49
1.0
 74
     0
 49
-1.0
 74
     0
  0
LTYPE
  5
15D
330
5
100
AcDbSymbolTableRecord
100
AcDbLinetypeTableRecord
  2
ACISOTGL
 70
     0
  3
_ _ _ _ _
 72
    65
 73
     2
 40
3.0
 49
2.0
 74
     0
 49
-1.0
 74
     0
  0
LTYPE
  5
175
330
5
100
AcDbSymbolTableRecord
100
AcDbLinetypeTableRecord
  2
AM_ISO02W050
 70
     0
  3
__ __ __ __ __ __ __ __ __ __ __ __ __ __ __
 72
    65
 73
     2
 40
7.5
 49
6.0
 74
     0
 49
-1.5
 74
     0
  0
LTYPE
  5
176
330
5
100
AcDbSymbolTableRecord
100
AcDbLinetypeTableRecord
  2
AM_ISO08W050
 70
     0
  3
____ . ____ . ____ . ____ . ____ . ____ . ____
 72
    65
 73
     4
 40
18.0
 49
12.0
 74
     0
 49
-1.5
 74
     0
 49
3.0
 74
     0
 49
-1.5
 74
     0
  0
LTYPE
  5
177
330
5
100
AcDbSymbolTableRecord
100
AcDbLinetypeTableRecord
  2
AM_ISO09W050
 70
     0
  3
_____ . . _____ . . _____ . . ____ .. ____
 72
    65
 73
     6
 40
22.5
 49
12.0
 74
     0
 49
-1.5
 74
     0
 49
3.0
 74
     0
 49
-1.5
 74
     0
 49
3.0
 74
     0
 49
-1.5
 74
     0
  0
LTYPE
  5
178
330
5
100
AcDbSymbolTableRecord
100
AcDbLinetypeTableRecord
  2
AM_ISO02W050x2
 70
     0
  3
 _ _ _ _ _ _ _ _ _ _ _ _
 72
    65
 73
     2
 40
3.75
 49
3.0
 74
     0
 49
-0.75
 74
     0
  0
LTYPE
  5
179
330
5
100
AcDbSymbolTableRecord
100
AcDbLinetypeTableRecord
  2
AM_ISO08W050x2
 70
     0
  3
__ . __ . __ . __ . __ . __
 72
    65
 73
     4
 40
9.0
 49
6.0
 74
     0
 49
-0.75
 74
     0
 49
1.5
 74
     0
 49
-0.75
 74
     0
  0
LTYPE
  5
17C
330
5
100
AcDbSymbolTableRecord
100
AcDbLinetypeTableRecord
  2
Amzigzag
 70
     0
  3
/\/-/\/-/\/-/\/-/\/-/\/
 72
    65
 73
     2
 40
11.0001
 49
0.0001
 74
     4
 75
   135
340
17B
 46
0.04
 50
0.0
 44
0.0
 45
0.0
 49
-11.0
 74
     0
  0
LTYPE
  5
2ED
330
5
100
AcDbSymbolTableRecord
100
AcDbLinetypeTableRecord
  2
Amconstr
 70
     0
  3
_______________________
 72
    65
 73
     2
 40
9999.0
 49
9999.0
 74
     0
 49
0.0
 74
     0
  0
LTYPE
  5
2F8
330
5
100
AcDbSymbolTableRecord
100
AcDbLinetypeTableRecord
  2
CENTER2
 70
     0
  3
Center (.5x) ___ _ ___ _ ___ _ ___ _ ___ _ ___
 72
    65
 73
     4
 40
1.125
 49
0.75
 74
     0
 49
-0.125
 74
     0
 49
0.125
 74
     0
 49
-0.125
 74
     0
  0
LTYPE
  5
2F9
330
5
100
AcDbSymbolTableRecord
100
AcDbLinetypeTableRecord
  2
HIDDEN2
 70
     0
  3
Hidden (.5x) _ _ _ _ _ _ _ _ _ _ _ _ _ _ _ _ _
 72
    65
 73
     2
 40
0.1875
 49
0.125
 74
     0
 49
-0.0625
 74
     0
  0
LTYPE
  5
2FA
330
5
100
AcDbSymbolTableRecord
100
AcDbLinetypeTableRecord
  2
Amzigzag2
 70
     0
  3
/\/-/\/-/\/-/\/-/\/-/\/
 72
    65
 73
     2
 40
0.4401
 49
0.0001
 74
     4
 75
   135
340
17B
 46
0.0016
 50
0.0
 44
0.0
 45
0.0
 49
-0.4400000000000001
 74
     0
  0
ENDTAB
  0
TABLE
  2
LAYER
  5
2
102
{ACAD_XDICTIONARY
360
592
102
}
330
0
100
AcDbSymbolTable
 70
     5
  0
LAYER
  5
F
102
{ACAD_XDICTIONARY
360
AB7
102
}
330
2
100
AcDbSymbolTableRecord
100
AcDbLayerTableRecord
  2
0
 70
     0
 62
     7
  6
CONTINUOUS
370
    -3
390
166
  0
LAYER
  5
5CF
102
{ACAD_XDICTIONARY
360
AB9
102
}
330
2
100
AcDbSymbolTableRecord
100
AcDbLayerTableRecord
  2
AM_0
 70
     0
 62
     7
  6
CONTINUOUS
370
    50
390
166
  0
LAYER
  5
CDF
102
{ACAD_XDICTIONARY
360
1315
102
}
330
2
100
AcDbSymbolTableRecord
100
AcDbLayerTableRecord
  2
AM_VIS
 70
     2
 62
     7
  6
CONTINUOUS
370
    50
390
166
1001
AcAecLayerStandard
1000

1000

  0
LAYER
  5
102C
102
{ACAD_XDICTIONARY
360
1317
102
}
330
2
100
AcDbSymbolTableRecord
100
AcDbLayerTableRecord
  2
AM_5
 70
     0
 62
     3
  6
CONTINUOUS
370
    25
390
166
1001
AcAecLayerStandard
1000

1000

  0
LAYER
  5
1030
330
2
100
AcDbSymbolTableRecord
100
AcDbLayerTableRecord
  2
Defpoints
 70
     0
 62
     7
  6
CONTINUOUS
290
     0
370
    -3
390
166
  0
ENDTAB
  0
TABLE
  2
STYLE
  5
3
330
0
100
AcDbSymbolTable
 70
     6
  0
STYLE
  5
10
330
3
100
AcDbSymbolTableRecord
100
AcDbTextStyleTableRecord
  2
STANDARD
 70
     0
 40
0.0
 41
1.0
 50
0.0
 71
     0
 42
3.5
  3
ISOCP.SHX
  4

  0
STYLE
  5
14C
330
3
100
AcDbSymbolTableRecord
100
AcDbTextStyleTableRecord
  2
ACANSGDT
 70
     0
 40
0.0
 41
1.0
 50
0.0
 71
     0
 42
3.5
  3
amgdt.shx
  4

  0
STYLE
  5
159
330
3
100
AcDbSymbolTableRecord
100
AcDbTextStyleTableRecord
  2
ACISOTS
 70
     0
 40
1.0
 41
1.0
 50
0.0
 71
     0
 42
2.5
  3
isocp.shx
  4

  0
STYLE
  5
15A
330
3
100
AcDbSymbolTableRecord
100
AcDbTextStyleTableRecord
  2
ACISOGDT
 70
     0
 40
0.0
 41
1.0
 50
0.0
 71
     0
 42
2.5
  3
amgdt.shx
  4

  0
STYLE
  5
17B
330
3
100
AcDbSymbolTableRecord
100
AcDbTextStyleTableRecord
  2

 70
     1
 40
0.0
 41
1.0
 50
0.0
 71
     0
 42
3.5
  3
ltypeshp.shx
  4

  0
STYLE
  5
425
330
3
100
AcDbSymbolTableRecord
100
AcDbTextStyleTableRecord
  2
ACANSTS
 70
     0
 40
1.0
 41
1.0
 50
0.0
 71
     0
 42
3.5
  3
romans.shx
  4

  0
ENDTAB
  0
TABLE
  2
VIEW
  5
6
330
0
100
AcDbSymbolTable
 70
     3
  0
VIEW
  5
1C8
330
6
100
AcDbSymbolTableRecord
100
AcDbViewTableRecord
  2
AMDTVIEW1
 70
     0
 40
329.0721649484536
 10
210.0
 20
164.5360824742268
 41
420.0
 11
0.0
 21
0.0
 31
1.0
 12
0.0
 22
0.0
 32
0.0
 42
50.0
 43
0.0
 44
0.0
 50
0.0
 71
     0
281
     0
 72
     0
  0
VIEW
  5
1C9
330
6
100
AcDbSymbolTableRecord
100
AcDbViewTableRecord
  2
AMDTVIEW2
 70
     0
 40
329.0721649484536
 10
210.0
 20
164.5360824742268
 41
420.0
 11
0.0
 21
0.0
 31
1.0
 12
0.0
 22
0.0
 32
0.0
 42
50.0
 43
0.0
 44
0.0
 50
0.0
 71
     0
281
     0
 72
     0
  0
VIEW
  5
1CA
330
6
100
AcDbSymbolTableRecord
100
AcDbViewTableRecord
  2
AMDTVIEW3
 70
     0
 40
329.0721649484536
 10
210.0
 20
164.5360824742268
 41
420.0
 11
0.0
 21
0.0
 31
1.0
 12
0.0
 22
0.0
 32
0.0
 42
50.0
 43
0.0
 44
0.0
 50
0.0
 71
     0
281
     0
 72
     0
  0
ENDTAB
  0
TABLE
  2
UCS
  5
7
330
0
100
AcDbSymbolTable
 70
     0
  0
ENDTAB
  0
TABLE
  2
APPID
  5
9
330
0
100
AcDbSymbolTable
 70
    24
  0
APPID
  5
11
330
9
100
AcDbSymbolTableRecord
100
AcDbRegAppTableRecord
  2
ACAD
 70
     0
  0
APPID
  5
CD
330
9
100
AcDbSymbolTableRecord
100
AcDbRegAppTableRecord
  2
AD_DRAW
 70
     0
  0
APPID
  5
E7
330
9
100
AcDbSymbolTableRecord
100
AcDbRegAppTableRecord
  2
DESIGNERASSEMBLIES
 70
     0
  0
APPID
  5
EB
330
9
100
AcDbSymbolTableRecord
100
AcDbRegAppTableRecord
  2
MCAD_NO_VIS
 70
     0
  0
APPID
  5
122
330
9
100
AcDbSymbolTableRecord
100
AcDbRegAppTableRecord
  2
ASURF_PCURVE_APPNAME
 70
     0
  0
APPID
  5
17F
330
9
100
AcDbSymbolTableRecord
100
AcDbRegAppTableRecord
  2
ACAD_TEMP_GRAPHIC
 70
     0
  0
APPID
  5
189
330
9
100
AcDbSymbolTableRecord
100
AcDbRegAppTableRecord
  2
ACATTRIBSERVICES
 70
     0
  0
APPID
  5
1C4
330
9
100
AcDbSymbolTableRecord
100
AcDbRegAppTableRecord
  2
ACADM_DIM_EDIT
 70
     0
  0
APPID
  5
1D5
330
9
100
AcDbSymbolTableRecord
100
AcDbRegAppTableRecord
  2
GENIUS_GENDIM_13
 70
     0
  0
APPID
  5
1D6
330
9
100
AcDbSymbolTableRecord
100
AcDbRegAppTableRecord
  2
GENIUS_GENDTOL_13
 70
     0
  0
APPID
  5
1D7
330
9
100
AcDbSymbolTableRecord
100
AcDbRegAppTableRecord
  2
GENIUS_GE3DTOL_13
 70
     0
  0
APPID
  5
2E9
330
9
100
AcDbSymbolTableRecord
100
AcDbRegAppTableRecord
  2
AMG_3D2D_5.0
 70
     0
  0
APPID
  5
3C0
330
9
100
AcDbSymbolTableRecord
100
AcDbRegAppTableRecord
  2
AMDT_DM_ADJ
 70
     0
  0
APPID
  5
82F
330
9
100
AcDbSymbolTableRecord
100
AcDbRegAppTableRecord
  2
ACAD_PSEXT
 70
     0
  0
APPID
  5
84A
330
9
100
AcDbSymbolTableRecord
100
AcDbRegAppTableRecord
  2
DCO15
 70
     0
  0
APPID
  5
892
330
9
100
AcDbSymbolTableRecord
100
AcDbRegAppTableRecord
  2
ACAD_DSTYLE_DIMTEXT_FILL
 70
     0
  0
APPID
  5
A74
330
9
100
AcDbSymbolTableRecord
100
AcDbRegAppTableRecord
  2
ACAD_MLEADERVER
 70
     0
  0
APPID
  5
AB1
330
9
100
AcDbSymbolTableRecord
100
AcDbRegAppTableRecord
  2
AcAecLayerStandard
 70
     0
  0
APPID
  5
1048
330
9
100
AcDbSymbolTableRecord
100
AcDbRegAppTableRecord
  2
ACAD_DSTYLE_DIMINSPECT
 70
     0
  0
APPID
  5
10A6
330
9
100
AcDbSymbolTableRecord
100
AcDbRegAppTableRecord
  2
GENIUS_GENDIMSH_14
 70
     0
  0
APPID
  5
1325
330
9
100
AcDbSymbolTableRecord
100
AcDbRegAppTableRecord
  2
AcDbAttr
 70
     0
  0
APPID
  5
1440
330
9
100
AcDbSymbolTableRecord
100
AcDbRegAppTableRecord
  2
GENIUS_GENSCREG_15
 70
     0
  0
APPID
  5
1441
330
9
100
AcDbSymbolTableRecord
100
AcDbRegAppTableRecord
  2
GENIUS_GENOBJ-N-SDF_13
 70
     0
  0
APPID
  5
1442
330
9
100
AcDbSymbolTableRecord
100
AcDbRegAppTableRecord
  2
GENIUS_GENODEF_13
 70
     0
  0
ENDTAB
  0
TABLE
  2
DIMSTYLE
  5
A
330
0
100
AcDbSymbolTable
 70
    14
100
AcDbDimStyleTable
 71
     2
340
344
340
31B
  0
DIMSTYLE
105
31C
330
A
100
AcDbSymbolTableRecord
100
AcDbDimStyleTableRecord
  2
AM_ANSI$3
 70
     0
  4
mm
 41
0.1
 42
0.05
 43
0.5
 44
0.1
 47
0.1
 48
0.1
 78
     7
 79
     2
140
0.12
141
0.0
146
0.71
147
0.06
176
   256
177
   256
178
     2
274
     4
284
     7
288
     1
289
     0
340
10
371
    -1
372
    -1
  0
DIMSTYLE
105
31D
330
A
100
AcDbSymbolTableRecord
100
AcDbDimStyleTableRecord
  2
AM_ANSI$4
 70
     0
  4
mm
 41
0.1
 42
0.05
 43
0.5
 44
0.1
 47
0.1
 48
0.1
 78
     7
 79
     2
140
0.12
141
0.0
146
0.71
147
0.06
176
   256
177
   256
178
     2
274
     4
284
     7
288
     1
289
     0
340
10
371
    -1
372
    -1
  0
DIMSTYLE
105
31E
330
A
100
AcDbSymbolTableRecord
100
AcDbDimStyleTableRecord
  2
AM_ANSI$7
 70
     0
  4
mm
 41
0.1
 42
0.05
 43
0.5
 44
0.1
 47
0.1
 48
0.1
 78
     7
 79
     2
140
0.24
141
0.0
146
0.71
147
0.06
176
   256
177
   256
178
     2
274
     4
284
     7
340
10
371
    -1
372
    -1
  0
DIMSTYLE
105
31F
330
A
100
AcDbSymbolTableRecord
100
AcDbDimStyleTableRecord
  2
AM_ANSI$SF
 70
     0
  4
mm
 41
0.1
 42
0.05
 43
0.5
 44
0.1
 47
0.1
 48
0.1
 75
     1
 76
     1
 78
     7
 79
     2
140
0.12
141
0.0
146
0.71
147
0.06
176
   256
177
   256
178
     2
274
     4
284
     7
340
10
371
    -1
372
    -1
  0
DIMSTYLE
105
320
330
A
100
AcDbSymbolTableRecord
100
AcDbDimStyleTableRecord
  2
AM_ANSI$SH
 70
     0
  4
mm
 41
0.1
 42
0.05
 43
0.5
 44
0.1
 47
0.1
 48
0.1
 75
     1
 76
     1
 78
     7
 79
     2
140
0.12
141
0.0
146
0.71
147
0.06
173
     1
176
   256
177
   256
178
     2
274
     4
284
     7
340
10
343
2F4
371
    -1
372
    -1
  0
DIMSTYLE
105
344
330
A
100
AcDbSymbolTableRecord
100
AcDbDimStyleTableRecord
  2
AM_ISO
 70
     0
  4
"
 41
2.5
 42
1.0
 43
10.0
 44
1.0
 47
0.1
 48
0.1
 73
     0
 74
     0
 77
     1
 78
     8
 79
     2
140
3.5
141
0.0
143
0.0393701
146
0.71
147
1.5
171
     3
172
     1
176
   256
177
   256
178
     2
271
     2
272
     2
274
     3
283
     0
284
     8
340
10
371
    -1
372
    -1
  0
DIMSTYLE
105
345
330
A
100
AcDbSymbolTableRecord
100
AcDbDimStyleTableRecord
  2
AM_ISO$3
 70
     0
  4
"
 41
2.5
 42
1.0
 43
10.0
 44
1.0
 47
0.1
 48
0.1
 73
     0
 77
     1
 78
     8
 79
     2
140
3.5
141
0.0
143
0.0393701
146
0.71
147
1.5
176
   256
177
   256
178
     2
271
     2
272
     3
274
     4
283
     0
284
     8
288
     1
289
     0
340
10
371
    -1
372
    -1
  0
DIMSTYLE
105
346
330
A
100
AcDbSymbolTableRecord
100
AcDbDimStyleTableRecord
  2
AM_ISO$4
 70
     0
  4
"
 41
2.5
 42
1.0
 43
10.0
 44
1.0
 47
0.1
 48
0.1
 73
     0
 77
     1
 78
     8
 79
     2
140
3.5
141
0.0
143
0.0393701
146
0.71
147
1.5
176
   256
177
   256
178
     2
271
     2
272
     3
274
     4
283
     0
284
     8
288
     1
289
     0
340
10
371
    -1
372
    -1
  0
DIMSTYLE
105
347
330
A
100
AcDbSymbolTableRecord
100
AcDbDimStyleTableRecord
  2
AM_ISO$6
 70
     0
  4
"
 41
2.5
 42
1.0
 43
10.0
 44
1.0
 47
0.1
 48
0.1
 73
     0
 74
     0
 78
     8
 79
     2
140
3.5
141
0.0
143
0.0393701
146
0.71
147
1.5
172
     1
176
   256
177
   256
178
     2
271
     2
272
     3
274
     4
283
     0
284
     8
340
10
371
    -1
372
    -1
  0
DIMSTYLE
105
348
330
A
100
AcDbSymbolTableRecord
100
AcDbDimStyleTableRecord
  2
AM_ISO$7
 70
     0
  4
"
 41
2.5
 42
1.0
 43
10.0
 44
1.0
 47
0.1
 48
0.1
 73
     0
 74
     0
 77
     1
 78
     8
 79
     2
140
5.0
141
0.0
143
0.0393701
146
0.71
147
1.5
172
     1
176
   256
177
   256
178
     2
271
     2
272
     3
274
     4
283
     0
284
     8
340
10
371
    -1
372
    -1
  0
DIMSTYLE
105
349
330
A
100
AcDbSymbolTableRecord
100
AcDbDimStyleTableRecord
  2
AM_ISO$SF
 70
     0
  4
"
 41
2.5
 42
1.0
 43
10.0
 44
1.0
 47
0.1
 48
0.1
 73
     0
 74
     0
 75
     1
 76
     1
 77
     1
 78
     8
 79
     2
140
3.5
141
0.0
143
0.0393701
146
0.71
147
1.5
172
     1
176
   256
177
   256
178
     2
271
     2
272
     3
274
     4
283
     0
284
     8
340
10
371
    -1
372
    -1
  0
DIMSTYLE
105
34A
330
A
100
AcDbSymbolTableRecord
100
AcDbDimStyleTableRecord
  2
AM_ISO$SH
 70
     0
  4
"
 41
2.5
 42
1.0
 43
10.0
 44
1.0
 47
0.1
 48
0.1
 73
     0
 74
     0
 75
     1
 76
     1
 77
     1
 78
     8
 79
     2
140
3.5
141
0.0
143
0.0393701
144
2.0
146
0.71
147
1.5
172
     1
173
     1
176
   256
177
   256
178
     2
271
     2
272
     3
274
     4
283
     0
284
     8
340
10
343
2F4
371
    -1
372
    -1
  0
DIMSTYLE
105
31B
330
A
100
AcDbSymbolTableRecord
100
AcDbDimStyleTableRecord
  2
AM_ANSI
 70
     0
  4
mm
 41
0.1
 42
0.05
 43
0.5
 44
0.1
 47
0.1
 48
0.1
 78
     7
 79
     2
140
0.12
141
0.0
146
0.71
147
0.06
176
   256
177
   256
178
     2
274
     4
284
     7
340
10
371
    -1
372
    -1
  0
ENDTAB
  0
TABLE
  2
BLOCK_RECORD
  5
1
330
0
100
AcDbSymbolTable
 70
     5
  0
BLOCK_RECORD
  5
1A
102
{ACAD_XDICTIONARY
360
12A
102
}
330
1
100
AcDbSymbolTableRecord
100
AcDbBlockTableRecord
  2
*MODEL_SPACE
340
169
  0
BLOCK_RECORD
  5
17
330
1
100
AcDbSymbolTableRecord
100
AcDbBlockTableRecord
  2
*PAPER_SPACE
340
16A
  0
BLOCK_RECORD
  5
2F4
330
1
100
AcDbSymbolTableRecord
100
AcDbBlockTableRecord
  2
GENAXEH
340
0
  0
BLOCK_RECORD
  5
1162
330
1
100
AcDbSymbolTableRecord
100
AcDbBlockTableRecord
  2
info
340
0
310
2800000020000000200000000100080000000000000400000000000000000000000000000000000000000000000080000080000000808000800000008000800080800000C0C0C000C0DCC000F0CAA6000020400000206000002080000020A0000020C0000020E00000400000004020000040400000406000004080000040A0
310
000040C0000040E00000600000006020000060400000606000006080000060A0000060C0000060E00000800000008020000080400000806000008080000080A0000080C0000080E00000A0000000A0200000A0400000A0600000A0800000A0A00000A0C00000A0E00000C0000000C0200000C0400000C0600000C0800000C0
310
A00000C0C00000C0E00000E0000000E0200000E0400000E0600000E0800000E0A00000E0C00000E0E00040000000400020004000400040006000400080004000A0004000C0004000E00040200000402020004020400040206000402080004020A0004020C0004020E000404000004040200040404000404060004040800040
310
40A0004040C0004040E00040600000406020004060400040606000406080004060A0004060C0004060E00040800000408020004080400040806000408080004080A0004080C0004080E00040A0000040A0200040A0400040A0600040A0800040A0A00040A0C00040A0E00040C0000040C0200040C0400040C0600040C08000
310
40C0A00040C0C00040C0E00040E0000040E0200040E0400040E0600040E0800040E0A00040E0C00040E0E00080000000800020008000400080006000800080008000A0008000C0008000E00080200000802020008020400080206000802080008020A0008020C0008020E00080400000804020008040400080406000804080
310
008040A0008040C0008040E00080600000806020008060400080606000806080008060A0008060C0008060E00080800000808020008080400080806000808080008080A0008080C0008080E00080A0000080A0200080A0400080A0600080A0800080A0A00080A0C00080A0E00080C0000080C0200080C0400080C0600080C0
310
800080C0A00080C0C00080C0E00080E0000080E0200080E0400080E0600080E0800080E0A00080E0C00080E0E000C0000000C0002000C0004000C0006000C0008000C000A000C000C000C000E000C0200000C0202000C0204000C0206000C0208000C020A000C020C000C020E000C0400000C0402000C0404000C0406000C0
310
408000C040A000C040C000C040E000C0600000C0602000C0604000C0606000C0608000C060A000C060C000C060E000C0800000C0802000C0804000C0806000C0808000C080A000C080C000C080E000C0A00000C0A02000C0A04000C0A06000C0A08000C0A0A000C0A0C000C0A0E000C0C00000C0C02000C0C04000C0C06000
310
C0C08000C0C0A000F0FBFF00A4A0A000808080000000FF0000FF000000FFFF00FF000000FF00FF00FFFF0000FFFFFF00FFFFFFFFFFFFFFFFFFFFFFFFFFFFFFFFFFFFFFFFFFFFFFFFFFFFFFFFFFFFFFFFFFFFFFFFFFFFFFFFFFFFFFFFFFFFFFFFFFFFFFFFFFFFFFFFFFFFFFFFFFFFFFFFFFFFFFFFFFFFFFFFFFFFFFFFFFFFFF
310
FFFFFFFFFFFFFFFFFFFFFFFFFFFFFFFFFFFFFFFFFFFFFFFFFFFFFFFFFFFFFFFFFFFFFFFFFFFFFFFFFFFFFFFFFFFFFFFFFFFFFFFFFFFFFFFFFFFFFFFF00FFFFFFFFFFFFFFFFFFFFFFFFFFFFFFFFFFFFFFFFFFFFFFFFFFFFFFFFFFFF00FFFFFFFFFFFFFFFFFFFFFFFFFFFFFFFFFFFFFFFFFFFFFFFFFFFFFFFFFFFF00FFFFFFFF
310
FFFFFFFFFFFFFFFFFFFFFFFFFFFFFFFFFFFF0000000000FFFFFF00FFFFFFFF00FFFFFF00FFFF000000FFFF0000000000FFFFFFFFFFFFFF000000FFFFFFFFFF00FFFFFF00FF00FFFFFF00FFFFFF00FFFF00FFFFFFFFFFFFFF0000FFFFFFFFFF00FFFFFF00FFFFFFFFFF00FFFFFF00FFFF00FFFFFFFFFFFF00FF00FFFFFFFFFF
310
0000000000FFFFFFFFFF00FFFFFF00FFFF00FFFFFFFFFF00FFFFFF00FFFFFFFF00FFFFFF00FFFFFFFFFF00FFFFFF00FFFF00FFFFFFFF00FFFFFFFF00FFFFFFFF00FFFFFF00FFFFFFFFFF00FFFFFF00FFFF00FF00FF00FFFFFFFFFF00FFFFFFFF00FFFFFF00FFFFFFFFFF00FF0000000000FFFFFF00FFFFFFFFFFFFFF00FFFF
310
FFFFFFFFFFFFFFFFFFFFFFFFFFFFFFFFFFFFFFFF00FF00FFFFFFFFFF00FFFFFFFFFFFFFFFFFFFFFFFFFFFFFFFFFFFFFFFFFFFFFFFFFFFF00FFFFFFFF00FFFFFFFFFFFFFFFFFFFFFFFFFFFFFFFFFFFFFFFFFFFFFFFFFFFFFF00FFFFFF00FFFFFFFFFFFFFFFFFFFFFFFFFFFFFFFFFFFFFFFFFFFFFFFFFFFFFFFF00FF00FFFFFF
310
FFFF00000000FFFF00FFFFFF00FF0000000000FFFFFFFFFFFFFFFF0000FFFFFFFFFFFF00FFFF00FF00FFFF00FFFFFFFF00FFFF00FFFFFFFFFFFF000000FFFFFFFFFFFF00FFFF00FF00FF00FFFFFFFFFF00FFFF00FF0000000000FFFFFF00FFFFFFFFFF000000FFFF00000000FFFFFFFF00FFFF00FFFFFFFFFFFFFFFFFFFF00
310
FFFFFFFF00FFFF00FF00FFFFFF00FFFFFF00FFFF00FFFFFFFFFFFFFFFFFFFFFF00FFFFFF00FFFF00FF00FFFFFF00FFFFFF00FFFF00FFFFFFFFFFFFFFFFFFFFFFFF00FF00000000FFFF00000000FFFF0000000000FFFFFFFFFFFFFFFFFFFFFFFFFFFFFFFFFFFFFFFFFFFFFFFFFFFFFFFFFFFFFFFFFFFFFFFFFFFFFFFFFFFFFF
310
FFFFFFFFFFFFFFFFFFFFFFFFFFFFFFFFFFFFFFFFFFFFFFFFFFFFFFFFFFFFFFFFFFFFFFFFFFFFFFFFFFFFFFFFFFFFFFFFFFFFFFFFFFFFFFFFFFFFFFFFFFFFFFFFFFFFFFFFFFFFFFFFFFFFFFFFFFFFFFFFFFFFFFFFFFFFFFFFFFFFFFFFFFFFFFFFFFFFFFFFFFFFFFFFFFFFFFFFFFFFFFFFFFFFFFFFFFFFFFFFFFFFFFFFFFFFFF
310
FFFFFFFFFFFFFFFFFFFFFFFFFFFFFFFFFFFFFFFFFFFFFFFFFFFFFFFFFFFFFFFFFFFFFFFFFFFFFFFFFFFFFFFFFFFFFFFFFFFFFFFFFFFFFFFF
102
{BLKREFS
331
1855
331
1C56
102
}
1001
ACAD
1000
DesignCenter Data
1002
{
1070
     1
1070
     4
1002
}
  0
BLOCK_RECORD
  5
1B03
330
1
100
AcDbSymbolTableRecord
100
AcDbBlockTableRecord
  2
EZENTRY4MINI
340
0
310
2800000020000000200000000100080000000000000400000000000000000000000000000000000000000000000080000080000000808000800000008000800080800000C0C0C000C0DCC000F0CAA6000020400000206000002080000020A0000020C0000020E00000400000004020000040400000406000004080000040A0
310
000040C0000040E00000600000006020000060400000606000006080000060A0000060C0000060E00000800000008020000080400000806000008080000080A0000080C0000080E00000A0000000A0200000A0400000A0600000A0800000A0A00000A0C00000A0E00000C0000000C0200000C0400000C0600000C0800000C0
310
A00000C0C00000C0E00000E0000000E0200000E0400000E0600000E0800000E0A00000E0C00000E0E00040000000400020004000400040006000400080004000A0004000C0004000E00040200000402020004020400040206000402080004020A0004020C0004020E000404000004040200040404000404060004040800040
310
40A0004040C0004040E00040600000406020004060400040606000406080004060A0004060C0004060E00040800000408020004080400040806000408080004080A0004080C0004080E00040A0000040A0200040A0400040A0600040A0800040A0A00040A0C00040A0E00040C0000040C0200040C0400040C0600040C08000
310
40C0A00040C0C00040C0E00040E0000040E0200040E0400040E0600040E0800040E0A00040E0C00040E0E00080000000800020008000400080006000800080008000A0008000C0008000E00080200000802020008020400080206000802080008020A0008020C0008020E00080400000804020008040400080406000804080
310
008040A0008040C0008040E00080600000806020008060400080606000806080008060A0008060C0008060E00080800000808020008080400080806000808080008080A0008080C0008080E00080A0000080A0200080A0400080A0600080A0800080A0A00080A0C00080A0E00080C0000080C0200080C0400080C0600080C0
310
800080C0A00080C0C00080C0E00080E0000080E0200080E0400080E0600080E0800080E0A00080E0C00080E0E000C0000000C0002000C0004000C0006000C0008000C000A000C000C000C000E000C0200000C0202000C0204000C0206000C0208000C020A000C020C000C020E000C0400000C0402000C0404000C0406000C0
310
408000C040A000C040C000C040E000C0600000C0602000C0604000C0606000C0608000C060A000C060C000C060E000C0800000C0802000C0804000C0806000C0808000C080A000C080C000C080E000C0A00000C0A02000C0A04000C0A06000C0A08000C0A0A000C0A0C000C0A0E000C0C00000C0C02000C0C04000C0C06000
310
C0C08000C0C0A000F0FBFF00A4A0A000808080000000FF0000FF000000FFFF00FF000000FF00FF00FFFF0000FFFFFF00000000000000000000000000000000000000000000000000000000000000000000000000000000000000000000000000000000000000000000000000000000000000000000000000FAFAFAFAFAFAFA
310
FAFAFAFAFAFAFAFAFAFAFAFAFAFAFAFA000000000000000000FA00000000000000FBFBFBFBFBFB0000000000000000FA000000000000000000FA00000000FAFAFAFAFAFAFAFAFAFAFAFA0000000000FA000000000000000000FA00000000FA000000FBFBFBFBFB0000FA0000000000FA000000000000000000FA00000000FA
310
00000000000000000000FA0000000000FA000000FAFAFAFAFAFAFAFAFFFFFFFAFFFFFFFFFFFFFFFFFFFFFAFFFFFFFF00FA000000FAFA00000000FAFFFFFFFFFAFFFFFFFFFFFFFFFFFFFFFAFFFFFFFFFFFA00000000FA00000000FAFF00FF00FA00000000000000000000FA00FF00FFFFFA00000000FA00000000FFFFFFFFFF
310
FAFFFFFFFFFFFFFFFFFFFFFAFFFFFFFFFFFF00000000FA00000000FFFFFFFFFFFA0000000000FF00000000FAFFFFFFFFFFFF00000000FA00FAFAFAFAFAFAFAFAFAFFFFFFFFFFFFFFFFFFFFFAFFFFFFFFFFFF00000000FA00FAFA00FFFF0000FFFF00000000000000000000FFFFFF00FFFFFF00000000FA00FA0000FFFF0000
310
FFFF00000000000000000000FF00FF00FFFFFF00000000FA00FA0000FFFF0000FFFF00000000000000000000FF00FF00FFFFFF0000FBFBFAFBFB0000FFFF0000FFFF00000000000000000000FFFF0000FFFFFF0000FBFBFAFBFB0000FFFF0000FFFF00000000000000000000FFFF0000FFFFFF0000FBFBFAFBFB0000FFFF00
310
00FFFF00000000000000000000FFFF0000FFFFFF0000FBFBFAFBFB0000FFFF0000FFFF00000000000000000000FFFF0000FFFFFF0000FBFBFAFBFB0000FFFF0000FFFF00000000000000000000FFFF0000FFFFFF00000000FA00FA0000FFFF0000FFFF00000000000000000000FF00FF00FFFFFF00000000FA00FA0000FFFF
310
0000FFFF00000000000000000000FF00FF00FFFFFF00000000FA00FAFA00FFFF0000FFFF00000000000000000000FF00FF00FFFFFF00000000FA00FAFAFAFAFAFAFAFAFAFFFFFFFFFFFFFFFFFFFFFFFFFF00FFFFFF00000000FA00000000FFFFFFFFFFFFFFFFFFFFFFFFFFFFFFFFFFFFFFFFFFFFFF00000000FA00000000FF
310
FFFFFFFFFF0000FFFFFFFFFFFF000000FFFFFFFFFFFF00000000FA00000000FFFFFFFFFF000000FFFFFFFFFFFF000000FFFFFFFFFFFF000000FAFA00000000FFFFFFFFFFFFFFFFFFFFFFFFFFFFFFFFFFFFFFFF00FFFF000000FAFAFAFAFAFAFAFAFFFFFFFFFFFFFFFFFFFFFFFFFFFFFFFFFFFFFFFF00000000000000000000
310
0000000000000000000000000000000000000000000000000000000000000000000000000000000000000000000000000000000000000000
102
{BLKREFS
331
1C72
102
}
1001
ACAD
1000
DesignCenter Data
1002
{
1070
     1
1070
     4
1002
}
  0
ENDTAB
  0
ENDSEC
  0
SECTION
  2
BLOCKS
  0
BLOCK
  5
1B
330
1A
100
AcDbEntity
  8
0
100
AcDbBlockBegin
  2
*MODEL_SPACE
 70
     0
 10
0.0
 20
0.0
 30
0.0
  3
*MODEL_SPACE
  1

  0
ENDBLK
  5
1C
330
1A
100
AcDbEntity
  8
0
100
AcDbBlockEnd
  0
BLOCK
  5
18
330
17
100
AcDbEntity
 67
     1
  8
0
100
AcDbBlockBegin
  2
*PAPER_SPACE
 70
     0
 10
0.0
 20
0.0
 30
0.0
  3
*PAPER_SPACE
  1

  0
ENDBLK
  5
19
330
17
100
AcDbEntity
 67
     1
  8
0
100
AcDbBlockEnd
  0
BLOCK
  5
1935
330
2F4
100
AcDbEntity
  8
0
100
AcDbBlockBegin
  2
GENAXEH
 70
     0
 10
0.0
 20
0.0
 30
0.0
  3
GENAXEH
  1

  0
LINE
  5
1936
330
2F4
100
AcDbEntity
  8
0
100
AcDbLine
 10
-1.0
 20
0.0
 30
0.0
 11
1.0
 21
0.0
 31
0.0
  0
ENDBLK
  5
1937
330
2F4
100
AcDbEntity
  8
0
100
AcDbBlockEnd
  0
BLOCK
  5
1163
330
1162
100
AcDbEntity
  8
0
100
AcDbBlockBegin
  2
info
 70
     2
 10
0.0
 20
0.0
 30
0.0
  3
info
  1

  0
POINT
  5
1164
330
1162
100
AcDbEntity
  8
0
100
AcDbPoint
 10
0.0
 20
0.0
 30
0.0
  0
ATTDEF
  5
1165
330
1162
100
AcDbEntity
  8
0
100
AcDbText
 10
9.467092950319427
 20
2.891095235479383
 30
0.00000001
 40
5.0
  1

100
AcDbAttributeDefinition
  3
bredd
  2
BRD
 70
     1
1001
AcDbAttr
1070
     0
1070
     1
  0
ATTDEF
  5
1166
330
1162
100
AcDbEntity
  8
0
100
AcDbText
 10
9.467092950319427
 20
-5.442238097853946
 30
0.00000001
 40
5.0
  1

100
AcDbAttributeDefinition
  3
Höjd
  2
HJD
 70
     1
1001
AcDbAttr
1070
     0
1070
     1
  0
ENDBLK
  5
1167
330
1162
100
AcDbEntity
  8
0
100
AcDbBlockEnd
  0
BLOCK
  5
1B04
330
1B03
100
AcDbEntity
  8
0
100
AcDbBlockBegin
  2
EZENTRY4MINI
 70
     0
 10
0.0
 20
0.0
 30
0.0
  3
EZENTRY4MINI
  1

  0
LINE
  5
1B06
330
1B03
100
AcDbEntity
  8
AM_VIS
100
AcDbLine
 10
-11.11511972241837
 20
28.95106490734862
 30
0.0
 11
-11.11511972241837
 21
32.35404218240861
 31
0.0
  0
LINE
  5
1B07
330
1B03
100
AcDbEntity
  8
AM_VIS
100
AcDbLine
 10
-1.040294167973875
 20
30.42276512227668
 30
0.0
 11
-1.040294167973875
 21
30.52292953375392
 31
0.0
  0
ARC
  5
1B08
330
1B03
100
AcDbEntity
  8
AM_VIS
100
AcDbCircle
 10
-1.600722776709069
 20
30.68595796359674
 30
0.0
 40
0.5651475424435761
100
AcDbArc
 50
352.5575987879843
 51
22.30797134754031
  0
LINE
  5
1B09
330
1B03
100
AcDbEntity
  8
AM_VIS
100
AcDbLine
 10
-1.133278407405548
 20
30.9646540916144
 30
0.0
 11
-1.119367859309626
 21
30.95330544638944
 31
0.0
  0
ARC
  5
1B0A
330
1B03
100
AcDbEntity
  8
AM_VIS
100
AcDbCircle
 10
-1.269046527570218
 20
30.74776301631011
 30
0.0
 40
0.2579615856402937
100
AcDbArc
 50
71.84683641550963
 51
84.21073571606315
  0
ARC
  5
1B0B
330
1B03
100
AcDbEntity
  8
AM_VIS
100
AcDbCircle
 10
-1.284722850571874
 20
30.73154943615574
 30
0.0
 40
0.2744058088332965
100
AcDbArc
 50
93.09685005445947
 51
104.4415466051159
  0
SPLINE
  5
1B0C
330
1B03
100
AcDbEntity
  8
AM_VIS
100
AcDbSpline
210
0.0
220
0.0
230
1.0
 70
     8
 71
     3
 72
     8
 73
     4
 74
     0
 42
0.0000000001
 43
0.0000000001
 40
0.7461055991034728
 40
0.7461055991034728
 40
0.7461055991034728
 40
0.7461055991034728
 40
0.7821264570568446
 40
0.7821264570568446
 40
0.7821264570568446
 40
0.7821264570568446
 10
-1.404603747090526
 20
30.97667340060676
 30
0.0
 10
-1.417491241861917
 20
30.96937142973743
 30
0.0
 10
-1.4292111781808
 20
30.96073547878263
 30
0.0
 10
-1.439971764665692
 20
30.95065039654266
 30
0.0
  0
ARC
  5
1B0D
330
1B03
100
AcDbEntity
  8
AM_VIS
100
AcDbCircle
 10
-1.241904750110911
 20
30.77131340381397
 30
0.0
 40
0.2697211580216013
100
AcDbArc
 50
151.0311691491523
 51
165.3237034642101
  0
LINE
  5
1B0E
330
1B03
100
AcDbEntity
  8
AM_VIS
100
AcDbLine
 10
-1.04153050685101
 20
29.88541120667765
 30
0.0
 11
-1.040119327091879
 21
29.95117863735372
 31
0.0
  0
LINE
  5
1B0F
330
1B03
100
AcDbEntity
  8
AM_VIS
100
AcDbLine
 10
-24.12607847737002
 20
28.6524998126686
 30
0.0
 11
-24.24389119254525
 21
28.6524998126686
 31
0.0
  0
LINE
  5
1B10
330
1B03
100
AcDbEntity
  8
AM_VIS
100
AcDbLine
 10
-28.87392152263
 20
28.6524998126686
 30
0.0
 11
-28.75610880745476
 21
28.6524998126686
 31
0.0
  0
ARC
  5
1B11
330
1B03
100
AcDbEntity
  8
AM_VIS
100
AcDbCircle
 10
-29.46128983768762
 20
-27.36839295786141
 30
0.0
 40
7.733395602495217
100
AcDbArc
 50
178.768239229917
 51
269.3282808091675
  0
LINE
  5
1B12
330
1B03
100
AcDbEntity
  8
AM_VIS
100
AcDbLine
 10
-37.08161307114782
 20
31.50749428055924
 30
0.0
 11
-36.99097675306537
 21
2.152429256554739
 31
0.0
  0
LINE
  5
1B13
330
1B03
100
AcDbEntity
  8
AM_VIS
100
AcDbLine
 10
-37.08161307114782
 20
-27.20249465522205
 30
0.0
 11
-36.99097675306537
 21
2.152570368782448
 31
0.0
  0
LINE
  5
1B14
330
1B03
100
AcDbEntity
  8
AM_VIS
100
AcDbLine
 10
-37.19289841375001
 20
-27.20215105204142
 30
0.0
 11
-37.99999999999847
 21
-29.8190233734033
 31
0.0
  0
LINE
  5
1B15
330
1B03
100
AcDbEntity
  8
AM_VIS
100
AcDbLine
 10
-37.19289841375001
 20
31.50715067737861
 30
0.0
 11
-37.99999999999847
 21
34.12402299874049
 31
0.0
  0
ARC
  5
1B16
330
1B03
100
AcDbEntity
  8
AM_VIS
100
AcDbCircle
 10
-29.46128983768762
 20
31.6733925831986
 30
0.0
 40
7.733395602495217
100
AcDbArc
 50
90.67171919083255
 51
181.231760770083
  0
LINE
  5
1B17
330
1B03
100
AcDbEntity
  8
AM_VIS
100
AcDbLine
 10
-29.55195185999
 20
39.40625673190861
 30
0.0
 11
29.55195185999001
 21
39.40625673190861
 31
0.0
  0
LINE
  5
1B18
330
1B03
100
AcDbEntity
  8
AM_VIS
100
AcDbLine
 10
-29.55195185999
 20
39.40625673190861
 30
0.0
 11
-31.97152318607093
 21
40.15249981266364
 31
0.0
  0
ARC
  5
1B19
330
1B03
100
AcDbEntity
  8
AM_VIS
100
AcDbCircle
 10
29.4612898376876
 20
-27.36839295786141
 30
0.0
 40
7.733395602495217
100
AcDbArc
 50
270.6717191908325
 51
1.231760770082996
  0
LINE
  5
1B1A
330
1B03
100
AcDbEntity
  8
AM_VIS
100
AcDbLine
 10
37.19289841375
 20
-27.20215105204142
 30
0.0
 11
37.99999999999847
 21
-29.8190233734033
 31
0.0
  0
LINE
  5
1B1B
330
1B03
100
AcDbEntity
  8
AM_VIS
100
AcDbLine
 10
37.19289841375
 20
31.50715067737861
 30
0.0
 11
37.99999999999847
 21
34.12402299874049
 31
0.0
  0
LINE
  5
1B1C
330
1B03
100
AcDbEntity
  8
AM_VIS
100
AcDbLine
 10
29.55195185999001
 20
39.40625673190861
 30
0.0
 11
31.9715231860709
 21
40.15249981266364
 31
0.0
  0
ARC
  5
1B1D
330
1B03
100
AcDbEntity
  8
AM_VIS
100
AcDbCircle
 10
29.4612898376876
 20
31.6733925831986
 30
0.0
 40
7.733395602495217
100
AcDbArc
 50
358.768239229917
 51
89.32828080916745
  0
LINE
  5
1B1E
330
1B03
100
AcDbEntity
  8
AM_VIS
100
AcDbLine
 10
36.99097675306536
 20
2.152429256554739
 30
0.0
 11
37.08161307114779
 21
31.50749428055924
 31
0.0
  0
LINE
  5
1B1F
330
1B03
100
AcDbEntity
  8
AM_VIS
100
AcDbLine
 10
36.99097675306536
 20
2.152570368782448
 30
0.0
 11
37.08161307114779
 21
-27.20249465522205
 31
0.0
  0
LINE
  5
1B20
330
1B03
100
AcDbEntity
  8
AM_VIS
100
AcDbLine
 10
-20.09728854118
 20
2.152500687852921
 30
0.0
 11
-20.08500769239198
 21
22.23638057331861
 31
0.0
  0
LINE
  5
1B21
330
1B03
100
AcDbEntity
  8
AM_VIS
100
AcDbLine
 10
-20.09728854118441
 20
2.152498951401042
 30
0.0
 11
-20.08500769239649
 21
-17.93138094798141
 31
0.0
  0
LINE
  5
1B22
330
1B03
100
AcDbEntity
  8
AM_VIS
100
AcDbLine
 10
20.08500769239198
 20
22.23638057331861
 30
0.0
 11
20.09728854117998
 21
2.152500687852921
 31
0.0
  0
LINE
  5
1B23
330
1B03
100
AcDbEntity
  8
AM_VIS
100
AcDbLine
 10
20.08500769239647
 20
-17.93138094798141
 30
0.0
 11
20.09728854118441
 21
2.152498951401042
 31
0.0
  0
LINE
  5
1B24
330
1B03
100
AcDbEntity
  8
AM_VIS
100
AcDbLine
 10
-28.87392152263
 20
-24.34750018733141
 30
0.0
 11
-28.75610880745476
 21
-24.34750018733141
 31
0.0
  0
LINE
  5
1B25
330
1B03
100
AcDbEntity
  8
AM_VIS
100
AcDbLine
 10
-24.12607847737002
 20
-24.34750018733141
 30
0.0
 11
-24.24389119254525
 21
-24.34750018733141
 31
0.0
  0
LINE
  5
1B26
330
1B03
100
AcDbEntity
  8
AM_VIS
100
AcDbLine
 10
24.12607847737
 20
-24.34750018733141
 30
0.0
 11
24.24389119254521
 21
-24.34750018733141
 31
0.0
  0
LINE
  5
1B27
330
1B03
100
AcDbEntity
  8
AM_VIS
100
AcDbLine
 10
28.87392152262999
 20
-24.34750018733141
 30
0.0
 11
28.75610880745475
 21
-24.34750018733141
 31
0.0
  0
SPLINE
  5
1B28
330
1B03
100
AcDbEntity
  8
AM_VIS
100
AcDbSpline
210
0.0
220
0.0
230
1.0
 70
     8
 71
     3
 72
    24
 73
    20
 74
     0
 42
0.0000000001
 43
0.0000000001
 40
0.0
 40
0.0
 40
0.0
 40
0.0
 40
0.05882352941176
 40
0.1176470588235
 40
0.1764705882353
 40
0.2352941176471001
 40
0.2941176470588001
 40
0.3529411764705999
 40
0.4117647058824003
 40
0.4705882352941001
 40
0.5294117647059001
 40
0.5882352941176002
 40
0.6470588235294003
 40
0.7058823529412001
 40
0.7647058823529001
 40
0.8235294117646997
 40
0.8823529411765001
 40
0.9411764705881999
 40
1.0
 40
1.0
 40
1.0
 40
1.0
 10
13.14031244633998
 20
-26.57051849142141
 30
0.0
 10
13.14045039494998
 20
-26.51005041528139
 30
0.0
 10
13.13470828430999
 20
-26.39613151877139
 30
0.0
 10
13.10755503106998
 20
-26.24576463089142
 30
0.0
 10
13.06258917475998
 20
-26.11750778252142
 30
0.0
 10
13.00018726395999
 20
-26.01261215632141
 30
0.0
 10
12.93035321671998
 20
-25.93415150133141
 30
0.0
 10
12.85570405706001
 20
-25.87620460637141
 30
0.0
 10
12.77366418998001
 20
-25.83716136835142
 30
0.0
 10
12.68218126393999
 20
-25.81779298169142
 30
0.0
 10
12.59084966819999
 20
-25.81759479155142
 30
0.0
 10
12.49917613801
 20
-25.83694404412142
 30
0.0
 10
12.41691703751999
 20
-25.87618917781139
 30
0.0
 10
12.34221165052999
 20
-25.9342331668914
 30
0.0
 10
12.27202876193999
 20
-26.01250906342142
 30
0.0
 10
12.20936278505998
 20
-26.11736248446141
 30
0.0
 10
12.16426260348999
 20
-26.24568981832143
 30
0.0
 10
12.13692697414999
 20
-26.3961441614814
 30
0.0
 10
12.13093160657999
 20
-26.51012635930141
 30
0.0
 10
12.13093181159999
 20
-26.57062777513142
 30
0.0
  0
SPLINE
  5
1B29
330
1B03
100
AcDbEntity
  8
AM_VIS
100
AcDbSpline
210
0.0
220
0.0
230
1.0
 70
     8
 71
     3
 72
    24
 73
    20
 74
     0
 42
0.0000000001
 43
0.0000000001
 40
0.0
 40
0.0
 40
0.0
 40
0.0
 40
0.05882352941176
 40
0.1176470588235
 40
0.1764705882353
 40
0.2352941176471001
 40
0.2941176470588001
 40
0.3529411764705999
 40
0.4117647058824003
 40
0.4705882352941001
 40
0.5294117647059001
 40
0.5882352941176002
 40
0.6470588235294003
 40
0.7058823529412001
 40
0.7647058823529001
 40
0.8235294117646997
 40
0.8823529411765001
 40
0.9411764705881999
 40
1.0
 40
1.0
 40
1.0
 40
1.0
 10
12.13093181159999
 20
-26.57062777513142
 30
0.0
 10
12.13093201658
 20
-26.63111124056141
 30
0.0
 10
12.136918743
 20
-26.74506989344142
 30
0.0
 10
12.16424218519998
 20
-26.89551935968141
 30
0.0
 10
12.20933845503997
 20
-27.02385461137141
 30
0.0
 10
12.27201943968998
 20
-27.1287338460914
 30
0.0
 10
12.34220620118998
 20
-27.20701768495142
 30
0.0
 10
12.41688882987999
 20
-27.26504155021141
 30
0.0
 10
12.49906031062
 20
-27.30426855448142
 30
0.0
 10
12.59073828623998
 20
-27.32365242804142
 30
0.0
 10
12.68209693685998
 20
-27.3234713504614
 30
0.0
 10
12.77362218732
 20
-27.30411517564142
 30
0.0
 10
12.85577890413999
 20
-27.2650182525914
 30
0.0
 10
12.93044882284999
 20
-27.20699500073142
 30
0.0
 10
13.00036756445998
 20
-27.12850703117142
 30
0.0
 10
13.06253011648
 20
-27.0233477491414
 30
0.0
 10
13.10703200918998
 20
-26.89492595501142
 30
0.0
 10
13.13405791316998
 20
-26.74464666106142
 30
0.0
 10
13.14017474273999
 20
-26.63087912855142
 30
0.0
 10
13.14031244633998
 20
-26.57051849142141
 30
0.0
  0
LINE
  5
1B2A
330
1B03
100
AcDbEntity
  8
AM_VIS
100
AcDbLine
 10
4.731663774599986
 20
-26.36370354853142
 30
0.0
 11
3.83741144639999
 21
-26.36370354853142
 31
0.0
  0
SPLINE
  5
1B2B
330
1B03
100
AcDbEntity
  8
AM_VIS
100
AcDbSpline
210
0.0
220
0.0
230
1.0
 70
     8
 71
     3
 72
    23
 73
    19
 74
     0
 42
0.0000000001
 43
0.0000000001
 40
0.0
 40
0.0
 40
0.0
 40
0.0
 40
0.0625
 40
0.125
 40
0.1875
 40
0.25
 40
0.3125
 40
0.375
 40
0.4375
 40
0.5
 40
0.5625
 40
0.625
 40
0.6875
 40
0.75
 40
0.8125
 40
0.875
 40
0.9375
 40
1.0
 40
1.0
 40
1.0
 40
1.0
 10
4.731663774599986
 20
-26.36370354853142
 30
0.0
 10
4.73087440992699
 20
-26.31686906461142
 30
0.0
 10
4.724193615948003
 20
-26.22885802478141
 30
0.0
 10
4.699114833430989
 20
-26.11417936257141
 30
0.0
 10
4.658657922110002
 20
-26.01572775773141
 30
0.0
 10
4.605280011507993
 20
-25.93782584884142
 30
0.0
 10
4.541891106987996
 20
-25.87575713025141
 30
0.0
 10
4.470691439147991
 20
-25.82807413446142
 30
0.0
 10
4.386268814651991
 20
-25.79626623305139
 30
0.0
 10
4.295191518003996
 20
-25.78552406113141
 30
0.0
 10
4.205176582298996
 20
-25.79225433021139
 30
0.0
 10
4.11851211591999
 20
-25.81852103540141
 30
0.0
 10
4.044161797864994
 20
-25.86195384846141
 30
0.0
 10
3.978178301985998
 20
-25.92257317169139
 30
0.0
 10
3.919354484465991
 20
-25.99959044756142
 30
0.0
 10
3.871949306346984
 20
-26.10029904832141
 30
0.0
 10
3.842974128225996
 20
-26.22116494350141
 30
0.0
 10
3.836967831314986
 20
-26.31407434739139
 30
0.0
 10
3.83741144639999
 20
-26.36370354853142
 30
0.0
  0
SPLINE
  5
1B2C
330
1B03
100
AcDbEntity
  8
AM_VIS
100
AcDbSpline
210
0.0
220
0.0
230
1.0
 70
     8
 71
     3
 72
    24
 73
    20
 74
     0
 42
0.0000000001
 43
0.0000000001
 40
0.0
 40
0.0
 40
0.0
 40
0.0
 40
0.05882352941176
 40
0.1176470588235
 40
0.1764705882353
 40
0.2352941176471001
 40
0.2941176470588001
 40
0.3529411764705999
 40
0.4117647058824003
 40
0.4705882352941001
 40
0.5294117647059001
 40
0.5882352941176002
 40
0.6470588235294003
 40
0.7058823529412001
 40
0.7647058823529001
 40
0.8235294117646997
 40
0.8823529411765001
 40
0.9411764705881999
 40
1.0
 40
1.0
 40
1.0
 40
1.0
 10
-1.39483755365601
 20
-26.57051849142141
 30
0.0
 10
-1.394699604960003
 20
-26.5100504135614
 30
0.0
 10
-1.400441716113014
 20
-26.39613151462141
 30
0.0
 10
-1.427594969894009
 20
-26.24576462730142
 30
0.0
 10
-1.472560826368003
 20
-26.11750778012141
 30
0.0
 10
-1.534962737470998
 20
-26.01261215440142
 30
0.0
 10
-1.604796784821012
 20
-25.93415149987141
 30
0.0
 10
-1.67944594440501
 20
-25.87620460549142
 30
0.0
 10
-1.761485811272017
 20
-25.83716136796142
 30
0.0
 10
-1.852968737013007
 20
-25.81779298161141
 30
0.0
 10
-1.944300332528008
 20
-25.81759479163139
 30
0.0
 10
-2.035973862568006
 20
-25.83694404433141
 30
0.0
 10
-2.11823296297701
 20
-25.87618917811142
 30
0.0
 10
-2.192938349857008
 20
-25.93423316727142
 30
0.0
 10
-2.263121238345
 20
-26.01250906381144
 30
0.0
 10
-2.325787215087011
 20
-26.11736248480142
 30
0.0
 10
-2.370887396574012
 20
-26.2456898185614
 30
0.0
 10
-2.398223025852011
 20
-26.39614416159139
 30
0.0
 10
-2.404218393434
 20
-26.51012635933142
 30
0.0
 10
-2.404218188400001
 20
-26.57062777513142
 30
0.0
  0
SPLINE
  5
1B2D
330
1B03
100
AcDbEntity
  8
AM_VIS
100
AcDbSpline
210
0.0
220
0.0
230
1.0
 70
     8
 71
     3
 72
    24
 73
    20
 74
     0
 42
0.0000000001
 43
0.0000000001
 40
0.0
 40
0.0
 40
0.0
 40
0.0
 40
0.05882352941176
 40
0.1176470588235
 40
0.1764705882353
 40
0.2352941176471001
 40
0.2941176470588001
 40
0.3529411764705999
 40
0.4117647058824003
 40
0.4705882352941001
 40
0.5294117647059001
 40
0.5882352941176002
 40
0.6470588235294003
 40
0.7058823529412001
 40
0.7647058823529001
 40
0.8235294117646997
 40
0.8823529411765001
 40
0.9411764705881999
 40
1.0
 40
1.0
 40
1.0
 40
1.0
 10
-2.404218188400001
 20
-26.57062777513142
 30
0.0
 10
-2.40421798342701
 20
-26.63111124068141
 30
0.0
 10
-2.398231256971008
 20
-26.74506989375141
 30
0.0
 10
-2.370907814685004
 20
-26.89551936017143
 30
0.0
 10
-2.32581154469701
 20
-27.02385461197142
 30
0.0
 10
-2.263130559847006
 20
-27.12873384672142
 30
0.0
 10
-2.192943798163007
 20
-27.20701768558141
 30
0.0
 10
-2.118261169235005
 20
-27.26504155079142
 30
0.0
 10
-2.036089688140002
 20
-27.30426855492141
 30
0.0
 10
-1.944411712348006
 20
-27.32365242818142
 30
0.0
 10
-1.853053061739011
 20
-27.32347135033141
 30
0.0
 10
-1.761527811465008
 20
-27.30411517521139
 30
0.0
 10
-1.679371094946013
 20
-27.26501825201141
 30
0.0
 10
-1.604701176451008
 20
-27.20699500005139
 30
0.0
 10
-1.534782435038003
 20
-27.12850703047142
 30
0.0
 10
-1.472619883246004
 20
-27.02334774850141
 30
0.0
 10
-1.428117990703007
 20
-26.89492595454141
 30
0.0
 10
-1.401092086816014
 20
-26.74464666082143
 30
0.0
 10
-1.394975257247004
 20
-26.63087912847142
 30
0.0
 10
-1.39483755365601
 20
-26.57051849142141
 30
0.0
  0
LINE
  5
1B2E
330
1B03
100
AcDbEntity
  8
AM_VIS
100
AcDbLine
 10
14.08913972339998
 20
-25.34422415053141
 30
0.0
 11
14.08913972339998
 21
-27.79198415473142
 31
0.0
  0
LINE
  5
1B2F
330
1B03
100
AcDbEntity
  8
AM_VIS
100
AcDbLine
 10
14.62916060339998
 20
-27.79198415473142
 30
0.0
 11
14.08913972339998
 21
-27.79198415473142
 31
0.0
  0
LINE
  5
1B30
330
1B03
100
AcDbEntity
  8
AM_VIS
100
AcDbLine
 10
14.62916056602498
 20
-26.60667506866142
 30
0.0
 11
14.62916056602498
 21
-27.79198415473142
 31
0.0
  0
SPLINE
  5
1B31
330
1B03
100
AcDbEntity
  8
AM_VIS
100
AcDbSpline
210
0.0
220
0.0
230
1.0
 70
     8
 71
     3
 72
    29
 73
    25
 74
     0
 42
0.0000000001
 43
0.0000000001
 40
0.0
 40
0.0
 40
0.0
 40
0.0
 40
0.04545454545455
 40
0.0909090909090901
 40
0.1363636363636
 40
0.1818181818182001
 40
0.2272727272727
 40
0.2727272727273
 40
0.3181818181818001
 40
0.3636363636364001
 40
0.4090909090909002
 40
0.4545454545455004
 40
0.5
 40
0.5454545454545002
 40
0.5909090909091002
 40
0.6363636363636002
 40
0.6818181818181999
 40
0.7272727272727001
 40
0.7727272727273001
 40
0.8181818181818002
 40
0.8636363636364002
 40
0.9090909090908999
 40
0.9545454545454999
 40
1.0
 40
1.0
 40
1.0
 40
1.0
 10
15.31962875519
 20
-26.33138698843141
 30
0.0
 10
15.31896382823999
 20
-26.29843910395142
 30
0.0
 10
15.31745708894998
 20
-26.23508130429142
 30
0.0
 10
15.31311477607998
 20
-26.14780512814142
 30
0.0
 10
15.30627427649998
 20
-26.06792922906141
 30
0.0
 10
15.29452185213999
 20
-25.99451369220139
 30
0.0
 10
15.27210062793998
 20
-25.9325232521914
 30
0.0
 10
15.24367927275
 20
-25.88064829233142
 30
0.0
 10
15.20732796213998
 20
-25.83876680907143
 30
0.0
 10
15.15813661752998
 20
-25.80731030421139
 30
0.0
 10
15.09673363535998
 20
-25.79014428755142
 30
0.0
 10
15.02526897203998
 20
-25.78630876194141
 30
0.0
 10
14.94936947133999
 20
-25.79667581827142
 30
0.0
 10
14.87793087172998
 20
-25.82408213448142
 30
0.0
 10
14.80961119894
 20
-25.86913903455142
 30
0.0
 10
14.74743647124998
 20
-25.93483064765142
 30
0.0
 10
14.69948413166997
 20
-26.01939366434141
 30
0.0
 10
14.66881183400999
 20
-26.10697228072141
 30
0.0
 10
14.65176294581998
 20
-26.1947401972214
 30
0.0
 10
14.64153081482999
 20
-26.28035150664142
 30
0.0
 10
14.63527397823998
 20
-26.3626778774314
 30
0.0
 10
14.63151727900998
 20
-26.4435005279114
 30
0.0
 10
14.62953461235
 20
-26.52404298402141
 30
0.0
 10
14.62916052864999
 20
-26.57900101609142
 30
0.0
 10
14.62916052864999
 20
-26.60667506866142
 30
0.0
  0
LINE
  5
1B32
330
1B03
100
AcDbEntity
  8
AM_VIS
100
AcDbLine
 10
15.32192168232159
 20
-27.79198415473142
 30
0.0
 11
15.32192168232159
 21
-26.33138698843141
 31
0.0
  0
LINE
  5
1B33
330
1B03
100
AcDbEntity
  8
AM_VIS
100
AcDbLine
 10
15.86061101519999
 20
-27.79198415473142
 30
0.0
 11
15.32058967739998
 21
-27.79198415473142
 31
0.0
  0
LINE
  5
1B34
330
1B03
100
AcDbEntity
  8
AM_VIS
100
AcDbLine
 10
15.86061100144998
 20
-26.6197874588114
 30
0.0
 11
15.86061100144998
 21
-27.79198415473142
 31
0.0
  0
SPLINE
  5
1B35
330
1B03
100
AcDbEntity
  8
AM_VIS
100
AcDbSpline
210
0.0
220
0.0
230
1.0
 70
     8
 71
     3
 72
    28
 73
    24
 74
     0
 42
0.0000000001
 43
0.0000000001
 40
0.0
 40
0.0
 40
0.0
 40
0.0
 40
0.04761904761905
 40
0.0952380952381
 40
0.1428571428571
 40
0.1904761904762
 40
0.2380952380952
 40
0.2857142857143
 40
0.3333333333333001
 40
0.3809523809524
 40
0.4285714285714003
 40
0.4761904761905001
 40
0.5238095238095001
 40
0.5714285714286002
 40
0.6190476190476002
 40
0.6666666666667003
 40
0.7142857142857002
 40
0.7619047619048001
 40
0.8095238095237997
 40
0.8571428571429001
 40
0.9047619047618999
 40
0.9523809523809999
 40
1.0
 40
1.0
 40
1.0
 40
1.0
 10
16.54699101299998
 20
-26.39107495273141
 30
0.0
 10
16.5469171814
 20
-26.35804959900142
 30
0.0
 10
16.54618169861999
 20
-26.29448654215142
 30
0.0
 10
16.54265791446998
 20
-26.20666170560143
 30
0.0
 10
16.53653935369998
 20
-26.12618487157141
 30
0.0
 10
16.52729036215999
 20
-26.0531629094614
 30
0.0
 10
16.51398694440998
 20
-25.9869022065414
 30
0.0
 10
16.49347574283
 20
-25.9286345108614
 30
0.0
 10
16.46093955837999
 20
-25.87880779702142
 30
0.0
 10
16.42081663608999
 20
-25.83739802744139
 30
0.0
 10
16.36903712378998
 20
-25.80620472931143
 30
0.0
 10
16.30738896218999
 20
-25.7893970676214
 30
0.0
 10
16.24032118386999
 20
-25.78636847717141
 30
0.0
 10
16.16930616835998
 20
-25.79937963429139
 30
0.0
 10
16.10325281237998
 20
-25.8292743663614
 30
0.0
 10
16.03988806055999
 20
-25.87419924252141
 30
0.0
 10
15.98369698529999
 20
-25.93447558171141
 30
0.0
 10
15.93740248132997
 20
-26.01343389087139
 30
0.0
 10
15.90290668452
 20
-26.10793175789141
 30
0.0
 10
15.88151625599997
 20
-26.21731033456141
 30
0.0
 10
15.86878175264998
 20
-26.33937306481142
 30
0.0
 10
15.86195041314998
 20
-26.47286045879142
 30
0.0
 10
15.8606109877
 20
-26.5695345465414
 30
0.0
 10
15.8606109877
 20
-26.6197874588114
 30
0.0
  0
LINE
  5
1B36
330
1B03
100
AcDbEntity
  8
AM_VIS
100
AcDbLine
 10
16.54699215766979
 20
-27.79198415473142
 30
0.0
 11
16.54699215766979
 21
-26.39107495273141
 31
0.0
  0
LINE
  5
1B37
330
1B03
100
AcDbEntity
  8
AM_VIS
100
AcDbLine
 10
17.08701418199999
 20
-27.79198415473142
 30
0.0
 11
16.54699330199999
 21
-27.79198415473142
 31
0.0
  0
LINE
  5
1B38
330
1B03
100
AcDbEntity
  8
AM_VIS
100
AcDbLine
 10
17.08701418359
 20
-26.23033318407143
 30
0.0
 11
17.08701418359
 21
-27.79198415473142
 31
0.0
  0
SPLINE
  5
1B39
330
1B03
100
AcDbEntity
  8
AM_VIS
100
AcDbSpline
210
0.0
220
0.0
230
1.0
 70
     8
 71
     3
 72
    23
 73
    19
 74
     0
 42
0.0000000001
 43
0.0000000001
 40
0.0
 40
0.0
 40
0.0
 40
0.0
 40
0.0625
 40
0.125
 40
0.1875
 40
0.25
 40
0.3125
 40
0.375
 40
0.4375
 40
0.5
 40
0.5625
 40
0.625
 40
0.6875
 40
0.75
 40
0.8125
 40
0.875
 40
0.9375
 40
1.0
 40
1.0
 40
1.0
 40
1.0
 10
15.79626264719999
 20
-25.68252598993141
 30
0.0
 10
15.82964226052
 20
-25.6343827250214
 30
0.0
 10
15.89788515678998
 20
-25.54760815502141
 30
0.0
 10
16.00346101374998
 20
-25.4458809243514
 30
0.0
 10
16.11270175921999
 20
-25.37080744070142
 30
0.0
 10
16.22287265984997
 20
-25.32191466264141
 30
0.0
 10
16.33611030855998
 20
-25.29539604673141
 30
0.0
 10
16.45455715956999
 20
-25.29159936974142
 30
0.0
 10
16.57373193549998
 20
-25.30480025555142
 30
0.0
 10
16.68718268347999
 20
-25.33795574853142
 30
0.0
 10
16.79000533470999
 20
-25.39195960123141
 30
0.0
 10
16.87888458354
 20
-25.4649124606714
 30
0.0
 10
16.95279186032999
 20
-25.55608460817141
 30
0.0
 10
17.01166891822999
 20
-25.66436475232141
 30
0.0
 10
17.05394059584999
 20
-25.78597893379141
 30
0.0
 10
17.07380175293001
 20
-25.91893964139141
 30
0.0
 10
17.08484744213999
 20
-26.0639851602914
 30
0.0
 10
17.08701418517998
 20
-26.17306017326141
 30
0.0
 10
17.08701418517998
 20
-26.23033318407143
 30
0.0
  0
SPLINE
  5
1B3A
330
1B03
100
AcDbEntity
  8
AM_VIS
100
AcDbSpline
210
0.0
220
0.0
230
1.0
 70
     8
 71
     3
 72
    19
 73
    15
 74
     0
 42
0.0000000001
 43
0.0000000001
 40
0.0
 40
0.0
 40
0.0
 40
0.0
 40
0.08333333333333
 40
0.1666666666667
 40
0.25
 40
0.3333333333333001
 40
0.4166666666667001
 40
0.5
 40
0.5833333333333001
 40
0.6666666666667003
 40
0.75
 40
0.8333333333332999
 40
0.9166666666667
 40
1.0
 40
1.0
 40
1.0
 40
1.0
 10
14.58878539019999
 20
-25.6780313095314
 30
0.0
 10
14.62252904498999
 20
-25.6293217631914
 30
0.0
 10
14.69166857189999
 20
-25.54252352910141
 30
0.0
 10
14.79583124697999
 20
-25.44459356399142
 30
0.0
 10
14.90428254651998
 20
-25.37154785685141
 30
0.0
 10
15.01758938003998
 20
-25.32190901675142
 30
0.0
 10
15.13857640383998
 20
-25.2951130296114
 30
0.0
 10
15.25644309922997
 20
-25.29150611426142
 30
0.0
 10
15.37103632782997
 20
-25.30579554310139
 30
0.0
 10
15.47582748404999
 20
-25.33965937998142
 30
0.0
 10
15.57072532112998
 20
-25.39256044255142
 30
0.0
 10
15.65571541821998
 20
-25.4657231846314
 30
0.0
 10
15.73087620353999
 20
-25.55928082729142
 30
0.0
 10
15.77568112005001
 20
-25.63868374583141
 30
0.0
 10
15.79626264719999
 20
-25.68252598993141
 30
0.0
  0
LINE
  5
1B3B
330
1B03
100
AcDbEntity
  8
AM_VIS
100
AcDbLine
 10
14.58878539019999
 20
-25.34422415053141
 30
0.0
 11
14.58878539019999
 21
-25.6780313095314
 31
0.0
  0
LINE
  5
1B3C
330
1B03
100
AcDbEntity
  8
AM_VIS
100
AcDbLine
 10
14.58878539019999
 20
-25.34422415053141
 30
0.0
 11
14.08913972339998
 21
-25.34422415053141
 31
0.0
  0
SPLINE
  5
1B3D
330
1B03
100
AcDbEntity
  8
AM_VIS
100
AcDbSpline
210
0.0
220
0.0
230
1.0
 70
     8
 71
     3
 72
    26
 73
    22
 74
     0
 42
0.0000000001
 43
0.0000000001
 40
0.0
 40
0.0
 40
0.0
 40
0.0
 40
0.05263157894737
 40
0.1052631578947
 40
0.1578947368421
 40
0.2105263157895
 40
0.2631578947367999
 40
0.3157894736842
 40
0.3684210526316001
 40
0.4210526315789
 40
0.4736842105263002
 40
0.5263157894737001
 40
0.5789473684211001
 40
0.6315789473684001
 40
0.6842105263158002
 40
0.7368421052632002
 40
0.7894736842105001
 40
0.8421052631579
 40
0.8947368421052999
 40
0.9473684210526
 40
1.0
 40
1.0
 40
1.0
 40
1.0
 10
11.57577011219999
 20
-26.53608768073142
 30
0.0
 10
11.57601695437
 20
-26.44286165727142
 30
0.0
 10
11.5924387543
 20
-26.26737641580141
 30
0.0
 10
11.65570474886999
 20
-26.03599240759139
 30
0.0
 10
11.74009936749
 20
-25.83918653202142
 30
0.0
 10
11.84228337923999
 20
-25.67679178746141
 30
0.0
 10
11.95938051746
 20
-25.5474552167114
 30
0.0
 10
12.09184661402999
 20
-25.44559399865142
 30
0.0
 10
12.23717378259
 20
-25.3681554733414
 30
0.0
 10
12.39972428595999
 20
-25.31500324604142
 30
0.0
 10
12.56995501372999
 20
-25.29136048219141
 30
0.0
 10
12.74309603848999
 20
-25.29414663320143
 30
0.0
 10
12.90633430363999
 20
-25.32231021789142
 30
0.0
 10
13.05868005706998
 20
-25.37697143442143
 30
0.0
 10
13.20074013424997
 20
-25.4588290025614
 30
0.0
 10
13.33496761411999
 20
-25.57248598040142
 30
0.0
 10
13.45828185670999
 20
-25.71795737628141
 30
0.0
 10
13.56550773883998
 20
-25.8960021121114
 30
0.0
 10
13.64342292354999
 20
-26.09727915417141
 30
0.0
 10
13.69214204292999
 20
-26.32749910422141
 30
0.0
 10
13.70209232574999
 20
-26.50834541357143
 30
0.0
 10
13.70010550871999
 20
-26.60491716107139
 30
0.0
  0
SPLINE
  5
1B3E
330
1B03
100
AcDbEntity
  8
AM_VIS
100
AcDbSpline
210
0.0
220
0.0
230
1.0
 70
     8
 71
     3
 72
    26
 73
    22
 74
     0
 42
0.0000000001
 43
0.0000000001
 40
0.0
 40
0.0
 40
0.0
 40
0.0
 40
0.05263157894737
 40
0.1052631578947
 40
0.1578947368421
 40
0.2105263157895
 40
0.2631578947367999
 40
0.3157894736842
 40
0.3684210526316001
 40
0.4210526315789
 40
0.4736842105263002
 40
0.5263157894737001
 40
0.5789473684211001
 40
0.6315789473684001
 40
0.6842105263158002
 40
0.7368421052632002
 40
0.7894736842105001
 40
0.8421052631579
 40
0.8947368421052999
 40
0.9473684210526
 40
1.0
 40
1.0
 40
1.0
 40
1.0
 10
13.70010550871999
 20
-26.60491716107139
 30
0.0
 10
13.69821638216999
 20
-26.69674053714142
 30
0.0
 10
13.68169534246998
 20
-26.86921343913142
 30
0.0
 10
13.62436261907999
 20
-27.09236540137142
 30
0.0
 10
13.53910378177999
 20
-27.28649904265141
 30
0.0
 10
13.42790876528997
 20
-27.4556353566814
 30
0.0
 10
13.30268533665999
 20
-27.59395430967141
 30
0.0
 10
13.16860947372999
 20
-27.70017272027142
 30
0.0
 10
13.02597270920999
 20
-27.77696194385141
 30
0.0
 10
12.87092953214999
 20
-27.82709477193141
 30
0.0
 10
12.70964452746
 20
-27.84948436429142
 30
0.0
 10
12.54151580881998
 20
-27.8475716025614
 30
0.0
 10
12.36914540443
 20
-27.81663927371142
 30
0.0
 10
12.19672301204999
 20
-27.75199775297143
 30
0.0
 10
12.03755941860999
 20
-27.66166652111142
 30
0.0
 10
11.89939292696998
 20
-27.54282529014143
 30
0.0
 10
11.79115914772998
 20
-27.40601238602142
 30
0.0
 10
11.70247177452998
 20
-27.2455316198914
 30
0.0
 10
11.63154461923999
 20
-27.04809349327141
 30
0.0
 10
11.58629305365999
 20
-26.81177559175141
 30
0.0
 10
11.57551641441998
 20
-26.63190289491141
 30
0.0
 10
11.57577011219999
 20
-26.53608768073142
 30
0.0
  0
SPLINE
  5
1B3F
330
1B03
100
AcDbEntity
  8
AM_VIS
100
AcDbSpline
210
0.0
220
0.0
230
1.0
 70
     8
 71
     3
 72
    28
 73
    24
 74
     0
 42
0.0000000001
 43
0.0000000001
 40
0.0
 40
0.0
 40
0.0
 40
0.0
 40
0.04761904761905
 40
0.0952380952381
 40
0.1428571428571
 40
0.1904761904762
 40
0.2380952380952
 40
0.2857142857143
 40
0.3333333333333001
 40
0.3809523809524
 40
0.4285714285714003
 40
0.4761904761905001
 40
0.5238095238095001
 40
0.5714285714286002
 40
0.6190476190476002
 40
0.6666666666667003
 40
0.7142857142857002
 40
0.7619047619048001
 40
0.8095238095237997
 40
0.8571428571429001
 40
0.9047619047618999
 40
0.9523809523809999
 40
1.0
 40
1.0
 40
1.0
 40
1.0
 10
10.26672305819998
 20
-27.84750018733141
 30
0.0
 10
10.19648710178997
 20
-27.84749985464141
 30
0.0
 10
10.06360182767999
 20
-27.83715921787142
 30
0.0
 10
9.889078369184993
 20
-27.79409810420139
 30
0.0
 10
9.733195435541993
 20
-27.7249134798914
 30
0.0
 10
9.594908364932003
 20
-27.6303324525714
 30
0.0
 10
9.471729607378001
 20
-27.5099917764914
 30
0.0
 10
9.364433482920993
 20
-27.36192761527142
 30
0.0
 10
9.279340016598986
 20
-27.18687600127141
 30
0.0
 10
9.21601413375199
 20
-26.97394334824139
 30
0.0
 10
9.182428271121985
 20
-26.71712973785139
 30
0.0
 10
9.181584447886002
 20
-26.4456564585214
 30
0.0
 10
9.212163761375997
 20
-26.1886461898114
 30
0.0
 10
9.271719514108987
 20
-25.9752722369914
 30
0.0
 10
9.353775979506004
 20
-25.7972873594914
 30
0.0
 10
9.459631647013992
 20
-25.64535829423141
 30
0.0
 10
9.581325615644992
 20
-25.52307465991141
 30
0.0
 10
9.716884788061996
 20
-25.4270679706614
 30
0.0
 10
9.872246652216993
 20
-25.35423685411141
 30
0.0
 10
10.05577313489999
 20
-25.3062309048714
 30
0.0
 10
10.25293027430999
 20
-25.28971461067142
 30
0.0
 10
10.45260519344997
 20
-25.2986841017514
 30
0.0
 10
10.57704454544998
 20
-25.32161896440141
 30
0.0
 10
10.63758500699997
 20
-25.33856848933142
 30
0.0
  0
ARC
  5
1B40
330
1B03
100
AcDbEntity
  8
AM_VIS
100
AcDbCircle
 10
10.33664968132322
 20
-26.868642417287
 30
0.0
 40
0.9813522642750188
100
AcDbArc
 50
265.9139050443577
 51
354.4068902803451
  0
LINE
  5
1B41
330
1B03
100
AcDbEntity
  8
AM_VIS
100
AcDbLine
 10
10.72788605699982
 20
-26.85830242813234
 30
0.0
 11
11.31332985299976
 21
-26.96428816393265
 31
0.0
  0
SPLINE
  5
1B42
330
1B03
100
AcDbEntity
  8
AM_VIS
100
AcDbSpline
210
0.0
220
0.0
230
1.0
 70
     8
 71
     3
 72
    39
 73
    35
 74
     0
 42
0.0000000001
 43
0.0000000001
 40
0.0
 40
0.0
 40
0.0
 40
0.0
 40
0.03125
 40
0.0625
 40
0.09375
 40
0.125
 40
0.15625
 40
0.1875
 40
0.21875
 40
0.25
 40
0.28125
 40
0.3125
 40
0.34375
 40
0.375
 40
0.40625
 40
0.4375
 40
0.46875
 40
0.5
 40
0.53125
 40
0.5625
 40
0.59375
 40
0.625
 40
0.65625
 40
0.6875
 40
0.71875
 40
0.75
 40
0.78125
 40
0.8125
 40
0.84375
 40
0.875
 40
0.90625
 40
0.9375
 40
0.96875
 40
1.0
 40
1.0
 40
1.0
 40
1.0
 10
10.692557631
 20
-26.1820141735314
 30
0.0
 10
10.68620665445998
 20
-26.14231487487141
 30
0.0
 10
10.66851220578999
 20
-26.06967660215142
 30
0.0
 10
10.62931919942998
 20
-25.9824668089814
 30
0.0
 10
10.57622511169997
 20
-25.91174653040142
 30
0.0
 10
10.51130501901998
 20
-25.85918201554142
 30
0.0
 10
10.43359370943999
 20
-25.82249240692142
 30
0.0
 10
10.34434186151998
 20
-25.80366264643141
 30
0.0
 10
10.24477584023998
 20
-25.80191856445141
 30
0.0
 10
10.14737497578999
 20
-25.81783704650141
 30
0.0
 10
10.05863334539998
 20
-25.85389930664141
 30
0.0
 10
9.982645024137987
 20
-25.90793096091142
 30
0.0
 10
9.916164490274987
 20
-25.97910214147139
 30
0.0
 10
9.865044100479998
 20
-26.06874485114142
 30
0.0
 10
9.828687796082
 20
-26.17743749794142
 30
0.0
 10
9.805404913200995
 20
-26.30187812890143
 30
0.0
 10
9.793868826495987
 20
-26.44465918892142
 30
0.0
 10
9.793498853889992
 20
-26.60389560265139
 30
0.0
 10
9.803981295441992
 20
-26.77043859509141
 30
0.0
 10
9.829566391470002
 20
-26.92159647819142
 30
0.0
 10
9.870497394141985
 20
-27.05049596599142
 30
0.0
 10
9.932719541692996
 20
-27.15508431424141
 30
0.0
 10
10.00597448367998
 20
-27.22891469586142
 30
0.0
 10
10.08587631485998
 20
-27.2809371601814
 30
0.0
 10
10.17690109977998
 20
-27.31329663882142
 30
0.0
 10
10.27488036187998
 20
-27.32514743479141
 30
0.0
 10
10.37182592860999
 20
-27.32001081431142
 30
0.0
 10
10.45967890815999
 20
-27.2958864621614
 30
0.0
 10
10.53067011912999
 20
-27.25657803174142
 30
0.0
 10
10.58967470002999
 20
-27.20532113774141
 30
0.0
 10
10.63667629266999
 20
-27.13964660069141
 30
0.0
 10
10.67476490299998
 20
-27.05982650462142
 30
0.0
 10
10.70492951532998
 20
-26.96797964305142
 30
0.0
 10
10.72094922067997
 20
-26.89644593161143
 30
0.0
 10
10.72788605699998
 20
-26.85830242813143
 30
0.0
  0
LINE
  5
1B43
330
1B03
100
AcDbEntity
  8
AM_VIS
100
AcDbLine
 10
10.69255763099981
 20
-26.18201417353049
 30
0.0
 11
11.28304821419979
 21
-26.06593486333037
 31
0.0
  0
ARC
  5
1B44
330
1B03
100
AcDbEntity
  8
AM_VIS
100
AcDbCircle
 10
10.37508235388375
 20
-26.22158717740226
 30
0.0
 40
0.9212109673551616
100
AcDbArc
 50
9.727641308066539
 51
73.44390732004736
  0
LINE
  5
1B45
330
1B03
100
AcDbEntity
  8
AM_VIS
100
AcDbLine
 10
8.728830024599993
 20
-27.79198415473142
 30
0.0
 11
8.198902718999995
 21
-27.79198415473142
 31
0.0
  0
LINE
  5
1B46
330
1B03
100
AcDbEntity
  8
AM_VIS
100
AcDbLine
 10
8.728830024599993
 20
-27.12074268733142
 30
0.0
 11
8.728830024599993
 21
-27.79198415473142
 31
0.0
  0
LINE
  5
1B47
330
1B03
100
AcDbEntity
  8
AM_VIS
100
AcDbLine
 10
8.728830024599993
 20
-27.12074268733142
 30
0.0
 11
8.198902718999995
 21
-27.12074268733142
 31
0.0
  0
LINE
  5
1B48
330
1B03
100
AcDbEntity
  8
AM_VIS
100
AcDbLine
 10
8.198902718999995
 20
-27.12074268733142
 30
0.0
 11
8.198902718999995
 21
-27.79198415473142
 31
0.0
  0
SPLINE
  5
1B49
330
1B03
100
AcDbEntity
  8
AM_VIS
100
AcDbSpline
210
0.0
220
0.0
230
1.0
 70
     8
 71
     3
 72
    28
 73
    24
 74
     0
 42
0.0000000001
 43
0.0000000001
 40
0.0
 40
0.0
 40
0.0
 40
0.0
 40
0.04761904761905
 40
0.0952380952381
 40
0.1428571428571
 40
0.1904761904762
 40
0.2380952380952
 40
0.2857142857143
 40
0.3333333333333001
 40
0.3809523809524
 40
0.4285714285714003
 40
0.4761904761905001
 40
0.5238095238095001
 40
0.5714285714286002
 40
0.6190476190476002
 40
0.6666666666667003
 40
0.7142857142857002
 40
0.7619047619048001
 40
0.8095238095237997
 40
0.8571428571429001
 40
0.9047619047618999
 40
0.9523809523809999
 40
1.0
 40
1.0
 40
1.0
 40
1.0
 10
6.768729567599997
 20
-27.84750018733141
 30
0.0
 10
6.698488612973001
 20
-27.84749983989142
 30
0.0
 10
6.565590960171995
 20
-27.83715799109141
 30
0.0
 10
6.391038552589996
 20
-27.79408465899142
 30
0.0
 10
6.235126114011997
 20
-27.72487393068141
 30
0.0
 10
6.096820882007996
 20
-27.63025711218143
 30
0.0
 10
5.973634052371984
 20
-27.5098766316114
 30
0.0
 10
5.866356225632991
 20
-27.36178620533142
 30
0.0
 10
5.781294811276985
 20
-27.18673626376142
 30
0.0
 10
5.717999302378991
 20
-26.97382781588141
 30
0.0
 10
5.684432474656993
 20
-26.71705900605142
 30
0.0
 10
5.683593603112989
 20
-26.44561978793141
 30
0.0
 10
5.714175399909997
 20
-26.18861431307142
 30
0.0
 10
5.773740485766985
 20
-25.97522874470142
 30
0.0
 10
5.855811066191996
 20
-25.79723608804142
 30
0.0
 10
5.961676351409984
 20
-25.64531308097142
 30
0.0
 10
6.083375761413996
 20
-25.52303687944141
 30
0.0
 10
6.218937978028996
 20
-25.42704138128142
 30
0.0
 10
6.374299127180002
 20
-25.35422067081141
 30
0.0
 10
6.557822172210002
 20
-25.30622411608141
 30
0.0
 10
6.754973416137993
 20
-25.2897145839214
 30
0.0
 10
6.954635209972998
 20
-25.2986874495914
 30
0.0
 10
7.079059453536991
 20
-25.32162098418142
 30
0.0
 10
7.139591058599997
 20
-25.33856848933142
 30
0.0
  0
ARC
  5
1B4A
330
1B03
100
AcDbEntity
  8
AM_VIS
100
AcDbCircle
 10
6.838707799015416
 20
-26.86870407936619
 30
0.0
 40
0.9812944378930808
100
AcDbArc
 50
265.9106428586403
 51
354.4101771712506
  0
LINE
  5
1B4B
330
1B03
100
AcDbEntity
  8
AM_VIS
100
AcDbLine
 10
7.229892566399804
 20
-26.85830242813248
 30
0.0
 11
7.815335904599756
 21
-26.96428816393271
 31
0.0
  0
SPLINE
  5
1B4C
330
1B03
100
AcDbEntity
  8
AM_VIS
100
AcDbSpline
210
0.0
220
0.0
230
1.0
 70
     8
 71
     3
 72
    39
 73
    35
 74
     0
 42
0.0000000001
 43
0.0000000001
 40
0.0
 40
0.0
 40
0.0
 40
0.0
 40
0.03125
 40
0.0625
 40
0.09375
 40
0.125
 40
0.15625
 40
0.1875
 40
0.21875
 40
0.25
 40
0.28125
 40
0.3125
 40
0.34375
 40
0.375
 40
0.40625
 40
0.4375
 40
0.46875
 40
0.5
 40
0.53125
 40
0.5625
 40
0.59375
 40
0.625
 40
0.65625
 40
0.6875
 40
0.71875
 40
0.75
 40
0.78125
 40
0.8125
 40
0.84375
 40
0.875
 40
0.90625
 40
0.9375
 40
0.96875
 40
1.0
 40
1.0
 40
1.0
 40
1.0
 10
7.194564140399997
 20
-26.1820141735314
 30
0.0
 10
7.188215017971991
 20
-26.14232640874141
 30
0.0
 10
7.170527171031984
 20
-26.06970620612139
 30
0.0
 10
7.131347941665985
 20
-25.98250825916143
 30
0.0
 10
7.078270650637996
 20
-25.91178766217141
 30
0.0
 10
7.013360961164984
 20
-25.8592132336714
 30
0.0
 10
6.935657959936996
 20
-25.82251141409143
 30
0.0
 10
6.846409272894995
 20
-25.8036688013014
 30
0.0
 10
6.746846211639997
 20
-25.8019144538114
 30
0.0
 10
6.649437251122996
 20
-25.81782111645141
 30
0.0
 10
6.560685846039994
 20
-25.8538740116914
 30
0.0
 10
6.484694609739001
 20
-25.90789362246141
 30
0.0
 10
6.418223860681003
 20
-25.97903730865143
 30
0.0
 10
6.36710913557399
 20
-26.06861882067142
 30
0.0
 10
6.330751224239996
 20
-26.17722262584142
 30
0.0
 10
6.307452969654995
 20
-26.30157203670141
 30
0.0
 10
6.295892229940001
 20
-26.44423694622139
 30
0.0
 10
6.295493566781992
 20
-26.60335833898143
 30
0.0
 10
6.305927447095989
 20
-26.7698916368114
 30
0.0
 10
6.331466196475993
 20
-26.92115376374143
 30
0.0
 10
6.372355848181989
 20
-27.05015335230141
 30
0.0
 10
6.434535994521986
 20
-27.15485446750143
 30
0.0
 10
6.507790867274003
 20
-27.22875884758142
 30
0.0
 10
6.587680358663
 20
-27.28083822901141
 30
0.0
 10
6.678687249870996
 20
-27.31324670108143
 30
0.0
 10
6.776673880091983
 20
-27.32514165473139
 30
0.0
 10
6.873628952377991
 20
-27.32004180569141
 30
0.0
 10
6.961522903482993
 20
-27.29595446765141
 30
0.0
 10
7.032554288528992
 20
-27.2566657881014
 30
0.0
 10
7.091599930514995
 20
-27.20541299090141
 30
0.0
 10
7.138634541644002
 20
-27.13973364018142
 30
0.0
 10
7.176748148872995
 20
-27.05989057000142
 30
0.0
 10
7.20692752977299
 20
-26.96801399844139
 30
0.0
 10
7.222953390338993
 20
-26.8964578730814
 30
0.0
 10
7.229892566400003
 20
-26.85830242813143
 30
0.0
  0
LINE
  5
1B4D
330
1B03
100
AcDbEntity
  8
AM_VIS
100
AcDbLine
 10
7.194564140399798
 20
-26.18201417353035
 30
0.0
 11
7.785054723599735
 21
-26.06593486333006
 31
0.0
  0
ARC
  5
1B4E
330
1B03
100
AcDbEntity
  8
AM_VIS
100
AcDbCircle
 10
6.877087299124333
 20
-26.22158873065205
 30
0.0
 40
0.9212127714707614
100
AcDbArc
 50
9.727720087383971
 51
73.44386888995635
  0
SPLINE
  5
1B4F
330
1B03
100
AcDbEntity
  8
AM_VIS
100
AcDbSpline
210
0.0
220
0.0
230
1.0
 70
     8
 71
     3
 72
    43
 73
    39
 74
     0
 42
0.0000000001
 43
0.0000000001
 40
0.0
 40
0.0
 40
0.0
 40
0.0
 40
0.02777777777778
 40
0.05555555555556
 40
0.08333333333333
 40
0.1111111111111
 40
0.1388888888889
 40
0.1666666666667
 40
0.1944444444444
 40
0.2222222222222
 40
0.25
 40
0.2777777777778001
 40
0.3055555555556
 40
0.3333333333333001
 40
0.3611111111111001
 40
0.3888888888889
 40
0.4166666666667001
 40
0.4444444444444002
 40
0.4722222222222002
 40
0.5
 40
0.5277777777778001
 40
0.5555555555556003
 40
0.5833333333333001
 40
0.6111111111111001
 40
0.6388888888889002
 40
0.6666666666667003
 40
0.6944444444444004
 40
0.7222222222222002
 40
0.75
 40
0.7777777777778001
 40
0.8055555555556001
 40
0.8333333333332999
 40
0.8611111111111
 40
0.8888888888889001
 40
0.9166666666667
 40
0.9444444444444
 40
0.9722222222221999
 40
1.0
 40
1.0
 40
1.0
 40
1.0
 10
5.296919506199991
 20
-27.12074268733142
 30
0.0
 10
5.273595248412
 20
-27.19252833366142
 30
0.0
 10
5.219414322822991
 20
-27.3235408422914
 30
0.0
 10
5.121076950161985
 20
-27.4813360877614
 30
0.0
 10
5.005814762378996
 20
-27.60853140611142
 30
0.0
 10
4.876136921343992
 20
-27.70737501348139
 30
0.0
 10
4.730074191464986
 20
-27.78047660577142
 30
0.0
 10
4.560779042915989
 20
-27.82992462636142
 30
0.0
 10
4.361863603113995
 20
-27.85152968040139
 30
0.0
 10
4.154219457177994
 20
-27.84429298023142
 30
0.0
 10
3.962982221978002
 20
-27.80957877746141
 30
0.0
 10
3.79518847185799
 20
-27.74720441044142
 30
0.0
 10
3.653104451268994
 20
-27.66157217777141
 30
0.0
 10
3.530166072259994
 20
-27.5518057914914
 30
0.0
 10
3.423193086556985
 20
-27.41303521620143
 30
0.0
 10
3.330785622119996
 20
-27.23913018811141
 30
0.0
 10
3.259643186528002
 20
-27.02584299465142
 30
0.0
 10
3.219067158008989
 20
-26.77293755943139
 30
0.0
 10
3.214033416409002
 20
-26.49264441136143
 30
0.0
 10
3.241257527960989
 20
-26.22567375269143
 30
0.0
 10
3.302512244910992
 20
-25.99203959318141
 30
0.0
 10
3.390212389751987
 20
-25.8002294679414
 30
0.0
 10
3.497583090669998
 20
-25.64603956565139
 30
0.0
 10
3.621176578656992
 20
-25.5193319809114
 30
0.0
 10
3.756241132895986
 20
-25.42031327279142
 30
0.0
 10
3.905620517673987
 20
-25.34833595225141
 30
0.0
 10
4.069440905865995
 20
-25.30396993369141
 30
0.0
 10
4.249301407510991
 20
-25.28933553967142
 30
0.0
 10
4.432619710337995
 20
-25.30127514534141
 30
0.0
 10
4.60898342123
 20
-25.34117317515143
 30
0.0
 10
4.769565555018992
 20
-25.41090422718143
 30
0.0
 10
4.907326587759989
 20
-25.50468946842142
 30
0.0
 10
5.029930184529995
 20
-25.62380057372143
 30
0.0
 10
5.138281161969992
 20
-25.7732857006514
 30
0.0
 10
5.225542068330987
 20
-25.96222289928142
 30
0.0
 10
5.288206431045985
 20
-26.18924328197142
 30
0.0
 10
5.323842933314985
 20
-26.4533195864314
 30
0.0
 10
5.329141629201991
 20
-26.65211391942142
 30
0.0
 10
5.327201144999996
 20
-26.75736393733141
 30
0.0
  0
LINE
  5
1B50
330
1B03
100
AcDbEntity
  8
AM_VIS
100
AcDbLine
 10
4.701382135800251
 20
-27.01475740932998
 30
0.0
 11
5.29691950620036
 21
-27.12074268732933
 31
0.0
  0
SPLINE
  5
1B51
330
1B03
100
AcDbEntity
  8
AM_VIS
100
AcDbSpline
210
0.0
220
0.0
230
1.0
 70
     8
 71
     3
 72
    21
 73
    17
 74
     0
 42
0.0000000001
 43
0.0000000001
 40
0.0
 40
0.0
 40
0.0
 40
0.0
 40
0.07142857142857
 40
0.1428571428571
 40
0.2142857142857
 40
0.2857142857143
 40
0.3571428571429001
 40
0.4285714285714003
 40
0.5
 40
0.5714285714286002
 40
0.6428571428571002
 40
0.7142857142857002
 40
0.7857142857143004
 40
0.8571428571429001
 40
0.9285714285714
 40
1.0
 40
1.0
 40
1.0
 40
1.0
 10
3.828263686799992
 20
-26.75736393733141
 30
0.0
 10
3.829092152767991
 20
-26.81021696744143
 30
0.0
 10
3.837660470989995
 20
-26.90875523736143
 30
0.0
 10
3.870004346842002
 20
-27.03447961688142
 30
0.0
 10
3.920321098510989
 20
-27.13992505300141
 30
0.0
 10
3.988427809858002
 20
-27.22584110128142
 30
0.0
 10
4.066125488315996
 20
-27.29204660044142
 30
0.0
 10
4.154604005974
 20
-27.33804118540141
 30
0.0
 10
4.245838773546985
 20
-27.36085411972143
 30
0.0
 10
4.337294711950001
 20
-27.3653223542914
 30
0.0
 10
4.421714905078992
 20
-27.3537374541714
 30
0.0
 10
4.499223827183989
 20
-27.32309941238139
 30
0.0
 10
4.565736213634984
 20
-27.27553041618143
 30
0.0
 10
4.62191048940199
 20
-27.20769394655142
 30
0.0
 10
4.666413810575996
 20
-27.12323367827142
 30
0.0
 10
4.690752142447003
 20
-27.05307131757141
 30
0.0
 10
4.701382135799995
 20
-27.01475740933143
 30
0.0
  0
LINE
  5
1B52
330
1B03
100
AcDbEntity
  8
AM_VIS
100
AcDbLine
 10
5.327201144999996
 20
-26.75736393733141
 30
0.0
 11
3.828263686799992
 21
-26.75736393733141
 31
0.0
  0
LINE
  5
1B53
330
1B03
100
AcDbEntity
  8
AM_VIS
100
AcDbLine
 10
2.052218515200003
 20
-24.85971930313143
 30
0.0
 11
2.052218515200003
 21
-25.34422415053141
 31
0.0
  0
LINE
  5
1B54
330
1B03
100
AcDbEntity
  8
AM_VIS
100
AcDbLine
 10
2.052218515200003
 20
-25.34422415053141
 30
0.0
 11
1.794825043200013
 21
-25.34422415053141
 31
0.0
  0
LINE
  5
1B55
330
1B03
100
AcDbEntity
  8
AM_VIS
100
AcDbLine
 10
1.794825043199985
 20
-25.34422415053141
 30
0.0
 11
1.794825043199985
 21
-25.85901109453142
 31
0.0
  0
LINE
  5
1B56
330
1B03
100
AcDbEntity
  8
AM_VIS
100
AcDbLine
 10
2.052218515200003
 20
-25.85901109453142
 30
0.0
 11
1.794825043200013
 21
-25.85901109453142
 31
0.0
  0
SPLINE
  5
1B57
330
1B03
100
AcDbEntity
  8
AM_VIS
100
AcDbSpline
210
0.0
220
0.0
230
1.0
 70
     8
 71
     3
 72
    26
 73
    22
 74
     0
 42
0.0000000001
 43
0.0000000001
 40
0.0
 40
0.0
 40
0.0
 40
0.0
 40
0.05263157894737
 40
0.1052631578947
 40
0.1578947368421
 40
0.2105263157895
 40
0.2631578947367999
 40
0.3157894736842
 40
0.3684210526316001
 40
0.4210526315789
 40
0.4736842105263002
 40
0.5263157894737001
 40
0.5789473684211001
 40
0.6315789473684001
 40
0.6842105263158002
 40
0.7368421052632002
 40
0.7894736842105001
 40
0.8421052631579
 40
0.8947368421052999
 40
0.9473684210526
 40
1.0
 40
1.0
 40
1.0
 40
1.0
 10
3.026275454999996
 20
-27.75105637693142
 30
0.0
 10
2.97882965241299
 20
-27.77487476797139
 30
0.0
 10
2.881988736402995
 20
-27.81270742124142
 30
0.0
 10
2.726671420310999
 20
-27.8431466754214
 30
0.0
 10
2.580992584756991
 20
-27.85096664833139
 30
0.0
 10
2.453229545462995
 20
-27.83766981883142
 30
0.0
 10
2.348687700189991
 20
-27.80369811923141
 30
0.0
 10
2.263003232607992
 20
-27.75775977874142
 30
0.0
 10
2.192954974687985
 20
-27.70176353494139
 30
0.0
 10
2.138032747693991
 20
-27.62864127695142
 30
0.0
 10
2.100103987256993
 20
-27.53731824907141
 30
0.0
 10
2.072916238427986
 20
-27.42860174207142
 30
0.0
 10
2.058966618827987
 20
-27.3042159912414
 30
0.0
 10
2.054456748477996
 20
-27.16832810195141
 30
0.0
 10
2.052149950425992
 20
-27.0206893833414
 30
0.0
 10
2.05215318395799
 20
-26.8613110300914
 30
0.0
 10
2.051929957695001
 20
-26.6898727558214
 30
0.0
 10
2.051938738250989
 20
-26.5053060461114
 30
0.0
 10
2.052022155197995
 20
-26.3065182247314
 30
0.0
 10
2.052158480560997
 20
-26.09250447385142
 30
0.0
 10
2.052218515200003
 20
-25.93864807310141
 30
0.0
 10
2.052218515200003
 20
-25.85901109453142
 30
0.0
  0
LINE
  5
1B58
330
1B03
100
AcDbEntity
  8
AM_VIS
100
AcDbLine
 10
2.988423635399932
 20
-27.25038569593142
 30
0.0
 11
3.026275454999598
 21
-27.75105637693144
 31
0.0
  0
SPLINE
  5
1B59
330
1B03
100
AcDbEntity
  8
AM_VIS
100
AcDbSpline
210
0.0
220
0.0
230
1.0
 70
     8
 71
     3
 72
    32
 73
    28
 74
     0
 42
0.0000000001
 43
0.0000000001
 40
0.0
 40
0.0
 40
0.0
 40
0.0
 40
0.04
 40
0.08
 40
0.12
 40
0.16
 40
0.2
 40
0.24
 40
0.28
 40
0.32
 40
0.36
 40
0.4
 40
0.4400000000000003
 40
0.48
 40
0.5200000000000001
 40
0.5600000000000001
 40
0.6
 40
0.6400000000000003
 40
0.6800000000000001
 40
0.72
 40
0.76
 40
0.8
 40
0.84
 40
0.88
 40
0.9200000000000001
 40
0.9599999999999999
 40
1.0
 40
1.0
 40
1.0
 40
1.0
 10
2.60738067239999
 20
-25.85901109453142
 30
0.0
 10
2.60738067239999
 20
-25.9054425598514
 30
0.0
 10
2.607369208768993
 20
-25.99515406093142
 30
0.0
 10
2.607336462915988
 20
-26.11997890393142
 30
0.0
 10
2.607301062447
 20
-26.23592160800141
 30
0.0
 10
2.607271475964985
 20
-26.3435327699014
 30
0.0
 10
2.607252889104991
 20
-26.44345379943142
 30
0.0
 10
2.607248138316982
 20
-26.53627126095142
 30
0.0
 10
2.607258440668992
 20
-26.6224601822314
 30
0.0
 10
2.607283706492985
 20
-26.70251759164143
 30
0.0
 10
2.607323623430993
 20
-26.77685691259139
 30
0.0
 10
2.607375302936993
 20
-26.84588516500143
 30
0.0
 10
2.607443365971001
 20
-26.90999281879141
 30
0.0
 10
2.607814447370991
 20
-26.96955114238142
 30
0.0
 10
2.608538314997993
 20
-27.0249113973914
 30
0.0
 10
2.609596965742987
 20
-27.0760336681314
 30
0.0
 10
2.611168631623989
 20
-27.12276822581141
 30
0.0
 10
2.613518169490994
 20
-27.16595685206142
 30
0.0
 10
2.617642564705001
 20
-27.20655865555142
 30
0.0
 10
2.634071598605991
 20
-27.24521777715143
 30
0.0
 10
2.661830755036
 20
-27.27774737952141
 30
0.0
 10
2.699325378084985
 20
-27.30290854450141
 30
0.0
 10
2.749598149170999
 20
-27.3147463006614
 30
0.0
 10
2.802739717464994
 20
-27.31056306515139
 30
0.0
 10
2.860404633354995
 20
-27.29719817011142
 30
0.0
 10
2.921615538828994
 20
-27.27720004320142
 30
0.0
 10
2.965618714977985
 20
-27.25990294546142
 30
0.0
 10
2.988423635399989
 20
-27.25038569593142
 30
0.0
  0
LINE
  5
1B5A
330
1B03
100
AcDbEntity
  8
AM_VIS
100
AcDbLine
 10
2.985900241799988
 20
-25.85901109453142
 30
0.0
 11
2.60738067239999
 21
-25.85901109453142
 31
0.0
  0
LINE
  5
1B5B
330
1B03
100
AcDbEntity
  8
AM_VIS
100
AcDbLine
 10
2.985900241799988
 20
-25.34422415053141
 30
0.0
 11
2.985900241799988
 21
-25.85901109453142
 31
0.0
  0
LINE
  5
1B5C
330
1B03
100
AcDbEntity
  8
AM_VIS
100
AcDbLine
 10
2.985900241799988
 20
-25.34422415053141
 30
0.0
 11
2.60738067239999
 21
-25.34422415053141
 31
0.0
  0
LINE
  5
1B5D
330
1B03
100
AcDbEntity
  8
AM_VIS
100
AcDbLine
 10
2.60738067239999
 20
-24.48119973373142
 30
0.0
 11
2.60738067239999
 21
-25.34422415053141
 31
0.0
  0
LINE
  5
1B5E
330
1B03
100
AcDbEntity
  8
AM_VIS
100
AcDbLine
 10
2.05221851520114
 20
-24.85971930313308
 30
0.0
 11
2.607380672399152
 21
-24.4811997337302
 31
0.0
  0
LINE
  5
1B5F
330
1B03
100
AcDbEntity
  8
AM_VIS
100
AcDbLine
 10
0.0359711771999898
 20
-27.79198415473142
 30
0.0
 11
-0.6629493360000183
 21
-27.79198415473142
 31
0.0
  0
LINE
  5
1B60
330
1B03
100
AcDbEntity
  8
AM_VIS
100
AcDbLine
 10
0.0359711772004587
 20
-27.7919841547317
 30
0.0
 11
0.4980804486008097
 21
-27.03368331913188
 31
0.0
  0
LINE
  5
1B61
330
1B03
100
AcDbEntity
  8
AM_VIS
100
AcDbLine
 10
0.4980804486007387
 20
-27.03368331913095
 30
0.0
 11
0.9613726752000886
 21
-27.79198415473136
 31
0.0
  0
LINE
  5
1B62
330
1B03
100
AcDbEntity
  8
AM_VIS
100
AcDbLine
 10
1.688839765199993
 20
-27.79198415473142
 30
0.0
 11
0.9613726751999891
 21
-27.79198415473142
 31
0.0
  0
LINE
  5
1B63
330
1B03
100
AcDbEntity
  8
AM_VIS
100
AcDbLine
 10
0.8543619252004575
 20
-26.50359807253114
 30
0.0
 11
1.688839765199681
 21
-27.79198415473164
 31
0.0
  0
LINE
  5
1B64
330
1B03
100
AcDbEntity
  8
AM_VIS
100
AcDbLine
 10
0.8543619252004575
 20
-26.50359807253173
 30
0.0
 11
1.618261654799105
 21
-25.34422415053084
 31
0.0
  0
LINE
  5
1B65
330
1B03
100
AcDbEntity
  8
AM_VIS
100
AcDbLine
 10
1.618261654800001
 20
-25.34422415053141
 30
0.0
 11
0.9193411416000074
 21
-25.34422415053141
 31
0.0
  0
LINE
  5
1B66
330
1B03
100
AcDbEntity
  8
AM_VIS
100
AcDbLine
 10
0.4980804486007955
 20
-26.01727942153193
 30
0.0
 11
0.919341141600249
 21
-25.34422415053159
 31
0.0
  0
LINE
  5
1B67
330
1B03
100
AcDbEntity
  8
AM_VIS
100
AcDbLine
 10
0.0947993927990396
 20
-25.34422415053198
 30
0.0
 11
0.4980804486009376
 21
-26.01727942153085
 31
0.0
  0
LINE
  5
1B68
330
1B03
100
AcDbEntity
  8
AM_VIS
100
AcDbLine
 10
0.0947993927999917
 20
-25.34422415053141
 30
0.0
 11
-0.632667697200013
 21
-25.34422415053141
 31
0.0
  0
LINE
  5
1B69
330
1B03
100
AcDbEntity
  8
AM_VIS
100
AcDbLine
 10
-0.6326676971997856
 20
-25.34422415053127
 30
0.0
 11
0.1485808212003192
 21
-26.5311983767312
 31
0.0
  0
LINE
  5
1B6A
330
1B03
100
AcDbEntity
  8
AM_VIS
100
AcDbLine
 10
-0.6629493360001604
 20
-27.79198415473133
 30
0.0
 11
0.1485808212002908
 21
-26.53119837673163
 31
0.0
  0
SPLINE
  5
1B6B
330
1B03
100
AcDbEntity
  8
AM_VIS
100
AcDbSpline
210
0.0
220
0.0
230
1.0
 70
     8
 71
     3
 72
    26
 73
    22
 74
     0
 42
0.0000000001
 43
0.0000000001
 40
0.0
 40
0.0
 40
0.0
 40
0.0
 40
0.05263157894737
 40
0.1052631578947
 40
0.1578947368421
 40
0.2105263157895
 40
0.2631578947367999
 40
0.3157894736842
 40
0.3684210526316001
 40
0.4210526315789
 40
0.4736842105263002
 40
0.5263157894737001
 40
0.5789473684211001
 40
0.6315789473684001
 40
0.6842105263158002
 40
0.7368421052632002
 40
0.7894736842105001
 40
0.8421052631579
 40
0.8947368421052999
 40
0.9473684210526
 40
1.0
 40
1.0
 40
1.0
 40
1.0
 10
-0.8349651971746041
 20
-26.6049014513514
 30
0.0
 10
-0.8368539372140091
 20
-26.6967033925614
 30
0.0
 10
-0.8533645178954074
 20
-26.86914726466143
 30
0.0
 10
-0.9106905639096041
 20
-27.09231649288142
 30
0.0
 10
-0.9959505797066086
 20
-27.28646763558141
 30
0.0
 10
-1.107129776673012
 20
-27.45558978294142
 30
0.0
 10
-1.232321937323
 20
-27.59389059114142
 30
0.0
 10
-1.366356864702005
 20
-27.7001028196014
 30
0.0
 10
-1.508953321677999
 20
-27.77690383662142
 30
0.0
 10
-1.663969132511006
 20
-27.82706343272142
 30
0.0
 10
-1.825252609124014
 20
-27.8494802449814
 30
0.0
 10
-1.993390497969009
 20
-27.84757861257139
 30
0.0
 10
-2.165728504176009
 20
-27.81666909131142
 30
0.0
 10
-2.338068470495009
 20
-27.75208161384139
 30
0.0
 10
-2.497137739461003
 20
-27.66187421450142
 30
0.0
 10
-2.635278548993007
 20
-27.5431971070314
 30
0.0
 10
-2.743551511465007
 20
-27.40645927748142
 30
0.0
 10
-2.832314397073012
 20
-27.24598545218141
 30
0.0
 10
-2.903369649727004
 20
-27.04848159799142
 30
0.0
 10
-2.948743726015003
 20
-26.81198947647141
 30
0.0
 10
-2.959555045652003
 20
-26.63198045940141
 30
0.0
 10
-2.959301146200012
 20
-26.53608768073142
 30
0.0
  0
SPLINE
  5
1B6C
330
1B03
100
AcDbEntity
  8
AM_VIS
100
AcDbSpline
210
0.0
220
0.0
230
1.0
 70
     8
 71
     3
 72
    26
 73
    22
 74
     0
 42
0.0000000001
 43
0.0000000001
 40
0.0
 40
0.0
 40
0.0
 40
0.0
 40
0.05263157894737
 40
0.1052631578947
 40
0.1578947368421
 40
0.2105263157895
 40
0.2631578947367999
 40
0.3157894736842
 40
0.3684210526316001
 40
0.4210526315789
 40
0.4736842105263002
 40
0.5263157894737001
 40
0.5789473684211001
 40
0.6315789473684001
 40
0.6842105263158002
 40
0.7368421052632002
 40
0.7894736842105001
 40
0.8421052631579
 40
0.8947368421052999
 40
0.9473684210526
 40
1.0
 40
1.0
 40
1.0
 40
1.0
 10
-2.959301146200012
 20
-26.53608768073142
 30
0.0
 10
-2.959054191344002
 20
-26.44281773767142
 30
0.0
 10
-2.942586995611002
 20
-26.26726925926141
 30
0.0
 10
-2.879249031238011
 20
-26.03588328792143
 30
0.0
 10
-2.794849829536012
 20
-25.83910423539141
 30
0.0
 10
-2.692671860585001
 20
-25.67674822047142
 30
0.0
 10
-2.575607425699011
 20
-25.54745426303139
 30
0.0
 10
-2.443194070604
 20
-25.44563666006142
 30
0.0
 10
-2.297933606397002
 20
-25.36817634167142
 30
0.0
 10
-2.135386923053012
 20
-25.31501182600142
 30
0.0
 10
-1.965119385415015
 20
-25.29135740504143
 30
0.0
 10
-1.791914046560997
 20
-25.29414791090142
 30
0.0
 10
-1.628606266396012
 20
-25.32232983297141
 30
0.0
 10
-1.476216895322004
 20
-25.37703169032142
 30
0.0
 10
-1.334180845943016
 20
-25.4589128453514
 30
0.0
 10
-1.200019951830007
 20
-25.57252081372142
 30
0.0
 10
-1.076797393686
 20
-25.71786756817142
 30
0.0
 10
-0.9696454227190045
 20
-25.89579851427142
 30
0.0
 10
-0.8916865706581162
 20
-26.09710170929139
 30
0.0
 10
-0.8429319050219064
 20
-26.32744523045142
 30
0.0
 10
-0.832978111180715
 20
-26.5083194190314
 30
0.0
 10
-0.8349651971746041
 20
-26.6049014513514
 30
0.0
  0
LINE
  5
1B6D
330
1B03
100
AcDbEntity
  8
AM_VIS
100
AcDbLine
 10
-4.451535496800012
 20
-25.34422415053141
 30
0.0
 11
-4.451535496800012
 21
-27.79198415473142
 31
0.0
  0
LINE
  5
1B6E
330
1B03
100
AcDbEntity
  8
AM_VIS
100
AcDbLine
 10
-3.881232978000006
 20
-27.79198415473142
 30
0.0
 11
-4.451535496800012
 21
-27.79198415473142
 31
0.0
  0
SPLINE
  5
1B6F
330
1B03
100
AcDbEntity
  8
AM_VIS
100
AcDbSpline
210
0.0
220
0.0
230
1.0
 70
     8
 71
     3
 72
    26
 73
    22
 74
     0
 42
0.0000000001
 43
0.0000000001
 40
0.0
 40
0.0
 40
0.0
 40
0.0
 40
0.05263157894737
 40
0.1052631578947
 40
0.1578947368421
 40
0.2105263157895
 40
0.2631578947367999
 40
0.3157894736842
 40
0.3684210526316001
 40
0.4210526315789
 40
0.4736842105263002
 40
0.5263157894737001
 40
0.5789473684211001
 40
0.6315789473684001
 40
0.6842105263158002
 40
0.7368421052632002
 40
0.7894736842105001
 40
0.8421052631579
 40
0.8947368421052999
 40
0.9473684210526
 40
1.0
 40
1.0
 40
1.0
 40
1.0
 10
-3.237749755800003
 20
-25.9800584503314
 30
0.0
 10
-3.26827928565401
 20
-25.95760134290139
 30
0.0
 10
-3.328275421596011
 20
-25.91947012761143
 30
0.0
 10
-3.416008349320001
 20
-25.88285985697141
 30
0.0
 10
-3.502339381987006
 20
-25.87061944913142
 30
0.0
 10
-3.578862395728002
 20
-25.87963144698142
 30
0.0
 10
-3.647905789031007
 20
-25.9057399447814
 30
0.0
 10
-3.706521553779005
 20
-25.94715935154142
 30
0.0
 10
-3.755108154712011
 20
-26.0079695276014
 30
0.0
 10
-3.792608478264007
 20
-26.08433400866142
 30
0.0
 10
-3.823669901586008
 20
-26.17574908892142
 30
0.0
 10
-3.84748796873
 20
-26.2791936109814
 30
0.0
 10
-3.860624465788013
 20
-26.39529916666141
 30
0.0
 10
-3.870020866024013
 20
-26.52294204746142
 30
0.0
 10
-3.876133351732001
 20
-26.66226182918141
 30
0.0
 10
-3.879861995408013
 20
-26.81391549182141
 30
0.0
 10
-3.88144761938701
 20
-26.97873890843142
 30
0.0
 10
-3.881109142618008
 20
-27.15700183392142
 30
0.0
 10
-3.879700566159009
 20
-27.35005247064141
 30
0.0
 10
-3.878625611753001
 20
-27.5598015764914
 30
0.0
 10
-3.879674889269004
 20
-27.71254339490142
 30
0.0
 10
-3.881232978000006
 20
-27.79198415473142
 30
0.0
  0
LINE
  5
1B70
330
1B03
100
AcDbEntity
  8
AM_VIS
100
AcDbLine
 10
-3.23774975579969
 20
-25.98005845033148
 30
0.0
 11
-3.06363056159963
 21
-25.41582773293152
 31
0.0
  0
SPLINE
  5
1B71
330
1B03
100
AcDbEntity
  8
AM_VIS
100
AcDbSpline
210
0.0
220
0.0
230
1.0
 70
     8
 71
     3
 72
    17
 73
    13
 74
     0
 42
0.0000000001
 43
0.0000000001
 40
0.0
 40
0.0
 40
0.0
 40
0.0
 40
0.1
 40
0.2
 40
0.3
 40
0.4
 40
0.5
 40
0.6
 40
0.7
 40
0.8
 40
0.9
 40
1.0
 40
1.0
 40
1.0
 40
1.0
 10
-3.9216081912
 20
-25.69183123273141
 30
0.0
 10
-3.90098405605601
 20
-25.65422338582142
 30
0.0
 10
-3.859787805963001
 20
-25.58311439696141
 30
0.0
 10
-3.796313411231004
 20
-25.48901279984142
 30
0.0
 10
-3.730788217252005
 20
-25.40967069495142
 30
0.0
 10
-3.658567276474009
 20
-25.35191354620142
 30
0.0
 10
-3.579522759864012
 20
-25.31463906369141
 30
0.0
 10
-3.493691144385003
 20
-25.29424142852143
 30
0.0
 10
-3.397661001284014
 20
-25.2920314003814
 30
0.0
 10
-3.290593556272007
 20
-25.30755035025141
 30
0.0
 10
-3.176765909567002
 20
-25.34718633964142
 30
0.0
 10
-3.101376426013011
 20
-25.39001491163139
 30
0.0
 10
-3.0636305616
 20
-25.41582773293141
 30
0.0
  0
LINE
  5
1B72
330
1B03
100
AcDbEntity
  8
AM_VIS
100
AcDbLine
 10
-3.9216081912
 20
-25.34422415053141
 30
0.0
 11
-3.9216081912
 21
-25.69183123273141
 31
0.0
  0
LINE
  5
1B73
330
1B03
100
AcDbEntity
  8
AM_VIS
100
AcDbLine
 10
-3.9216081912
 20
-25.34422415053141
 30
0.0
 11
-4.451535496799998
 21
-25.34422415053141
 31
0.0
  0
LINE
  5
1B74
330
1B03
100
AcDbEntity
  8
AM_VIS
100
AcDbLine
 10
-4.997155728600013
 20
-27.79198415473142
 30
0.0
 11
-5.527083034200011
 21
-27.79198415473142
 31
0.0
  0
LINE
  5
1B75
330
1B03
100
AcDbEntity
  8
AM_VIS
100
AcDbLine
 10
-4.997155728600013
 20
-27.12074268733142
 30
0.0
 11
-4.997155728600013
 21
-27.79198415473142
 31
0.0
  0
LINE
  5
1B76
330
1B03
100
AcDbEntity
  8
AM_VIS
100
AcDbLine
 10
-4.997155728600013
 20
-27.12074268733142
 30
0.0
 11
-5.527083034200011
 21
-27.12074268733142
 31
0.0
  0
LINE
  5
1B77
330
1B03
100
AcDbEntity
  8
AM_VIS
100
AcDbLine
 10
-5.527083034200011
 20
-27.12074268733142
 30
0.0
 11
-5.527083034200011
 21
-27.79198415473142
 31
0.0
  0
LINE
  5
1B78
330
1B03
100
AcDbEntity
  8
AM_VIS
100
AcDbLine
 10
-9.509297863200494
 20
-25.34422415053159
 30
0.0
 11
-8.713539373799783
 21
-27.79198415473136
 31
0.0
  0
LINE
  5
1B79
330
1B03
100
AcDbEntity
  8
AM_VIS
100
AcDbLine
 10
-8.066428544400004
 20
-27.79198415473142
 30
0.0
 11
-8.71353937380001
 21
-27.79198415473142
 31
0.0
  0
LINE
  5
1B7A
330
1B03
100
AcDbEntity
  8
AM_VIS
100
AcDbLine
 10
-8.066428544400189
 20
-27.79198415473136
 30
0.0
 11
-7.639411016399854
 21
-26.21860429633145
 31
0.0
  0
LINE
  5
1B7B
330
1B03
100
AcDbEntity
  8
AM_VIS
100
AcDbLine
 10
-7.639411016399343
 20
-26.21860429633126
 30
0.0
 11
-7.207031276999067
 21
-27.79198415473116
 31
0.0
  0
LINE
  5
1B7C
330
1B03
100
AcDbEntity
  8
AM_VIS
100
AcDbLine
 10
-6.567964451400008
 20
-27.79198415473142
 30
0.0
 11
-7.207031277000005
 21
-27.79198415473142
 31
0.0
  0
LINE
  5
1B7D
330
1B03
100
AcDbEntity
  8
AM_VIS
100
AcDbLine
 10
-6.567964451400378
 20
-27.79198415473131
 30
0.0
 11
-5.759431053000092
 21
-25.34422415053138
 31
0.0
  0
LINE
  5
1B7E
330
1B03
100
AcDbEntity
  8
AM_VIS
100
AcDbLine
 10
-5.759431053000007
 20
-25.34422415053141
 30
0.0
 11
-6.416162091600007
 21
-25.34422415053141
 31
0.0
  0
LINE
  5
1B7F
330
1B03
100
AcDbEntity
  8
AM_VIS
100
AcDbLine
 10
-6.897512696999747
 20
-26.9484372967315
 30
0.0
 11
-6.416162091599723
 21
-25.34422415053148
 31
0.0
  0
LINE
  5
1B80
330
1B03
100
AcDbEntity
  8
AM_VIS
100
AcDbLine
 10
-7.315698347400406
 20
-25.34422415053152
 30
0.0
 11
-6.897512697000003
 21
-26.94843729673142
 31
0.0
  0
LINE
  5
1B81
330
1B03
100
AcDbEntity
  8
AM_VIS
100
AcDbLine
 10
-7.315698347400008
 20
-25.34422415053141
 30
0.0
 11
-7.957288566600006
 21
-25.34422415053141
 31
0.0
  0
LINE
  5
1B82
330
1B03
100
AcDbEntity
  8
AM_VIS
100
AcDbLine
 10
-8.391403368000432
 20
-26.9484372967313
 30
0.0
 11
-7.957288566599878
 21
-25.34422415053144
 31
0.0
  0
LINE
  5
1B83
330
1B03
100
AcDbEntity
  8
AM_VIS
100
AcDbLine
 10
-8.862739140599749
 20
-25.34422415053132
 30
0.0
 11
-8.391403368000418
 21
-26.94843729673153
 31
0.0
  0
LINE
  5
1B84
330
1B03
100
AcDbEntity
  8
AM_VIS
100
AcDbLine
 10
-8.862739140600005
 20
-25.34422415053141
 30
0.0
 11
-9.509297863199996
 21
-25.34422415053141
 31
0.0
  0
LINE
  5
1B85
330
1B03
100
AcDbEntity
  8
AM_VIS
100
AcDbLine
 10
-13.29834143160014
 20
-25.34422415053144
 30
0.0
 11
-12.50258294219954
 21
-27.79198415473123
 31
0.0
  0
LINE
  5
1B86
330
1B03
100
AcDbEntity
  8
AM_VIS
100
AcDbLine
 10
-11.8554721128
 20
-27.79198415473142
 30
0.0
 11
-12.50258294219999
 21
-27.79198415473142
 31
0.0
  0
LINE
  5
1B87
330
1B03
100
AcDbEntity
  8
AM_VIS
100
AcDbLine
 10
-11.85547211279874
 20
-27.79198415473176
 30
0.0
 11
-11.42845504260124
 21
-26.21860429633108
 31
0.0
  0
LINE
  5
1B88
330
1B03
100
AcDbEntity
  8
AM_VIS
100
AcDbLine
 10
-11.4284550425989
 20
-26.21860429633114
 30
0.0
 11
-10.99607530319917
 21
-27.79198415473122
 31
0.0
  0
LINE
  5
1B89
330
1B03
100
AcDbEntity
  8
AM_VIS
100
AcDbLine
 10
-10.35700801980001
 20
-27.79198415473142
 30
0.0
 11
-10.9960753032
 21
-27.79198415473142
 31
0.0
  0
LINE
  5
1B8A
330
1B03
100
AcDbEntity
  8
AM_VIS
100
AcDbLine
 10
-10.3570080198006
 20
-27.79198415473122
 30
0.0
 11
-9.548474621400139
 21
-25.34422415053135
 31
0.0
  0
LINE
  5
1B8B
330
1B03
100
AcDbEntity
  8
AM_VIS
100
AcDbLine
 10
-9.548474621400011
 20
-25.34422415053141
 30
0.0
 11
-10.2052061178
 21
-25.34422415053141
 31
0.0
  0
LINE
  5
1B8C
330
1B03
100
AcDbEntity
  8
AM_VIS
100
AcDbLine
 10
-10.68655672319871
 20
-26.94843729673182
 30
0.0
 11
-10.20520611779894
 21
-25.34422415053175
 31
0.0
  0
LINE
  5
1B8D
330
1B03
100
AcDbEntity
  8
AM_VIS
100
AcDbLine
 10
-11.10474191580036
 20
-25.34422415053148
 30
0.0
 11
-10.68655672320169
 21
-26.94843729673185
 31
0.0
  0
LINE
  5
1B8E
330
1B03
100
AcDbEntity
  8
AM_VIS
100
AcDbLine
 10
-11.10474191580001
 20
-25.34422415053141
 30
0.0
 11
-11.7463325928
 21
-25.34422415053141
 31
0.0
  0
LINE
  5
1B8F
330
1B03
100
AcDbEntity
  8
AM_VIS
100
AcDbLine
 10
-12.18044693639959
 20
-26.94843729673153
 30
0.0
 11
-11.7463325928009
 21
-25.34422415053117
 31
0.0
  0
LINE
  5
1B90
330
1B03
100
AcDbEntity
  8
AM_VIS
100
AcDbLine
 10
-12.6517827089987
 20
-25.34422415053104
 30
0.0
 11
-12.18044693639838
 21
-26.94843729673096
 31
0.0
  0
LINE
  5
1B91
330
1B03
100
AcDbEntity
  8
AM_VIS
100
AcDbLine
 10
-12.65178270900001
 20
-25.34422415053141
 30
0.0
 11
-13.29834143160001
 21
-25.34422415053141
 31
0.0
  0
LINE
  5
1B92
330
1B03
100
AcDbEntity
  8
AM_VIS
100
AcDbLine
 10
-14.89378548420035
 20
-25.34422415053148
 30
0.0
 11
-14.47560029160168
 21
-26.94843729673185
 31
0.0
  0
LINE
  5
1B93
330
1B03
100
AcDbEntity
  8
AM_VIS
100
AcDbLine
 10
-14.8937854842
 20
-25.34422415053141
 30
0.0
 11
-15.53537616119999
 21
-25.34422415053141
 31
0.0
  0
LINE
  5
1B94
330
1B03
100
AcDbEntity
  8
AM_VIS
100
AcDbLine
 10
-15.9694905047996
 20
-26.94843729673153
 30
0.0
 11
-15.5353761612009
 21
-25.34422415053117
 31
0.0
  0
LINE
  5
1B95
330
1B03
100
AcDbEntity
  8
AM_VIS
100
AcDbLine
 10
-16.4408262773987
 20
-25.34422415053104
 30
0.0
 11
-15.96949050479839
 21
-26.94843729673096
 31
0.0
  0
LINE
  5
1B96
330
1B03
100
AcDbEntity
  8
AM_VIS
100
AcDbLine
 10
-16.44082627740001
 20
-25.34422415053141
 30
0.0
 11
-17.087385
 21
-25.34422415053141
 31
0.0
  0
LINE
  5
1B97
330
1B03
100
AcDbEntity
  8
AM_VIS
100
AcDbLine
 10
-17.08738500000015
 20
-25.34422415053147
 30
0.0
 11
-16.29162651059953
 21
-27.79198415473127
 31
0.0
  0
LINE
  5
1B98
330
1B03
100
AcDbEntity
  8
AM_VIS
100
AcDbLine
 10
-15.64451568120001
 20
-27.79198415473142
 30
0.0
 11
-16.29162651060001
 21
-27.79198415473142
 31
0.0
  0
LINE
  5
1B99
330
1B03
100
AcDbEntity
  8
AM_VIS
100
AcDbLine
 10
-15.64451568119873
 20
-27.79198415473176
 30
0.0
 11
-15.21749861100123
 21
-26.21860429633108
 31
0.0
  0
LINE
  5
1B9A
330
1B03
100
AcDbEntity
  8
AM_VIS
100
AcDbLine
 10
-15.2174986109989
 20
-26.21860429633114
 30
0.0
 11
-14.78511887159918
 21
-27.79198415473122
 31
0.0
  0
LINE
  5
1B9B
330
1B03
100
AcDbEntity
  8
AM_VIS
100
AcDbLine
 10
-14.14605158819998
 20
-27.79198415473142
 30
0.0
 11
-14.78511887159999
 21
-27.79198415473142
 31
0.0
  0
LINE
  5
1B9C
330
1B03
100
AcDbEntity
  8
AM_VIS
100
AcDbLine
 10
-14.14605158820068
 20
-27.79198415473119
 30
0.0
 11
-13.33751818980097
 21
-25.3442241505311
 31
0.0
  0
LINE
  5
1B9D
330
1B03
100
AcDbEntity
  8
AM_VIS
100
AcDbLine
 10
-13.33751818980001
 20
-25.34422415053141
 30
0.0
 11
-13.99424968620001
 21
-25.34422415053141
 31
0.0
  0
LINE
  5
1B9E
330
1B03
100
AcDbEntity
  8
AM_VIS
100
AcDbLine
 10
-14.4756002915987
 20
-26.94843729673182
 30
0.0
 11
-13.99424968619893
 21
-25.34422415053175
 31
0.0
  0
ARC
  5
1B9F
330
1B03
100
AcDbEntity
  8
AM_VIS
100
AcDbCircle
 10
-26.49999999999585
 20
-24.4418531514658
 30
0.0
 40
4.693739986348258
100
AcDbArc
 50
180.6537133718811
 51
359.3462866192074
  0
ARC
  5
1BA0
330
1B03
100
AcDbEntity
  8
AM_VIS
100
AcDbCircle
 10
-26.49999999999588
 20
-24.44221817720501
 30
0.0
 40
4.693735835887347
100
AcDbArc
 50
359.3507421475459
 51
180.6492578435426
  0
ARC
  5
1BA1
330
1B03
100
AcDbEntity
  8
AM_VIS
100
AcDbCircle
 10
26.49999999999585
 20
-24.4418531514658
 30
0.0
 40
4.693739986348258
100
AcDbArc
 50
180.6537133807926
 51
359.3462866281188
  0
ARC
  5
1BA2
330
1B03
100
AcDbEntity
  8
AM_VIS
100
AcDbCircle
 10
26.49999999999586
 20
-24.44221817720501
 30
0.0
 40
4.693735835887347
100
AcDbArc
 50
359.3507421564574
 51
180.649257852454
  0
LINE
  5
1BA3
330
1B03
100
AcDbEntity
  8
AM_VIS
100
AcDbLine
 10
18.73778298855586
 20
-20.37853301134141
 30
0.0
 11
-18.73778298855587
 21
-20.37853301134141
 31
0.0
  0
ARC
  5
1BA4
330
1B03
100
AcDbEntity
  8
AM_VIS
100
AcDbCircle
 10
18.73778298855586
 20
-15.37853301134139
 30
0.0
 40
5.0
100
AcDbArc
 50
270.0
 51
2.351559796018635
  0
LINE
  5
1BA5
330
1B03
100
AcDbEntity
  8
AM_VIS
100
AcDbLine
 10
23.02223572544395
 20
2.148613871892109
 30
0.0
 11
23.73357237065343
 21
-15.17337831429282
 31
0.0
  0
LINE
  5
1BA6
330
1B03
100
AcDbEntity
  8
AM_VIS
100
AcDbLine
 10
32.99789291748608
 20
2.152569746798121
 30
0.0
 11
33.08577292509671
 21
-28.36529022298487
 31
0.0
  0
ARC
  5
1BA7
330
1B03
100
AcDbEntity
  8
AM_VIS
100
AcDbCircle
 10
29.54710194554102
 20
-28.56297862491217
 30
0.0
 40
3.656643739800143
100
AcDbArc
 50
270.0764469009718
 51
3.104169606828008
  0
ARC
  5
1BA8
330
1B03
100
AcDbEntity
  8
AM_VIS
100
AcDbCircle
 10
-29.547101945541
 20
-28.56297862491214
 30
0.0
 40
3.656643739800176
100
AcDbArc
 50
176.895830393172
 51
269.9235530990278
  0
LINE
  5
1BA9
330
1B03
100
AcDbEntity
  8
AM_VIS
100
AcDbLine
 10
-33.08577292509671
 20
-28.36529022298487
 30
0.0
 11
-32.99789291748607
 21
2.152569746798121
 31
0.0
  0
LINE
  5
1BAA
330
1B03
100
AcDbEntity
  8
AM_VIS
100
AcDbLine
 10
-23.73357237065346
 20
-15.17337831429282
 30
0.0
 11
-23.02223572544396
 21
2.148613871892109
 31
0.0
  0
ARC
  5
1BAB
330
1B03
100
AcDbEntity
  8
AM_VIS
100
AcDbCircle
 10
-18.73778298855587
 20
-15.37853301134139
 30
0.0
 40
5.0
100
AcDbArc
 50
177.6484402039814
 51
270.0
  0
LINE
  5
1BAC
330
1B03
100
AcDbEntity
  8
AM_VIS
100
AcDbLine
 10
-29.55198082146001
 20
-32.21961910989143
 30
0.0
 11
29.55198082145999
 21
-32.21961910989143
 31
0.0
  0
LINE
  5
1BAD
330
1B03
100
AcDbEntity
  8
AM_VIS
100
AcDbLine
 10
29.55195185999001
 20
-35.10125710657141
 30
0.0
 11
-29.55195185999
 21
-35.10125710657141
 31
0.0
  0
LINE
  5
1BAE
330
1B03
100
AcDbEntity
  8
AM_VIS
100
AcDbLine
 10
29.55195185999001
 20
-35.10125710657141
 30
0.0
 11
31.9715231860709
 21
-35.84750018732645
 31
0.0
  0
LINE
  5
1BAF
330
1B03
100
AcDbEntity
  8
AM_VIS
100
AcDbLine
 10
-29.55195185999
 20
-35.10125710657141
 30
0.0
 11
-31.97152318607093
 21
-35.84750018732645
 31
0.0
  0
ARC
  5
1BB0
330
1B03
100
AcDbEntity
  8
AM_VIS
100
AcDbCircle
 10
-23.08087004163882
 20
1.124365993276796
 30
0.0
 40
1.04116407654149
100
AcDbArc
 50
80.94974049522035
 51
86.60992067951346
  0
LINE
  5
1BB1
330
1B03
100
AcDbEntity
  8
AM_VIS
100
AcDbLine
 10
31.97152318607001
 20
-35.84750018733141
 30
0.0
 11
-31.97152318607001
 21
-35.84750018733141
 31
0.0
  0
ARC
  5
1BB2
330
1B03
100
AcDbEntity
  8
AM_VIS
100
AcDbCircle
 10
32.00675864192534
 20
-29.85425882925674
 30
0.0
 40
5.993344935299981
100
AcDbArc
 50
269.6631506176412
 51
0.3368493823583764
  0
LINE
  5
1BB3
330
1B03
100
AcDbEntity
  8
AM_VIS
100
AcDbLine
 10
38.00000000000001
 20
-29.81902337340143
 30
0.0
 11
38.00000000000001
 21
34.12402299873859
 31
0.0
  0
ARC
  5
1BB4
330
1B03
100
AcDbEntity
  8
AM_VIS
100
AcDbCircle
 10
32.00675864192533
 20
34.15925845459391
 30
0.0
 40
5.993344935300004
100
AcDbArc
 50
359.6631506176416
 51
90.33684938235836
  0
LINE
  5
1BB5
330
1B03
100
AcDbEntity
  8
AM_VIS
100
AcDbLine
 10
-31.97152318607001
 20
40.1524998126686
 30
0.0
 11
31.97152318607001
 21
40.1524998126686
 31
0.0
  0
ARC
  5
1BB6
330
1B03
100
AcDbEntity
  8
AM_VIS
100
AcDbCircle
 10
-32.0067586419253
 20
34.15925845459391
 30
0.0
 40
5.99334493530003
100
AcDbArc
 50
89.66315061764163
 51
180.3368493823584
  0
LINE
  5
1BB7
330
1B03
100
AcDbEntity
  8
AM_VIS
100
AcDbLine
 10
-38.00000000000001
 20
-29.81902337340143
 30
0.0
 11
-38.00000000000001
 21
34.12402299873859
 31
0.0
  0
ARC
  5
1BB8
330
1B03
100
AcDbEntity
  8
AM_VIS
100
AcDbCircle
 10
-32.00675864192535
 20
-29.85425882925671
 30
0.0
 40
5.993344935300004
100
AcDbArc
 50
179.6631506176416
 51
270.3368493823588
  0
LINE
  5
1BB9
330
1B03
100
AcDbEntity
  8
AM_VIS
100
AcDbLine
 10
28.87392152262999
 20
28.6524998126686
 30
0.0
 11
28.75610880745475
 21
28.6524998126686
 31
0.0
  0
LINE
  5
1BBA
330
1B03
100
AcDbEntity
  8
AM_VIS
100
AcDbLine
 10
24.12607847737
 20
28.6524998126686
 30
0.0
 11
24.24389119254521
 21
28.6524998126686
 31
0.0
  0
SPLINE
  5
1BBB
330
1B03
100
AcDbEntity
  8
AM_VIS
100
AcDbSpline
210
0.0
220
0.0
230
1.0
 70
     8
 71
     3
 72
    14
 73
    10
 74
     0
 42
0.0000000001
 43
0.0000000001
 40
0.0
 40
0.0
 40
0.0
 40
0.0
 40
0.1428571428571
 40
0.2857142857143
 40
0.4285714285714003
 40
0.5714285714286002
 40
0.7142857142857002
 40
0.8571428571429001
 40
1.0
 40
1.0
 40
1.0
 40
1.0
 10
5.321234657631997
 20
30.99908599980858
 30
0.0
 10
5.301954579132988
 20
30.99908599980858
 30
0.0
 10
5.265598243145994
 20
30.99486466857861
 30
0.0
 10
5.218160677866002
 20
30.97792852194861
 30
0.0
 10
5.176331396038996
 20
30.95060253472861
 30
0.0
 10
5.141164082351998
 20
30.91318217851859
 30
0.0
 10
5.113068310473984
 20
30.8640468408986
 30
0.0
 10
5.094885673166992
 20
30.80459571158861
 30
0.0
 10
5.09033839616999
 20
30.75782341995858
 30
0.0
 10
5.09033839616999
 20
30.7326727475786
 30
0.0
  0
SPLINE
  5
1BBC
330
1B03
100
AcDbEntity
  8
AM_VIS
100
AcDbSpline
210
0.0
220
0.0
230
1.0
 70
     8
 71
     3
 72
    14
 73
    10
 74
     0
 42
0.0000000001
 43
0.0000000001
 40
0.0
 40
0.0
 40
0.0
 40
0.0
 40
0.1428571428571
 40
0.2857142857143
 40
0.4285714285714003
 40
0.5714285714286002
 40
0.7142857142857002
 40
0.8571428571429001
 40
1.0
 40
1.0
 40
1.0
 40
1.0
 10
5.56633861094199
 20
30.69714680143861
 30
0.0
 10
5.56633861094199
 20
30.72471235330861
 30
0.0
 10
5.562884621795994
 20
30.77634895544862
 30
0.0
 10
5.547419099898995
 20
30.8433010208286
 30
0.0
 10
5.521174477321984
 20
30.89980444155858
 30
0.0
 10
5.485117303239995
 20
30.9437968010586
 30
0.0
 10
5.439159320050997
 20
30.97566664311858
 30
0.0
 10
5.385680669849001
 20
30.99456314510861
 30
0.0
 10
5.343698785534989
 20
30.99908599980858
 30
0.0
 10
5.321234657631997
 20
30.99908599980858
 30
0.0
  0
LINE
  5
1BBD
330
1B03
100
AcDbEntity
  8
AM_VIS
100
AcDbLine
 10
5.56633861094199
 20
30.69714680143861
 30
0.0
 11
5.56633861094199
 21
30.55150564640861
 31
0.0
  0
LINE
  5
1BBE
330
1B03
100
AcDbEntity
  8
AM_VIS
100
AcDbLine
 10
5.09033839616999
 20
30.55150564640861
 30
0.0
 11
5.56633861094199
 21
30.55150564640861
 31
0.0
  0
LINE
  5
1BBF
330
1B03
100
AcDbEntity
  8
AM_VIS
100
AcDbLine
 10
5.09033839616999
 20
30.7326727475786
 30
0.0
 11
5.09033839616999
 21
30.55150564640861
 31
0.0
  0
LINE
  5
1BC0
330
1B03
100
AcDbEntity
  8
AM_VIS
100
AcDbLine
 10
-4.093499283196003
 20
31.41114488475858
 30
0.0
 11
-4.093499283196003
 21
30.8747586213886
 31
0.0
  0
SPLINE
  5
1BC1
330
1B03
100
AcDbEntity
  8
AM_VIS
100
AcDbSpline
210
0.0
220
0.0
230
1.0
 70
     8
 71
     3
 72
    32
 73
    28
 74
     0
 42
0.0000000001
 43
0.0000000001
 40
0.0
 40
0.0
 40
0.0
 40
0.0
 40
0.04
 40
0.08
 40
0.12
 40
0.16
 40
0.2
 40
0.24
 40
0.28
 40
0.32
 40
0.36
 40
0.4
 40
0.4400000000000003
 40
0.48
 40
0.5200000000000001
 40
0.5600000000000001
 40
0.6
 40
0.6400000000000003
 40
0.6800000000000001
 40
0.72
 40
0.76
 40
0.8
 40
0.84
 40
0.88
 40
0.9200000000000001
 40
0.9599999999999999
 40
1.0
 40
1.0
 40
1.0
 40
1.0
 10
-4.093499283196003
 20
30.8747586213886
 30
0.0
 10
-4.077562144595013
 20
30.8747586213886
 30
0.0
 10
-4.046691601588001
 20
30.87475839857859
 30
0.0
 10
-4.003610284574001
 20
30.8747593946786
 30
0.0
 10
-3.963113580325007
 20
30.8747557451786
 30
0.0
 10
-3.923693534306003
 20
30.87476936796862
 30
0.0
 10
-3.886163977143006
 20
30.87471848917861
 30
0.0
 10
-3.847647370497007
 20
30.87490858663859
 30
0.0
 10
-3.809640816585009
 20
30.87709728045859
 30
0.0
 10
-3.771909533825002
 20
30.8816569750386
 30
0.0
 10
-3.734365627861002
 20
30.88927547683861
 30
0.0
 10
-3.695844920348001
 20
30.9012169815386
 30
0.0
 10
-3.656357865555001
 20
30.91940918780859
 30
0.0
 10
-3.615863250647002
 20
30.94750407130861
 30
0.0
 10
-3.578520113760013
 20
30.99007389636859
 30
0.0
 10
-3.55182990421401
 20
31.04635440683858
 30
0.0
 10
-3.539071905134001
 20
31.11331425032858
 30
0.0
 10
-3.538440231519011
 20
31.1822234430886
 30
0.0
 10
-3.550572734846006
 20
31.2472141019386
 30
0.0
 10
-3.576607115719006
 20
31.30131066533861
 30
0.0
 10
-3.615058893107011
 20
31.34439902242861
 30
0.0
 10
-3.664622332786002
 20
31.37673287681862
 30
0.0
 10
-3.727691577852006
 20
31.3997941936886
 30
0.0
 10
-3.804145038724008
 20
31.4118941419786
 30
0.0
 10
-3.89123698612601
 20
31.41094317547859
 30
0.0
 10
-3.988515941715
 20
31.41120251856858
 30
0.0
 10
-4.05765164337
 20
31.41114488475858
 30
0.0
 10
-4.093499283196003
 20
31.41114488475858
 30
0.0
  0
SPLINE
  5
1BC2
330
1B03
100
AcDbEntity
  8
AM_VIS
100
AcDbSpline
210
0.0
220
0.0
230
1.0
 70
     8
 71
     3
 72
    29
 73
    25
 74
     0
 42
0.0000000001
 43
0.0000000001
 40
0.0
 40
0.0
 40
0.0
 40
0.0
 40
0.04545454545455
 40
0.0909090909090901
 40
0.1363636363636
 40
0.1818181818182001
 40
0.2272727272727
 40
0.2727272727273
 40
0.3181818181818001
 40
0.3636363636364001
 40
0.4090909090909002
 40
0.4545454545455004
 40
0.5
 40
0.5454545454545002
 40
0.5909090909091002
 40
0.6363636363636002
 40
0.6818181818181999
 40
0.7272727272727001
 40
0.7727272727273001
 40
0.8181818181818002
 40
0.8636363636364002
 40
0.9090909090908999
 40
0.9545454545454999
 40
1.0
 40
1.0
 40
1.0
 40
1.0
 10
-1.040300784090014
 20
29.95118253089862
 30
0.0
 10
-1.040209710882002
 20
29.9957274992386
 30
0.0
 10
-1.040363252750999
 20
30.08163056800861
 30
0.0
 10
-1.040274942225003
 20
30.20056124093862
 30
0.0
 10
-1.040306647163014
 20
30.31065130103861
 30
0.0
 10
-1.040295484028
 20
30.4125576152386
 30
0.0
 10
-1.040317962152009
 20
30.50702569657859
 30
0.0
 10
-1.040235181747014
 20
30.59447798146861
 30
0.0
 10
-1.040553871419
 20
30.6754273187586
 30
0.0
 10
-1.039360274370004
 20
30.75135676181862
 30
0.0
 10
-1.047073105808998
 20
30.82026300970861
 30
0.0
 10
-1.065799061455003
 20
30.88108432669862
 30
0.0
 10
-1.09420913959601
 20
30.92982821572861
 30
0.0
 10
-1.133299208444007
 20
30.96773211323859
 30
0.0
 10
-1.181392819588999
 20
30.99297507657861
 30
0.0
 10
-1.239146838613002
 20
31.00592484342861
 30
0.0
 10
-1.299185219133015
 20
31.00734307540858
 30
0.0
 10
-1.359248217047017
 20
30.99816977069862
 30
0.0
 10
-1.41000048000901
 20
30.9763757256886
 30
0.0
 10
-1.45058613938901
 20
30.94337764373858
 30
0.0
 10
-1.481453708729013
 20
30.90011021547861
 30
0.0
 10
-1.503253372972004
 20
30.84533876458861
 30
0.0
 10
-1.515170896913012
 20
30.78261849233861
 30
0.0
 10
-1.516305099976015
 20
30.73543398861859
 30
0.0
 10
-1.516310727134005
 20
30.71049381036861
 30
0.0
  0
SPLINE
  5
1BC3
330
1B03
100
AcDbEntity
  8
AM_VIS
100
AcDbSpline
210
0.0
220
0.0
230
1.0
 70
     8
 71
     3
 72
    30
 73
    26
 74
     0
 42
0.0000000001
 43
0.0000000001
 40
0.0
 40
0.0
 40
0.0
 40
0.0
 40
0.04347826086957
 40
0.0869565217391301
 40
0.1304347826087
 40
0.1739130434783
 40
0.2173913043478
 40
0.2608695652174001
 40
0.3043478260870001
 40
0.3478260869565
 40
0.3913043478261
 40
0.4347826086957002
 40
0.4782608695652001
 40
0.5217391304348002
 40
0.5652173913043002
 40
0.6086956521739002
 40
0.6521739130435003
 40
0.6956521739130001
 40
0.7391304347826001
 40
0.7826086956522002
 40
0.8260869565216999
 40
0.8695652173913002
 40
0.9130434782609
 40
0.9565217391303999
 40
1.0
 40
1.0
 40
1.0
 40
1.0
 10
-1.516310727134005
 20
30.71049381036861
 30
0.0
 10
-1.51632084469201
 20
30.6656516953386
 30
0.0
 10
-1.516289235855005
 20
30.57953782566859
 30
0.0
 10
-1.516304529825013
 20
30.46150920947861
 30
0.0
 10
-1.516299987515004
 20
30.35332147723857
 30
0.0
 10
-1.516301596169007
 20
30.25413826448861
 30
0.0
 10
-1.516298615895003
 20
30.1629855256486
 30
0.0
 10
-1.516314470707008
 20
30.07904117983863
 30
0.0
 10
-1.516229605390996
 20
30.0014273589186
 30
0.0
 10
-1.516639761815007
 20
29.92963478823858
 30
0.0
 10
-1.514646569112009
 20
29.86460086747861
 30
0.0
 10
-1.50405292157901
 20
29.80520387859861
 30
0.0
 10
-1.483505842451016
 20
29.75524100520861
 30
0.0
 10
-1.450724329059006
 20
29.71431516508861
 30
0.0
 10
-1.407112453824005
 20
29.6857254341386
 30
0.0
 10
-1.354497384594004
 20
29.6688027013486
 30
0.0
 10
-1.295123933888014
 20
29.6623261875086
 30
0.0
 10
-1.23029751046301
 20
29.6642391764286
 30
0.0
 10
-1.170899846317006
 20
29.67695467525861
 30
0.0
 10
-1.123492648830016
 20
29.70078040772858
 30
0.0
 10
-1.088064901133002
 20
29.73379530026859
 30
0.0
 10
-1.062745439431004
 20
29.77662089011861
 30
0.0
 10
-1.047589973567006
 20
29.82714536416858
 30
0.0
 10
-1.040758693187008
 20
29.8838930828286
 30
0.0
 10
-1.040348513094009
 20
29.92783771814859
 30
0.0
 10
-1.040300784090014
 20
29.95118253089862
 30
0.0
  0
SPLINE
  5
1BC4
330
1B03
100
AcDbEntity
  8
AM_VIS
100
AcDbSpline
210
0.0
220
0.0
230
1.0
 70
     8
 71
     3
 72
    17
 73
    13
 74
     0
 42
0.0000000001
 43
0.0000000001
 40
0.0
 40
0.0
 40
0.0
 40
0.0
 40
0.1
 40
0.2
 40
0.3
 40
0.4
 40
0.5
 40
0.6
 40
0.7
 40
0.8
 40
0.9
 40
1.0
 40
1.0
 40
1.0
 40
1.0
 10
6.740503817835993
 20
30.92093697813859
 30
0.0
 10
6.740503817835993
 20
30.96147234920862
 30
0.0
 10
6.744709125334999
 20
31.03780264292859
 30
0.0
 10
6.764366038146995
 20
31.13848682784857
 30
0.0
 10
6.797942466620988
 20
31.2241238601686
 30
0.0
 10
6.844762987244997
 20
31.29342975268862
 30
0.0
 10
6.904110821539994
 20
31.3475310300386
 30
0.0
 10
6.977102583432987
 20
31.38858085926858
 30
0.0
 10
7.066101575248985
 20
31.4177363310586
 30
0.0
 10
7.171977080574997
 20
31.43523625556863
 30
0.0
 10
7.290027871914993
 20
31.44252118179862
 30
0.0
 10
7.374860019136995
 20
31.4431110719886
 30
0.0
 10
7.418980432701992
 20
31.4431110719886
 30
0.0
  0
LINE
  5
1BC5
330
1B03
100
AcDbEntity
  8
AM_VIS
100
AcDbLine
 10
6.740503817835993
 20
30.92093697813859
 30
0.0
 11
6.740503817835993
 21
29.74160004603859
 31
0.0
  0
SPLINE
  5
1BC6
330
1B03
100
AcDbEntity
  8
AM_VIS
100
AcDbSpline
210
0.0
220
0.0
230
1.0
 70
     8
 71
     3
 72
    16
 73
    12
 74
     0
 42
0.0000000001
 43
0.0000000001
 40
0.0
 40
0.0
 40
0.0
 40
0.0
 40
0.1111111111111
 40
0.2222222222222
 40
0.3333333333333001
 40
0.4444444444444002
 40
0.5555555555556003
 40
0.6666666666667003
 40
0.7777777777778001
 40
0.8888888888889001
 40
1.0
 40
1.0
 40
1.0
 40
1.0
 10
7.298203857817988
 20
29.2194214745086
 30
0.0
 10
7.255668252099987
 20
29.2194214745086
 30
0.0
 10
7.175483384591991
 20
29.2223029244286
 30
0.0
 10
7.070692852787992
 20
29.23726895373862
 30
0.0
 10
6.978879689008984
 20
29.2654357524686
 30
0.0
 10
6.903183928962
 20
29.30725361985862
 30
0.0
 10
6.841599558280996
 20
29.36463467597862
 30
0.0
 10
6.795789409136993
 20
29.4355821665686
 30
0.0
 10
6.763370580140993
 20
29.52246463900861
 30
0.0
 10
6.744714547140993
 20
29.6223641679286
 30
0.0
 10
6.740503817835993
 20
29.70013153250862
 30
0.0
 10
6.740503817835993
 20
29.74160004603859
 30
0.0
  0
SPLINE
  5
1BC7
330
1B03
100
AcDbEntity
  8
AM_VIS
100
AcDbSpline
210
0.0
220
0.0
230
1.0
 70
     8
 71
     3
 72
    23
 73
    19
 74
     0
 42
0.0000000001
 43
0.0000000001
 40
0.0
 40
0.0
 40
0.0
 40
0.0
 40
0.0625
 40
0.125
 40
0.1875
 40
0.25
 40
0.3125
 40
0.375
 40
0.4375
 40
0.5
 40
0.5625
 40
0.625
 40
0.6875
 40
0.75
 40
0.8125
 40
0.875
 40
0.9375
 40
1.0
 40
1.0
 40
1.0
 40
1.0
 10
8.868285898260985
 20
29.74160004603859
 30
0.0
 10
8.868285898260985
 20
29.70182126127862
 30
0.0
 10
8.864375166392996
 20
29.62716036005862
 30
0.0
 10
8.847306637728003
 20
29.53124596246861
 30
0.0
 10
8.817987223354997
 20
29.44724140441861
 30
0.0
 10
8.776345517657993
 20
29.37728228531858
 30
0.0
 10
8.720672998163003
 20
29.31977409142859
 30
0.0
 10
8.650595746339995
 20
29.27593731438862
 30
0.0
 10
8.566727412626001
 20
29.24564653777862
 30
0.0
 10
8.468696036792984
 20
29.22768641240858
 30
0.0
 10
8.358638924626994
 20
29.22025229439861
 30
0.0
 10
8.238346913586987
 20
29.21922547101861
 30
0.0
 10
8.109010112571986
 20
29.21920259925862
 30
0.0
 10
7.969743959006997
 20
29.21952811870859
 30
0.0
 10
7.820096735149995
 20
29.2194401723386
 30
0.0
 10
7.659197076250997
 20
29.21937928870859
 30
0.0
 10
7.486328935664992
 20
29.21940041276862
 30
0.0
 10
7.362328296316995
 20
29.2194214745086
 30
0.0
 10
7.298203857817988
 20
29.2194214745086
 30
0.0
  0
LINE
  5
1BC8
330
1B03
100
AcDbEntity
  8
AM_VIS
100
AcDbLine
 10
8.868285898260985
 20
30.12168826607859
 30
0.0
 11
8.868285898260985
 21
29.74160004603859
 31
0.0
  0
LINE
  5
1BC9
330
1B03
100
AcDbEntity
  8
AM_VIS
100
AcDbLine
 10
8.040621802508987
 20
30.12168826607859
 30
0.0
 11
8.868285898260985
 21
30.12168826607859
 31
0.0
  0
LINE
  5
1BCA
330
1B03
100
AcDbEntity
  8
AM_VIS
100
AcDbLine
 10
8.040621802508987
 20
30.12168826607859
 30
0.0
 11
8.040621802508987
 21
29.93341955782856
 31
0.0
  0
SPLINE
  5
1BCB
330
1B03
100
AcDbEntity
  8
AM_VIS
100
AcDbSpline
210
0.0
220
0.0
230
1.0
 70
     8
 71
     3
 72
    14
 73
    10
 74
     0
 42
0.0000000001
 43
0.0000000001
 40
0.0
 40
0.0
 40
0.0
 40
0.0
 40
0.1428571428571
 40
0.2857142857143
 40
0.4285714285714003
 40
0.5714285714286002
 40
0.7142857142857002
 40
0.8571428571429001
 40
1.0
 40
1.0
 40
1.0
 40
1.0
 10
7.806174737504001
 20
29.65989574314859
 30
0.0
 10
7.821495057121985
 20
29.65989574314859
 30
0.0
 10
7.852741220210994
 20
29.66331080505858
 30
0.0
 10
7.905037754944991
 20
29.67996737188862
 30
0.0
 10
7.95194903786399
 20
29.7087356435786
 30
0.0
 10
7.989489481495986
 20
29.74718144536859
 30
0.0
 10
8.018488006839994
 20
29.7975656870286
 30
0.0
 10
8.036463236641999
 20
29.85905498655861
 30
0.0
 10
8.040621802508987
 20
29.90740260744861
 30
0.0
 10
8.040621802508987
 20
29.93341955782856
 30
0.0
  0
SPLINE
  5
1BCC
330
1B03
100
AcDbEntity
  8
AM_VIS
100
AcDbSpline
210
0.0
220
0.0
230
1.0
 70
     8
 71
     3
 72
    14
 73
    10
 74
     0
 42
0.0000000001
 43
0.0000000001
 40
0.0
 40
0.0
 40
0.0
 40
0.0
 40
0.1428571428571
 40
0.2857142857143
 40
0.4285714285714003
 40
0.5714285714286002
 40
0.7142857142857002
 40
0.8571428571429001
 40
1.0
 40
1.0
 40
1.0
 40
1.0
 10
7.568172391274991
 20
29.9369703613686
 30
0.0
 10
7.568172391274991
 20
29.91131617929859
 30
0.0
 10
7.572031027236995
 20
29.86342170305861
 30
0.0
 10
7.58840736805299
 20
29.80183195318859
 30
0.0
 10
7.614924752578993
 20
29.75045472525862
 30
0.0
 10
7.650165265673003
 20
29.71056074700861
 30
0.0
 10
7.694076302894991
 20
29.68155370333862
 30
0.0
 10
7.744988019393993
 20
29.66408891070859
 30
0.0
 10
7.784860456628003
 20
29.65989574314859
 30
0.0
 10
7.806174737504001
 20
29.65989574314859
 30
0.0
  0
LINE
  5
1BCD
330
1B03
100
AcDbEntity
  8
AM_VIS
100
AcDbLine
 10
7.568172391274991
 20
30.7042528862086
 30
0.0
 11
7.568172391274991
 21
29.9369703613686
 31
0.0
  0
SPLINE
  5
1BCE
330
1B03
100
AcDbEntity
  8
AM_VIS
100
AcDbSpline
210
0.0
220
0.0
230
1.0
 70
     8
 71
     3
 72
    15
 73
    11
 74
     0
 42
0.0000000001
 43
0.0000000001
 40
0.0
 40
0.0
 40
0.0
 40
0.0
 40
0.125
 40
0.25
 40
0.375
 40
0.5
 40
0.625
 40
0.75
 40
0.875
 40
1.0
 40
1.0
 40
1.0
 40
1.0
 10
7.806174737504001
 20
30.99908599980858
 30
0.0
 10
7.794582783597995
 20
30.99908599980858
 30
0.0
 10
7.770240228951998
 20
30.99804861981861
 30
0.0
 10
7.729898216754996
 20
30.98999738394861
 30
0.0
 10
7.686552103349988
 20
30.97228284310858
 30
0.0
 10
7.646197572980987
 20
30.94294137199858
 30
0.0
 10
7.61220824139999
 20
30.9013572208086
 30
0.0
 10
7.586590395057989
 20
30.84656980679858
 30
0.0
 10
7.571391617457997
 20
30.7804536979086
 30
0.0
 10
7.568172391274991
 20
30.73070306223861
 30
0.0
 10
7.568172391274991
 20
30.7042528862086
 30
0.0
  0
SPLINE
  5
1BCF
330
1B03
100
AcDbEntity
  8
AM_VIS
100
AcDbSpline
210
0.0
220
0.0
230
1.0
 70
     8
 71
     3
 72
    16
 73
    12
 74
     0
 42
0.0000000001
 43
0.0000000001
 40
0.0
 40
0.0
 40
0.0
 40
0.0
 40
0.1111111111111
 40
0.2222222222222
 40
0.3333333333333001
 40
0.4444444444444002
 40
0.5555555555556003
 40
0.6666666666667003
 40
0.7777777777778001
 40
0.8888888888889001
 40
1.0
 40
1.0
 40
1.0
 40
1.0
 10
8.040621802508987
 20
30.5337426733386
 30
0.0
 10
8.040621802508987
 20
30.56274372776861
 30
0.0
 10
8.040425558714993
 20
30.6186985190486
 30
0.0
 10
8.040860670690996
 20
30.69628352770861
 30
0.0
 10
8.040137914256995
 20
30.7681367174086
 30
0.0
 10
8.029629850574004
 20
30.8328302180386
 30
0.0
 10
8.008091598246984
 20
30.88567971803861
 30
0.0
 10
7.974363950199993
 20
30.92719109171862
 30
0.0
 10
7.928787732315988
 20
30.96042405372859
 30
0.0
 10
7.874056803744998
 20
30.9868831682386
 30
0.0
 10
7.830063631818994
 20
30.99689352937862
 30
0.0
 10
7.806174737504001
 20
30.99908599980858
 30
0.0
  0
LINE
  5
1BD0
330
1B03
100
AcDbEntity
  8
AM_VIS
100
AcDbLine
 10
8.040621802508987
 20
30.5337426733386
 30
0.0
 11
8.868285898260985
 21
30.5337426733386
 31
0.0
  0
LINE
  5
1BD1
330
1B03
100
AcDbEntity
  8
AM_VIS
100
AcDbLine
 10
8.868285898260985
 20
30.92093697813859
 30
0.0
 11
8.868285898260985
 21
30.5337426733386
 31
0.0
  0
SPLINE
  5
1BD2
330
1B03
100
AcDbEntity
  8
AM_VIS
100
AcDbSpline
210
0.0
220
0.0
230
1.0
 70
     8
 71
     3
 72
    16
 73
    12
 74
     0
 42
0.0000000001
 43
0.0000000001
 40
0.0
 40
0.0
 40
0.0
 40
0.0
 40
0.1111111111111
 40
0.2222222222222
 40
0.3333333333333001
 40
0.4444444444444002
 40
0.5555555555556003
 40
0.6666666666667003
 40
0.7777777777778001
 40
0.8888888888889001
 40
1.0
 40
1.0
 40
1.0
 40
1.0
 10
8.328348831348002
 20
31.4431110719886
 30
0.0
 10
8.369542666321997
 20
31.4431110719886
 30
0.0
 10
8.447044557538994
 20
31.4401216587086
 30
0.0
 10
8.547575995727989
 20
31.42477160329862
 30
0.0
 10
8.635601732881987
 20
31.39626562923859
 30
0.0
 10
8.708319523283002
 20
31.35446381056861
 30
0.0
 10
8.768127840650997
 20
31.29732077964861
 30
0.0
 10
8.813255774161994
 20
31.2263996915486
 30
0.0
 10
8.845474971152988
 20
31.13941577653862
 30
0.0
 10
8.864104433068995
 20
31.0393501161986
 30
0.0
 10
8.868285898260985
 20
30.96206695829862
 30
0.0
 10
8.868285898260985
 20
30.92093697813859
 30
0.0
  0
LINE
  5
1BD3
330
1B03
100
AcDbEntity
  8
AM_VIS
100
AcDbLine
 10
7.418980432701992
 20
31.4431110719886
 30
0.0
 11
8.328348831348002
 21
31.4431110719886
 31
0.0
  0
SPLINE
  5
1BD4
330
1B03
100
AcDbEntity
  8
AM_VIS
100
AcDbSpline
210
0.0
220
0.0
230
1.0
 70
     8
 71
     3
 72
    16
 73
    12
 74
     0
 42
0.0000000001
 43
0.0000000001
 40
0.0
 40
0.0
 40
0.0
 40
0.0
 40
0.1111111111111
 40
0.2222222222222
 40
0.3333333333333001
 40
0.4444444444444002
 40
0.5555555555556003
 40
0.6666666666667003
 40
0.7777777777778001
 40
0.8888888888889001
 40
1.0
 40
1.0
 40
1.0
 40
1.0
 10
4.262669822732
 20
30.92449225936861
 30
0.0
 10
4.262669822732
 20
30.96562044249858
 30
0.0
 10
4.267141858253985
 20
31.04251333366859
 30
0.0
 10
4.286592880574993
 20
31.14016501234861
 30
0.0
 10
4.320038524342983
 20
31.22491128803858
 30
0.0
 10
4.366957136198983
 20
31.29426884492859
 30
0.0
 10
4.429886778532996
 20
31.35111720932862
 30
0.0
 10
4.508247385842999
 20
31.39382814772858
 30
0.0
 10
4.604090258291002
 20
31.42344468712862
 30
0.0
 10
4.714101384779986
 20
31.4397778888786
 30
0.0
 10
4.797512131238995
 20
31.4431110719886
 30
0.0
 10
4.841683639321992
 20
31.4431110719886
 30
0.0
  0
LINE
  5
1BD5
330
1B03
100
AcDbEntity
  8
AM_VIS
100
AcDbLine
 10
4.262669822732
 20
30.92449225936861
 30
0.0
 11
4.262669822732
 21
29.74160004603859
 31
0.0
  0
SPLINE
  5
1BD6
330
1B03
100
AcDbEntity
  8
AM_VIS
100
AcDbSpline
210
0.0
220
0.0
230
1.0
 70
     8
 71
     3
 72
    16
 73
    12
 74
     0
 42
0.0000000001
 43
0.0000000001
 40
0.0
 40
0.0
 40
0.0
 40
0.0
 40
0.1111111111111
 40
0.2222222222222
 40
0.3333333333333001
 40
0.4444444444444002
 40
0.5555555555556003
 40
0.6666666666667003
 40
0.7777777777778001
 40
0.8888888888889001
 40
1.0
 40
1.0
 40
1.0
 40
1.0
 10
4.802606889644984
 20
29.2194214745086
 30
0.0
 10
4.761388664977992
 20
29.2194214745086
 30
0.0
 10
4.683864904086
 20
29.22255097825861
 30
0.0
 10
4.583364688809986
 20
29.23829758450859
 30
0.0
 10
4.49548926529399
 20
29.26719353469862
 30
0.0
 10
4.422937965843992
 20
29.30921532300861
 30
0.0
 10
4.363233649770997
 20
29.3663190842986
 30
0.0
 10
4.318046567377002
 20
29.43703652295861
 30
0.0
 10
4.285677987674993
 20
29.5237254913986
 30
0.0
 10
4.266897698064987
 20
29.62349086717858
 30
0.0
 10
4.262669822732
 20
29.70057130165862
 30
0.0
 10
4.262669822732
 20
29.74160004603859
 30
0.0
  0
LINE
  5
1BD7
330
1B03
100
AcDbEntity
  8
AM_VIS
100
AcDbLine
 10
4.802606889644984
 20
29.2194214745086
 30
0.0
 11
5.854065639785979
 21
29.2194214745086
 31
0.0
  0
SPLINE
  5
1BD8
330
1B03
100
AcDbEntity
  8
AM_VIS
100
AcDbSpline
210
0.0
220
0.0
230
1.0
 70
     8
 71
     3
 72
    16
 73
    12
 74
     0
 42
0.0000000001
 43
0.0000000001
 40
0.0
 40
0.0
 40
0.0
 40
0.0
 40
0.1111111111111
 40
0.2222222222222
 40
0.3333333333333001
 40
0.4444444444444002
 40
0.5555555555556003
 40
0.6666666666667003
 40
0.7777777777778001
 40
0.8888888888889001
 40
1.0
 40
1.0
 40
1.0
 40
1.0
 10
6.394007184379994
 20
29.7380492424986
 30
0.0
 10
6.394007184379994
 20
29.6977575634586
 30
0.0
 10
6.389737820724995
 20
29.62209576978858
 30
0.0
 10
6.370848862522997
 20
29.52433149667861
 30
0.0
 10
6.338466736988983
 20
29.4393982151986
 30
0.0
 10
6.293455978610985
 20
29.36984705285861
 30
0.0
 10
6.234150098033985
 20
29.31312457751861
 30
0.0
 10
6.161951355728994
 20
29.27053903260863
 30
0.0
 10
6.074213432835001
 20
29.2403773822986
 30
0.0
 10
5.973415156385989
 20
29.2231631976286
 30
0.0
 10
5.895520981405987
 20
29.2194214745086
 30
0.0
 10
5.854065639785993
 20
29.2194214745086
 30
0.0
  0
LINE
  5
1BD9
330
1B03
100
AcDbEntity
  8
AM_VIS
100
AcDbLine
 10
6.394007184379994
 20
29.89789361168861
 30
0.0
 11
6.394007184379994
 21
29.7380492424986
 31
0.0
  0
LINE
  5
1BDA
330
1B03
100
AcDbEntity
  8
AM_VIS
100
AcDbLine
 10
5.56633861094199
 20
29.89789361168861
 30
0.0
 11
6.394007184379994
 21
29.89789361168861
 31
0.0
  0
ARC
  5
1BDB
330
1B03
100
AcDbEntity
  8
AM_VIS
100
AcDbCircle
 10
5.336060946225906
 20
29.89363842364988
 30
0.0
 40
0.2303169761271161
100
AcDbArc
 50
268.0779763790791
 51
1.058620132388789
  0
SPLINE
  5
1BDC
330
1B03
100
AcDbEntity
  8
AM_VIS
100
AcDbSpline
210
0.0
220
0.0
230
1.0
 70
     8
 71
     3
 72
    15
 73
    11
 74
     0
 42
0.0000000001
 43
0.0000000001
 40
0.0
 40
0.0
 40
0.0
 40
0.0
 40
0.125
 40
0.25
 40
0.375
 40
0.5
 40
0.625
 40
0.75
 40
0.875
 40
1.0
 40
1.0
 40
1.0
 40
1.0
 10
5.09033839616999
 20
29.95828413797859
 30
0.0
 10
5.09033839616999
 20
29.93495634718861
 30
0.0
 10
5.092188169125002
 20
29.89069014337861
 30
0.0
 10
5.102427565912996
 20
29.8304865488386
 30
0.0
 10
5.120404574883998
 20
29.77937443530861
 30
0.0
 10
5.146004843161996
 20
29.73748593552859
 30
0.0
 10
5.179442925385991
 20
29.7045085944086
 30
0.0
 10
5.221512939534001
 20
29.68059685666858
 30
0.0
 10
5.270161214764989
 20
29.66665212981861
 30
0.0
 10
5.308090179940997
 20
29.66345102436862
 30
0.0
 10
5.328336264713989
 20
29.66345102436862
 30
0.0
  0
LINE
  5
1BDD
330
1B03
100
AcDbEntity
  8
AM_VIS
100
AcDbLine
 10
5.09033839616999
 20
30.1110313777686
 30
0.0
 11
5.09033839616999
 21
29.95828413797859
 31
0.0
  0
LINE
  5
1BDE
330
1B03
100
AcDbEntity
  8
AM_VIS
100
AcDbLine
 10
5.09033839616999
 20
30.1110313777686
 30
0.0
 11
6.394007184379994
 21
30.1110313777686
 31
0.0
  0
LINE
  5
1BDF
330
1B03
100
AcDbEntity
  8
AM_VIS
100
AcDbLine
 10
6.394007184379994
 20
30.92449225936861
 30
0.0
 11
6.394007184379994
 21
30.1110313777686
 31
0.0
  0
SPLINE
  5
1BE0
330
1B03
100
AcDbEntity
  8
AM_VIS
100
AcDbSpline
210
0.0
220
0.0
230
1.0
 70
     8
 71
     3
 72
    16
 73
    12
 74
     0
 42
0.0000000001
 43
0.0000000001
 40
0.0
 40
0.0
 40
0.0
 40
0.0
 40
0.1111111111111
 40
0.2222222222222
 40
0.3333333333333001
 40
0.4444444444444002
 40
0.5555555555556003
 40
0.6666666666667003
 40
0.7777777777778001
 40
0.8888888888889001
 40
1.0
 40
1.0
 40
1.0
 40
1.0
 10
5.843408751479991
 20
31.4431110719886
 30
0.0
 10
5.885523935776994
 20
31.4431110719886
 30
0.0
 10
5.964812142364998
 20
31.43971814534859
 30
0.0
 10
6.068091597170997
 20
31.4233926645386
 30
0.0
 10
6.158206318781999
 20
31.3940049949886
 30
0.0
 10
6.232362493703
 20
31.3517083318786
 30
0.0
 10
6.292877033130999
 20
31.29484109119861
 30
0.0
 10
6.338358061773
 20
31.22502606222862
 30
0.0
 10
6.370857827390985
 20
31.13971032411859
 30
0.0
 10
6.389727777598984
 20
31.04154744532861
 30
0.0
 10
6.394007184379994
 20
30.96519808197861
 30
0.0
 10
6.394007184379994
 20
30.92449225936861
 30
0.0
  0
LINE
  5
1BE1
330
1B03
100
AcDbEntity
  8
AM_VIS
100
AcDbLine
 10
4.841683639321992
 20
31.4431110719886
 30
0.0
 11
5.843408751479991
 21
31.4431110719886
 31
0.0
  0
LINE
  5
1BE2
330
1B03
100
AcDbEntity
  8
AM_VIS
100
AcDbLine
 10
2.754241015505847
 20
31.39693719291886
 30
0.0
 11
3.723999940435184
 21
31.94397586690827
 31
0.0
  0
LINE
  5
1BE3
330
1B03
100
AcDbEntity
  8
AM_VIS
100
AcDbLine
 10
2.754241015505989
 20
31.39693719291858
 30
0.0
 11
2.754241015505989
 21
30.97422141965858
 31
0.0
  0
LINE
  5
1BE4
330
1B03
100
AcDbEntity
  8
AM_VIS
100
AcDbLine
 10
2.754241015505989
 20
30.97422141965858
 30
0.0
 11
2.896331366997991
 21
30.97422141965858
 31
0.0
  0
LINE
  5
1BE5
330
1B03
100
AcDbEntity
  8
AM_VIS
100
AcDbLine
 10
2.896331366997991
 20
30.97422141965858
 30
0.0
 11
2.896331366997991
 21
29.74160004603859
 31
0.0
  0
SPLINE
  5
1BE6
330
1B03
100
AcDbEntity
  8
AM_VIS
100
AcDbSpline
210
0.0
220
0.0
230
1.0
 70
     8
 71
     3
 72
    16
 73
    12
 74
     0
 42
0.0000000001
 43
0.0000000001
 40
0.0
 40
0.0
 40
0.0
 40
0.0
 40
0.1111111111111
 40
0.2222222222222
 40
0.3333333333333001
 40
0.4444444444444002
 40
0.5555555555556003
 40
0.6666666666667003
 40
0.7777777777778001
 40
0.8888888888889001
 40
1.0
 40
1.0
 40
1.0
 40
1.0
 10
3.407848572539002
 20
29.2194214745086
 30
0.0
 10
3.368158957661997
 20
29.2194214745086
 30
0.0
 10
3.29389813481999
 20
29.2235696364586
 30
0.0
 10
3.199216870273993
 20
29.24179185746859
 30
0.0
 10
3.117181221879995
 20
29.2728205249286
 30
0.0
 10
3.049735460699999
 20
29.3157118911386
 30
0.0
 10
2.993697955036999
 20
29.3723790350386
 30
0.0
 10
2.950310274585994
 20
29.4423688564186
 30
0.0
 10
2.918809760114989
 20
29.52804114992859
 30
0.0
 10
2.900414580888998
 20
29.62662017389861
 30
0.0
 10
2.896331366997991
 20
29.70174960549861
 30
0.0
 10
2.896331366997991
 20
29.74160004603859
 30
0.0
  0
LINE
  5
1BE7
330
1B03
100
AcDbEntity
  8
AM_VIS
100
AcDbLine
 10
3.407848572539002
 20
29.2194214745086
 30
0.0
 11
3.919370255764
 21
29.2194214745086
 31
0.0
  0
LINE
  5
1BE8
330
1B03
100
AcDbEntity
  8
AM_VIS
100
AcDbLine
 10
3.919370255764
 20
29.66345102436862
 30
0.0
 11
3.919370255764
 21
29.2194214745086
 31
0.0
  0
LINE
  5
1BE9
330
1B03
100
AcDbEntity
  8
AM_VIS
100
AcDbLine
 10
3.723999940435
 20
29.66345102436862
 30
0.0
 11
3.919370255764
 21
29.66345102436862
 31
0.0
  0
LINE
  5
1BEA
330
1B03
100
AcDbEntity
  8
AM_VIS
100
AcDbLine
 10
3.723999940435
 20
30.97777222319861
 30
0.0
 11
3.723999940435
 21
29.66345102436862
 31
0.0
  0
LINE
  5
1BEB
330
1B03
100
AcDbEntity
  8
AM_VIS
100
AcDbLine
 10
3.723999940435
 20
30.97777222319861
 30
0.0
 11
3.912268648686001
 21
30.97777222319861
 31
0.0
  0
LINE
  5
1BEC
330
1B03
100
AcDbEntity
  8
AM_VIS
100
AcDbLine
 10
3.912268648686001
 20
31.42180177305861
 30
0.0
 11
3.912268648686001
 21
30.97777222319861
 31
0.0
  0
LINE
  5
1BED
330
1B03
100
AcDbEntity
  8
AM_VIS
100
AcDbLine
 10
3.723999940435
 20
31.42180177305861
 30
0.0
 11
3.912268648686001
 21
31.42180177305861
 31
0.0
  0
LINE
  5
1BEE
330
1B03
100
AcDbEntity
  8
AM_VIS
100
AcDbLine
 10
3.723999940435
 20
31.94397586690861
 30
0.0
 11
3.723999940435
 21
31.42180177305861
 31
0.0
  0
LINE
  5
1BEF
330
1B03
100
AcDbEntity
  8
AM_VIS
100
AcDbLine
 10
0.130313619266083
 20
31.42180177305861
 30
0.0
 11
0.9899528576158829
 21
31.42180177305861
 31
0.0
  0
LINE
  5
1BF0
330
1B03
100
AcDbEntity
  8
AM_VIS
100
AcDbLine
 10
0.1303136192676177
 20
31.42180177305925
 30
0.0
 11
0.5743431691277934
 21
30.38810151830894
 31
0.0
  0
LINE
  5
1BF1
330
1B03
100
AcDbEntity
  8
AM_VIS
100
AcDbLine
 10
0.0699275706661027
 20
29.24073525111857
 30
0.0
 11
0.5743431691276513
 21
30.38810151830831
 31
0.0
  0
LINE
  5
1BF2
330
1B03
100
AcDbEntity
  8
AM_VIS
100
AcDbLine
 10
0.0699275706660174
 20
29.2407352511186
 30
0.0
 11
0.879833171035905
 21
29.2407352511186
 31
0.0
  0
LINE
  5
1BF3
330
1B03
100
AcDbEntity
  8
AM_VIS
100
AcDbLine
 10
0.8798331710363314
 20
29.2407352511184
 30
0.0
 11
1.227950726159924
 21
30.01511938303863
 31
0.0
  0
LINE
  5
1BF4
330
1B03
100
AcDbEntity
  8
AM_VIS
100
AcDbLine
 10
1.22795072615964
 20
30.01511938303843
 30
0.0
 11
1.572517477744732
 21
29.2407352511189
 31
0.0
  0
LINE
  5
1BF5
330
1B03
100
AcDbEntity
  8
AM_VIS
100
AcDbLine
 10
1.572517477743993
 20
29.2407352511186
 30
0.0
 11
2.471233465770986
 21
29.2407352511186
 31
0.0
  0
LINE
  5
1BF6
330
1B03
100
AcDbEntity
  8
AM_VIS
100
AcDbLine
 10
1.949054894241591
 20
30.40586449137842
 30
0.0
 11
2.471233465770531
 21
29.2407352511184
 31
0.0
  0
LINE
  5
1BF7
330
1B03
100
AcDbEntity
  8
AM_VIS
100
AcDbLine
 10
1.949054894242443
 20
30.4058644913784
 30
0.0
 11
2.393079966417481
 21
31.42180177305925
 31
0.0
  0
LINE
  5
1BF8
330
1B03
100
AcDbEntity
  8
AM_VIS
100
AcDbLine
 10
1.600937339117002
 20
31.42180177305861
 30
0.0
 11
2.393079966419001
 21
31.42180177305861
 31
0.0
  0
LINE
  5
1BF9
330
1B03
100
AcDbEntity
  8
AM_VIS
100
AcDbLine
 10
1.29189205598309
 20
30.714909774509
 30
0.0
 11
1.600937339116235
 21
31.42180177305895
 31
0.0
  0
LINE
  5
1BFA
330
1B03
100
AcDbEntity
  8
AM_VIS
100
AcDbLine
 10
0.9899528576176024
 20
31.42180177305935
 30
0.0
 11
1.291892055985009
 21
30.71490977450906
 31
0.0
  0
LINE
  5
1BFB
330
1B03
100
AcDbEntity
  8
AM_VIS
100
AcDbLine
 10
-1.782718728779009
 20
31.4431110719886
 30
0.0
 11
-0.7490184740253128
 21
31.4431110719886
 31
0.0
  0
SPLINE
  5
1BFC
330
1B03
100
AcDbEntity
  8
AM_VIS
100
AcDbSpline
210
0.0
220
0.0
230
1.0
 70
     8
 71
     3
 72
    16
 73
    12
 74
     0
 42
0.0000000001
 43
0.0000000001
 40
0.0
 40
0.0
 40
0.0
 40
0.0
 40
0.1111111111111
 40
0.2222222222222
 40
0.3333333333333001
 40
0.4444444444444002
 40
0.5555555555556003
 40
0.6666666666667003
 40
0.7777777777778001
 40
0.8888888888889001
 40
1.0
 40
1.0
 40
1.0
 40
1.0
 10
-2.343965094617011
 20
30.92804306290862
 30
0.0
 10
-2.343965094617011
 20
30.97129064682861
 30
0.0
 10
-2.339759787696003
 20
31.05241071838858
 30
0.0
 10
-2.316933876001009
 20
31.15851364446861
 30
0.0
 10
-2.275285932468001
 20
31.24744297658858
 30
0.0
 10
-2.221346427178012
 20
31.31568226924863
 30
0.0
 10
-2.157890619971006
 20
31.3689679937086
 30
0.0
 10
-2.083573186989006
 20
31.40618575174859
 30
0.0
 10
-1.996003444736011
 20
31.4299212857886
 30
0.0
 10
-1.898210726328009
 20
31.4415119778486
 30
0.0
 10
-1.822740074892003
 20
31.4431110719886
 30
0.0
 10
-1.782718728779009
 20
31.4431110719886
 30
0.0
  0
LINE
  5
1BFD
330
1B03
100
AcDbEntity
  8
AM_VIS
100
AcDbLine
 10
-2.343965094617011
 20
30.92804306290862
 30
0.0
 11
-2.343965094617011
 21
29.74515084957861
 31
0.0
  0
SPLINE
  5
1BFE
330
1B03
100
AcDbEntity
  8
AM_VIS
100
AcDbSpline
210
0.0
220
0.0
230
1.0
 70
     8
 71
     3
 72
    16
 73
    12
 74
     0
 42
0.0000000001
 43
0.0000000001
 40
0.0
 40
0.0
 40
0.0
 40
0.0
 40
0.1111111111111
 40
0.2222222222222
 40
0.3333333333333001
 40
0.4444444444444002
 40
0.5555555555556003
 40
0.6666666666667003
 40
0.7777777777778001
 40
0.8888888888889001
 40
1.0
 40
1.0
 40
1.0
 40
1.0
 10
-1.793371139399006
 20
29.2194214745086
 30
0.0
 10
-1.836702718992007
 20
29.2194214745086
 30
0.0
 10
-1.917779908331006
 20
29.22218013979859
 30
0.0
 10
-2.021279747266014
 20
29.2378045973986
 30
0.0
 10
-2.110783105679011
 20
29.2666482731886
 30
0.0
 10
-2.185428545003013
 20
29.3110639853286
 30
0.0
 10
-2.241475278598009
 20
29.36797834547861
 30
0.0
 10
-2.286922752828012
 20
29.43686044560861
 30
0.0
 10
-2.321619510362005
 20
29.5229913416186
 30
0.0
 10
-2.340927124867
 20
29.62727003536863
 30
0.0
 10
-2.343965094617011
 20
29.7043421301986
 30
0.0
 10
-2.343965094617011
 20
29.74515084957861
 30
0.0
  0
LINE
  5
1BFF
330
1B03
100
AcDbEntity
  8
AM_VIS
100
AcDbLine
 10
-1.793371139399006
 20
29.2194214745086
 30
0.0
 11
-0.7632261658691064
 21
29.2194214745086
 31
0.0
  0
SPLINE
  5
1C00
330
1B03
100
AcDbEntity
  8
AM_VIS
100
AcDbSpline
210
0.0
220
0.0
230
1.0
 70
     8
 71
     3
 72
    16
 73
    12
 74
     0
 42
0.0000000001
 43
0.0000000001
 40
0.0
 40
0.0
 40
0.0
 40
0.0
 40
0.1111111111111
 40
0.2222222222222
 40
0.3333333333333001
 40
0.4444444444444002
 40
0.5555555555556003
 40
0.6666666666667003
 40
0.7777777777778001
 40
0.8888888888889001
 40
1.0
 40
1.0
 40
1.0
 40
1.0
 10
-0.2126322106522096
 20
29.74160004603859
 30
0.0
 10
-0.2126322106522096
 20
29.70013689898861
 30
0.0
 10
-0.2168524336559088
 20
29.62229827966859
 30
0.0
 10
-0.2386082436495016
 20
29.52093424519858
 30
0.0
 10
-0.2767100869195005
 20
29.43453893764857
 30
0.0
 10
-0.3258617370818158
 20
29.36504827012861
 30
0.0
 10
-0.3872809825910153
 20
29.30989120824858
 30
0.0
 10
-0.4602560783610059
 20
29.26976350954859
 30
0.0
 10
-0.546812011482011
 20
29.24090176567858
 30
0.0
 10
-0.6454562180125052
 20
29.22358573026862
 30
0.0
 10
-0.7222913463708025
 20
29.2194214745086
 30
0.0
 10
-0.7632261658691064
 20
29.2194214745086
 30
0.0
  0
LINE
  5
1C01
330
1B03
100
AcDbEntity
  8
AM_VIS
100
AcDbLine
 10
-0.2126322106522096
 20
30.92449225936861
 30
0.0
 11
-0.2126322106522096
 21
29.74160004603859
 31
0.0
  0
SPLINE
  5
1C02
330
1B03
100
AcDbEntity
  8
AM_VIS
100
AcDbSpline
210
0.0
220
0.0
230
1.0
 70
     8
 71
     3
 72
    16
 73
    12
 74
     0
 42
0.0000000001
 43
0.0000000001
 40
0.0
 40
0.0
 40
0.0
 40
0.0
 40
0.1111111111111
 40
0.2222222222222
 40
0.3333333333333001
 40
0.4444444444444002
 40
0.5555555555556003
 40
0.6666666666667003
 40
0.7777777777778001
 40
0.8888888888889001
 40
1.0
 40
1.0
 40
1.0
 40
1.0
 10
-0.7490184740253128
 20
31.4431110719886
 30
0.0
 10
-0.708839835384417
 20
31.4431110719886
 30
0.0
 10
-0.6334479093541106
 20
31.43992528188861
 30
0.0
 10
-0.5370485550249029
 20
31.42548079199862
 30
0.0
 10
-0.4519591926570073
 20
31.39999087120858
 30
0.0
 10
-0.3798992341719085
 20
31.3626232947386
 30
0.0
 10
-0.3201299423627049
 20
31.30813322061861
 30
0.0
 10
-0.274526496850406
 20
31.23697672043861
 30
0.0
 10
-0.2401702869494997
 20
31.1485914766186
 30
0.0
 10
-0.2184169255178077
 20
31.04568905425858
 30
0.0
 10
-0.2126322106522096
 20
30.96659619550861
 30
0.0
 10
-0.2126322106522096
 20
30.92449225936861
 30
0.0
  0
SPLINE
  5
1C03
330
1B03
100
AcDbEntity
  8
AM_VIS
100
AcDbSpline
210
0.0
220
0.0
230
1.0
 70
     8
 71
     3
 72
    17
 73
    13
 74
     0
 42
0.0000000001
 43
0.0000000001
 40
0.0
 40
0.0
 40
0.0
 40
0.0
 40
0.1
 40
0.2
 40
0.3
 40
0.4
 40
0.5
 40
0.6
 40
0.7
 40
0.8
 40
0.9
 40
1.0
 40
1.0
 40
1.0
 40
1.0
 10
-3.539350046752012
 20
29.86592742441861
 30
0.0
 10
-3.539766668100007
 20
29.89472216676858
 30
0.0
 10
-3.54100519282101
 20
29.9501138693986
 30
0.0
 10
-3.546677595121003
 20
30.0270793381086
 30
0.0
 10
-3.556661912227006
 20
30.09642804835861
 30
0.0
 10
-3.572336902338001
 20
30.1576308673586
 30
0.0
 10
-3.596835418048009
 20
30.2104877871386
 30
0.0
 10
-3.634064290885014
 20
30.2552537286386
 30
0.0
 10
-3.682619114195013
 20
30.29209223897859
 30
0.0
 10
-3.744952712645009
 20
30.31950294113859
 30
0.0
 10
-3.819259463162005
 20
30.33308842069861
 30
0.0
 10
-3.87539256301401
 20
30.3348215544686
 30
0.0
 10
-3.905235052630011
 20
30.3348215544686
 30
0.0
  0
ARC
  5
1C04
330
1B03
100
AcDbEntity
  8
AM_VIS
100
AcDbCircle
 10
-0.6315661979264249
 20
29.84743384467195
 30
0.0
 40
2.907842658051302
100
AcDbArc
 50
179.6356022881892
 51
192.0427916299141
  0
LINE
  5
1C05
330
1B03
100
AcDbEntity
  8
AM_VIS
100
AcDbLine
 10
-3.475413194613004
 20
29.2407352511186
 30
0.0
 11
-2.637087732872011
 21
29.2407352511186
 31
0.0
  0
ARC
  5
1C06
330
1B03
100
AcDbEntity
  8
AM_VIS
100
AcDbCircle
 10
-0.829256941465708
 20
29.80024211568398
 30
0.0
 40
1.892432324246374
100
AcDbArc
 50
176.8267098340006
 51
197.1968113960356
  0
SPLINE
  5
1C07
330
1B03
100
AcDbEntity
  8
AM_VIS
100
AcDbSpline
210
0.0
220
0.0
230
1.0
 70
     8
 71
     3
 72
    15
 73
    11
 74
     0
 42
0.0000000001
 43
0.0000000001
 40
0.0
 40
0.0
 40
0.0
 40
0.0
 40
0.125
 40
0.25
 40
0.375
 40
0.5
 40
0.625
 40
0.75
 40
0.875
 40
1.0
 40
1.0
 40
1.0
 40
1.0
 10
-3.184130884549013
 20
30.60123928438862
 30
0.0
 10
-3.140718429742001
 20
30.59289068681862
 30
0.0
 10
-3.060361193444002
 20
30.57114940194858
 30
0.0
 10
-2.960238227844008
 20
30.5246707604986
 30
0.0
 10
-2.877431914532003
 20
30.46084756794861
 30
0.0
 10
-2.813200275473
 20
30.38281522522859
 30
0.0
 10
-2.763567125971
 20
30.28867670770858
 30
0.0
 10
-2.732986560075012
 20
30.1769168327686
 30
0.0
 10
-2.719542131809014
 20
30.04895922407861
 30
0.0
 10
-2.718787558080002
 20
29.95460314447857
 30
0.0
 10
-2.718787558080002
 20
29.9049996964586
 30
0.0
  0
ARC
  5
1C08
330
1B03
100
AcDbEntity
  8
AM_VIS
100
AcDbCircle
 10
-3.283731340477963
 20
31.20048897301523
 30
0.0
 40
0.6074705261494974
100
AcDbArc
 50
279.4367847425163
 51
305.8019479914126
  0
ARC
  5
1C09
330
1B03
100
AcDbEntity
  8
AM_VIS
100
AcDbCircle
 10
-3.398548789182761
 20
31.21294720033577
 30
0.0
 40
0.6901000070375867
100
AcDbArc
 50
312.9468571964677
 51
5.551805022006764
  0
SPLINE
  5
1C0A
330
1B03
100
AcDbEntity
  8
AM_VIS
100
AcDbSpline
210
0.0
220
0.0
230
1.0
 70
     8
 71
     3
 72
    17
 73
    13
 74
     0
 42
0.0000000001
 43
0.0000000001
 40
0.0
 40
0.0
 40
0.0
 40
0.0
 40
0.1
 40
0.2
 40
0.3
 40
0.4
 40
0.5
 40
0.6
 40
0.7
 40
0.8
 40
0.9
 40
1.0
 40
1.0
 40
1.0
 40
1.0
 10
-3.400814976485001
 20
31.97239572827861
 30
0.0
 10
-3.352093745308003
 20
31.97239572827861
 30
0.0
 10
-3.259662263038002
 20
31.9691836411286
 30
0.0
 10
-3.134960032515003
 20
31.95170655993861
 30
0.0
 10
-3.027432504955008
 20
31.9201746535286
 30
0.0
 10
-2.939451117253007
 20
31.87542059422858
 30
0.0
 10
-2.869575603933007
 20
31.81696781146861
 30
0.0
 10
-2.813924666413008
 20
31.74465359343862
 30
0.0
 10
-2.767766697862008
 20
31.65645736334862
 30
0.0
 10
-2.733146123805006
 20
31.54806310737857
 30
0.0
 10
-2.714477536032013
 20
31.4216187685486
 30
0.0
 10
-2.711685951000013
 20
31.32864943733859
 30
0.0
 10
-2.711685951000013
 20
31.27971142156861
 30
0.0
  0
LINE
  5
1C0B
330
1B03
100
AcDbEntity
  8
AM_VIS
100
AcDbLine
 10
-4.921167856632003
 20
31.97239572827861
 30
0.0
 11
-3.400814976485001
 21
31.97239572827861
 31
0.0
  0
LINE
  5
1C0C
330
1B03
100
AcDbEntity
  8
AM_VIS
100
AcDbLine
 10
-4.921167856632003
 20
31.97239572827861
 30
0.0
 11
-4.921167856632003
 21
29.2407352511186
 31
0.0
  0
LINE
  5
1C0D
330
1B03
100
AcDbEntity
  8
AM_VIS
100
AcDbLine
 10
-4.921167856632003
 20
29.2407352511186
 30
0.0
 11
-4.093499283196003
 21
29.2407352511186
 31
0.0
  0
LINE
  5
1C0E
330
1B03
100
AcDbEntity
  8
AM_VIS
100
AcDbLine
 10
-4.093499283196003
 20
30.3348215544686
 30
0.0
 11
-4.093499283196003
 21
29.2407352511186
 31
0.0
  0
LINE
  5
1C0F
330
1B03
100
AcDbEntity
  8
AM_VIS
100
AcDbLine
 10
-4.093499283196003
 20
30.3348215544686
 30
0.0
 11
-3.905235052629997
 21
30.3348215544686
 31
0.0
  0
ARC
  5
1C10
330
1B03
100
AcDbEntity
  8
AM_VIS
100
AcDbCircle
 10
-11.12521475192317
 20
30.65260279940362
 30
0.0
 40
3.588366618754751
100
AcDbArc
 50
317.2152725233366
 51
42.78472747666334
  0
LINE
  5
1C11
330
1B03
100
AcDbEntity
  8
AM_VIS
100
AcDbLine
 10
-8.491673206896003
 20
28.21522020300859
 30
0.0
 11
-6.237414459652008
 21
28.2150590063786
 31
0.0
  0
LINE
  5
1C12
330
1B03
100
AcDbEntity
  8
AM_VIS
100
AcDbLine
 10
-6.237414459652008
 20
33.0899406189586
 30
0.0
 11
-6.237414459652008
 21
28.2150590063786
 31
0.0
  0
LINE
  5
1C13
330
1B03
100
AcDbEntity
  8
AM_VIS
100
AcDbLine
 10
-8.491673206896003
 20
33.08998539579862
 30
0.0
 11
-6.237414459652008
 21
33.08994061895661
 31
0.0
  0
ARC
  5
1C14
330
1B03
100
AcDbEntity
  8
AM_VIS
100
AcDbCircle
 10
-11.1124964923744
 20
30.65098434360861
 30
0.0
 40
2.829151604259808
100
AcDbArc
 50
300.575272099741
 51
59.55187859595937
  0
LINE
  5
1C15
330
1B03
100
AcDbEntity
  8
AM_VIS
100
AcDbLine
 10
-9.673392266974012
 20
28.21519333690862
 30
0.0
 11
-9.061736132847009
 21
28.21519333690862
 31
0.0
  0
ARC
  5
1C16
330
1B03
100
AcDbEntity
  8
AM_VIS
100
AcDbCircle
 10
-11.12331538600287
 20
30.65257817214363
 30
0.0
 40
3.192327340996876
100
AcDbArc
 50
310.2250780898708
 51
49.77492191012913
  0
LINE
  5
1C17
330
1B03
100
AcDbEntity
  8
AM_VIS
100
AcDbLine
 10
-9.678801309443009
 20
33.08996300737861
 30
0.0
 11
-9.061736132847009
 21
33.08996300737861
 31
0.0
  0
LINE
  5
1C18
330
1B03
100
AcDbEntity
  8
AM_VIS
100
AcDbLine
 10
-11.11517074546001
 20
33.08998539579862
 30
0.0
 11
-11.11517074546001
 21
32.73045422374862
 31
0.0
  0
ARC
  5
1C19
330
1B03
100
AcDbEntity
  8
AM_VIS
100
AcDbCircle
 10
-11.10474027272171
 20
30.65267444235361
 30
0.0
 40
2.077805961762412
100
AcDbArc
 50
269.7123771000492
 51
90.2876228999508
  0
LINE
  5
1C1A
330
1B03
100
AcDbEntity
  8
AM_VIS
100
AcDbLine
 10
-11.11517074546001
 20
28.5748946609586
 30
0.0
 11
-11.11517074546001
 21
28.21522020300859
 31
0.0
  0
ARC
  5
1C1B
330
1B03
100
AcDbEntity
  8
AM_VIS
100
AcDbCircle
 10
-11.10959086686519
 20
30.65260279940362
 30
0.0
 40
2.437388983370186
100
AcDbArc
 50
269.8688335037566
 51
90.13116649624299
  0
LINE
  5
1C1C
330
1B03
100
AcDbEntity
  8
AM_VIS
100
AcDbLine
 10
-11.11512186061286
 20
28.95106490734862
 30
0.0
 11
-11.11512186061286
 21
32.35404218240861
 31
0.0
  0
ARC
  5
1C1D
330
1B03
100
AcDbEntity
  8
AM_VIS
100
AcDbCircle
 10
-11.10576684613646
 20
30.65255334765225
 30
0.0
 40
1.701514427152899
100
AcDbArc
 50
269.6833371045034
 51
90.31425039706663
  0
ARC
  5
1C1E
330
1B03
100
AcDbEntity
  8
AM_VIS
100
AcDbCircle
 10
-26.49999999999585
 20
28.74685277680303
 30
0.0
 40
4.693739986348258
100
AcDbArc
 50
0.6537133807926102
 51
179.3462866281188
  0
ARC
  5
1C1F
330
1B03
100
AcDbEntity
  8
AM_VIS
100
AcDbCircle
 10
-26.49999999999588
 20
28.74721780254223
 30
0.0
 40
4.693735835887347
100
AcDbArc
 50
179.3507421564574
 51
0.649257852454035
  0
ARC
  5
1C20
330
1B03
100
AcDbEntity
  8
AM_VIS
100
AcDbCircle
 10
26.49999999999585
 20
28.74685277680299
 30
0.0
 40
4.693739986348258
100
AcDbArc
 50
0.6537133718811835
 51
179.3462866192074
  0
ARC
  5
1C21
330
1B03
100
AcDbEntity
  8
AM_VIS
100
AcDbCircle
 10
26.49999999999586
 20
28.74721780254223
 30
0.0
 40
4.693735835887347
100
AcDbArc
 50
179.3507421475459
 51
0.6492578435426176
  0
LINE
  5
1C22
330
1B03
100
AcDbEntity
  8
AM_VIS
100
AcDbLine
 10
29.55198082146001
 20
36.52461873522862
 30
0.0
 11
-29.55198082146
 21
36.52461873522862
 31
0.0
  0
ARC
  5
1C23
330
1B03
100
AcDbEntity
  8
AM_VIS
100
AcDbCircle
 10
29.54710194554105
 20
32.8679782502494
 30
0.0
 40
3.656643739800096
100
AcDbArc
 50
356.895830393172
 51
89.92355309902903
  0
LINE
  5
1C24
330
1B03
100
AcDbEntity
  8
AM_VIS
100
AcDbLine
 10
32.99789291748608
 20
2.152429878539066
 30
0.0
 11
33.08577292509671
 21
32.67028984832207
 31
0.0
  0
LINE
  5
1C25
330
1B03
100
AcDbEntity
  8
AM_VIS
100
AcDbLine
 10
23.02223572544395
 20
2.156385753445078
 30
0.0
 11
23.7449184055057
 21
19.75466895933
 31
0.0
  0
ARC
  5
1C26
330
1B03
100
AcDbEntity
  8
AM_VIS
100
AcDbCircle
 10
18.74912902340811
 20
19.95982365637858
 30
0.0
 40
5.0
100
AcDbArc
 50
357.6484402039814
 51
90.0
  0
LINE
  5
1C27
330
1B03
100
AcDbEntity
  8
AM_VIS
100
AcDbLine
 10
-23.7449184055057
 20
19.75466895933002
 30
0.0
 11
-23.02223572544396
 21
2.156385753445078
 31
0.0
  0
ARC
  5
1C28
330
1B03
100
AcDbEntity
  8
AM_VIS
100
AcDbCircle
 10
-18.74912902340812
 20
19.95982365637859
 30
0.0
 40
5.0
100
AcDbArc
 50
90.0
 51
182.3515597960186
  0
LINE
  5
1C29
330
1B03
100
AcDbEntity
  8
AM_VIS
100
AcDbLine
 10
-33.08577292509671
 20
32.67028984832207
 30
0.0
 11
-32.99789291748607
 21
2.152429878539066
 31
0.0
  0
ARC
  5
1C2A
330
1B03
100
AcDbEntity
  8
AM_VIS
100
AcDbCircle
 10
-29.54710194554106
 20
32.86797825024937
 30
0.0
 40
3.656643739800129
100
AcDbArc
 50
90.07644690097139
 51
183.104169606828
  0
LINE
  5
1C2B
330
1B03
100
AcDbEntity
  8
AM_VIS
100
AcDbLine
 10
18.74912902340811
 20
24.95982365637858
 30
0.0
 11
-18.74912902340812
 21
24.9598236563786
 31
0.0
  0
LINE
  5
1C2C
330
1B03
100
AcDbEntity
  8
AM_VIS
100
AcDbLine
 10
20.08500769239198
 20
22.23638057331861
 30
0.0
 11
-20.08500769239198
 21
22.23638057331861
 31
0.0
  0
LINE
  5
1C2D
330
1B03
100
AcDbEntity
  8
AM_VIS
100
AcDbLine
 10
20.0
 20
22.15249981266859
 30
0.0
 11
-20.0
 21
22.15249981266859
 31
0.0
  0
LINE
  5
1C2E
330
1B03
100
AcDbEntity
  8
AM_VIS
100
AcDbLine
 10
20.0
 20
-17.8475001873314
 30
0.0
 11
20.0
 21
22.15249981266859
 31
0.0
  0
LINE
  5
1C2F
330
1B03
100
AcDbEntity
  8
AM_VIS
100
AcDbLine
 10
-20.0
 20
-17.8475001873314
 30
0.0
 11
-20.0
 21
22.15249981266859
 31
0.0
  0
LINE
  5
1C30
330
1B03
100
AcDbEntity
  8
AM_VIS
100
AcDbLine
 10
-20.0
 20
-17.8475001873314
 30
0.0
 11
20.0
 21
-17.8475001873314
 31
0.0
  0
LINE
  5
1C31
330
1B03
100
AcDbEntity
  8
AM_VIS
100
AcDbLine
 10
-20.08500769239649
 20
-17.93138094798141
 30
0.0
 11
20.08500769239647
 21
-17.93138094798141
 31
0.0
  0
ARC
  5
1C32
330
1B03
100
AcDbEntity
  8
AM_VIS
100
AcDbCircle
 10
-26.5
 20
28.6524998126686
 30
0.0
 40
2.373921522628998
100
AcDbArc
 50
180.0
 51
0.0
  0
ARC
  5
1C33
330
1B03
100
AcDbEntity
  8
AM_VIS
100
AcDbCircle
 10
-26.5
 20
28.6524998126686
 30
0.0
 40
2.373921522628998
100
AcDbArc
 50
0.0
 51
180.0
  0
ARC
  5
1C34
330
1B03
100
AcDbEntity
  8
AM_VIS
100
AcDbCircle
 10
-26.5
 20
28.6524998126686
 30
0.0
 40
2.256108807454001
100
AcDbArc
 50
0.0
 51
180.0
  0
ARC
  5
1C35
330
1B03
100
AcDbEntity
  8
AM_VIS
100
AcDbCircle
 10
-26.5
 20
28.6524998126686
 30
0.0
 40
2.256108807454001
100
AcDbArc
 50
180.0
 51
0.0
  0
ELLIPSE
  5
1C36
330
1B03
100
AcDbEntity
  8
AM_VIS
100
AcDbEllipse
 10
-33.19838040994002
 20
-27.20215992137142
 30
0.0
 11
-3.99949303421951
 21
0.0636825661353458
 31
0.0
210
0.0
220
0.0
230
1.0
 40
0.290667774365502
 41
0.0547246418547557
 42
1.575424497892283
  0
LINE
  5
1C37
330
1B03
100
AcDbEntity
  8
AM_VIS
100
AcDbLine
 10
-36.66717149644983
 20
2.152499812308633
 30
0.0
 11
-36.96812521459231
 21
2.152499813070875
 31
0.0
  0
LINE
  5
1C38
330
1B03
100
AcDbEntity
  8
AM_VIS
100
AcDbLine
 10
-32.97360707557
 20
2.152499808796477
 30
0.0
 11
-36.66717149644981
 21
2.152499810323718
 31
0.0
  0
ELLIPSE
  5
1C39
330
1B03
100
AcDbEntity
  8
AM_VIS
100
AcDbEllipse
 10
-33.19838040994002
 20
31.50715954670861
 30
0.0
 11
-3.99949303421951
 21
-0.0636825661353458
 31
0.0
210
0.0
220
0.0
230
1.0
 40
0.290667774365502
 41
4.7077608092873
 42
6.22846066532483
  0
LINE
  5
1C3A
330
1B03
100
AcDbEntity
  8
AM_VIS
100
AcDbLine
 10
-29.55198078813232
 20
36.52461873468895
 30
0.0
 11
-29.55198088776452
 21
39.40625656810642
 31
0.0
  0
LINE
  5
1C3B
330
1B03
100
AcDbEntity
  8
AM_VIS
100
AcDbLine
 10
29.55198078813231
 20
36.52461873468895
 30
0.0
 11
29.55198088776448
 21
39.40625656810642
 31
0.0
  0
ELLIPSE
  5
1C3C
330
1B03
100
AcDbEntity
  8
AM_VIS
100
AcDbEllipse
 10
33.19838040994001
 20
31.50715954670861
 30
0.0
 11
3.99949303421951
 21
-0.0636825661353458
 31
0.0
210
0.0
220
0.0
230
1.0
 40
0.290667774365502
 41
0.0547246418547557
 42
1.575424497892282
  0
LINE
  5
1C3D
330
1B03
100
AcDbEntity
  8
AM_VIS
100
AcDbLine
 10
36.66717149644979
 20
2.152499812308633
 30
0.0
 11
36.96812521459226
 21
2.152499813070875
 31
0.0
  0
ELLIPSE
  5
1C3E
330
1B03
100
AcDbEntity
  8
AM_VIS
100
AcDbEllipse
 10
33.19838040994001
 20
-27.20215992137142
 30
0.0
 11
3.99949303421951
 21
0.0636825661353458
 31
0.0
210
0.0
220
0.0
230
1.0
 40
0.290667774365502
 41
4.707760809287301
 42
6.22846066532483
  0
LINE
  5
1C3F
330
1B03
100
AcDbEntity
  8
AM_VIS
100
AcDbLine
 10
32.97360707556999
 20
2.152499808796477
 30
0.0
 11
36.66717149644979
 21
2.152499810323718
 31
0.0
  0
ARC
  5
1C40
330
1B03
100
AcDbEntity
  8
AM_VIS
100
AcDbCircle
 10
-26.5
 20
-24.34750018733141
 30
0.0
 40
2.256108807454001
100
AcDbArc
 50
0.0
 51
180.0
  0
ARC
  5
1C41
330
1B03
100
AcDbEntity
  8
AM_VIS
100
AcDbCircle
 10
-26.5
 20
-24.34750018733141
 30
0.0
 40
2.256108807454001
100
AcDbArc
 50
180.0
 51
0.0
  0
ARC
  5
1C42
330
1B03
100
AcDbEntity
  8
AM_VIS
100
AcDbCircle
 10
-26.5
 20
-24.34750018733141
 30
0.0
 40
2.373921522628998
100
AcDbArc
 50
180.0
 51
0.0
  0
ARC
  5
1C43
330
1B03
100
AcDbEntity
  8
AM_VIS
100
AcDbCircle
 10
-26.5
 20
-24.34750018733141
 30
0.0
 40
2.373921522628998
100
AcDbArc
 50
0.0
 51
180.0
  0
ARC
  5
1C44
330
1B03
100
AcDbEntity
  8
AM_VIS
100
AcDbCircle
 10
26.50000000000001
 20
-24.34750018733141
 30
0.0
 40
2.256108807454001
100
AcDbArc
 50
0.0
 51
180.0
  0
ARC
  5
1C45
330
1B03
100
AcDbEntity
  8
AM_VIS
100
AcDbCircle
 10
26.50000000000001
 20
-24.34750018733141
 30
0.0
 40
2.256108807454001
100
AcDbArc
 50
180.0
 51
0.0
  0
ARC
  5
1C46
330
1B03
100
AcDbEntity
  8
AM_VIS
100
AcDbCircle
 10
26.50000000000001
 20
-24.34750018733141
 30
0.0
 40
2.373921522628998
100
AcDbArc
 50
180.0
 51
0.0
  0
ARC
  5
1C47
330
1B03
100
AcDbEntity
  8
AM_VIS
100
AcDbCircle
 10
26.50000000000001
 20
-24.34750018733141
 30
0.0
 40
2.373921522628998
100
AcDbArc
 50
0.0
 51
180.0
  0
LINE
  5
1C48
330
1B03
100
AcDbEntity
  8
AM_VIS
100
AcDbLine
 10
29.55198078813231
 20
-32.21961910935176
 30
0.0
 11
29.55198088776448
 21
-35.1012569427692
 31
0.0
  0
LINE
  5
1C49
330
1B03
100
AcDbEntity
  8
AM_VIS
100
AcDbLine
 10
-29.55198078813232
 20
-32.21961910935176
 30
0.0
 11
-29.55198088776452
 21
-35.1012569427692
 31
0.0
  0
ARC
  5
1C4A
330
1B03
100
AcDbEntity
  8
AM_VIS
100
AcDbCircle
 10
26.50000000000001
 20
28.6524998126686
 30
0.0
 40
2.256108807454001
100
AcDbArc
 50
180.0
 51
0.0
  0
ARC
  5
1C4B
330
1B03
100
AcDbEntity
  8
AM_VIS
100
AcDbCircle
 10
26.50000000000001
 20
28.6524998126686
 30
0.0
 40
2.256108807454001
100
AcDbArc
 50
0.0
 51
180.0
  0
ARC
  5
1C4C
330
1B03
100
AcDbEntity
  8
AM_VIS
100
AcDbCircle
 10
26.50000000000001
 20
28.6524998126686
 30
0.0
 40
2.373921522628998
100
AcDbArc
 50
0.0
 51
180.0
  0
ARC
  5
1C4D
330
1B03
100
AcDbEntity
  8
AM_VIS
100
AcDbCircle
 10
26.50000000000001
 20
28.6524998126686
 30
0.0
 40
2.373921522628998
100
AcDbArc
 50
180.0
 51
0.0
  0
ARC
  5
1C4E
330
1B03
100
AcDbEntity
  8
AM_VIS
100
AcDbCircle
 10
26.50000000000001
 20
28.6524998126686
 30
0.0
 40
1.5
100
AcDbArc
 50
0.0
 51
180.0
  0
ARC
  5
1C4F
330
1B03
100
AcDbEntity
  8
AM_VIS
100
AcDbCircle
 10
26.50000000000001
 20
28.6524998126686
 30
0.0
 40
1.5
100
AcDbArc
 50
180.0
 51
0.0
  0
ARC
  5
1C50
330
1B03
100
AcDbEntity
  8
AM_VIS
100
AcDbCircle
 10
26.50000000000001
 20
-24.34750018733141
 30
0.0
 40
1.5
100
AcDbArc
 50
180.0
 51
0.0
  0
ARC
  5
1C51
330
1B03
100
AcDbEntity
  8
AM_VIS
100
AcDbCircle
 10
26.50000000000001
 20
-24.34750018733141
 30
0.0
 40
1.5
100
AcDbArc
 50
0.0
 51
180.0
  0
ARC
  5
1C52
330
1B03
100
AcDbEntity
  8
AM_VIS
100
AcDbCircle
 10
-26.5
 20
-24.34750018733141
 30
0.0
 40
1.5
100
AcDbArc
 50
180.0
 51
0.0
  0
ARC
  5
1C53
330
1B03
100
AcDbEntity
  8
AM_VIS
100
AcDbCircle
 10
-26.5
 20
-24.34750018733141
 30
0.0
 40
1.5
100
AcDbArc
 50
0.0
 51
180.0
  0
ARC
  5
1C54
330
1B03
100
AcDbEntity
  8
AM_VIS
100
AcDbCircle
 10
-26.5
 20
28.6524998126686
 30
0.0
 40
1.5
100
AcDbArc
 50
0.0
 51
180.0
  0
ARC
  5
1C55
330
1B03
100
AcDbEntity
  8
AM_VIS
100
AcDbCircle
 10
-26.5
 20
28.6524998126686
 30
0.0
 40
1.5
100
AcDbArc
 50
180.0
 51
0.0
  0
INSERT
  5
1C56
330
1B03
100
AcDbEntity
  8
0
100
AcDbBlockReference
 66
     1
  2
info
 10
-20.00000057192925
 20
-17.84750001907918
 30
0.0
 50
270.0
  0
ATTRIB
  5
1C57
330
1C56
100
AcDbEntity
  8
0
100
AcDbText
 10
-17.10890533644985
 20
-27.3145929693987
 30
0.00000001
 40
5.0
  1
40
 50
270.0
100
AcDbAttribute
  2
BRD
 70
     1
1001
AcDbAttr
1070
     0
1070
     1
  0
ATTRIB
  5
1C58
330
1C56
100
AcDbEntity
  8
0
100
AcDbText
 10
-25.44223866978307
 20
-27.3145929693987
 30
0.00000001
 40
5.0
  1
40
 50
270.0
100
AcDbAttribute
  2
HJD
 70
     1
1001
AcDbAttr
1070
     0
1070
     1
  0
SEQEND
  5
1C59
330
1C56
100
AcDbEntity
  8
0
  0
LINE
  5
1C5A
330
1B03
100
AcDbEntity
  8
AM_5
100
AcDbLine
 10
-20.75000057192925
 20
-17.84750001907918
 30
0.0
 11
-47.38503102312825
 21
-17.84750001907917
 31
0.0
  0
LINE
  5
1C5B
330
1B03
100
AcDbEntity
  8
AM_5
100
AcDbLine
 10
-20.75000000000001
 20
22.15249981266859
 30
0.0
 11
-47.38503102312824
 21
22.1524998126686
 31
0.0
  0
LINE
  5
1C5C
330
1B03
100
AcDbEntity
  8
AM_5
100
AcDbLine
 10
-46.63503102312825
 20
-15.97250001907917
 30
0.0
 11
-46.63503102312824
 21
20.2774998126686
 31
0.0
  0
SOLID
  5
1C5D
330
1B03
100
AcDbEntity
  8
AM_5
100
AcDbTrace
 10
-46.94753102312825
 20
-15.97250001907917
 30
0.0
 11
-46.32253102312825
 21
-15.97250001907917
 31
0.0
 12
-46.63503102312825
 22
-17.84750001907917
 32
0.0
 13
-46.63503102312825
 23
-17.84750001907917
 33
0.0
  0
SOLID
  5
1C5E
330
1B03
100
AcDbEntity
  8
AM_5
100
AcDbTrace
 10
-46.94753102312824
 20
20.2774998126686
 30
0.0
 11
-46.32253102312824
 21
20.2774998126686
 31
0.0
 12
-46.63503102312824
 22
22.1524998126686
 32
0.0
 13
-46.63503102312824
 23
22.1524998126686
 33
0.0
  0
MTEXT
  5
1C5F
330
1B03
100
AcDbEntity
  8
AM_5
 62
     2
100
AcDbMText
 10
-49.20378102312827
 20
2.152499896794715
 30
0.0
 40
2.625
 41
0.0
 71
     5
 72
     1
  1
40 [1.575"]
 11
0.0000000000000001
 21
1.0
 31
0.0
 73
     1
 44
1.0
1001
ACAD
1000
MTEXTBEGIN
1070
    73
1070
     1
1070
    44
1040
1.0
1070
    74
1070
     0
1000
MTEXTEND
  0
LINE
  5
1C60
330
1B03
100
AcDbEntity
  8
AM_5
100
AcDbLine
 10
-32.72152318607
 20
-35.84750018733141
 30
0.0
 11
-57.38503102312826
 21
-35.8475001873314
 31
0.0
  0
LINE
  5
1C61
330
1B03
100
AcDbEntity
  8
AM_5
100
AcDbLine
 10
-32.72152318606794
 20
40.1524998126686
 30
0.0
 11
-57.38503102312822
 21
40.1524998126686
 31
0.0
  0
LINE
  5
1C62
330
1B03
100
AcDbEntity
  8
AM_5
100
AcDbLine
 10
-56.63503102312827
 20
-33.9725001873314
 30
0.0
 11
-56.63503102312824
 21
38.2774998126686
 31
0.0
  0
SOLID
  5
1C63
330
1B03
100
AcDbEntity
  8
AM_5
100
AcDbTrace
 10
-56.94753102312827
 20
-33.9725001873314
 30
0.0
 11
-56.32253102312827
 21
-33.9725001873314
 31
0.0
 12
-56.63503102312827
 22
-35.8475001873314
 32
0.0
 13
-56.63503102312827
 23
-35.8475001873314
 33
0.0
  0
SOLID
  5
1C64
330
1B03
100
AcDbEntity
  8
AM_5
100
AcDbTrace
 10
-56.94753102312824
 20
38.2774998126686
 30
0.0
 11
-56.32253102312824
 21
38.2774998126686
 31
0.0
 12
-56.63503102312824
 22
40.1524998126686
 32
0.0
 13
-56.63503102312824
 23
40.1524998126686
 33
0.0
  0
MTEXT
  5
1C65
330
1B03
100
AcDbEntity
  8
AM_5
 62
     2
100
AcDbMText
 10
-59.20504984055495
 20
2.152499812668601
 30
0.0
 40
2.625
 41
0.0
 71
     5
 72
     1
  1
76 [2.992"]
 11
0.0000000000000001
 21
1.0
 31
0.0
 73
     1
 44
1.0
1001
ACAD
1000
MTEXTBEGIN
1070
    73
1070
     1
1070
    44
1040
1.0
1070
    74
1070
     0
1000
MTEXTEND
  0
LINE
  5
1C66
330
1B03
100
AcDbEntity
  8
AM_5
100
AcDbLine
 10
20.0
 20
-18.5975001873314
 30
0.0
 11
20.0
 21
-47.29495661874977
 31
0.0
  0
LINE
  5
1C67
330
1B03
100
AcDbEntity
  8
AM_5
100
AcDbLine
 10
-20.00000057192925
 20
-18.5975001873314
 30
0.0
 11
-20.00000057192925
 21
-47.29495661874977
 31
0.0
  0
LINE
  5
1C68
330
1B03
100
AcDbEntity
  8
AM_5
100
AcDbLine
 10
18.125
 20
-46.54495661874976
 30
0.0
 11
-18.12500057192925
 21
-46.54495661874976
 31
0.0
  0
SOLID
  5
1C69
330
1B03
100
AcDbEntity
  8
AM_5
100
AcDbTrace
 10
18.125
 20
-46.23245661874976
 30
0.0
 11
18.125
 21
-46.85745661874976
 31
0.0
 12
20.0
 22
-46.54495661874976
 32
0.0
 13
20.0
 23
-46.54495661874976
 33
0.0
  0
SOLID
  5
1C6A
330
1B03
100
AcDbEntity
  8
AM_5
100
AcDbTrace
 10
-18.12500057192925
 20
-46.23245661874976
 30
0.0
 11
-18.12500057192925
 21
-46.85745661874976
 31
0.0
 12
-20.00000057192925
 22
-46.54495661874976
 32
0.0
 13
-20.00000057192925
 23
-46.54495661874976
 33
0.0
  0
MTEXT
  5
1C6B
330
1B03
100
AcDbEntity
  8
AM_5
 62
     2
100
AcDbMText
 10
-0.0000002859646244
 20
-43.97620661874976
 30
0.0
 40
2.625
 41
0.0
 71
     5
 72
     1
  1
40 [1.575"]
 73
     1
 44
1.0
1001
ACAD
1000
MTEXTBEGIN
1070
    73
1070
     1
1070
    44
1040
1.0
1070
    74
1070
     0
1000
MTEXTEND
  0
LINE
  5
1C6C
330
1B03
100
AcDbEntity
  8
AM_5
100
AcDbLine
 10
38.00037748624641
 20
-30.56902327840417
 30
0.0
 11
38.01245236550174
 21
-54.55972063531454
 31
0.0
  0
LINE
  5
1C6D
330
1B03
100
AcDbEntity
  8
AM_5
100
AcDbLine
 10
-37.99972533184388
 20
-30.60727527463701
 30
0.0
 11
-37.98765045258857
 21
-54.59797263154737
 31
0.0
  0
LINE
  5
1C6E
330
1B03
100
AcDbEntity
  8
AM_5
100
AcDbLine
 10
36.13707511674844
 20
-53.81066444592786
 30
0.0
 11
-36.11302817632814
 21
-53.84702901092855
 31
0.0
  0
SOLID
  5
1C6F
330
1B03
100
AcDbEntity
  8
AM_5
100
AcDbTrace
 10
36.13691783081243
 20
-53.49816448551005
 30
0.0
 11
36.13723240268445
 21
-54.12316440634568
 31
0.0
 12
38.01207487925532
 22
-53.80972073031179
 32
0.0
 13
38.01207487925532
 23
-53.80972073031179
 33
0.0
  0
SOLID
  5
1C70
330
1B03
100
AcDbEntity
  8
AM_5
100
AcDbTrace
 10
-36.11318546226414
 20
-53.53452905051074
 30
0.0
 11
-36.11287089039212
 21
-54.15952897134637
 31
0.0
 12
-37.988027938835
 22
-53.84797272654463
 32
0.0
 13
-37.988027938835
 23
-53.84797272654463
 33
0.0
  0
MTEXT
  5
1C71
330
1B03
100
AcDbEntity
  8
AM_5
 62
     2
100
AcDbMText
 10
0.010729941201312
 20
-51.25882823652784
 30
0.0
 40
2.625
 41
0.0
 71
     5
 72
     1
  1
76 [2.992"]
 11
0.9999998733369997
 21
0.0005033149952346
 31
0.0
 73
     1
 44
1.0
1001
ACAD
1000
MTEXTBEGIN
1070
    73
1070
     1
1070
    44
1040
1.0
1070
    74
1070
     0
1000
MTEXTEND
  0
ENDBLK
  5
1B05
330
1B03
100
AcDbEntity
  8
0
100
AcDbBlockEnd
  0
ENDSEC
  0
SECTION
  2
ENTITIES
  0
INSERT
  5
1C72
330
1A
100
AcDbEntity
  8
AM_0
100
AcDbBlockReference
  2
EZENTRY4MINI
 10
38.00000027634041
 20
35.84750004340588
 30
0.0
  0
VIEWPORT
  5
22
102
{ACAD_XDICTIONARY
360
1C77
102
}
330
17
100
AcDbEntity
 67
     1
  8
0
100
AcDbViewport
 10
7.900096624318575
 20
6.635154955787665
 30
0.0
 40
18.8944864125024
 41
11.87498859712033
 68
     1
 69
     1
 12
7.900096624318575
 22
6.635154955787665
 13
0.0
 23
0.0
 14
1.0
 24
1.0
 15
10.0
 25
10.0
 16
0.0
 26
0.0
 36
1.0
 17
0.0
 27
0.0
 37
0.0
 42
50.0
 43
0.0
 44
0.0
 45
11.87498859712033
 50
0.0
 51
0.0
 72
   100
 90
    32800
  1

281
     0
 71
     1
 74
     0
110
0.0
120
0.0
130
0.0
111
1.0
121
0.0
131
0.0
112
0.0
122
1.0
132
0.0
 79
     0
146
0.0
1001
GENIUS_GENOBJ-N-SDF_13
1002
{
1000
OWNER
1000
GEN
1002
}
1001
GENIUS_GENODEF_13
1002
{
1000
HIER
1070
     0
1002
}
1002
{
1000
MANEDIT
1070
     0
1002
}
1002
{
1000
NOSEL
1070
     0
1002
}
1002
{
1000
BEHIND
1070
     0
1002
}
1002
{
1000
OTHER
1070
     0
1002
}
1002
{
1000
REACTOR
1002
}
1001
GENIUS_GENSCREG_15
1000
PF
1040
1.0
1000
DF
1040
1.0
1000
MIN
1011
-1.547146581932626
1021
0.6976606572275
1031
0.0
1000
MAX
1011
17.34733983056977
1021
12.57264925434783
1031
0.0
1000
FLAGS
1070
     4
  0
ENDSEC
  0
SECTION
  2
OBJECTS
  0
DICTIONARY
  5
C
330
0
100
AcDbDictionary
281
     1
  3
ACAD_COLOR
350
3CA
  3
ACAD_GROUP
350
D
  3
ACAD_LAYOUT
350
167
  3
ACAD_MATERIAL
350
3C9
  3
ACAD_MLEADERSTYLE
350
A72
  3
ACAD_MLINESTYLE
350
E
  3
ACAD_PLOTSETTINGS
350
168
  3
ACAD_PLOTSTYLENAME
350
165
  3
ACAD_SCALELIST
350
A60
  3
ACAD_TABLESTYLE
350
650
  3
ACAD_VISUALSTYLE
350
A4F
  3
ACDB_RECOMPOSE_DATA
350
AF1
  3
ACDBVARIABLEDICTIONARY
350
5D
  3
ACMDICTIONARY
350
142
  3
AMG
350
171
  3
AMGSNAPSETTINGS
350
1F2
  3
ASE_INDEX_DICTIONARY
350
1872
  3
DWGPROPS
350
1C76
  3
MAPISURF_MODULE
350
1907
  0
DICTIONARY
  5
592
330
2
100
AcDbDictionary
280
     1
281
     1
  3
ACAD_LAYERFILTERS
360
C7C
  3
ACAD_LAYERSTATES
360
822
  3
ACLYDICTIONARY
360
C7B
  3
AMLAYER_GROUPCOLORS
360
593
  0
DICTIONARY
  5
AB7
330
F
100
AcDbDictionary
280
     1
281
     1
  3
ADSK_XREC_LAYER_RECONCILED
360
1313
  0
DICTIONARY
  5
AB9
330
5CF
100
AcDbDictionary
280
     1
281
     1
  3
ADSK_XREC_LAYER_RECONCILED
360
1314
  0
DICTIONARY
  5
1315
330
CDF
100
AcDbDictionary
280
     1
281
     1
  3
ADSK_XREC_LAYER_RECONCILED
360
1316
  0
DICTIONARY
  5
1317
330
102C
100
AcDbDictionary
280
     1
281
     1
  3
ADSK_XREC_LAYER_RECONCILED
360
1318
  0
DICTIONARY
  5
12A
330
1A
100
AcDbDictionary
280
     1
281
     1
  3
ACAD_INDEX
360
12B
  3
ACAD_SORTENTS
360
1117
  0
DICTIONARY
  5
1C77
330
22
100
AcDbDictionary
280
     1
281
     1
  3
ACAD_XREC_ROUNDTRIP
360
1C78
  0
DICTIONARY
  5
3CA
102
{ACAD_REACTORS
330
C
102
}
330
C
100
AcDbDictionary
281
     1
  0
DICTIONARY
  5
D
102
{ACAD_REACTORS
330
C
102
}
330
C
100
AcDbDictionary
281
     1
  0
DICTIONARY
  5
167
102
{ACAD_REACTORS
330
C
102
}
330
C
100
AcDbDictionary
281
     1
  3
Layout1
350
16A
  3
Model
350
169
  0
DICTIONARY
  5
3C9
102
{ACAD_REACTORS
330
C
102
}
330
C
100
AcDbDictionary
281
     1
  3
ByBlock
350
A3F
  3
ByLayer
350
A37
  3
Global
350
A47
  0
DICTIONARY
  5
A72
102
{ACAD_REACTORS
330
C
102
}
330
C
100
AcDbDictionary
281
     1
  3
Standard
350
A73
  0
DICTIONARY
  5
E
102
{ACAD_REACTORS
330
C
102
}
330
C
100
AcDbDictionary
281
     1
  3
STANDARD
350
13
  0
DICTIONARY
  5
168
102
{ACAD_REACTORS
330
C
102
}
330
C
100
AcDbDictionary
281
     1
  0
ACDBDICTIONARYWDFLT
  5
165
102
{ACAD_REACTORS
330
C
102
}
330
C
100
AcDbDictionary
281
     1
  3
Normal
350
166
100
AcDbDictionaryWithDefault
340
166
  0
DICTIONARY
  5
A60
102
{ACAD_REACTORS
330
C
102
}
330
C
100
AcDbDictionary
281
     1
  3
A0
350
A61
  3
A1
350
A62
  3
A2
350
A63
  3
A3
350
A64
  3
A4
350
A65
  3
A5
350
A66
  3
A6
350
A67
  3
A7
350
A68
  3
A8
350
A69
  3
A9
350
A6A
  3
B0
350
A6B
  3
B1
350
A6C
  3
B2
350
A6D
  3
B3
350
A6E
  3
B4
350
A6F
  3
B5
350
A70
  3
B6
350
A71
  0
DICTIONARY
  5
650
102
{ACAD_REACTORS
330
C
102
}
330
C
100
AcDbDictionary
281
     1
  3
Standard
350
651
  0
DICTIONARY
  5
A4F
102
{ACAD_REACTORS
330
C
102
}
330
C
100
AcDbDictionary
281
     1
  3
2dWireframe
350
A55
  3
3D Hidden
350
A57
  3
3dWireframe
350
A56
  3
Basic
350
A54
  3
Brighten
350
A5B
  3
ColorChange
350
A5F
  3
Conceptual
350
A58
  3
Dim
350
A5A
  3
Facepattern
350
A5E
  3
Flat
350
A50
  3
FlatWithEdges
350
A51
  3
Gouraud
350
A52
  3
GouraudWithEdges
350
A53
  3
Linepattern
350
A5D
  3
Realistic
350
A59
  3
Thicken
350
A5C
  0
XRECORD
  5
AF1
102
{ACAD_REACTORS
330
C
102
}
330
C
100
AcDbXrecord
280
     1
 90
        1
330
651
  0
DICTIONARY
  5
5D
102
{ACAD_REACTORS
330
C
102
}
330
C
100
AcDbDictionary
281
     1
  3
CANNOSCALE
350
AF4
  3
CMLEADERSTYLE
350
AF2
  3
CTABLESTYLE
350
66F
  3
DIMADEC
350
5E
  3
DIMASSOC
350
3C7
  3
INDEXCTL
350
128
  3
LAYEREVAL
350
AF6
  3
LAYERNOTIFY
350
AF7
  3
LIGHTINGUNITS
350
AF5
  3
MSLTSCALE
350
AF3
  3
SORTENTS
350
1319
  0
DICTIONARY
  5
142
102
{ACAD_REACTORS
330
C
102
}
330
C
100
AcDbDictionary
281
     1
  3
ACMSTDDICTIONARY
350
143
  3
AMDTSECTSYM_ARROWCOLOR
350
47D
  0
DICTIONARY
  5
171
102
{ACAD_REACTORS
330
C
102
}
330
C
100
AcDbDictionary
281
     1
  3
AcMgSettings
350
172
  0
DICTIONARY
  5
1F2
102
{ACAD_REACTORS
330
C
102
}
330
C
100
AcDbDictionary
281
     1
  3
DIMENSION
350
C6F
  3
FEA
350
C70
  3
HATCH
350
C71
  3
SYMBOLS
350
C72
  0
DICTIONARY
  5
1872
102
{ACAD_REACTORS
330
C
102
}
330
C
100
AcDbDictionary
281
     1
  3
ASEBlockHierarchyIndexRecord
350
1873
1001
DCO15
1040
1774326993.694
  0
XRECORD
  5
1C76
102
{ACAD_REACTORS
330
C
102
}
330
C
100
AcDbXrecord
280
     1
  1
DWGPROPS COOKIE
  2

  3

  4

  6

  7

  8
se-jenboh
  9

300
AmdtFileType=84
301
=
302
=
303
=
304
=
305
=
306
=
307
=
308
=
309
=
 40
0.0143942361111111
 41
2456266.672654688
 42
2456349.373987176
  1

 90
        1
  0
DICTIONARY
  5
C7C
102
{ACAD_REACTORS
330
592
102
}
330
592
100
AcDbDictionary
281
     1
  0
DICTIONARY
  5
822
102
{ACAD_REACTORS
330
592
102
}
330
592
100
AcDbDictionary
281
     1
  0
DICTIONARY
  5
C7B
102
{ACAD_REACTORS
330
592
102
}
330
592
100
AcDbDictionary
281
     1
1001
ACAD
1000
<All
  0
DICTIONARY
  5
593
102
{ACAD_REACTORS
330
592
102
}
330
592
100
AcDbDictionary
280
     1
281
     1
  0
XRECORD
  5
1313
102
{ACAD_REACTORS
330
AB7
102
}
330
AB7
100
AcDbXrecord
280
     1
290
     1
  0
XRECORD
  5
1314
102
{ACAD_REACTORS
330
AB9
102
}
330
AB9
100
AcDbXrecord
280
     1
290
     1
  0
XRECORD
  5
1316
102
{ACAD_REACTORS
330
1315
102
}
330
1315
100
AcDbXrecord
280
     1
290
     1
  0
XRECORD
  5
1318
102
{ACAD_REACTORS
330
1317
102
}
330
1317
100
AcDbXrecord
280
     1
290
     1
  0
DICTIONARY
  5
12B
102
{ACAD_REACTORS
330
12A
102
}
330
12A
100
AcDbDictionary
281
     1
  3
*A1
350
12C
  0
SORTENTSTABLE
  5
1117
102
{ACAD_REACTORS
330
12A
102
}
330
12A
100
AcDbSortentsTable
330
1A
  0
XRECORD
  5
1C78
102
{ACAD_REACTORS
330
1C77
102
}
330
1C77
100
AcDbXrecord
280
     1
102
SHADEPLOT
 70
     0
  0
LAYOUT
  5
16A
102
{ACAD_XDICTIONARY
360
824
102
}
102
{ACAD_REACTORS
330
167
102
}
330
167
100
AcDbPlotSettings
  1

  2
none_device
  4
Letter_(8.50_x_11.00_Inches)
  6

 40
6.349999904632567
 41
6.349999904632567
 42
6.350006103515625
 43
6.350006103515625
 44
215.8999938964844
 45
279.3999938964844
 46
0.0
 47
7.25904629660107
 48
0.0
 49
0.0
140
0.0
141
0.0
142
1.0
143
1.0
 70
   688
 72
     0
 73
     1
 74
     5
  7
@Layout.ctb
 75
     0
147
1.0
148
-74.57150970956639
149
-30.33168042120906
100
AcDbLayout
  1
Layout1
 70
     1
 71
     1
 10
-0.2500002402958907
 20
-0.2499999962453767
 11
10.74999951940821
 21
8.249999763458731
 12
0.0
 22
0.0
 32
0.0
 14
1.000000000000000E+20
 24
1.000000000000000E+20
 34
1.000000000000000E+20
 15
-1.000000000000000E+20
 25
-1.000000000000000E+20
 35
-1.000000000000000E+20
146
0.0
 13
0.0
 23
0.0
 33
0.0
 16
1.0
 26
0.0
 36
0.0
 17
0.0
 27
1.0
 37
0.0
 76
     0
330
17
331
22
1001
ACAD_PSEXT
1000
None
1000
None
1000
Not applicable
1000
The layout will not be plotted unless a new plotter configuration name is selected.
1070
     0
  0
LAYOUT
  5
169
102
{ACAD_XDICTIONARY
360
1C79
102
}
102
{ACAD_REACTORS
330
167
102
}
330
167
100
AcDbPlotSettings
  1

  2
none_device
  4
Letter_(8.50_x_11.00_Inches)
  6

 40
6.349999904632567
 41
6.349999904632567
 42
6.350006103515625
 43
6.350006103515625
 44
215.8999938964844
 45
279.3999938964844
 46
38.1308720290886
 47
0.0
 48
0.0
 49
0.0
140
0.0
141
0.0
142
1.0
143
24.24127445441686
 70
 11956
 72
     0
 73
     1
 74
     0
  7
@Layout.ctb
 75
     0
147
0.0412519565289521
148
8019.824937415057
149
-189.2331007602539
100
AcDbLayout
  1
Model
 70
     1
 71
     0
 10
0.0
 20
0.0
 11
12.0
 21
9.0
 12
0.0
 22
0.0
 32
0.0
 14
0.0
 24
0.0
 34
0.0
 15
0.0
 25
0.0
 35
0.0
146
0.0
 13
0.0
 23
0.0
 33
0.0
 16
1.0
 26
0.0
 36
0.0
 17
0.0
 27
1.0
 37
0.0
 76
     0
330
1A
331
A35
1001
ACAD_PSEXT
1000
None
1000
None
1000
Not applicable
1000
The layout will not be plotted unless a new plotter configuration name is selected.
1070
     0
  0
MATERIAL
  5
A3F
102
{ACAD_XDICTIONARY
360
A40
102
}
102
{ACAD_REACTORS
330
3C9
102
}
330
3C9
100
AcDbMaterial
  1
ByBlock
 72
     0
 43
0.0008202099737533
 43
0.0
 43
0.0
 43
0.0
 43
0.0
 43
0.0008202099737533
 43
0.0
 43
0.0
 43
0.0
 43
0.0
 43
1.0
 43
0.0
 43
0.0
 43
0.0
 43
0.0
 43
1.0
 77
     0
 47
0.0008202099737533
 47
0.0
 47
0.0
 47
0.0
 47
0.0
 47
0.0008202099737533
 47
0.0
 47
0.0
 47
0.0
 47
0.0
 47
1.0
 47
0.0
 47
0.0
 47
0.0
 47
0.0
 47
1.0
171
     0
 49
0.0008202099737533
 49
0.0
 49
0.0
 49
0.0
 49
0.0
 49
0.0008202099737533
 49
0.0
 49
0.0
 49
0.0
 49
0.0
 49
1.0
 49
0.0
 49
0.0
 49
0.0
 49
0.0
 49
1.0
175
     0
142
0.0008202099737533
142
0.0
142
0.0
142
0.0
142
0.0
142
0.0008202099737533
142
0.0
142
0.0
142
0.0
142
0.0
142
1.0
142
0.0
142
0.0
142
0.0
142
0.0
142
1.0
179
     0
144
0.0008202099737533
144
0.0
144
0.0
144
0.0
144
0.0
144
0.0008202099737533
144
0.0
144
0.0
144
0.0
144
0.0
144
1.0
144
0.0
144
0.0
144
0.0
144
0.0
144
1.0
147
0.0008202099737533
147
0.0
147
0.0
147
0.0
147
0.0
147
0.0008202099737533
147
0.0
147
0.0
147
0.0
147
0.0
147
1.0
147
0.0
147
0.0
147
0.0
147
0.0
147
1.0
  0
MATERIAL
  5
A37
102
{ACAD_XDICTIONARY
360
A38
102
}
102
{ACAD_REACTORS
330
3C9
102
}
330
3C9
100
AcDbMaterial
  1
ByLayer
 72
     0
 43
0.0008202099737533
 43
0.0
 43
0.0
 43
0.0
 43
0.0
 43
0.0008202099737533
 43
0.0
 43
0.0
 43
0.0
 43
0.0
 43
1.0
 43
0.0
 43
0.0
 43
0.0
 43
0.0
 43
1.0
 77
     0
 47
0.0008202099737533
 47
0.0
 47
0.0
 47
0.0
 47
0.0
 47
0.0008202099737533
 47
0.0
 47
0.0
 47
0.0
 47
0.0
 47
1.0
 47
0.0
 47
0.0
 47
0.0
 47
0.0
 47
1.0
171
     0
 49
0.0008202099737533
 49
0.0
 49
0.0
 49
0.0
 49
0.0
 49
0.0008202099737533
 49
0.0
 49
0.0
 49
0.0
 49
0.0
 49
1.0
 49
0.0
 49
0.0
 49
0.0
 49
0.0
 49
1.0
175
     0
142
0.0008202099737533
142
0.0
142
0.0
142
0.0
142
0.0
142
0.0008202099737533
142
0.0
142
0.0
142
0.0
142
0.0
142
1.0
142
0.0
142
0.0
142
0.0
142
0.0
142
1.0
179
     0
144
0.0008202099737533
144
0.0
144
0.0
144
0.0
144
0.0
144
0.0008202099737533
144
0.0
144
0.0
144
0.0
144
0.0
144
1.0
144
0.0
144
0.0
144
0.0
144
0.0
144
1.0
147
0.0008202099737533
147
0.0
147
0.0
147
0.0
147
0.0
147
0.0008202099737533
147
0.0
147
0.0
147
0.0
147
0.0
147
1.0
147
0.0
147
0.0
147
0.0
147
0.0
147
1.0
  0
MATERIAL
  5
A47
102
{ACAD_XDICTIONARY
360
A48
102
}
102
{ACAD_REACTORS
330
3C9
102
}
330
3C9
100
AcDbMaterial
  1
Global
 72
     0
 43
0.0008202099737533
 43
0.0
 43
0.0
 43
0.0
 43
0.0
 43
0.0008202099737533
 43
0.0
 43
0.0
 43
0.0
 43
0.0
 43
1.0
 43
0.0
 43
0.0
 43
0.0
 43
0.0
 43
1.0
 77
     0
 47
0.0008202099737533
 47
0.0
 47
0.0
 47
0.0
 47
0.0
 47
0.0008202099737533
 47
0.0
 47
0.0
 47
0.0
 47
0.0
 47
1.0
 47
0.0
 47
0.0
 47
0.0
 47
0.0
 47
1.0
171
     0
 49
0.0008202099737533
 49
0.0
 49
0.0
 49
0.0
 49
0.0
 49
0.0008202099737533
 49
0.0
 49
0.0
 49
0.0
 49
0.0
 49
1.0
 49
0.0
 49
0.0
 49
0.0
 49
0.0
 49
1.0
175
     0
142
0.0008202099737533
142
0.0
142
0.0
142
0.0
142
0.0
142
0.0008202099737533
142
0.0
142
0.0
142
0.0
142
0.0
142
1.0
142
0.0
142
0.0
142
0.0
142
0.0
142
1.0
179
     0
144
0.0008202099737533
144
0.0
144
0.0
144
0.0
144
0.0
144
0.0008202099737533
144
0.0
144
0.0
144
0.0
144
0.0
144
1.0
144
0.0
144
0.0
144
0.0
144
0.0
144
1.0
147
0.0008202099737533
147
0.0
147
0.0
147
0.0
147
0.0
147
0.0008202099737533
147
0.0
147
0.0
147
0.0
147
0.0
147
1.0
147
0.0
147
0.0
147
0.0
147
0.0
147
1.0
  0
MLEADERSTYLE
  5
A73
102
{ACAD_REACTORS
330
A72
102
}
330
A72
100
AcDbMLeaderStyle
170
     2
171
     1
172
     0
 90
        2
 40
0.0
 41
0.0
173
     1
 91
-1056964608
340
14
 92
       -2
290
     1
 42
2.0
291
     1
 43
0.36
  3
Standard
 44
4.0
300

342
10
174
     1
178
     6
175
     1
176
     0
 93
-1056964608
 45
4.0
292
     0
297
     0
 46
4.0
 94
-1056964608
 47
1.0
 49
1.0
140
1.0
293
     1
141
0.0
294
     1
177
     0
142
1.0
295
     0
296
     0
143
0.125
1001
ACAD_MLEADERVER
1070
     2
  0
MLINESTYLE
  5
13
102
{ACAD_REACTORS
330
E
102
}
330
E
100
AcDbMlineStyle
  2
STANDARD
 70
     0
  3

 62
     0
 51
90.0
 52
90.0
 71
     2
 49
0.5
 62
   256
  6
BYLAYER
 49
-0.5
 62
   256
  6
BYLAYER
  0
ACDBPLACEHOLDER
  5
166
102
{ACAD_REACTORS
330
165
102
}
330
165
  0
SCALE
  5
A61
102
{ACAD_REACTORS
330
A60
102
}
330
A60
100
AcDbScale
 70
     0
300
1:1
140
1.0
141
1.0
290
     1
  0
SCALE
  5
A62
102
{ACAD_REACTORS
330
A60
102
}
330
A60
100
AcDbScale
 70
     0
300
1:2
140
1.0
141
2.0
290
     0
  0
SCALE
  5
A63
102
{ACAD_REACTORS
330
A60
102
}
330
A60
100
AcDbScale
 70
     0
300
1:4
140
1.0
141
4.0
290
     0
  0
SCALE
  5
A64
102
{ACAD_REACTORS
330
A60
102
}
330
A60
100
AcDbScale
 70
     0
300
1:5
140
1.0
141
5.0
290
     0
  0
SCALE
  5
A65
102
{ACAD_REACTORS
330
A60
102
}
330
A60
100
AcDbScale
 70
     0
300
1:8
140
1.0
141
8.0
290
     0
  0
SCALE
  5
A66
102
{ACAD_REACTORS
330
A60
102
}
330
A60
100
AcDbScale
 70
     0
300
1:10
140
1.0
141
10.0
290
     0
  0
SCALE
  5
A67
102
{ACAD_REACTORS
330
A60
102
}
330
A60
100
AcDbScale
 70
     0
300
1:16
140
1.0
141
16.0
290
     0
  0
SCALE
  5
A68
102
{ACAD_REACTORS
330
A60
102
}
330
A60
100
AcDbScale
 70
     0
300
1:20
140
1.0
141
20.0
290
     0
  0
SCALE
  5
A69
102
{ACAD_REACTORS
330
A60
102
}
330
A60
100
AcDbScale
 70
     0
300
1:30
140
1.0
141
30.0
290
     0
  0
SCALE
  5
A6A
102
{ACAD_REACTORS
330
A60
102
}
330
A60
100
AcDbScale
 70
     0
300
1:40
140
1.0
141
40.0
290
     0
  0
SCALE
  5
A6B
102
{ACAD_REACTORS
330
A60
102
}
330
A60
100
AcDbScale
 70
     0
300
1:50
140
1.0
141
50.0
290
     0
  0
SCALE
  5
A6C
102
{ACAD_REACTORS
330
A60
102
}
330
A60
100
AcDbScale
 70
     0
300
1:100
140
1.0
141
100.0
290
     0
  0
SCALE
  5
A6D
102
{ACAD_REACTORS
330
A60
102
}
330
A60
100
AcDbScale
 70
     0
300
2:1
140
2.0
141
1.0
290
     0
  0
SCALE
  5
A6E
102
{ACAD_REACTORS
330
A60
102
}
330
A60
100
AcDbScale
 70
     0
300
4:1
140
4.0
141
1.0
290
     0
  0
SCALE
  5
A6F
102
{ACAD_REACTORS
330
A60
102
}
330
A60
100
AcDbScale
 70
     0
300
8:1
140
8.0
141
1.0
290
     0
  0
SCALE
  5
A70
102
{ACAD_REACTORS
330
A60
102
}
330
A60
100
AcDbScale
 70
     0
300
10:1
140
10.0
141
1.0
290
     0
  0
SCALE
  5
A71
102
{ACAD_REACTORS
330
A60
102
}
330
A60
100
AcDbScale
 70
     0
300
100:1
140
100.0
141
1.0
290
     0
  0
TABLESTYLE
  5
651
102
{ACAD_XDICTIONARY
360
AED
102
}
102
{ACAD_REACTORS
330
650
102
}
330
650
100
AcDbTableStyle
  3
Standard
 70
     0
 71
     0
 40
1.5
 41
1.5
280
     0
281
     0
  7
STANDARD
140
4.5
170
     2
 62
     0
 63
     7
283
     0
274
    -2
284
     1
 64
     0
275
    -2
285
     1
 65
     0
276
    -2
286
     1
 66
     0
277
    -2
287
     1
 67
     0
278
    -2
288
     1
 68
     0
279
    -2
289
     1
 69
     0
  7
STANDARD
140
6.0
170
     5
 62
     0
 63
     7
283
     0
274
    -2
284
     1
 64
     0
275
    -2
285
     1
 65
     0
276
    -2
286
     1
 66
     0
277
    -2
287
     1
 67
     0
278
    -2
288
     1
 68
     0
279
    -2
289
     1
 69
     0
  7
STANDARD
140
4.5
170
     5
 62
     0
 63
     7
283
     0
274
    -2
284
     1
 64
     0
275
    -2
285
     1
 65
     0
276
    -2
286
     1
 66
     0
277
    -2
287
     1
 67
     0
278
    -2
288
     1
 68
     0
279
    -2
289
     1
 69
     0
  0
VISUALSTYLE
  5
A55
102
{ACAD_REACTORS
330
A4F
102
}
330
A4F
100
AcDbVisualStyle
  2
2dWireframe
 70
     4
 71
     0
 72
     2
 73
     0
 90
        0
 40
-0.6
 41
-30.0
 62
     5
 63
     7
 74
     1
 91
        4
 64
     7
 65
   257
 75
     1
175
     1
 42
1.0
 92
        0
 66
   257
 43
1.0
 76
     1
 77
     6
 78
     2
 67
     7
 79
     5
170
     0
171
     0
290
     0
174
     0
 93
        1
 44
0.0
173
     0
291
     0
 45
0.0
1001
ACAD
1000
AcDbSavedByObjectVersion
1070
     0
1000
AcDbSavedByObjectVersion
1070
     0
1000
AcDbSavedByObjectVersion
1070
     0
  0
VISUALSTYLE
  5
A57
102
{ACAD_REACTORS
330
A4F
102
}
330
A4F
100
AcDbVisualStyle
  2
3D Hidden
 70
     6
 71
     1
 72
     2
 73
     2
 90
        0
 40
-0.6
 41
-30.0
 62
     5
 63
     7
 74
     2
 91
        2
 64
     7
 65
   257
 75
     2
175
     1
 42
40.0
 92
        0
 66
   257
 43
1.0
 76
     1
 77
     6
 78
     2
 67
     7
 79
     3
170
     0
171
     0
290
     0
174
     0
 93
        1
 44
0.0
173
     0
291
     0
 45
0.0
1001
ACAD
1000
AcDbSavedByObjectVersion
1070
     0
1000
AcDbSavedByObjectVersion
1070
     0
1000
AcDbSavedByObjectVersion
1070
     0
  0
VISUALSTYLE
  5
A56
102
{ACAD_REACTORS
330
A4F
102
}
330
A4F
100
AcDbVisualStyle
  2
3dWireframe
 70
     5
 71
     0
 72
     2
 73
     0
 90
        0
 40
-0.6
 41
-30.0
 62
     5
 63
     7
 74
     1
 91
        4
 64
     7
 65
   257
 75
     1
175
     1
 42
1.0
 92
        0
 66
   257
 43
1.0
 76
     1
 77
     6
 78
     2
 67
     7
 79
     5
170
     0
171
     0
290
     0
174
     0
 93
        1
 44
0.0
173
     0
291
     0
 45
0.0
1001
ACAD
1000
AcDbSavedByObjectVersion
1070
     0
1000
AcDbSavedByObjectVersion
1070
     0
1000
AcDbSavedByObjectVersion
1070
     0
  0
VISUALSTYLE
  5
A54
102
{ACAD_REACTORS
330
A4F
102
}
330
A4F
100
AcDbVisualStyle
  2
Basic
 70
     7
 71
     1
 72
     0
 73
     1
 90
        0
 40
-0.6
 41
-30.0
 62
     5
 63
     7
 74
     0
 91
        4
 64
     7
 65
   257
 75
     1
175
     1
 42
1.0
 92
        8
 66
     7
 43
1.0
 76
     1
 77
     6
 78
     2
 67
     7
 79
     5
170
     0
171
     0
290
     0
174
     0
 93
        1
 44
0.0
173
     0
291
     1
 45
0.0
1001
ACAD
1000
AcDbSavedByObjectVersion
1070
     0
1000
AcDbSavedByObjectVersion
1070
     0
1000
AcDbSavedByObjectVersion
1070
     0
  0
VISUALSTYLE
  5
A5B
102
{ACAD_REACTORS
330
A4F
102
}
330
A4F
100
AcDbVisualStyle
  2
Brighten
 70
    12
 71
     2
 72
     2
 73
     0
 90
        0
 40
-0.6
 41
-30.0
 62
     5
 63
     7
 74
     1
 91
        4
 64
     7
 65
   257
 75
     1
175
     1
 42
1.0
 92
        8
 66
     7
 43
1.0
 76
     1
 77
     6
 78
     2
 67
     7
 79
     5
170
     0
171
     0
290
     0
174
     0
 93
        1
 44
50.0
173
     0
291
     1
 45
0.0
1001
ACAD
1000
AcDbSavedByObjectVersion
1070
     0
1000
AcDbSavedByObjectVersion
1070
     0
1000
AcDbSavedByObjectVersion
1070
     0
  0
VISUALSTYLE
  5
A5F
102
{ACAD_REACTORS
330
A4F
102
}
330
A4F
100
AcDbVisualStyle
  2
ColorChange
 70
    16
 71
     2
 72
     2
 73
     3
 90
        0
 40
-0.6
 41
-30.0
 62
     5
 63
     8
 74
     1
 91
        4
 64
     7
 65
   257
 75
     1
175
     1
 42
1.0
 92
        8
 66
     8
 43
1.0
 76
     1
 77
     6
 78
     2
 67
     7
 79
     5
170
     0
171
     0
290
     0
174
     0
 93
        1
 44
0.0
173
     0
291
     1
 45
0.0
1001
ACAD
1000
AcDbSavedByObjectVersion
1070
     0
1000
AcDbSavedByObjectVersion
1070
     0
1000
AcDbSavedByObjectVersion
1070
     0
  0
VISUALSTYLE
  5
A58
102
{ACAD_REACTORS
330
A4F
102
}
330
A4F
100
AcDbVisualStyle
  2
Conceptual
 70
     9
 71
     3
 72
     2
 73
     0
 90
        0
 40
-0.6
 41
-30.0
 62
     5
 63
     7
 74
     2
 91
        2
 64
     7
 65
   257
 75
     1
175
     1
 42
40.0
 92
        8
 66
     7
 43
1.0
 76
     1
 77
     6
 78
     2
 67
     7
 79
     3
170
     0
171
     0
290
     0
174
     0
 93
        1
 44
0.0
173
     0
291
     0
 45
0.0
1001
ACAD
1000
AcDbSavedByObjectVersion
1070
     0
1000
AcDbSavedByObjectVersion
1070
     0
1000
AcDbSavedByObjectVersion
1070
     0
  0
VISUALSTYLE
  5
A5A
102
{ACAD_REACTORS
330
A4F
102
}
330
A4F
100
AcDbVisualStyle
  2
Dim
 70
    11
 71
     2
 72
     2
 73
     0
 90
        0
 40
-0.6
 41
-30.0
 62
     5
 63
     7
 74
     1
 91
        4
 64
     7
 65
   257
 75
     1
175
     1
 42
1.0
 92
        8
 66
     7
 43
1.0
 76
     1
 77
     6
 78
     2
 67
     7
 79
     5
170
     0
171
     0
290
     0
174
     0
 93
        1
 44
-50.0
173
     0
291
     1
 45
0.0
1001
ACAD
1000
AcDbSavedByObjectVersion
1070
     0
1000
AcDbSavedByObjectVersion
1070
     0
1000
AcDbSavedByObjectVersion
1070
     0
  0
VISUALSTYLE
  5
A5E
102
{ACAD_REACTORS
330
A4F
102
}
330
A4F
100
AcDbVisualStyle
  2
Facepattern
 70
    15
 71
     2
 72
     2
 73
     0
 90
        0
 40
-0.6
 41
-30.0
 62
     5
 63
     7
 74
     1
 91
        4
 64
     7
 65
   257
 75
     1
175
     1
 42
1.0
 92
        8
 66
     7
 43
1.0
 76
     1
 77
     6
 78
     2
 67
     7
 79
     5
170
     0
171
     0
290
     0
174
     0
 93
        1
 44
0.0
173
     0
291
     1
 45
0.0
1001
ACAD
1000
AcDbSavedByObjectVersion
1070
     0
1000
AcDbSavedByObjectVersion
1070
     0
1000
AcDbSavedByObjectVersion
1070
     0
  0
VISUALSTYLE
  5
A50
102
{ACAD_REACTORS
330
A4F
102
}
330
A4F
100
AcDbVisualStyle
  2
Flat
 70
     0
 71
     2
 72
     1
 73
     1
 90
        2
 40
-0.6
 41
30.0
 62
     5
 63
     7
 74
     0
 91
        4
 64
     7
 65
   257
 75
     1
175
     1
 42
1.0
 92
        8
 66
     7
 43
1.0
 76
     1
 77
     6
 78
     2
 67
     7
 79
     5
170
     0
171
     0
290
     0
174
     0
 93
       13
 44
0.0
173
     0
291
     1
 45
0.0
1001
ACAD
1000
AcDbSavedByObjectVersion
1070
     0
1000
AcDbSavedByObjectVersion
1070
     0
1000
AcDbSavedByObjectVersion
1070
     0
  0
VISUALSTYLE
  5
A51
102
{ACAD_REACTORS
330
A4F
102
}
330
A4F
100
AcDbVisualStyle
  2
FlatWithEdges
 70
     1
 71
     2
 72
     1
 73
     1
 90
        2
 40
-0.6
 41
30.0
 62
     5
 63
     7
 74
     1
 91
        4
 64
     7
 65
   257
 75
     1
175
     1
 42
1.0
 92
        0
 66
   257
 43
1.0
 76
     1
 77
     6
 78
     2
 67
     7
 79
     5
170
     0
171
     0
290
     0
174
     0
 93
       13
 44
0.0
173
     0
291
     1
 45
0.0
1001
ACAD
1000
AcDbSavedByObjectVersion
1070
     0
1000
AcDbSavedByObjectVersion
1070
     0
1000
AcDbSavedByObjectVersion
1070
     0
  0
VISUALSTYLE
  5
A52
102
{ACAD_REACTORS
330
A4F
102
}
330
A4F
100
AcDbVisualStyle
  2
Gouraud
 70
     2
 71
     2
 72
     2
 73
     1
 90
        2
 40
-0.6
 41
30.0
 62
     5
 63
     7
 74
     0
 91
        4
 64
     7
 65
   257
 75
     1
175
     1
 42
1.0
 92
        0
 66
     7
 43
1.0
 76
     1
 77
     6
 78
     2
 67
     7
 79
     5
170
     0
171
     0
290
     0
174
     0
 93
       13
 44
0.0
173
     0
291
     1
 45
0.0
1001
ACAD
1000
AcDbSavedByObjectVersion
1070
     0
1000
AcDbSavedByObjectVersion
1070
     0
1000
AcDbSavedByObjectVersion
1070
     0
  0
VISUALSTYLE
  5
A53
102
{ACAD_REACTORS
330
A4F
102
}
330
A4F
100
AcDbVisualStyle
  2
GouraudWithEdges
 70
     3
 71
     2
 72
     2
 73
     1
 90
        2
 40
-0.6
 41
30.0
 62
     5
 63
     7
 74
     1
 91
        4
 64
     7
 65
   257
 75
     1
175
     1
 42
1.0
 92
        0
 66
   257
 43
1.0
 76
     1
 77
     6
 78
     2
 67
     7
 79
     5
170
     0
171
     0
290
     0
174
     0
 93
       13
 44
0.0
173
     0
291
     1
 45
0.0
1001
ACAD
1000
AcDbSavedByObjectVersion
1070
     0
1000
AcDbSavedByObjectVersion
1070
     0
1000
AcDbSavedByObjectVersion
1070
     0
  0
VISUALSTYLE
  5
A5D
102
{ACAD_REACTORS
330
A4F
102
}
330
A4F
100
AcDbVisualStyle
  2
Linepattern
 70
    14
 71
     2
 72
     2
 73
     0
 90
        0
 40
-0.6
 41
-30.0
 62
     5
 63
     7
 74
     1
 91
        4
 64
     7
 65
   257
 75
     7
175
     7
 42
1.0
 92
        8
 66
     7
 43
1.0
 76
     1
 77
     6
 78
     2
 67
     7
 79
     5
170
     0
171
     0
290
     0
174
     0
 93
        1
 44
0.0
173
     0
291
     1
 45
0.0
1001
ACAD
1000
AcDbSavedByObjectVersion
1070
     0
1000
AcDbSavedByObjectVersion
1070
     0
1000
AcDbSavedByObjectVersion
1070
     0
  0
VISUALSTYLE
  5
A59
102
{ACAD_REACTORS
330
A4F
102
}
330
A4F
100
AcDbVisualStyle
  2
Realistic
 70
     8
 71
     2
 72
     2
 73
     0
 90
        0
 40
-0.6
 41
-30.0
 62
     5
 63
     7
 74
     1
 91
        0
 64
     7
 65
   257
 75
     1
175
     1
 42
1.0
 92
        8
 66
     8
 43
1.0
 76
     1
 77
     6
 78
     2
 67
     7
 79
     5
170
     0
171
     0
290
     0
174
     0
 93
       13
 44
0.0
173
     0
291
     0
 45
0.0
1001
ACAD
1000
AcDbSavedByObjectVersion
1070
     0
1000
AcDbSavedByObjectVersion
1070
     0
1000
AcDbSavedByObjectVersion
1070
     0
  0
VISUALSTYLE
  5
A5C
102
{ACAD_REACTORS
330
A4F
102
}
330
A4F
100
AcDbVisualStyle
  2
Thicken
 70
    13
 71
     2
 72
     2
 73
     0
 90
        0
 40
-0.6
 41
-30.0
 62
     5
 63
     7
 74
     1
 91
        4
 64
     7
 65
   257
 75
     1
175
     1
 42
1.0
 92
       12
 66
     7
 43
1.0
 76
     1
 77
     6
 78
     2
 67
     7
 79
     5
170
     0
171
     0
290
     0
174
     0
 93
        1
 44
0.0
173
     0
291
     1
 45
0.0
1001
ACAD
1000
AcDbSavedByObjectVersion
1070
     0
1000
AcDbSavedByObjectVersion
1070
     0
1000
AcDbSavedByObjectVersion
1070
     0
  0
DICTIONARYVAR
  5
AF4
102
{ACAD_REACTORS
330
5D
102
}
330
5D
100
DictionaryVariables
280
     0
  1
1:1
  0
DICTIONARYVAR
  5
AF2
102
{ACAD_REACTORS
330
5D
102
}
330
5D
100
DictionaryVariables
280
     0
  1
STANDARD
  0
DICTIONARYVAR
  5
66F
102
{ACAD_REACTORS
330
5D
102
}
330
5D
100
DictionaryVariables
280
     0
  1
STANDARD
  0
DICTIONARYVAR
  5
5E
102
{ACAD_REACTORS
330
5D
102
}
330
5D
100
DictionaryVariables
280
     0
  1
0
  0
DICTIONARYVAR
  5
3C7
102
{ACAD_REACTORS
330
5D
102
}
330
5D
100
DictionaryVariables
280
     0
  1
2
  0
DICTIONARYVAR
  5
128
102
{ACAD_REACTORS
330
5D
102
}
330
5D
100
DictionaryVariables
280
     0
  1
1
  0
DICTIONARYVAR
  5
AF6
102
{ACAD_REACTORS
330
5D
102
}
330
5D
100
DictionaryVariables
280
     0
  1
1
  0
DICTIONARYVAR
  5
AF7
102
{ACAD_REACTORS
330
5D
102
}
330
5D
100
DictionaryVariables
280
     0
  1
15
  0
DICTIONARYVAR
  5
AF5
102
{ACAD_REACTORS
330
5D
102
}
330
5D
100
DictionaryVariables
280
     0
  1
0
  0
DICTIONARYVAR
  5
AF3
102
{ACAD_REACTORS
330
5D
102
}
330
5D
100
DictionaryVariables
280
     0
  1
0
  0
DICTIONARYVAR
  5
1319
102
{ACAD_REACTORS
330
5D
102
}
330
5D
100
DictionaryVariables
280
     0
  1
127
  0
DICTIONARY
  5
143
102
{ACAD_REACTORS
330
142
102
}
330
142
100
AcDbDictionary
281
     1
  0
XRECORD
  5
47D
102
{ACAD_REACTORS
330
142
102
}
330
142
100
AcDbXrecord
280
     1
 90
-1056964608
  0
DICTIONARY
  5
172
102
{ACAD_REACTORS
330
171
102
}
330
171
100
AcDbDictionary
281
     1
  3
DWGSETTINGS
350
1885
  3
TRANSSETTINGS
350
1889
  0
ACAMGFILTERDAT
  5
C6F
102
{ACAD_REACTORS
330
1F2
102
}
330
1F2
100
AcAmgFilterDat
 70
    15
  1
DIMENSION,AMDT_*_DIM
  2
*
  3
*
  4
*
  5
*
290
     1
  0
ACAMGFILTERDAT
  5
C70
102
{ACAD_REACTORS
330
1F2
102
}
330
1F2
100
AcAmgFilterDat
 70
    15
  1
*
  2
AM_FEA-AM_*
  3
*
  4
*
  5
*
290
     1
  0
ACAMGFILTERDAT
  5
C71
102
{ACAD_REACTORS
330
1F2
102
}
330
1F2
100
AcAmgFilterDat
 70
    15
  1
HATCH
  2
*
  3
*
  4
*
  5
*
290
     1
  0
ACAMGFILTERDAT
  5
C72
102
{ACAD_REACTORS
330
1F2
102
}
330
1F2
100
AcAmgFilterDat
 70
    15
  1
ACMFCFRAME,ACMDATUMTARGET,ACMDATUMID,ACMWELDSYM,ACMSURFSYM,ACMFEATID,ACMPARTREF,ACMBALLOON
  2
*
  3
*
  4
*
  5
*
290
     1
  0
XRECORD
  5
1873
102
{ACAD_REACTORS
330
1872
102
}
330
1872
100
AcDbXrecord
280
     1
330
1871
330
1855
  0
LAYER_INDEX
  5
12C
102
{ACAD_REACTORS
330
12B
102
}
330
12B
100
AcDbIndex
 40
2456349.373987176
100
AcDbLayerIndex
  8
0
360
12D
 90
        0
  8
AM_0
360
59B
 90
        1
  8
AM_VIS
360
8F9
 90
        0
  8
AM_5
360
AD1
 90
        0
  8
Defpoints
360
AD4
 90
        0
  0
DICTIONARY
  5
824
330
16A
100
AcDbDictionary
280
     1
281
     1
  3
ACAD_XREC_ROUNDTRIP
360
1C7B
  3
ADSK_XREC_LAYOUTTHUMBNAIL
360
825
  0
DICTIONARY
  5
1C79
330
169
100
AcDbDictionary
280
     1
281
     1
  3
ACAD_XREC_ROUNDTRIP
360
1C7A
  0
DICTIONARY
  5
A40
330
A3F
100
AcDbDictionary
280
     1
281
     1
  3
ACAD_XREC_ROUNDTRIP
360
1323
  3
BUMPTILE
360
A42
  3
DIFFUSETILE
360
A41
  3
OPACITYTILE
360
A45
  3
REFLECTIONTILE
360
A44
  3
REFRACTIONTILE
360
A46
  3
SPECULARTILE
360
A43
  0
DICTIONARY
  5
A38
330
A37
100
AcDbDictionary
280
     1
281
     1
  3
ACAD_XREC_ROUNDTRIP
360
1322
  3
BUMPTILE
360
A3A
  3
DIFFUSETILE
360
A39
  3
OPACITYTILE
360
A3D
  3
REFLECTIONTILE
360
A3C
  3
REFRACTIONTILE
360
A3E
  3
SPECULARTILE
360
A3B
  0
DICTIONARY
  5
A48
330
A47
100
AcDbDictionary
280
     1
281
     1
  3
ACAD_XREC_ROUNDTRIP
360
1324
  3
BUMPTILE
360
A4A
  3
DIFFUSETILE
360
A49
  3
OPACITYTILE
360
A4D
  3
REFLECTIONTILE
360
A4C
  3
REFRACTIONTILE
360
A4E
  3
SPECULARTILE
360
A4B
  0
DICTIONARY
  5
AED
330
651
100
AcDbDictionary
280
     1
281
     1
  3
ACAD_ROUNDTRIP_2008_TABLESTYLE_CELLSTYLEMAP
360
1C75
  3
ACAD_XREC_ROUNDTRIP
360
1C7C
  0
IDBUFFER
  5
12D
330
0
100
AcDbIdBuffer
  0
IDBUFFER
  5
59B
330
0
100
AcDbIdBuffer
330
1C72
  0
IDBUFFER
  5
8F9
330
0
100
AcDbIdBuffer
  0
IDBUFFER
  5
AD1
330
0
100
AcDbIdBuffer
  0
IDBUFFER
  5
AD4
330
0
100
AcDbIdBuffer
  0
XRECORD
  5
1C7B
102
{ACAD_REACTORS
330
824
102
}
330
824
100
AcDbXrecord
280
     1
102
SHADEPLOT
 70
     0
102
SHADEPLOTRESLEVEL
 70
     2
102
SHADEPLOTCUSTOMDPI
 70
   300
  0
XRECORD
  5
825
102
{ACAD_REACTORS
330
824
102
}
330
824
100
AcDbXrecord
280
     1
310
28000000B40000008B0000000100080000000000BC610000000000000000000000010000000000000000000000000000FFFFFF000000000000000000000000000000000000000000000000000000000000000000330000006600000099000000CC000000FF00000000330000333300006633000099330000CC330000FF3300
310
0000660000336600006666000099660000CC660000FF66000000990000339900006699000099990000CC990000FF99000000CC000033CC000066CC000099CC0000CCCC0000FFCC000000FF000033FF000066FF000099FF0000CCFF0000FFFF000000003300330033006600330099003300CC003300FF003300003333003333
310
33006633330099333300CC333300FF33330000663300336633006666330099663300CC663300FF66330000993300339933006699330099993300CC993300FF99330000CC330033CC330066CC330099CC3300CCCC3300FFCC330000FF330033FF330066FF330099FF3300CCFF3300FFFF330000006600330066006600660099
310
006600CC006600FF00660000336600333366006633660099336600CC336600FF33660000666600336666006666660099666600CC666600FF66660000996600339966006699660099996600CC996600FF99660000CC660033CC660066CC660099CC6600CCCC6600FFCC660000FF660033FF660066FF660099FF6600CCFF6600
310
FFFF660000009900330099006600990099009900CC009900FF00990000339900333399006633990099339900CC339900FF33990000669900336699006666990099669900CC669900FF66990000999900339999006699990099999900CC999900FF99990000CC990033CC990066CC990099CC9900CCCC9900FFCC990000FF99
310
0033FF990066FF990099FF9900CCFF9900FFFF99000000CC003300CC006600CC009900CC00CC00CC00FF00CC000033CC003333CC006633CC009933CC00CC33CC00FF33CC000066CC003366CC006666CC009966CC00CC66CC00FF66CC000099CC003399CC006699CC009999CC00CC99CC00FF99CC0000CCCC0033CCCC0066CC
310
CC0099CCCC00CCCCCC00FFCCCC0000FFCC0033FFCC0066FFCC0099FFCC00CCFFCC00FFFFCC000000FF003300FF006600FF009900FF00CC00FF00FF00FF000033FF003333FF006633FF009933FF00CC33FF00FF33FF000066FF003366FF006666FF009966FF00CC66FF00FF66FF000099FF003399FF006699FF009999FF00CC
310
99FF00FF99FF0000CCFF0033CCFF0066CCFF0099CCFF00CCCCFF00FFCCFF0000FFFF0033FFFF0066FFFF0099FFFF00CCFFFF00FFFFFF00000000000D0D0D001A1A1A00282828003535350043434300505050005D5D5D006B6B6B00787878008686860093939300A1A1A100AEAEAE00BBBBBB00C9C9C900D6D6D600E4E4E400
310
F1F1F100FFFFFF0000000000000000000000000000000000000000000000000000000000000000000000000000000000E2E2E2E2E2E2E2E2E2E2E2E2E2E2E2E2E2E2E2E2E2E2E2E2E2E2E2E2E2E2E2E2E2E2E2E2E2E2E2E2E2E2E2E2E2E2E2E2E2E2E2E2E2E2E2E2E2E2E2E2E2E2E2E2E2E2E2E2E2E2E2E2E2E2E2E2E2E2E2
310
E2E2E2E2E2E2E2E2E2E2E2E2E2E2E2E2E2E2E2E2E2E2E2E2E2E2E2E2E2E2E2E2E2E2E2E2E2E2E2E2E2E2E2E2E2E2E2E2E2E2E2E2E2E2E2E2E2E2E2E2E2E2E2E2E2E2E2E2E2E2E2E2E2E2E2E2E2E2E2E2E2E2E2E2E2E2E2E2E2E2E2E2E2E2E2E2E2E2E2E2E2E2E2E2E2E2E2E2E2E2E2E2E2E2E2E2E2E2E2E2E2E2E2E2E2E2E2
310
E2E2E2E2E2E2E2E2E2E2E2E2E2E2E2E2E2E2E2E2E2E2E2E2E2E2E2E2E2E2E2E2E2E2E2E2E2E2E2E2E2E2E2E2E2E2E2E2E2E2E2E2E2E2E2E2E2E2E2E2E2E2E2E2E2E2E2E2E2E2E2E2E2E2E2E2E2E2E2E2E2E2E2E2E2E2E2E2E2E2E2E2E2E2E2E2E2E2E2E2E2E2E2E2E2E2E2E2E2E2E2E2E2E2E2E2E2E2E2E2E2E2E2E2E2E2E2
310
E2E2E2E2E2E2E2E2E2E2E2E2E2E2E2E2E2E2E2E2E2E2E2E2E2E2E2E2E2E2E2E2E2E2E2E2E2E2E2E2E2E2E2E2E2E2E2E2E2E2E2E2E2E2E2E2E2E2E2E2E2E2E2E2E2E2E2E2E2E2E2E2E2E2E2E2E2E2E2E2E2E2E2E2E2E2E2E2E2E2E2E2E2E2E2E2E2E2E2E2E2E2E2E2E2E2E2E2E2E2E2E2E2E2E2E2E2E2E2E2E2E2E2E2E2E2E2
310
E2E2E2E2E2E2E2E2E2E2E2E2E2E2E2E2E2E2E2E2E2E2E2E2E2E2E2E2E2E2E2E2E2E2E2E2E2E2E2E2E2E2E2E2E2E2E2E2E2E2E2E2E2E2E2E2E2E2E2E2E2E2E2E2E2E2E2E2E2E2E2E2E2E2E2E2E2E2E2E2E2E2E2E2E2E2E2E2E2E2E2E2E2E2E2E2E2E2E2E2E2E2E2E2E2E2E2E2E2E2E2E2E2E2E2E2E2E2E2E2E2E2E2E2E2E2E2
310
E2E2E2E2E2E2E2E2E2E2E2E2E2E2E2E2E2E2E2E2E2E2E2E2E2E2E2E2E2E2E2E2E2E2E2E2E2E2E2E2E2E2E2E2E2E2E2E2E2E2E2E2E2E2E2E2E2E2E2E2E2E2E2E2E2E2E2E2E2E2E2E2E2E2E2E2E2E2E2E2E2E2E2E2E2E2E2E2E2E2E2E2E2E2E2E2E2E2E2E2E2E2E2E2E2E2E2E2E2E2E2E2E2E2E2E2E2E2E2E2E2E2E2E2E2E2E2
310
E2E2E2E2E2E2E2E2E2E2E2E2E2E2E2E2E2E2E2E2E2E2E2E2E2E2E2E2E2E2E2E2E2E2E2E2E2E2E2E2E2E2E2E2E2E2E2E2E2E2E2E2E2E2E2E2E2E2E2E2E2E2E2E2E2E2E2E2E2E2E2E2E2E2E2E2E2E2E2E2E2E2E2E2E2E2E2E2E2E2E2E2E2E2E2E2E2E2E2E2E2E2E2E2E2E2E2E2E2E2E2E2E2E2E2E2E2E2E2E2E2E2E2E2E2E2E2
310
E2E2E2E2E2E2E2E2E2E2E2E2E2E2E2E2E2E2E2E2E2E2E2E2E2E2E2E2E2E2E2E2E2E2E2E2E2E2E2E2E2E2E2E2E2E2E2E2E2E2E2E2E2E2E2E2E2E2E2E2E2E2E2E2E2E2E2E2E2E2E2E2E2E2E2E2E2E2E2E2E2E2E2E2E2E2E2E2E2E2E2E2E2E2E2E2E2E2E2E2E2E2E2E2E2E2E2E2E2E2E2E2E2E2E2E2E2E2E2E2E2E2E2E2E2E2E2
310
E2E2E2E2E2E2E2E2E2E2E2E2E2E2E2E2E2E2E2E2E2E2E2E2E2E2E2E2E2E2E2E2E2E2E2E2E2E2E2E2E2E2E2E2E2E2E2E2E2E2E2E2E2E2E2E2E2E2E2E2E2E2E2E2E2E2E2E2E2E2E2E2E2E2E2E2E2E2E2E2E2E2E2E2E2E2E2E2E2E2E2E2E2E2E2E2E2E2E2E2E2E2E2E2E2E2E2E2E2E2E2E2E2E2E2E2E2E2E2E2E2E2E2E2E2E2E2
310
E2E2E2E2E2E2E2E2E2E2E2E2E2E2E2E2E2E2E2E2E2E2E2E2E2E2E2E2E2E2E2E2E2E2E2E2E2E2E2E2E2E2E2E2E2E2E2E2E2E2E2E2E2E2E2E2E2E2E2E2E2E2E2E2E2E2E2E2E2E2E2E2E2E2E2E2E2E2E2E2E2E2E2E2E2E2E2E2E2E2E2E2E2E2E2E2E2E2E2E2E2E2E2E2E2E2E2E2E2E2E2E2E2E2E2E2E2E2E2E2E2E2E2E2E2E2E2
310
E2E2E2E2E2E2E2E2E2E2E2E2E2E2E2E2E2E2E2E2E2E2E2E2E2E2E2E2E2E2E2E2E2E2E2E2E2E2E2E2E2E2E2E2E2E2E2E2E2E2E2E2E2E2E2E2E2E2E2E2E2E2E2E2E2E2E2E2E2E2E2E2E2E2E2E2E2E2E2E2E2E2E2E2E2E2E2E2E2E2E2E2E2E2E2E2E2E2E2E2E2E2E2E2E2E2E2E2E2E2E2E2E2E2E2E2E2E2E2E2E2E2E2E2E2E2E2
310
E2E2E2E2E2E2E2E2E2E2E2E2E2E2E2E2E2E2E2E2E2E2E2E2E2E2E2E2E2E2E2E2E2E2E2E2E2E2E2E2E2E2E2E2E2E2E2E2E2E2E2E2E2E2E2E2E2E2E2E2E2E2E2E2E2E2E2E2E2E2E2E2E2E2E2E2E2E2E2E2E2E2E2E2E2E2E2E2E2E2E2E2E2E2E2E2E2E2E2E2E2E2E2E2E2E2E2E2E2E2E2E2E2E2E2E2E2E2E2E2E2E2E2E2E2E2E2
310
E2E2E2E2E2E2E2E2E2E2E2E2E2E2E2E2E2E2E2E2E2E2E2E2E2E2E2E2E2E2E2E2E2E2E2E2E2E2E2E2E2E2E2E2E2E2E2E2E2E2E2E2E2E2E2E2E2E2E2E2E2E2E2E2E2E2E2E2E2E2E2E2E2E2E2E2E2E2E2E2E2E2E2E2E2E2E2E2E2E2E2E2E2E2E2E2E2E2E2E2E2E2E2E2E2E2E2E2E2E2E2E2E2E2E2E2E2E2E2E2E2E2E2E2E2E2E2
310
E2E2E2E2E2E2E2E2E2E2E2E2E2E2E2E2E2E2E2E2E2E2E2E2E2E2E2E2E2E2E2E2E2E2E2E2E2E2E2E2E2E2E2E2E2E2E2E2E2E2E2E2E2E2E2E2E2E2E2E2E2E2E2E2E2E2E2E2E2E2E2E2E2E2E2E2E2E2E2E2E2E2E2E2E2E2E2E2E2E2E2E2E2E2E2E2E2E2E2E2E2E2E2E2E2E2E2E2E2E2E2E2E2E2E2E2E2E2E2E2E2E2E2E2E2E2E2
310
E2E2E2E2E2E2E2E2E2E2E2E2E2E2E2E2E2E2E2E2E2E2E2E2E2E2E2E2E2E2E2E2E2E2E2E2E2E2E2E2E2E2E2E2E2E2E2E2E2E2E2E2E2E2E2E2E2E2E2E2E2E2E2E2E2E2E2E2E2E2E2E2E2E2E2E2E2E2E2E2E2E2E2E2E2E2E2E2E2E2E2E2E2E2E2E2E2E2E2E2E2E2E2E2E2E2E2E2E2E2E2E2E2E2E2E2E2E2E2E2E2E2E2E2E2E2E2
310
E2E2E2E2E2E2E2E2E2E2E2E2E2E2E2E2E2E2E2E2E2E2E2E2E2E2E2E2E2E2E2E2E2E2E2E2E2E2E2E2E2E2E2E2E2E2E2E2E2E2E2E2E2E2E2E2E2E2E2E2E2E2E2E2E2E2E2E2E2E2E2E2E2E2E2E2E2E2E2E2E2E2E2E2E2E2E2E2E2E2E2E2E2E2E2E2E2E2E2E2E2E2E2E2E2E2E2E2E2E2E2E2E2E2E2E2E2E2E2E2E2E2E2E2E2E2E2
310
E2E2E2E2E2E2E2E2E2E2E2E2E2E2E2E2E2E2E2E2E2E2E2E2E2E2E2E2E2E2E2E2E2E2E2E2E2E2E2E2E2E2E2E2E2E2E2E2E2E2E2E2E2E2E2E2E2E2E2E2E2E2E2E2E2E2E2E2E2E2E2E2E2E2E2E2E2E2E2E2E2E2E2E2E2E2E2E2E2E2E2E2E2E2E2E2E2E2E2E2E2E2E2E2E2E2E2E2E2E2E2E2E2E2E2E2E2E2E2E2E2E2E2E2E2E2E2
310
E2E2E2E2E2E2E2E2E2E2E2E2E2E2E2E2E2E2E2E2E2E2E2E2E2E2E2E2E2E2E2E2E2E2E2E2E2E2E2E2E2E2E2E2E2E2E2E2E2E2E2E2E2E2E2E2E2E2E2E2E2E2E2E2E2E2E2E2E2E2E2E2E2E2E2E2E2E2E2E2E2E2E2E2E2E2E2E2E2E2E2E2E2E2E2E2E2E2E2E2E2E2E2E2E2E2E2E2E2E2E2E2E2E2E2E2E2E2E2E2E2E2E2E2E2E2E2
310
E2E2E2E2E2E2E2E2E2E2E2E2E2E2E2E2E2E2E2E2E2E2E2E2E2E2E2E2E2E2E2E2E2E2E2E2E2E2E2E2E2E2E2E2E2E2E2E2E2E2E2E2E2E2E2E2E2E2E2E2E2E2E2E2E2E2E2E2E2E2E2E2E2E2E2E2E2E2E2E2E2E2E2E2E2E2E2E2E2E2E2E2E2E2E2E2E2E2E2E2E2E2E2E2E2E2E2E2E2E2E2E2E2E2E2E2E2E2E2E2E2E2E2E2E2E2E2
310
E2E2E2E2E2E2E2E2E2E2E2E2E2E2E2E2E2E2E2E2E2E2E2E2E2E2E2E2E2E2E2E2E2E2E2E2E2E2E2E2E2E2E2E2E2E2E2E2E2E2E2E2E2E2E2E2E2E2E2E2E2E2E2E2E2E2E2E2E2E2E2E2E2E2E2E2E2E2E2E2E2E2E2E2E2E2E2E2E2E2E2E2E2E2E2E2E2E2E2E2E2E2E2E2E2E2E2E2E2E2E2E2E2E2E2E2E2E2E2E2E2E2E2E2E2E2E2
310
E2E2E2E2E2E2E2E2E2E2E2E2E2E2E2E2E2E2E2E2E2E2E2E2E2E2E2E2E2E2E2E2E2E2E2E2E2E2E2E2E2E2E2E2E2E2E2E2E2E2E2E2E2E2E2E2E2E2E2E2E2E2E2E2E2E2E2E2E2E2E2E2E2E2E2E2E2E2E2E2E2E2E2E2E2E2E2E2E2E2E2E2E2E2E2E2E2E2E2E2E2E2E2E2E2E2E2E2E2E2E2E2E2E2E2E2E2E2E2E2E2E2E2E2E2E2E2
310
E2E2E2E2E2E2E2E2E2E2E2E2E2E2E2E2E2E2E2E2E2E2E2E2E2E2E2E2E2E2E2E2E2E2E2E2E2E2E2E2E2E2E2E2E2E2E2E2E2E2E2E2E2E2E2E2E2E2E2E2E2E2E2E2E2E2E2E2E2E2E2E2E2E2E2E2E2E2E2E2E2E2E2E2E2E2E2E2E2E2E2E2E2E2E2E2E2E2E2E2E2E2E2E2E2E2E2E2E2E2E2E2E2E2E2E2E2E2E2E2E2E2E2E2E2E2E2
310
E2E2E2E2E2E2E2E2E2E2E2E2E2E2E2E2E2E2E2E2E2E2E2E2E2E2E2E2E2E2E2E2E2E2E2E2E2E2E2E2E2E2E2E2E2E2E2E2E2E2E2E2E2E2E2E2E2E2E2E2E2E2E2E2E2E2E2E2E2E2E2E2E2E2E2E2E2E2E2E2E2E2E2E2E2E2E2E2E2E2E2E2E2E2E2E2E2E2E2E2E2E2E2E2E2E2E2E2E2E2E2E2E2E2E2E2E2E2E2E2E2E2E2E2E2E2E2
310
E2E2E2E2E2E2E2E2E2E2E2E2E2E2E2E2E2E2E2E2E2E2E2E2E2E2E2E2E2E2E2E2E2E2E2E2E2E2E2E2E2E2E2E2E2E2E2E2E2E2E2E2E2E2E2E2E2E2E2E2E2E2E2E2E2E2E2E2E2E2E2E2E2E2E2E2E2E2E2E2E2E2E2E2E2E2E2E2E2E2E2E2E2E2E2E2E2E2E2E2E2E2E2E2E2E2E2E2E2E2E2E2E2E2E2E2E2E2E2E2E2E2E2E2E2E2E2
310
E2E2E2E2E2E2E2E2E2E2E2E2E2E2E2E2E2E2E2E2E2E2E2E2E2E2E2E2E2E2E2E2E2E2E2E2E2E2E2E2E2E2E2E2E2E2E2E2E2E2E2E2E2E2E2E2E2E2E2E2E2E2E2E2E2E2E2E2E2E2E2E2E2E2E2E2E2E2E2E2E2E2E2E2E2E2E2E2E2E2E2E2E2E2E2E2E2E2E2E2E2E2E2E2E2E2E2E2E2E2E2E2E2E2E2E2E2E2E2E2E2E2E2E2E2E2E2
310
E2E2E2E2E2E2E2E2E2E2E2E2E2E2E2E2E2E2E2E2E2E2E2E2E2E2E2E2E2E2E2E2E2E2E2E2E2E2E2E2E2E2E2E2E2E2E2E2E2E2E2E2E2E2E2E2E2E2E2E2E2E2E2E2E2E2E2E2E2E2E2E2E2E2E2E2E2E2E2E2E2E2E2E2E2E2E2E2E2E2E2E2E2E2E2E2E2E2E2E2E2E2E2E2E2E2E2E2E2E2E2E2E2E2E2E2E2E2E2E2E2E2E2E2E2E2E2
310
E2E2E2E2E2E2E2E2E2E2E2E2E2E2E2E2E2E2E2E2E2E2E2E2E2E2E2E2E2E2E2E2E2E2E2E2E2E2E2E2E2E2E2E2E2E2E2E2E2E2E2E2E2E2E2E2E2E2E2E2E2E2E2E2E2E2E2E2E2E2E2E2E2E2E2E2E2E2E2E2E2E2E2E2E2E2E2E2E2E2E2E2E2E2E2E2E2E2E2E2E2E2E2E2E2E2E2E2E2E2E2E2E2E2E2E2E2E2E2E2E2E2E2E2E2E2E2
310
E2E2E2E2E2E2E2E2E2E2E2E2E2E2E2E2E2E2E2E2E2E2E2E2E2E2E2E2E2E2E2E2E2E2E2E2E2E2E2E2E2E2E2E2E2E2E2E2E2E2E2E2E2E2E2E2E2E2E2E2E2E2E2E2E2E2E2E2E2E2E2E2E2E2E2E2E2E2E2E2E2E2E2E2E2E2E2E2E2E2E2E2E2E2E2E2E2E2E2E2E2E2E2E2E2E2E2E2E2E2E2E2E2E2E2E2E2E2E2E2E2E2E2E2E2E2E2
310
E2E2E2E2E2E2E2E2E2E2E2E2E2E2E2E2E2E2E2E2E2E2E2E2E2E2E2E2E2E2E2E2E2E2E2E2E2E2E2E2E2E2E2E2E2E2E2E2E2E2E2E2E2E2E2E2E2E2E2E2E2E2E2E2E2E2E2E2E2E2E2E2E2E2E2E2E2E2E2E2E2E2E2E2E2E2E2E2E2E2E2E2E2E2E2E2E2E2E2E2E2E2E2E2E2E2E2E2E2E2E2E2E2E2E2E2E2E2E2E2E2E2E2E2E2E2E2
310
E2E2E2E2E2E2E2E2E2E2E2E2E2E2E2E2E2E2E2E2E2E2E2E2E2E2E2E2E2E2E2E2E2E2E2E2E2E2E2E2E2E2E2E2E2E2E2E2E2E2E2E2E2E2E2E2E2E2E2E2E2E2E2E2E2E2E2E2E2E2E2E2E2E2E2E2E2E2E2E2E2E2E2E2E2E2E2E2E2E2E2E2E2E2E2E2E2E2E2E2E2E2E2E2E2E2E2E2E2E2E2E2E2E2E2E2E2E2E2E2E2E2E2E2E2E2E2
310
E2E2E2E2E2E2E2E2E2E2E2E2E2E2E2E2E2E2E2E2E2E2E2E2E2E2E2E2E2E2E2E2E2E2E2E2E2E2E2E2E2E2E2E2E2E2E2E2E2E2E2E2E2E2E2E2E2E2E2E2E2E2E2E2E2E2E2E2E2E2E2E2E2E2E2E2E2E2E2E2E2E2E2E2E2E2E2E2E2E2E2E2E2E2E2E2E2E2E2E2E2E2E2E2E2E2E2E2E2E2E2E2E2E2E2E2E2E2E2E2E2E2E2E2E2E2E2
310
E2E2E2E2E2E2E2E2E2E2E2E2E2E2E2E2E2E2E2E2E2E2E2E2E2E2E2E2E2E2E2E2E2E2E2E2E2E2E2E2E2E2E2E2E2E2E2E2E2E2E2E2E2E2E2E2E2E2E2E2E2E2E2E2E2E2E2E2E2E2E2E2E2E2E2E2E2E2E2E2E2E2E2E2E2E2E2E2E2E2E2E2E2E2E2E2E2E2E2E2E2E2E2E2E2E2E2E2E2E2E2E2E2E2E2E2E2E2E2E2E2E2E2E2E2E2E2
310
E2E2E2E2E2E2E2E2E2E2E2E2E2E2E2E2E2E2E2E2E2E2E2E2E2E2E2E2E2E2E2E2E2E2E2E2E2E2E2E2E2E2E2E2E2E2E2E2E2E2E2E2E2E2E2E2E2E2E2E2E2E2E2E2E2E2E2E2E2E2E2E2E2E2E2E2E2E2E2E2E2E2E2E2E2E2E2E2E2E2E2E2E2E2E2E2E2E2E2E2E2E2E2E2E2E2E2E2E2E2E2E2E2E2E2E2E2E2E2E2E2E2E2E2E2E2E2
310
E2E2E2E2E2E2E2E2E2E2E2E2E2E2E2E2E2E2E2E2E2E2E2E2E2E2E2E2E2E2E2E2E2E2E2E2E2E2E2E2E2E2E2E2E2E2E2E2E2E2E2E2E2E2E2E2E2E2E2E2E2E2E2E2E2E2E2E2E2E2E2E2E2E2E2E2E2E2E2E2E2E2E2E2E2E2E2E2E2E2E2E2E2E2E2E2E2E2E2E2E2E2E2E2E2E2E2E2E2E2E2E2E2E2E2E2E2E2E2E2E2E2E2E2E2E2E2
310
E2E2E2E2E2E2E2E2E2E2E2E2E2E2E2E2E2E2E2E2E2E2E2E2E2E2E2E2E2E2E2E2E2E2E2E2E2E2E2E2E2E2E2E2E2E2E2E2E2E2E2E2E2E2E2E2E2E2E2E2E2E2E2E2E2E2E2E2E2E2E2E2E2E2E2E2E2E2E2E2E2E2E2E2E2E2E2E2E2E2E2E2E2E2E2E2E2E2E2E2E2E2E2E2E2E2E2E2E2E2E2E2E2E2E2E2E2E2E2E2E2E2E2E2E2E2E2
310
E2E2E2E2E2E2E2E2E2E2E2E2E2E2E2E2E2E2E2E2E2E2E2E2E2E2E2E2E2E2E2E2E2E2E2E2E2E2E2E2E2E2E2E2E2E2E2E2E2E2E2E2E2E2E2E2E2E2E2E2E2E2E2E2E2E2E2E2E2E2E2E2E2E2E2E2E2E2E2E2E2E2E2E2E2E2E2E2E2E2E2E2E2E2E2E2E2E2E2E2E2E2E2E2E2E2E2E2E2E2E2E2E2E2E2E2E2E2E2E2E2E2E2E2E2E2E2
310
E2E2E2E2E2E2E2E2E2E2E2E2E2E2E2E2E2E2E2E2E2E2E2E2E2E2E2E2E2E2E2E2E2E2E2E2E2E2E2E2E2E2E2E2E2E2E2E2E2E2E2E2E2E2E2E2E2E2E2E2E2E2E2E2E2E2E2E2E2E2E2E2E2E2E2E2E2E2E2E2E2E2E2E2E2E2E2E2E2E2E2E2E2E2E2E2E2E2E2E2E2E2E2E2E2E2E2E2E2E2E2E2E2E2E2E2E2E2E2E2E2E2E2E2E2E2E2
310
E2E2E2E2E2E2E2E2E2E2E2E2E2E2E2E2E2E2E2E2E2E2E2E2E2E2E2E2E2E2E2E2E2E2E2E2E2E2E2E2E2E2E2E2E2E2E2E2E2E2E2E2E2E2E2E2E2E2E2E2E2E2E2E2E2E2E2E2E2E2E2E2E2E2E2E2E2E2E2E2E2E2E2E2E2E2E2E2E2E2E2E2E2E2E2E2E2E2E2E2E2E2E2E2E2E2E2E2E2E2E2E2E2E2E2E2E2E2E2E2E2E2E2E2E2E2E2
310
E2E2E2E2E2E2E2E2E2E2E2E2E2E2E2E2E2E2E2E2E2E2E2E2E2E2E2E2E2E2E2E2E2E2E2E2E2E2E2E2E2E2E2E2E2E2E2E2E2E2E2E2E2E2E2E2E2E2E2E2E2E2E2E2E2E2E2E2E2E2E2E2E2E2E2E2E2E2E2E2E2E2E2E2E2E2E2E2E2E2E2E2E2E2E2E2E2E2E2E2E2E2E2E2E2E2E2E2E2E2E2E2E2E2E2E2E2E2E2E2E2E2E2E2E2E2E2
310
E2E2E2E2E2E2E2E2E2E2E2E2E2E2E2E2E2E2E2E2E2E2E2E2E2E2E2E2E2E2E2E2E2E2E2E2E2E2E2E2E2E2E2E2E2E2E2E2E2E2E2E2E2E2E2E2E2E2E2E2E2E2E2E2E2E2E2E2E2E2E2E2E2E2E2E2E2E2E2E2E2E2E2E2E2E2E2E2E2E2E2E2E2E2E2E2E2E2E2E2E2E2E2E2E2E2E2E2E2E2E2E2E2E2E2E2E2E2E2E2E2E2E2E2E2E2E2
310
E2E2E2E2E2E2E2E2E2E2E2E2E2E2E2E2E2E2E2E2E2E2E2E2E2E2E2E2E2E2E2E2E2E2E2E2E2E2E2E2E2E2E2E2E2E2E2E2E2E2E2E2E2E2E2E2E2E2E2E2E2E2E2E2E2E2E2E2E2E2E2E2E2E2E2E2E2E2E2E2E2E2E2E2E2E2E2E2E2E2E2E2E2E2E2E2E2E2E2E2E2E2E2E2E2E2E2E2E2E2E2E2E2E2E2E2E2E2E2E2E2E2E2E2E2E2E2
310
E2E2E2E2E2E2E2E2E2E2E2E2E2E2E2E2E2E2E2E2E2E2E2E2E2E2E2E2E2E2E2E2E2E2E2E2E2E2E2E2E2E2E2E2E2E2E2E2E2E2E2E2E2E2E2E2E2E2E2E2E2E2E2E2E2E2E2E2E2E2E2E2E2E2E2E2E2E2E2E2E2E2E2E2E2E2E2E2E2E2E2E2E2E2E2E2E2E2E2E2E2E2E2E2E2E2E2E2E2E2E2E2E2E2E2E2E2E2E2E2E2E2E2E2E2E2E2
310
E2E2E2E2E2E2E2E2E2E2E2E2E2E2E2E2E2E2E2E2E2E2E2E2E2E2E2E2E2E2E2E2E2E2E2E2E2E2E2E2E2E2E2E2E2E2E2E2E2E2E2E2E2E2E2E2E2E2E2E2E2E2E2E2E2E2E2E2E2E2E2E2E2E2E2E2E2E2E2E2E2E2E2E2E2E2E2E2E2E2E2E2E2E2E2E2E2E2E2E2E2E2E2E2E2E2E2E2E2E2E2E2E2E2E2E2E2E2E2E2E2E2E2E2E2E2E2
310
E2E2E2E2E2E2E2E2E2E2E2E2E2E2E2E2E2E2E2E2E2E2E2E2E2E2E2E2E2E2E2E2E2E2E2E2E2E2E2E2E2E2E2E2E2E2E2E2E2E2E2E2E2E2E2E2E2E2E2E2E2E2E2E2E2E2E2E2E2E2E2E2E2E2E2E2E2E2E2E2E2E2E2E2E2E2E2E2E2E2E2E2E2E2E2E2E2E2E2E2E2E2E2E2E2E2E2E2E2E2E2E2E2E2E2E2E2E2E2E2E2E2E2E2E2E2E2
310
E2E2E2E2E2E2E2E2E2E2E2E2E2E2E2E2E2E2E2E2E2E2E2E2E2E2E2E2E2E2E2E2E2E2E2E2E2E2E2E2E2E2E2E2E2E2E2E2E2E2E2E2E2E2E2E2E2E2E2E2E2E2E2E2E2E2E2E2E2E2E2E2E2E2E2E2E2E2E2E2E2E2E2E2E2E2E2E2E2E2E2E2E2E2E2E2E2E2E2E2E2E2E2E2E2E2E2E2E2E2E2E2E2E2E2E2E2E2E2E2E2E2E2E2E2E2E2
310
E2E2E2E2E2E2E2E2E2E2E2E2E2E2E2E2E2E2E2E2E2E2E2E2E2E2E2E2E2E2E2E2E2E2E2E2E2E2E2E2E2E2E2E2E2E2E2E2E2E2E2E2E2E2E2E2E2E2E2E2E2E2E2E2E2E2E2E2E2E2E2E2E2E2E2E2E2E2E2E2E2E2E2E2E2E2E2E2E2E2E2E2E2E2E2E2E2E2E2E2E2E2E2E2E2E2E2E2E2E2E2E2E2E2E2E2E2E2E2E2E2E2E2E2E2E2E2
310
E2E2E2E2E2E2E2E2E2E2E2E2E2E2E2E2E2E2E2E2E2E2E2E2E2E2E2E2E2E2E2E2E2E2E2E2E2E2E2E2E2E2E2E2E2E2E2E2E2E2E2E2E2E2E2E2E2E2E2E2E2E2E2E2E2E2E2E2E2E2E2E2E2E2E2E2E2E2E2E2E2E2E2E2E2E2E2E2E2E2E2E2E2E2E2E2E2E2E2E2E2E2E2E2E2E2E2E2E2E2E2E2E2E2E2E2E2E2E2E2E2E2E2E2E2E2E2
310
E2E2E2E2E2E2E2E2E2E2E2E2E2E2E2E2E2E2E2E2E2E2E2E2E2E2E2E2E2E2E2E2E2E2E2E2E2E2E2E2E2E2E2E2E2E2E2E2E2E2E2E2E2E2E2E2E2E2E2E2E2E2E2E2E2E2E2E2E2E2E2E2E2E2E2E2E2E2E2E2E2E2E2E2E2E2E2E2E2E2E2E2E2E2E2E2E2E2E2E2E2E2E2E2E2E2E2E2E2E2E2E2E2E2E2E2E2E2E2E2E2E2E2E2E2E2E2
310
E2E2E2E2E2E2E2E2E2E2E2E2E2E2E2E2E2E2E2E2E2E2E2E2E2E2E2E2E2E2E2E2E2E2E2E2E2E2E2E2E2E2E2E2E2E2E2E2E2E2E2E2E2E2E2E2E2E2E2E2E2E2E2E2E2E2E2E2E2E2E2E2E2E2E2E2E2E2E2E2E2E2E2E2E2E2E2E2E2E2E2E2E2E2E2E2E2E2E2E2E2E2E2E2E2E2E2E2E2E2E2E2E2E2E2E2E2E2E2E2E2E2E2E2E2E2E2
310
E2E2E2E2E2E2E2E2E2E2E2E2E2E2E2E2E2E2E2E2E2E2E2E2E2E2E2E2E2E2E2E2E2E2E2E2E2E2E2E2E2E2E2E2E2E2E2E2E2E2E2E2E2E2E2E2E2E2E2E2E2E2E2E2E2E2E2E2E2E2E2E2E2E2E2E2E2E2E2E2E2E2E2E2E2E2E2E2E2E2E2E2E2E2E2E2E2E2E2E2E2E2E2E2E2E2E2E2E2E2E2E2E2E2E2E2E2E2E2E2E2E2E2E2E2E2E2
310
E2E2E2E2E2E2E2E2E2E2E2E2E2E2E2E2E2E2E2E2E2E2E2E2E2E2E2E2E2E2E2E2E2E2E2E2E2E2E2E2E2E2E2E2E2E2E2E2E2E2E2E2E2E2E2E2E2E2E2E2E2E2E2E2E2E2E2E2E2E2E2E2E2E2E2E2E2E2E2E2E2E2E2E2E2E2E2E2E2E2E2E2E2E2E2E2E2E2E2E2E2E2E2E2E2E2E2E2E2E2E2E2E2E2E2E2E2E2E2E2E2E2E2E2E2E2E2
310
E2E2E2E2E2E2E2E2E2E2E2E2E2E2E2E2E2E2E2E2E2E2E2E2E2E2E2E2E2E2E2E2E2E2E2E2E2E2E2E2E2E2E2E2E2E2E2E2E2E2E2E2E2E2E2E2E2E2E2E2E2E2E2E2E2E2E2E2E2E2E2E2E2E2E2E2E2E2E2E2E2E2E2E2E2E2E2E2E2E2E2E2E2E2E2E2E2E2E2E2E2E2E2E2E2E2E2E2E2E2E2E2E2E2E2E2E2E2E2E2E2E2E2E2E2E2E2
310
E2E2E2E2E2E2E2E2E2E2E2E2E2E2E2E2E2E2E2E2E2E2E2E2E2E2E2E2E2E2E2E2E2E2E2E2E2E2E2E2E2E2E2E2E2E2E2E2E2E2E2E2E2E2E2E2E2E2E2E2E2E2E2E2E2E2E2E2E2E2E2E2E2E2E2E2E2E2E2E2E2E2E2E2E2E2E2E2E2E2E2E2E2E2E2E2E2E2E2E2E2E2E2E2E2E2E2E2E2E2E2E2E2E2E2E2E2E2E2E2E2E2E2E2E2E2E2
310
E2E2E2E2E2E2E2E2E2E2E2E2E2E2E2E2E2E2E2E2E2E2E2E2E2E2E2E2E2E2E2E2E2E2E2E2E2E2E2E2E2E2E2E2E2E2E2E2E2E2E2E2E2E2E2E2E2E2E2E2E2E2E2E2E2E2E2E2E2E2E2E2E2E2E2E2E2E2E2E2E2E2E2E2E2E2E2E2E2E2E2E2E2E2E2E2E2E2E2E2E2E2E2E2E2E2E2E2E2E2E2E2E2E2E2E2E2E2E2E2E2E2E2E2E2E2E2
310
E2E2E2E2E2E2E2E2E2E2E2E2E2E2E2E2E2E2E2E2E2E2E2E2E2E2E2E2E2E2E2E2E2E2E2E2E2E2E2E2E2E2E2E2E2E2E2E2E2E2E2E2E2E2E2E2E2E2E2E2E2E2E2E2E2E2E2E2E2E2E2E2E2E2E2E2E2E2E2E2E2E2E2E2E2E2E2E2E2E2E2E2E2E2E2E2E2E2E2E2E2E2E2E2E2E2E2E2E2E2E2E2E2E2E2E2E2E2E2E2E2E2E2E2E2E2E2
310
E2E2E2E2E2E2E2E2E2E2E2E2E2E2E2E2E2E2E2E2E2E2E2E2E2E2E2E2E2E2E2E2E2E2E2E2E2E2E2E2E2E2E2E2E2E2E2E2E2E2E2E2E2E2E2E2E2E2E2E2E2E2E2E2E2E2E2E2E2E2E2E2E2E2E2E2E2E2E2E2E2E2E2E2E2E2E2E2E2E2E2E2E2E2E2E2E2E2E2E2E2E2E2E2E2E2E2E2E2E2E2E2E2E2E2E2E2E2E2E2E2E2E2E2E2E2E2
310
E2E2E2E2E2E2E2E2E2E2E2E2E2E2E2E2E2E2E2E2E2E2E2E2E2E2E2E2E2E2E2E2E2E2E2E2E2E2E2E2E2E2E2E2E2E2E2E2E2E2E2E2E2E2E2E2E2E2E2E2E2E2E2E2E2E2E2E2E2E2E2E2E2E2E2E2E2E2E2E2E2E2E2E2E2E2E2E2E2E2E2E2E2E2E2E2E2E2E2E2E2E2E2E2E2E2E2E2E2E2E2E2E2E2E2E2E2E2E2E2E2E2E2E2E2E2E2
310
E2E2E2E2E2E2E2E2E2E2E2E2E2E2E2E2E2E2E2E2E2E2E2E2E2E2E2E2E2E2E2E2E2E2E2E2E2E2E2E2E2E2E2E2E2E2E2E2E2E2E2E2E2E2E2E2E2E2E2E2E2E2E2E2E2E2E2E2E2E2E2E2E2E2E2E2E2E2E2E2E2E2E2E2E2E2E2E2E2E2E2E2E2E2E2E2E2E2E2E2E2E2E2E2E2E2E2E2E2E2E2E2E2E2E2E2E2E2E2E2E2E2E2E2E2E2E2
310
E2E2E2E2E2E2E2E2E2E2E2E2E2E2E2E2E2E2E2E2E2E2E2E2E2E2E2E2E2E2E2E2E2E2E2E2E2E2E2E2E2E2E2E2E2E2E2E2E2E2E2E2E2E2E2E2E2E2E2E2E2E2E2E2E2E2E2E2E2E2E2E2E2E2E2E2E2E2E2E2E2E2E2E2E2E2E2E2E2E2E2E2E2E2E2E2E2E2E2E2E2E2E2E2E2E2E2E2E2E2E2E2E2E2E2E2E2E2E2E2E2E2E2E2E2E2E2
310
E2E2E2E2E2E2E2E2E2E2E2E2E2E2E2E2E2E2E2E2E2E2E2E2E2E2E2E2E2E2E2E2E2E2E2E2E2E2E2E2E2E2E2E2E2E2E2E2E2E2E2E2E2E2E2E2E2E2E2E2E2E2E2E2E2E2E2E2E2E2E2E2E2E2E2E2E2E2E2E2E2E2E2E2E2E2E2E2E2E2E2E2E2E2E2E2E2E2E2E2E2E2E2E2E2E2E2E2E2E2E2E2E2E2E2E2E2E2E2E2E2E2E2E2E2E2E2
310
E2E2E2E2E2E2E2E2E2E2E2E2E2E2E2E2E2E2E2E2E2E2E2E2E2E2E2E2E2E2E2E2E2E2E2E2E2E2E2E2E2E2E2E2E2E2E2E2E2E2E2E2E2E2E2E2E2E2E2E2E2E2E2E2E2E2E2E2E2E2E2E2E2E2E2E2E2E2E2E2E2E2E2E2E2E2E2E2E2E2E2E2E2E2E2E2E2E2E2E2E2E2E2E2E2E2E2E2E2E2E2E2E2E2E2E2E2E2E2E2E2E2E2E2E2E2E2
310
E2E2E2E2E2E2E2E2E2E2E2E2E2E2E2E2E2E2E2E2E2E2E2E2E2E2E2E2E2E2E2E2E2E2E2E2E2E2E2E2E2E2E2E2E2E2E2E2E2E2E2E2E2E2E2E2E2E2E2E2E2E2E2E2E2E2E2E2E2E2E2E2E2E2E2E2E2E2E2E2E2E2E2E2E2E2E2E2E2E2E2E2E2E2E2E2E2E2E2E2E2E2E2E2E2E2E2E2E2E2E2E2E2E2E2E2E2E2E2E2E2E2E2E2E2E2E2
310
E2E2E2E2E2E2E2E2E2E2E2E2E2E2E2E2E2E2E2E2E2E2E2E2E2E2E2E2E2E2E2E2E2E2E2E2E2E2E2E2E2E2E2E2E2E2E2E2E2E2E2E2E2E2E2E2E2E2E2E2E2E2E2E2E2E2E2E2E2E2E2E2E2E2E2E2E2E2E2E2E2E2E2E2E2E2E2E2E2E2E2E2E2E2E2E2E2E2E2E2E2E2E2E2E2E2E2E2E2E2E2E2E2E2E2E2E2E2E2E2E2E2E2E2E2E2E2
310
E2E2E2E2E2E2E2E2E2E2E2E2E2E2E2E2E2E2E2E2E2E2E2E2E2E2E2E2E2E2E2E2E2E2E2E2E2E2E2E2E2E2E2E2E2E2E2E2E2E2E2E2E2E2E2E2E2E2E2E2E2E2E2E2E2E2E2E2E2E2E2E2E2E2E2E2E2E2E2E2E2E2E2E2E2E2E2E2E2E2E2E2E2E2E2E2E2E2E2E2E2E2E2E2E2E2E2E2E2E2E2E2E2E2E2E2E2E2E2E2E2E2E2E2E2E2E2
310
E2E2E2E2E2E2E2E2E2E2E2E2E2E2E2E2E2E2E2E2E2E2E2E2E2E2E2E2E2E2E2E2E2E2E2E2E2E2E2E2E2E2E2E2E2E2E2E2E2E2E2E2E2E2E2E2E2E2E2E2E2E2E2E2E2E2E2E2E2E2E2E2E2E2E2E2E2E2E2E2E2E2E2E2E2E2E2E2E2E2E2E2E2E2E2E2E2E2E2E2E2E2E2E2E2E2E2E2E2E2E2E2E2E2E2E2E2E2E2E2E2E2E2E2E2E2E2
310
E2E2E2E2E2E2E2E2E2E2E2E2E2E2E2E2E2E2E2E2E2E2E2E2E2E2E2E2E2E2E2E2E2E2E2E2E2E2E2E2E2E2E2E2E2E2E2E2E2E2E2E2E2E2E2E2E2E2E2E2E2E2E2E2E2E2E2E2E2E2E2E2E2E2E2E2E2E2E2E2E2E2E2E2E2E2E2E2E2E2E2E2E2E2E2E2E2E2E2E2E2E2E2E2E2E2E2E2E2E2E2E2E2E2E2E2E2E2E2E2E2E2E2E2E2E2E2
310
E2E2E2E2E2E2E2E2E2E2E2E2E2E2E2E2E2E2E2E2E2E2E2E2E2E2E2E2E2E2E2E2E2E2E2E2E2E2E2E2E2E2E2E2E2E2E2E2E2E2E2E2E2E2E2E2E2E2E2E2E2E2E2E2E2E2E2E2E2E2E2E2E2E2E2E2E2E2E2E2E2E2E2E2E2E2E2E2E2E2E2E2E2E2E2E2E2E2E2E2E2E2E2E2E2E2E2E2E2E2E2E2E2E2E2E2E2E2E2E2E2E2E2E2E2E2E2
310
E2E2E2E2E2E2E2E2E2E2E2E2E2E2E2E2E2E2E2E2E2E2E2E2E2E2E2E2E2E2E2E2E2E2E2E2E2E2E2E2E2E2E2E2E2E2E2E2E2E2E2E2E2E2E2E2E2E2E2E2E2E2E2E2E2E2E2E2E2E2E2E2E2E2E2E2E2E2E2E2E2E2E2E2E2E2E2E2E2E2E2E2E2E2E2E2E2E2E2E2E2E2E2E2E2E2E2E2E2E2E2E2E2E2E2E2E2E2E2E2E2E2E2E2E2E2E2
310
E2E2E2E2E2E2E2E2E2E2E2E2E2E2E2E2E2E2E2E2E2E2E2E2E2E2E2E2E2E2E2E2E2E2E2E2E2E2E2E2E2E2E2E2E2E2E2E2E2E2E2E2E2E2E2E2E2E2E2E2E2E2E2E2E2E2E2E2E2E2E2E2E2E2E2E2E2E2E2E2E2E2E2E2E2E2E2E2E2E2E2E2E2E2E2E2E2E2E2E2E2E2E2E2E2E2E2E2E2E2E2E2E2E2E2E2E2E2E2E2E2E2E2E2E2E2E2
310
E2E2E2E2E2E2E2E2E2E2E2E2E2E2E2E2E2E2E2E2E2E2E2E2E2E2E2E2E2E2E2E2E2E2E2E2E2E2E2E2E2E2E2E2E2E2E2E2E2E2E2E2E2E2E2E2E2E2E2E2E2E2E2E2E2E2E2E2E2E2E2E2E2E2E2E2E2E2E2E2E2E2E2E2E2E2E2E2E2E2E2E2E2E2E2E2E2E2E2E2E2E2E2E2E2E2E2E2E2E2E2E2E2E2E2E2E2E2E2E2E2E2E2E2E2E2E2
310
E2E2E2E2E2E2E2E2E2E2E2E2E2E2E2E2E2E2E2E2E2E2E2E2E2E2E2E2E2E2E2E2E2E2E2E2E2E2E2E2E2E2E2E2E2E2E2E2E2E2E2E2E2E2E2E2E2E2E2E2E2E2E2E2E2E2E2E2E2E2E2E2E2E2E2E2E2E2E2E2E2E2E2E2E2E2E2E2E2E2E2E2E2E2E2E2E2E2E2E2E2E2E2E2E2E2E2E2E2E2E2E2E2E2E2E2E2E2E2E2E2E2E2E2E2E2E2
310
E2E2E2E2E2E2E2E2E2E2E2E2E2E2E2E2E2E2E2E2E2E2E2E2E2E2E2E2E2E2E2E2E2E2E2E2E2E2E2E2E2E2E2E2E2E2E2E2E2E2E2E2E2E2E2E2E2E2E2E2E2E2E2E2E2E2E2E2E2E2E2E2E2E2E2E2E2E2E2E2E2E2E2E2E2E2E2E2E2E2E2E2E2E2E2E2E2E2E2E2E2E2E2E2E2E2E2E2E2E2E2E2E2E2E2E2E2E2E2E2E2E2E2E2E2E2E2
310
E2E2E2E2E2E2E2E2E2E2E2E2E2E2E2E2E2E2E2E2E2E2E2E2E2E2E2E2E2E2E2E2E2E2E2E2E2E2E2E2E2E2E2E2E2E2E2E2E2E2E2E2E2E2E2E2E2E2E2E2E2E2E2E2E2E2E2E2E2E2E2E2E2E2E2E2E2E2E2E2E2E2E2E2E2E2E2E2E2E2E2E2E2E2E2E2E2E2E2E2E2E2E2E2E2E2E2E2E2E2E2E2E2E2E2E2E2E2E2E2E2E2E2E2E2E2E2
310
E2E2E2E2E2E2E2E2E2E2E2E2E2E2E2E2E2E2E2E2E2E2E2E2E2E2E2E2E2E2E2E2E2E2E2E2E2E2E2E2E2E2E2E2E2E2E2E2E2E2E2E2E2E2E2E2E2E2E2E2E2E2E2E2E2E2E2E2E2E2E2E2E2E2E2E2E2E2E2E2E2E2E2E2E2E2E2E2E2E2E2E2E2E2E2E2E2E2E2E2E2E2E2E2E2E2E2E2E2E2E2E2E2E2E2E2E2E2E2E2E2E2E2E2E2E2E2
310
E2E2E2E2E2E2E2E2E2E2E2E2E2E2E2E2E2E2E2E2E2E2E2E2E2E2E2E2E2E2E2E2E2E2E2E2E2E2E2E2E2E2E2E2E2E2E2E2E2E2E2E2E2E2E2E2E2E2E2E2E2E2E2E2E2E2E2E2E2E2E2E2E2E2E2E2E2E2E2E2E2E2E2E2E2E2E2E2E2E2E2E2E2E2E2E2E2E2E2E2E2E2E2E2E2E2E2E2E2E2E2E2E2E2E2E2E2E2E2E2E2E2E2E2E2E2E2
310
E2E2E2E2E2E2E2E2E2E2E2E2E2E2E2E2E2E2E2E2E2E2E2E2E2E2E2E2E2E2E2E2E2E2E2E2E2E2E2E2E2E2E2E2E2E2E2E2E2E2E2E2E2E2E2E2E2E2E2E2E2E2E2E2E2E2E2E2E2E2E2E2E2E2E2E2E2E2E2E2E2E2E2E2E2E2E2E2E2E2E2E2E2E2E2E2E2E2E2E2E2E2E2E2E2E2E2E2E2E2E2E2E2E2E2E2E2E2E2E2E2E2E2E2E2E2E2
310
E2E2E2E2E2E2E2E2E2E2E2E2E2E2E2E2E2E2E2E2E2E2E2E2E2E2E2E2E2E2E2E2E2E2E2E2E2E2E2E2E2E2E2E2E2E2E2E2E2E2E2E2E2E2E2E2E2E2E2E2E2E2E2E2E2E2E2E2E2E2E2E2E2E2E2E2E2E2E2E2E2E2E2E2E2E2E2E2E2E2E2E2E2E2E2E2E2E2E2E2E2E2E2E2E2E2E2E2E2E2E2E2E2E2E2E2E2E2E2E2E2E2E2E2E2E2E2
310
E2E2E2E2E2E2E2E2E2E2E2E2E2E2E2E2E2E2E2E2E2E2E2E2E2E2E2E2E2E2E2E2E2E2E2E2E2E2E2E2E2E2E2E2E2E2E2E2E2E2E2E2E2E2E2E2E2E2E2E2E2E2E2E2E2E2E2E2E2E2E2E2E2E2E2E2E2E2E2E2E2E2E2E2E2E2E2E2E2E2E2E2E2E2E2E2E2E2E2E2E2E2E2E2E2E2E2E2E2E2E2E2E2E2E2E2E2E2E2E2E2E2E2E2E2E2E2
310
E2E2E2E2E2E2E2E2E2E2E2E2E2E2E2E2E2E2E2E2E2E2E2E2E2E2E2E2E2E2E2E2E2E2E2E2E2E2E2E2E2E2E2E2E2E2E2E2E2E2E2E2E2E2E2E2E2E2E2E2E2E2E2E2E2E2E2E2E2E2E2E2E2E2E2E2E2E2E2E2E2E2E2E2E2E2E2E2E2E2E2E2E2E2E2E2E2E2E2E2E2E2E2E2E2E2E2E2E2E2E2E2E2E2E2E2E2E2E2E2E2E2E2E2E2E2E2
310
E2E2E2E2E2E2E2E2E2E2E2E2E2E2E2E2E2E2E2E2E2E2E2E2E2E2E2E2E2E2E2E2E2E2E2E2E2E2E2E2E2E2E2E2E2E2E2E2E2E2E2E2E2E2E2E2E2E2E2E2E2E2E2E2E2E2E2E2E2E2E2E2E2E2E2E2E2E2E2E2E2E2E2E2E2E2E2E2E2E2E2E2E2E2E2E2E2E2E2E2E2E2E2E2E2E2E2E2E2E2E2E2E2E2E2E2E2E2E2E2E2E2E2E2E2E2E2
310
E2E2E2E2E2E2E2E2E2E2E2E2E2E2E2E2E2E2E2E2E2E2E2E2E2E2E2E2E2E2E2E2E2E2E2E2E2E2E2E2E2E2E2E2E2E2E2E2E2E2E2E2E2E2E2E2E2E2E2E2E2E2E2E2E2E2E2E2E2E2E2E2E2E2E2E2E2E2E2E2E2E2E2E2E2E2E2E2E2E2E2E2E2E2E2E2E2E2E2E2E2E2E2E2E2E2E2E2E2E2E2E2E2E2E2E2E2E2E2E2E2E2E2E2E2E2E2
310
E2E2E2E2E2E2E2E2E2E2E2E2E2E2E2E2E2E2E2E2E2E2E2E2E2E2E2E2E2E2E2E2E2E2E2E2E2E2E2E2E2E2E2E2E2E2E2E2E2E2E2E2E2E2E2E2E2E2E2E2E2E2E2E2E2E2E2E2E2E2E2E2E2E2E2E2E2E2E2E2E2E2E2E2E2E2E2E2E2E2E2E2E2E2E2E2E2E2E2E2E2E2E2E2E2E2E2E2E2E2E2E2E2E2E2E2E2E2E2E2E2E2E2E2E2E2E2
310
E2E2E2E2E2E2E2E2E2E2E2E2E2E2E2E2E2E2E2E2E2E2E2E2E2E2E2E2E2E2E2E2E2E2E2E2E2E2E2E2E2E2E2E2E2E2E2E2E2E2E2E2E2E2E2E2E2E2E2E2E2E2E2E2E2E2E2E2E2E2E2E2E2E2E2E2E2E2E2E2E2E2E2E2E2E2E2E2E2E2E2E2E2E2E2E2E2E2E2E2E2E2E2E2E2E2E2E2E2E2E2E2E2E2E2E2E2E2E2E2E2E2E2E2E2E2E2
310
E2E2E2E2E2E2E2E2E2E2E2E2E2E2E2E2E2E2E2E2E2E2E2E2E2E2E2E2E2E2E2E2E2E2E2E2E2E2E2E2E2E2E2E2E2E2E2E2E2E2E2E2E2E2E2E2E2E2E2E2E2E2E2E2E2E2E2E2E2E2E2E2E2E2E2E2E2E2E2E2E2E2E2E2E2E2E2E2E2E2E2E2E2E2E2E2E2E2E2E2E2E2E2E2E2E2E2E2E2E2E2E2E2E2E2E2E2E2E2E2E2E2E2E2E2E2E2
310
E2E2E2E2E2E2E2E2E2E2E2E2E2E2E2E2E2E2E2E2E2E2E2E2E2E2E2E2E2E2E2E2E2E2E2E2E2E2E2E2E2E2E2E2E2E2E2E2E2E2E2E2E2E2E2E2E2E2E2E2E2E2E2E2E2E2E2E2E2E2E2E2E2E2E2E2E2E2E2E2E2E2E2E2E2E2E2E2E2E2E2E2E2E2E2E2E2E2E2E2E2E2E2E2E2E2E2E2E2E2E2E2E2E2E2E2E2E2E2E2E2E2E2E2E2E2E2
310
E2E2E2E2E2E2E2E2E2E2E2E2E2E2E2E2E2E2E2E2E2E2E2E2E2E2E2E2E2E2E2E2E2E2E2E2E2E2E2E2E2E2E2E2E2E2E2E2E2E2E2E2E2E2E2E2E2E2E2E2E2E2E2E2E2E2E2E2E2E2E2E2E2E2E2E2E2E2E2E2E2E2E2E2E2E2E2E2E2E2E2E2E2E2E2E2E2E2E2E2E2E2E2E2E2E2E2E2E2E2E2E2E2E2E2E2E2E2E2E2E2E2E2E2E2E2E2
310
E2E2E2E2E2E2E2E2E2E2E2E2E2E2E2E2E2E2E2E2E2E2E2E2E2E2E2E2E2E2E2E2E2E2E2E2E2E2E2E2E2E2E2E2E2E2E2E2E2E2E2E2E2E2E2E2E2E2E2E2E2E2E2E2E2E2E2E2E2E2E2E2E2E2E2E2E2E2E2E2E2E2E2E2E2E2E2E2E2E2E2E2E2E2E2E2E2E2E2E2E2E2E2E2E2E2E2E2E2E2E2E2E2E2E2E2E2E2E2E2E2E2E2E2E2E2E2
310
E2E2E2E2E2E2E2E2E2E2E2E2E2E2E2E2E2E2E2E2E2E2E2E2E2E2E2E2E2E2E2E2E2E2E2E2E2E2E2E2E2E2E2E2E2E2E2E2E2E2E2E2E2E2E2E2E2E2E2E2E2E2E2E2E2E2E2E2E2E2E2E2E2E2E2E2E2E2E2E2E2E2E2E2E2E2E2E2E2E2E2E2E2E2E2E2E2E2E2E2E2E2E2E2E2E2E2E2E2E2E2E2E2E2E2E2E2E2E2E2E2E2E2E2E2E2E2
310
E2E2E2E2E2E2E2E2E2E2E2E2E2E2E2E2E2E2E2E2E2E2E2E2E2E2E2E2E2E2E2E2E2E2E2E2E2E2E2E2E2E2E2E2E2E2E2E2E2E2E2E2E2E2E2E2E2E2E2E2E2E2E2E2E2E2E2E2E2E2E2E2E2E2E2E2E2E2E2E2E2E2E2E2E2E2E2E2E2E2E2E2E2E2E2E2E2E2E2E2E2E2E2E2E2E2E2E2E2E2E2E2E2E2E2E2E2E2E2E2E2E2E2E2E2E2E2
310
E2E2E2E2E2E2E2E2E2E2E2E2E2E2E2E2E2E2E2E2E2E2E2E2E2E2E2E2E2E2E2E2E2E2E2E2E2E2E2E2E2E2E2E2E2E2E2E2E2E2E2E2E2E2E2E2E2E2E2E2E2E2E2E2E2E2E2E2E2E2E2E2E2E2E2E2E2E2E2E2E2E2E2E2E2E2E2E2E2E2E2E2E2E2E2E2E2E2E2E2E2E2E2E2E2E2E2E2E2E2E2E2E2E2E2E2E2E2E2E2E2E2E2E2E2E2E2
310
E2E2E2E2E2E2E2E2E2E2E2E2E2E2E2E2E2E2E2E2E2E2E2E2E2E2E2E2E2E2E2E2E2E2E2E2E2E2E2E2E2E2E2E2E2E2E2E2E2E2E2E2E2E2E2E2E2E2E2E2E2E2E2E2E2E2E2E2E2E2E2E2E2E2E2E2E2E2E2E2E2E2E2E2E2E2E2E2E2E2E2E2E2E2E2E2E2E2E2E2E2E2E2E2E2E2E2E2E2E2E2E2E2E2E2E2E2E2E2E2E2E2E2E2E2E2E2
310
E2E2E2E2E2E2E2E2E2E2E2E2E2E2E2E2E2E2E2E2E2E2E2E2E2E2E2E2E2E2E2E2E2E2E2E2E2E2E2E2E2E2E2E2E2E2E2E2E2E2E2E2E2E2E2E2E2E2E2E2E2E2E2E2E2E2E2E2E2E2E2E2E2E2E2E2E2E2E2E2E2E2E2E2E2E2E2E2E2E2E2E2E2E2E2E2E2E2E2E2E2E2E2E2E2E2E2E2E2E2E2E2E2E2E2E2E2E2E2E2E2E2E2E2E2E2E2
310
E2E2E2E2E2E2E2E2E2E2E2E2E2E2E2E2E2E2E2E2E2E2E2E2E2E2E2E2E2E2E2E2E2E2E2E2E2E2E2E2E2E2E2E2E2E2E2E2E2E2E2E2E2E2E2E2E2E2E2E2E2E2E2E2E2E2E2E2E2E2E2E2E2E2E2E2E2E2E2E2E2E2E2E2E2E2E2E2E2E2E2E2E2E2E2E2E2E2E2E2E2E2E2E2E2E2E2E2E2E2E2E2E2E2E2E2E2E2E2E2E2E2E2E2E2E2E2
310
E2E2E2E2E2E2E2E2E2E2E2E2E2E2E2E2E2E2E2E2E2E2E2E2E2E2E2E2E2E2E2E2E2E2E2E2E2E2E2E2E2E2E2E2E2E2E2E2E2E2E2E2E2E2E2E2E2E2E2E2E2E2E2E2E2E2E2E2E2E2E2E2E2E2E2E2E2E2E2E2E2E2E2E2E2E2E2E2E2E2E2E2E2E2E2E2E2E2E2E2E2E2E2E2E2E2E2E2E2E2E2E2E2E2E2E2E2E2E2E2E2E2E2E2E2E2E2
310
E2E2E2E2E2E2E2E2E2E2E2E2E2E2E2E2E2E2E2E2E2E2E2E2E2E2E2E2E2E2E2E2E2E2E2E2E2E2E2E2E2E2E2E2E2E2E2E2E2E2E2E2E2E2E2E2E2E2E2E2E2E2E2E2E2E2E2E2E2E2E2E2E2E2E2E2E2E2E2E2E2E2E2E2E2E2E2E2E2E2E2E2E2E2E2E2E2E2E2E2E2E2E2E2E2E2E2E2E2E2E2E2E2E2E2E2E2E2E2E2E2E2E2E2E2E2E2
310
E2E2E2E2E2E2E2E2E2E2E2E2E2E2E2E2E2E2E2E2E2E2E2E2E2E2E2E2E2E2E2E2E2E2E2E2E2E2E2E2E2E2E2E2E2E2E2E2E2E2E2E2E2E2E2E2E2E2E2E2E2E2E2E2E2E2E2E2E2E2E2E2E2E2E2E2E2E2E2E2E2E2E2E2E2E2E2E2E2E2E2E2E2E2E2E2E2E2E2E2E2E2E2E2E2E2E2E2E2E2E2E2E2E2E2E2E2E2E2E2E2E2E2E2E2E2E2
310
E2E2E2E2E2E2E2E2E2E2E2E2E2E2E2E2E2E2E2E2E2E2E2E2E2E2E2E2E2E2E2E2E2E2E2E2E2E2E2E2E2E2E2E2E2E2E2E2E2E2E2E2E2E2E2E2E2E2E2E2E2E2E2E2E2E2E2E2E2E2E2E2E2E2E2E2E2E2E2E2E2E2E2E2E2E2E2E2E2E2E2E2E2E2E2E2E2E2E2E2E2E2E2E2E2E2E2E2E2E2E2E2E2E2E2E2E2E2E2E2E2E2E2E2E2E2E2
310
E2E2E2E2E2E2E2E2E2E2E2E2E2E2E2E2E2E2E2E2E2E2E2E2E2E2E2E2E2E2E2E2E2E2E2E2E2E2E2E2E2E2E2E2E2E2E2E2E2E2E2E2E2E2E2E2E2E2E2E2E2E2E2E2E2E2E2E2E2E2E2E2E2E2E2E2E2E2E2E2E2E2E2E2E2E2E2E2E2E2E2E2E2E2E2E2E2E2E2E2E2E2E2E2E2E2E2E2E2E2E2E2E2E2E2E2E2E2E2E2E2E2E2E2E2E2E2
310
E2E2E2E2E2E2E2E2E2E2E2E2E2E2E2E2E2E2E2E2E2E2E2E2E2E2E2E2E2E2E2E2E2E2E2E2E2E2E2E2E2E2E2E2E2E2E2E2E2E2E2E2E2E2E2E2E2E2E2E2E2E2E2E2E2E2E2E2E2E2E2E2E2E2E2E2E2E2E2E2E2E2E2E2E2E2E2E2E2E2E2E2E2E2E2E2E2E2E2E2E2E2E2E2E2E2E2E2E2E2E2E2E2E2E2E2E2E2E2E2E2E2E2E2E2E2E2
310
E2E2E2E2E2E2E2E2E2E2E2E2E2E2E2E2E2E2E2E2E2E2E2E2E2E2E2E2E2E2E2E2E2E2E2E2E2E2E2E2E2E2E2E2E2E2E2E2E2E2E2E2E2E2E2E2E2E2E2E2E2E2E2E2E2E2E2E2E2E2E2E2E2E2E2E2E2E2E2E2E2E2E2E2E2E2E2E2E2E2E2E2E2E2E2E2E2E2E2E2E2E2E2E2E2E2E2E2E2E2E2E2E2E2E2E2E2E2E2E2E2E2E2E2E2E2E2
310
E2E2E2E2E2E2E2E2E2E2E2E2E2E2E2E2E2E2E2E2E2E2E2E2E2E2E2E2E2E2E2E2E2E2E2E2E2E2E2E2E2E2E2E2E2E2E2E2E2E2E2E2E2E2E2E2E2E2E2E2E2E2E2E2E2E2E2E2E2E2E2E2E2E2E2E2E2E2E2E2E2E2E2E2E2E2E2E2E2E2E2E2E2E2E2E2E2E2E2E2E2E2E2E2E2E2E2E2E2E2E2E2E2E2E2E2E2E2E2E2E2E2E2E2E2E2E2
310
E2E2E2E2E2E2E2E2E2E2E2E2E2E2E2E2E2E2E2E2E2E2E2E2E2E2E2E2E2E2E2E2E2E2E2E2E2E2E2E2E2E2E2E2E2E2E2E2E2E2E2E2E2E2E2E2E2E2E2E2E2E2E2E2E2E2E2E2E2E2E2E2E2E2E2E2E2E2E2E2E2E2E2E2E2E2E2E2E2E2E2E2E2E2E2E2E2E2E2E2E2E2E2E2E2E2E2E2E2E2E2E2E2E2E2E2E2E2E2E2E2E2E2E2E2E2E2
310
E2E2E2E2E2E2E2E2E2E2E2E2E2E2E2E2E2E2E2E2E2E2E2E2E2E2E2E2E2E2E2E2E2E2E2E2E2E2E2E2E2E2E2E2E2E2E2E2E2E2E2E2E2E2E2E2E2E2E2E2E2E2E2E2E2E2E2E2E2E2E2E2E2E2E2E2E2E2E2E2E2E2E2E2E2E2E2E2E2E2E2E2E2E2E2E2E2E2E2E2E2E2E2E2E2E2E2E2E2E2E2E2E2E2E2E2E2E2E2E2E2E2E2E2E2E2E2
310
E2E2E2E2E2E2E2E2E2E2E2E2E2E2E2E2E2E2E2E2E2E2E2E2E2E2E2E2E2E2E2E2E2E2E2E2E2E2E2E2E2E2E2E2E2E2E2E2E2E2E2E2E2E2E2E2E2E2E2E2E2E2E2E2E2E2E2E2E2E2E2E2E2E2E2E2E2E2E2E2E2E2E2E2E2E2E2E2E2E2E2E2E2E2E2E2E2E2E2E2E2E2E2E2E2E2E2E2E2E2E2E2E2E2E2E2E2E2E2E2E2E2E2E2E2E2E2
310
E2E2E2E2E2E2E2E2E2E2E2E2E2E2E2E2E2E2E2E2E2E2E2E2E2E2E2E2E2E2E2E2E2E2E2E2E2E2E2E2E2E2E2E2E2E2E2E2E2E2E2E2E2E2E2E2E2E2E2E2E2E2E2E2E2E2E2E2E2E2E2E2E2E2E2E2E2E2E2E2E2E2E2E2E2E2E2E2E2E2E2E2E2E2E2E2E2E2E2E2E2E2E2E2E2E2E2E2E2E2E2E2E2E2E2E2E2E2E2E2E2E2E2E2E2E2E2
310
E2E2E2E2E2E2E2E2E2E2E2E2E2E2E2E2E2E2E2E2E2E2E2E2E2E2E2E2E2E2E2E2E2E2E2E2E2E2E2E2E2E2E2E2E2E2E2E2E2E2E2E2E2E2E2E2E2E2E2E2E2E2E2E2E2E2E2E2E2E2E2E2E2E2E2E2E2E2E2E2E2E2E2E2E2E2E2E2E2E2E2E2E2E2E2E2E2E2E2E2E2E2E2E2E2E2E2E2E2E2E2E2E2E2E2E2E2E2E2E2E2E2E2E2E2E2E2
310
E2E2E2E2E2E2E2E2E2E2E2E2E2E2E2E2E2E2E2E2E2E2E2E2E2E2E2E2E2E2E2E2E2E2E2E2E2E2E2E2E2E2E2E2E2E2E2E2E2E2E2E2E2E2E2E2E2E2E2E2E2E2E2E2E2E2E2E2E2E2E2E2E2E2E2E2E2E2E2E2E2E2E2E2E2E2E2E2E2E2E2E2E2E2E2E2E2E2E2E2E2E2E2E2E2E2E2E2E2E2E2E2E2E2E2E2E2E2E2E2E2E2E2E2E2E2E2
310
E2E2E2E2E2E2E2E2E2E2E2E2E2E2E2E2E2E2E2E2E2E2E2E2E2E2E2E2E2E2E2E2E2E2E2E2E2E2E2E2E2E2E2E2E2E2E2E2E2E2E2E2E2E2E2E2E2E2E2E2E2E2E2E2E2E2E2E2E2E2E2E2E2E2E2E2E2E2E2E2E2E2E2E2E2E2E2E2E2E2E2E2E2E2E2E2E2E2E2E2E2E2E2E2E2E2E2E2E2E2E2E2E2E2E2E2E2E2E2E2E2E2E2E2E2E2E2
310
E2E2E2E2E2E2E2E2E2E2E2E2E2E2E2E2E2E2E2E2E2E2E2E2E2E2E2E2E2E2E2E2E2E2E2E2E2E2E2E2E2E2E2E2E2E2E2E2E2E2E2E2E2E2E2E2E2E2E2E2E2E2E2E2E2E2E2E2E2E2E2E2E2E2E2E2E2E2E2E2E2E2E2E2E2E2E2E2E2E2E2E2E2E2E2E2E2E2E2E2E2E2E2E2E2E2E2E2E2E2E2E2E2E2E2E2E2E2E2E2E2E2E2E2E2E2E2
310
E2E2E2E2E2E2E2E2E2E2E2E2E2E2E2E2E2E2E2E2E2E2E2E2E2E2E2E2E2E2E2E2E2E2E2E2E2E2E2E2E2E2E2E2E2E2E2E2E2E2E2E2E2E2E2E2E2E2E2E2E2E2E2E2E2E2E2E2E2E2E2E2E2E2E2E2E2E2E2E2E2E2E2E2E2E2E2E2E2E2E2E2E2E2E2E2E2E2E2E2E2E2E2E2E2E2E2E2E2E2E2E2E2E2E2E2E2E2E2E2E2E2E2E2E2E2E2
310
E2E2E2E2E2E2E2E2E2E2E2E2E2E2E2E2E2E2E2E2E2E2E2E2E2E2E2E2E2E2E2E2E2E2E2E2E2E2E2E2E2E2E2E2E2E2E2E2E2E2E2E2E2E2E2E2E2E2E2E2E2E2E2E2E2E2E2E2E2E2E2E2E2E2E2E2E2E2E2E2E2E2E2E2E2E2E2E2E2E2E2E2E2E2E2E2E2E2E2E2E2E2E2E2E2E2E2E2E2E2E2E2E2E2E2E2E2E2E2E2E2E2E2E2E2E2E2
310
E2E2E2E2E2E2E2E2E2E2E2E2E2E2E2E2E2E2E2E2E2E2E2E2E2E2E2E2E2E2E2E2E2E2E2E2E2E2E2E2E2E2E2E2E2E2E2E2E2E2E2E2E2E2E2E2E2E2E2E2E2E2E2E2E2E2E2E2E2E2E2E2E2E2E2E2E2E2E2E2E2E2E2E2E2E2E2E2E2E2E2E2E2E2E2E2E2E2E2E2E2E2E2E2E2E2E2E2E2E2E2E2E2E2E2E2E2E2E2E2E2E2E2E2E2E2E2
310
E2E2E2E2E2E2E2E2E2E2E2E2E2E2E2E2E2E2E2E2E2E2E2E2E2E2E2E2E2E2E2E2E2E2E2E2E2E2E2E2E2E2E2E2E2E2E2E2E2E2E2E2E2E2E2E2E2E2E2E2E2E2E2E2E2E2E2E2E2E2E2E2E2E2E2E2E2E2E2E2E2E2E2E2E2E2E2E2E2E2E2E2E2E2E2E2E2E2E2E2E2E2E2E2E2E2E2E2E2E2E2E2E2E2E2E2E2E2E2E2E2E2E2E2E2E2E2
310
E2E2E2E2E2E2E2E2E2E2E2E2E2E2E2E2E2E2E2E2E2E2E2E2E2E2E2E2E2E2E2E2E2E2E2E2E2E2E2E2E2E2E2E2E2E2E2E2E2E2E2E2E2E2E2E2E2E2E2E2E2E2E2E2E2E2E2E2E2E2E2E2E2E2E2E2E2E2E2E2E2E2E2E2E2E2E2E2E2E2E2E2E2E2E2E2E2E2E2E2E2E2E2E2E2E2E2E2E2E2E2E2E2E2E2E2E2E2E2E2E2E2E2E2E2E2E2
310
E2E2E2E2E2E2E2E2E2E2E2E2E2E2E2E2E2E2E2E2E2E2E2E2E2E2E2E2E2E2E2E2E2E2E2E2E2E2E2E2E2E2E2E2E2E2E2E2E2E2E2E2E2E2E2E2E2E2E2E2E2E2E2E2E2E2E2E2E2E2E2E2E2E2E2E2E2E2E2E2E2E2E2E2E2E2E2E2E2E2E2E2E2E2E2E2E2E2E2E2E2E2E2E2E2E2E2E2E2E2E2E2E2E2E2E2E2E2E2E2E2E2E2E2E2E2E2
310
E2E2E2E2E2E2E2E2E2E2E2E2E2E2E2E2E2E2E2E2E2E2E2E2E2E2E2E2E2E2E2E2E2E2E2E2E2E2E2E2E2E2E2E2E2E2E2E2E2E2E2E2E2E2E2E2E2E2E2E2E2E2E2E2E2E2E2E2E2E2E2E2E2E2E2E2E2E2E2E2E2E2E2E2E2E2E2E2E2E2E2E2E2E2E2E2E2E2E2E2E2E2E2E2E2E2E2E2E2E2E2E2E2E2E2E2E2E2E2E2E2E2E2E2E2E2E2
310
E2E2E2E2E2E2E2E2E2E2E2E2E2E2E2E2E2E2E2E2E2E2E2E2E2E2E2E2E2E2E2E2E2E2E2E2E2E2E2E2E2E2E2E2E2E2E2E2E2E2E2E2E2E2E2E2E2E2E2E2E2E2E2E2E2E2E2E2E2E2E2E2E2E2E2E2E2E2E2E2E2E2E2E2E2E2E2E2E2E2E2E2E2E2E2E2E2E2E2E2E2E2E2E2E2E2E2E2E2E2E2E2E2E2E2E2E2E2E2E2E2E2E2E2E2E2E2
310
E2E2E2E2E2E2E2E2E2E2E2E2E2E2E2E2E2E2E2E2E2E2E2E2E2E2E2E2E2E2E2E2E2E2E2E2E2E2E2E2E2E2E2E2E2E2E2E2E2E2E2E2E2E2E2E2E2E2E2E2E2E2E2E2E2E2E2E2E2E2E2E2E2E2E2E2E2E2E2E2E2E2E2E2E2E2E2E2E2E2E2E2E2E2E2E2E2E2E2E2E2E2E2E2E2E2E2E2E2E2E2E2E2E2E2E2E2E2E2E2E2E2E2E2E2E2E2
310
E2E2E2E2E2E2E2E2E2E2E2E2E2E2E2E2E2E2E2E2E2E2E2E2E2E2E2E2E2E2E2E2E2E2E2E2E2E2E2E2E2E2E2E2E2E2E2E2E2E2E2E2E2E2E2E2E2E2E2E2E2E2E2E2E2E2E2E2E2E2E2E2E2E2E2E2E2E2E2E2E2E2E2E2E2E2E2E2E2E2E2E2E2E2E2E2E2E2E2E2E2E2E2E2E2E2E2E2E2E2E2E2E2E2E2E2E2E2E2E2E2E2E2E2E2E2E2
310
E2E2E2E2E2E2E2E2E2E2E2E2E2E2E2E2E2E2E2E2E2E2E2E2E2E2E2E2E2E2E2E2E2E2E2E2E2E2E2E2E2E2E2E2E2E2E2E2E2E2E2E2E2E2E2E2E2E2E2E2E2E2E2E2E2E2E2E2E2E2E2E2E2E2E2E2E2E2E2E2E2E2E2E2E2E2E2E2E2E2E2E2E2E2E2E2E2E2E2E2E2E2E2E2E2E2E2E2E2E2E2E2E2E2E2E2E2E2E2E2E2E2E2E2E2E2E2
310
E2E2E2E2E2E2E2E2E2E2E2E2E2E2E2E2E2E2E2E2E2E2E2E2E2E2E2E2E2E2E2E2E2E2E2E2E2E2E2E2E2E2E2E2E2E2E2E2E2E2E2E2E2E2E2E2E2E2E2E2E2E2E2E2E2E2E2E2E2E2E2E2E2E2E2E2E2E2E2E2E2E2E2E2E2E2E2E2E2E2E2E2E2E2E2E2E2E2E2E2E2E2E2E2E2E2E2E2E2E2E2E2E2E2E2E2E2E2E2E2E2E2E2E2E2E2E2
310
E2E2E2E2E2E2E2E2E2E2E2E2E2E2E2E2E2E2E2E2E2E2E2E2E2E2E2E2E2E2E2E2E2E2E2E2E2E2E2E2E2E2E2E2E2E2E2E2E2E2E2E2E2E2E2E2E2E2E2E2E2E2E2E2E2E2E2E2E2E2E2E2E2E2E2E2E2E2E2E2E2E2E2E2E2E2E2E2E2E2E2E2E2E2E2E2E2E2E2E2E2E2E2E2E2E2E2E2E2E2E2E2E2E2E2E2E2E2E2E2E2E2E2E2E2E2E2
310
E2E2E2E2E2E2E2E2E2E2E2E2E2E2E2E2E2E2E2E2E2E2E2E2E2E2E2E2E2E2E2E2E2E2E2E2E2E2E2E2E2E2E2E2E2E2E2E2E2E2E2E2E2E2E2E2E2E2E2E2E2E2E2E2E2E2E2E2E2E2E2E2E2E2E2E2E2E2E2E2E2E2E2E2E2E2E2E2E2E2E2E2E2E2E2E2E2E2E2E2E2E2E2E2E2E2E2E2E2E2E2E2E2E2E2E2E2E2E2E2E2E2E2E2E2E2E2
310
E2E2E2E2E2E2E2E2E2E2E2E2E2E2E2E2E2E2E2E2E2E2E2E2E2E2E2E2E2E2E2E2E2E2E2E2E2E2E2E2E2E2E2E2E2E2E2E2E2E2E2E2E2E2E2E2E2E2E2E2E2E2E2E2E2E2E2E2E2E2E2E2E2E2E2E2E2E2E2E2E2E2E2E2E2E2E2E2E2E2E2E2E2E2E2E2E2E2E2E2E2E2E2E2E2E2E2E2E2E2E2E2E2E2E2E2E2E2E2E2E2E2E2E2E2E2E2
310
E2E2E2E2E2E2E2E2E2E2E2E2E2E2E2E2E2E2E2E2E2E2E2E2E2E2E2E2E2E2E2E2E2E2E2E2E2E2E2E2E2E2E2E2E2E2E2E2E2E2E2E2E2E2E2E2E2E2E2E2E2E2E2E2E2E2E2E2E2E2E2E2E2E2E2E2E2E2E2E2E2E2E2E2E2E2E2E2E2E2E2E2E2E2E2E2E2E2E2E2E2E2E2E2E2E2E2E2E2E2E2E2E2E2E2E2E2E2E2E2E2E2E2E2E2E2E2
310
E2E2E2E2E2E2E2E2E2E2E2E2E2E2E2E2E2E2E2E2E2E2E2E2E2E2E2E2E2E2E2E2E2E2E2E2E2E2E2E2E2E2E2E2E2E2E2E2E2E2E2E2E2E2E2E2E2E2E2E2E2E2E2E2E2E2E2E2E2E2E2E2E2E2E2E2E2E2E2E2E2E2E2E2E2E2E2E2E2E2E2E2E2E2E2E2E2E2E2E2E2E2E2E2E2E2E2E2E2E2E2E2E2E2E2E2E2E2E2E2E2E2E2E2E2E2E2
310
E2E2E2E2E2E2E2E2E2E2E2E2E2E2E2E2E2E2E2E2E2E2E2E2E2E2E2E2E2E2E2E2E2E2E2E2E2E2E2E2E2E2E2E2E2E2E2E2E2E2E2E2E2E2E2E2E2E2E2E2E2E2E2E2E2E2E2E2E2E2E2E2E2E2E2E2E2E2E2E2E2E2E2E2E2E2E2E2E2E2E2E2E2E2E2E2E2E2E2E2E2E2E2E2E2E2E2E2E2E2E2E2E2E2E2E2E2E2E2E2E2E2E2E2E2E2E2
310
E2E2E2E2E2E2E2E2E2E2E2E2E2E2E2E2E2E2E2E2E2E2E2E2E2E2E2E2E2E2E2E2E2E2E2E2E2E2E2E2E2E2E2E2E2E2E2E2E2E2E2E2E2E2E2E2E2E2E2E2E2E2E2E2E2E2E2E2E2E2E2E2E2E2E2E2E2E2E2E2E2E2E2E2E2E2E2E2E2E2E2E2E2E2E2E2E2E2E2E2E2E2E2E2E2E2E2E2E2E2E2E2E2E2E2E2E2E2E2E2E2E2E2E2E2E2E2
310
E2E2E2E2E2E2E2E2E2E2E2E2E2E2E2E2E2E2E2E2E2E2E2E2E2E2E2E2E2E2E2E2E2E2E2E2E2E2E2E2E2E2E2E2E2E2E2E2E2E2E2E2E2E2E2E2E2E2E2E2E2E2E2E2E2E2E2E2E2E2E2E2E2E2E2E2E2E2E2E2E2E2E2E2E2E2E2E2E2E2E2E2E2E2E2E2E2E2E2E2E2E2E2E2E2E2E2E2E2E2E2E2E2E2E2E2E2E2E2E2E2E2E2E2E2E2E2
310
E2E2E2E2E2E2E2E2E2E2E2E2E2E2E2E2E2E2E2E2E2E2E2E2E2E2E2E2E2E2E2E2E2E2E2E2E2E2E2E2E2E2E2E2E2E2E2E2E2E2E2E2E2E2E2E2E2E2E2E2E2E2E2E2E2E2E2E2E2E2E2E2E2E2E2E2E2E2E2E2E2E2E2E2E2E2E2E2E2E2E2E2E2E2E2E2E2E2E2E2E2E2E2E2E2E2E2E2E2E2E2E2E2E2E2E2E2E2E2E2E2E2E2E2E2E2E2
310
E2E2E2E2E2E2E2E2E2E2E2E2E2E2E2E2E2E2E2E2E2E2E2E2E2E2E2E2E2E2E2E2E2E2E2E2E2E2E2E2E2E2E2E2E2E2E2E2E2E2E2E2E2E2E2E2E2E2E2E2E2E2E2E2E2E2E2E2E2E2E2E2E2E2E2E2E2E2E2E2E2E2E2E2E2E2E2E2E2E2E2E2E2E2E2E2E2E2E2E2E2E2E2E2E2E2E2E2E2E2E2E2E2E2E2E2E2E2E2E2E2E2E2E2E2E2E2
310
E2E2E2E2E2E2E2E2E2E2E2E2E2E2E2E2E2E2E2E2E2E2E2E2E2E2E2E2E2E2E2E2E2E2E2E2E2E2E2E2E2E2E2E2E2E2E2E2E2E2E2E2E2E2E2E2E2E2E2E2E2E2E2E2E2E2E2E2E2E2E2E2E2E2E2E2E2E2E2E2E2E2E2E2E2E2E2E2E2E2E2E2E2E2E2E2E2E2E2E2E2E2E2E2E2E2E2E2E2E2E2E2E2E2E2E2E2E2E2E2E2E2E2E2E2E2E2
310
E2E2E2E2E2E2E2E2E2E2E2E2E2E2E2E2E2E2E2E2E2E2E2E2E2E2E2E2E2E2E2E2E2E2E2E2E2E2E2E2E2E2E2E2E2E2E2E2E2E2E2E2E2E2E2E2E2E2E2E2E2E2E2E2E2E2E2E2E2E2E2E2E2E2E2E2E2E2E2E2E2E2E2E2E2E2E2E2E2E2E2E2E2E2E2E2E2E2E2E2E2E2E2E2E2E2E2E2E2E2E2E2E2E2E2E2E2E2E2E2E2E2E2E2E2E2E2
310
E2E2E2E2E2E2E2E2E2E2E2E2E2E2E2E2E2E2E2E2E2E2E2E2E2E2E2E2E2E2E2E2E2E2E2E2E2E2E2E2E2E2E2E2E2E2E2E2E2E2E2E2E2E2E2E2E2E2E2E2E2E2E2E2E2E2E2E2E2E2E2E2E2E2E2E2E2E2E2E2E2E2E2E2E2E2E2E2E2E2E2E2E2E2E2E2E2E2E2E2E2E2E2E2E2E2E2E2E2E2E2E2E2E2E2E2E2E2E2E2E2E2E2E2E2E2E2
310
E2E2E2E2E2E2E2E2E2E2E2E2E2E2E2E2E2E2E2E2E2E2E2E2E2E2E2E2E2E2E2E2E2E2E2E2E2E2E2E2E2E2E2E2E2E2E2E2E2E2E2E2E2E2E2E2E2E2E2E2E2E2E2E2E2E2E2E2E2E2E2E2E2E2E2E2E2E2E2E2E2E2E2E2E2E2E2E2E2E2E2E2E2E2E2E2E2E2E2E2E2E2E2E2E2E2E2E2E2E2E2E2E2E2E2E2E2E2E2E2E2E2E2E2E2E2E2
310
E2E2E2E2E2E2E2E2E2E2E2E2E2E2E2E2E2E2E2E2E2E2E2E2E2E2E2E2E2E2E2E2E2E2E2E2E2E2E2E2E2E2E2E2E2E2E2E2E2E2E2E2E2E2E2E2E2E2E2E2E2E2E2E2E2E2E2E2E2E2E2E2E2E2E2E2E2E2E2E2E2E2E2E2E2E2E2E2E2E2E2E2E2E2E2E2E2E2E2E2E2E2E2E2E2E2E2E2E2E2E2E2E2E2E2E2E2E2E2E2E2E2E2E2E2E2E2
310
E2E2E2E2E2E2E2E2E2E2E2E2E2E2E2E2E2E2E2E2E2E2E2E2E2E2E2E2E2E2E2E2E2E2E2E2E2E2E2E2E2E2E2E2E2E2E2E2E2E2E2E2E2E2E2E2E2E2E2E2E2E2E2E2E2E2E2E2E2E2E2E2E2E2E2E2E2E2E2E2E2E2E2E2E2E2E2E2E2E2E2E2E2E2E2E2E2E2E2E2E2E2E2E2E2E2E2E2E2E2E2E2E2E2E2E2E2E2E2E2E2E2E2E2E2E2E2
310
E2E2E2E2E2E2E2E2E2E2E2E2E2E2E2E2E2E2E2E2E2E2E2E2E2E2E2E2E2E2E2E2E2E2E2E2E2E2E2E2E2E2E2E2E2E2E2E2E2E2E2E2E2E2E2E2E2E2E2E2E2E2E2E2E2E2E2E2E2E2E2E2E2E2E2E2E2E2E2E2E2E2E2E2E2E2E2E2E2E2E2E2E2E2E2E2E2E2E2E2E2E2E2E2E2E2E2E2E2E2E2E2E2E2E2E2E2E2E2E2E2E2E2E2E2E2E2
310
E2E2E2E2E2E2E2E2E2E2E2E2E2E2E2E2E2E2E2E2E2E2E2E2E2E2E2E2E2E2E2E2E2E2E2E2E2E2E2E2E2E2E2E2E2E2E2E2E2E2E2E2E2E2E2E2E2E2E2E2E2E2E2E2E2E2E2E2E2E2E2E2E2E2E2E2E2E2E2E2E2E2E2E2E2E2E2E2E2E2E2E2E2E2E2E2E2E2E2E2E2E2E2E2E2E2E2E2E2E2E2E2E2E2E2E2E2E2E2E2E2E2E2E2E2E2E2
310
E2E2E2E2E2E2E2E2E2E2E2E2E2E2E2E2E2E2E2E2E2E2E2E2E2E2E2E2E2E2E2E2E2E2E2E2E2E2E2E2E2E2E2E2E2E2E2E2E2E2E2E2E2E2E2E2E2E2E2E2E2E2E2E2E2E2E2E2E2E2E2E2E2E2E2E2E2E2E2E2E2E2E2E2E2E2E2E2E2E2E2E2E2E2E2E2E2E2E2E2E2E2E2E2E2E2E2E2E2E2E2E2E2E2E2E2E2E2E2E2E2E2E2E2E2E2E2
310
E2E2E2E2E2E2E2E2E2E2E2E2E2E2E2E2E2E2E2E2E2E2E2E2E2E2E2E2E2E2E2E2E2E2E2E2E2E2E2E2E2E2E2E2E2E2E2E2E2E2E2E2E2E2E2E2E2E2E2E2E2E2E2E2E2E2E2E2E2E2E2E2E2E2E2E2E2E2E2E2E2E2E2E2E2E2E2E2E2E2E2E2E2E2E2E2E2E2E2E2E2E2E2E2E2E2E2E2E2E2E2E2E2E2E2E2E2E2E2E2E2E2E2E2E2E2E2
310
E2E2E2E2E2E2E2E2E2E2E2E2E2E2E2E2E2E2E2E2E2E2E2E2E2E2E2E2E2E2E2E2E2E2E2E2E2E2E2E2E2E2E2E2E2E2E2E2E2E2E2E2E2E2E2E2E2E2E2E2E2E2E2E2E2E2E2E2E2E2E2E2E2E2E2E2E2E2E2E2E2E2E2E2E2E2E2E2E2E2E2E2E2E2E2E2E2E2E2E2E2E2E2E2E2E2E2E2E2E2E2E2E2E2E2E2E2E2E2E2E2E2E2E2E2E2E2
310
E2E2E2E2E2E2E2E2E2E2E2E2E2E2E2E2E2E2E2E2E2E2E2E2E2E2E2E2E2E2E2E2E2E2E2E2E2E2E2E2E2E2E2E2E2E2E2E2E2E2E2E2E2E2E2E2E2E2E2E2E2E2E2E2E2E2E2E2E2E2E2E2E2E2E2E2E2E2E2E2E2E2E2E2E2E2E2E2E2E2E2E2E2E2E2E2E2E2E2E2E2E2E2E2E2E2E2E2E2E2E2E2E2E2E2E2E2E2E2E2E2E2E2E2E2E2E2
310
E2E2E2E2E2E2E2E2E2E2E2E2E2E2E2E2E2E2E2E2E2E2E2E2E2E2E2E2E2E2E2E2E2E2E2E2E2E2E2E2E2E2E2E2E2E2E2E2E2E2E2E2E2E2E2E2E2E2E2E2E2E2E2E2E2E2E2E2E2E2E2E2E2E2E2E2E2E2E2E2E2E2E2E2E2E2E2E2E2E2E2E2E2E2E2E2E2E2E2E2E2E2E2E2E2E2E2E2E2E2E2E2E2E2E2E2E2E2E2E2E2E2E2E2E2E2E2
310
E2E2E2E2E2E2E2E2E2E2E2E2E2E2E2E2E2E2E2E2E2E2E2E2E2E2E2E2E2E2E2E2E2E2E2E2E2E2E2E2E2E2E2E2E2E2E2E2E2E2E2E2E2E2E2E2E2E2E2E2E2E2E2E2E2E2E2E2E2E2E2E2E2E2E2E2E2E2E2E2E2E2E2E2E2E2E2E2E2E2E2E2E2E2E2E2E2E2E2E2E2E2E2E2E2E2E2E2E2E2E2E2E2E2E2E2E2E2E2E2E2E2E2E2E2E2E2
310
E2E2E2E2E2E2E2E2E2E2E2E2E2E2E2E2E2E2E2E2E2E2E2E2E2E2E2E2E2E2E2E2E2E2E2E2E2E2E2E2E2E2E2E2E2E2E2E2E2E2E2E2E2E2E2E2E2E2E2E2E2E2E2E2E2E2E2E2E2E2E2E2E2E2E2E2E2E2E2E2E2E2E2E2E2E2E2E2E2E2E2E2E2E2E2E2E2E2E2E2E2E2E2E2E2E2E2E2E2E2E2E2E2E2E2E2E2E2E2E2E2E2E2E2E2E2E2
310
E2E2E2E2E2E2E2E2E2E2E2E2E2E2E2E2E2E2E2E2E2E2E2E2E2E2E2E2E2E2E2E2E2E2E2E2E2E2E2E2E2E2E2E2E2E2E2E2E2E2E2E2E2E2E2E2E2E2E2E2E2E2E2E2E2E2E2E2E2E2E2E2E2E2E2E2E2E2E2E2E2E2E2E2E2E2E2E2E2E2E2E2E2E2E2E2E2E2E2E2E2E2E2E2E2E2E2E2E2E2E2E2E2E2E2E2E2E2E2E2E2E2E2E2E2E2E2
310
E2E2E2E2E2E2E2E2E2E2E2E2E2E2E2E2E2E2E2E2E2E2E2E2E2E2E2E2E2E2E2E2E2E2E2E2E2E2E2E2E2E2E2E2E2E2E2E2E2E2E2E2E2E2E2E2E2E2E2E2E2E2E2E2E2E2E2E2E2E2E2E2E2E2E2E2E2E2E2E2E2E2E2E2E2E2E2E2E2E2E2E2E2E2E2E2E2E2E2E2E2E2E2E2E2E2E2E2E2E2E2E2E2E2E2E2E2E2E2E2E2E2E2E2E2E2E2
310
E2E2E2E2E2E2E2E2E2E2E2E2E2E2E2E2E2E2E2E2E2E2E2E2E2E2E2E2E2E2E2E2E2E2E2E2E2E2E2E2E2E2E2E2E2E2E2E2E2E2E2E2E2E2E2E2E2E2E2E2E2E2E2E2E2E2E2E2E2E2E2E2E2E2E2E2E2E2E2E2E2E2E2E2E2E2E2E2E2E2E2E2E2E2E2E2E2E2E2E2E2E2E2E2E2E2E2E2E2E2E2E2E2E2E2E2E2E2E2E2E2E2E2E2E2E2E2
310
E2E2E2E2E2E2E2E2E2E2E2E2E2E2E2E2E2E2E2E2E2E2E2E2E2E2E2E2E2E2E2E2E2E2E2E2E2E2E2E2E2E2E2E2E2E2E2E2E2E2E2E2E2E2E2E2E2E2E2E2E2E2E2E2E2E2E2E2E2E2E2E2E2E2E2E2E2E2E2E2E2E2E2E2E2E2E2E2E2E2E2E2E2E2E2E2E2E2E2E2E2E2E2E2E2E2E2E2E2E2E2E2E2E2E2E2E2E2E2E2E2E2E2E2E2E2E2
310
E2E2E2E2E2E2E2E2E2E2E2E2E2E2E2E2E2E2E2E2E2E2E2E2E2E2E2E2E2E2E2E2E2E2E2E2E2E2E2E2E2E2E2E2E2E2E2E2E2E2E2E2E2E2E2E2E2E2E2E2E2E2E2E2E2E2E2E2E2E2E2E2E2E2E2E2E2E2E2E2E2E2E2E2E2E2E2E2E2E2E2E2E2E2E2E2E2E2E2E2E2E2E2E2E2E2E2E2E2E2E2E2E2E2E2E2E2E2E2E2E2E2E2E2E2E2E2
310
E2E2E2E2E2E2E2E2E2E2E2E2E2E2E2E2E2E2E2E2E2E2E2E2E2E2E2E2E2E2E2E2E2E2E2E2E2E2E2E2E2E2E2E2E2E2E2E2E2E2E2E2E2E2E2E2E2E2E2E2E2E2E2E2E2E2E2E2E2E2E2E2E2E2E2E2E2E2E2E2E2E2E2E2E2E2E2E2E2E2E2E2E2E2E2E2E2E2E2E2E2E2E2E2E2E2E2E2E2E2E2E2E2E2E2E2E2E2E2E2E2E2E2E2E2E2E2
310
E2E2E2E2E2E2E2E2E2E2E2E2E2E2E2E2E2E2E2E2E2E2E2E2E2E2E2E2E2E2E2E2E2E2E2E2E2E2E2E2E2E2E2E2E2E2E2E2E2E2E2E2E2E2E2E2E2E2E2E2E2E2E2E2E2E2E2E2E2E2E2E2E2E2E2E2E2E2E2E2E2E2E2E2E2E2E2E2E2E2E2E2E2E2E2E2E2E2E2E2E2E2E2E2E2E2E2E2E2E2E2E2E2E2E2E2E2E2E2E2E2E2E2E2E2E2E2
310
E2E2E2E2E2E2E2E2E2E2E2E2E2E2E2E2E2E2E2E2E2E2E2E2E2E2E2E2E2E2E2E2E2E2E2E2E2E2E2E2E2E2E2E2E2E2E2E2E2E2E2E2E2E2E2E2E2E2E2E2E2E2E2E2E2E2E2E2E2E2E2E2E2E2E2E2E2E2E2E2E2E2E2E2E2E2E2E2E2E2E2E2E2E2E2E2E2E2E2E2E2E2E2E2E2E2E2E2E2E2E2E2E2E2E2E2E2E2E2E2E2E2E2E2E2E2E2
310
E2E2E2E2E2E2E2E2E2E2E2E2E2E2E2E2E2E2E2E2E2E2E2E2E2E2E2E2E2E2E2E2E2E2E2E2E2E2E2E2E2E2E2E2E2E2E2E2E2E2E2E2E2E2E2E2E2E2E2E2E2E2E2E2E2E2E2E2E2E2E2E2E2E2E2E2E2E2E2E2E2E2E2E2E2E2E2E2E2E2E2E2E2E2E2E2E2E2E2E2E2E2E2E2E2E2E2E2E2E2E2E2E2E2E2E2E2E2E2E2E2E2E2E2E2E2E2
310
E2E2E2E2E2E2E2E2E2E2E2E2E2E2E2E2E2E2E2E2E2E2E2E2E2E2E2E2E2E2E2E2E2E2E2E2E2E2E2E2E2E2E2E2E2E2E2E2E2E2E2E2E2E2E2E2E2E2E2E2E2E2E2E2E2E2E2E2E2E2E2E2E2E2E2E2E2E2E2E2E2E2E2E2E2E2E2E2E2E2E2E2E2E2E2E2E2E2E2E2E2E2E2E2E2E2E2E2E2E2E2E2E2E2E2E2E2E2E2E2E2E2E2E2E2E2E2
310
E2E2E2E2E2E2E2E2E2E2E2E2E2E2E2E2E2E2E2E2E2E2E2E2E2E2E2E2E2E2E2E2E2E2E2E2E2E2E2E2E2E2E2E2E2E2E2E2E2E2E2E2E2E2E2E2E2E2E2E2E2E2E2E2E2E2E2E2E2E2E2E2E2E2E2E2E2E2E2E2E2E2E2E2E2E2E2E2E2E2E2E2E2E2E2E2E2E2E2E2E2E2E2E2E2E2E2E2E2E2E2E2E2E2E2E2E2E2E2E2E2E2E2E2E2E2E2
310
E2E2E2E2E2E2E2E2E2E2E2E2E2E2E2E2E2E2E2E2E2E2E2E2E2E2E2E2E2E2E2E2E2E2E2E2E2E2E2E2E2E2E2E2E2E2E2E2E2E2E2E2E2E2E2E2E2E2E2E2E2E2E2E2E2E2E2E2E2E2E2E2E2E2E2E2E2E2E2E2E2E2E2E2E2E2E2E2E2E2E2E2E2E2E2E2E2E2E2E2E2E2E2E2E2E2E2E2E2E2E2E2E2E2E2E2E2E2E2E2E2E2E2E2E2E2E2
310
E2E2E2E2E2E2E2E2E2E2E2E2E2E2E2E2E2E2E2E2E2E2E2E2E2E2E2E2E2E2E2E2E2E2E2E2E2E2E2E2E2E2E2E2E2E2E2E2E2E2E2E2E2E2E2E2E2E2E2E2E2E2E2E2E2E2E2E2E2E2E2E2E2E2E2E2E2E2E2E2E2E2E2E2E2E2E2E2E2E2E2E2E2E2E2E2E2E2E2E2E2E2E2E2E2E2E2E2E2E2E2E2E2E2E2E2E2E2E2E2E2E2E2E2E2E2E2
310
E2E2E2E2E2E2E2E2E2E2E2E2E2E2E2E2E2E2E2E2E2E2E2E2E2E2E2E2E2E2E2E2E2E2E2E2E2E2E2E2E2E2E2E2E2E2E2E2E2E2E2E2E2E2E2E2E2E2E2E2E2E2E2E2E2E2E2E2E2E2E2E2E2E2E2E2E2E2E2E2E2E2E2E2E2E2E2E2E2E2E2E2E2E2E2E2E2E2E2E2E2E2E2E2E2E2E2E2E2E2E2E2E2E2E2E2E2E2E2E2E2E2E2E2E2E2E2
310
E2E2E2E2E2E2E2E2E2E2E2E2E2E2E2E2E2E2E2E2E2E2E2E2E2E2E2E2E2E2E2E2E2E2E2E2E2E2E2E2E2E2E2E2E2E2E2E2E2E2E2E2E2E2E2E2E2E2E2E2E2E2E2E2E2E2E2E2E2E2E2E2E2E2E2E2E2E2E2E2E2E2E2E2E2E2E2E2E2E2E2E2E2E2E2E2E2E2E2E2E2E2E2E2E2E2E2E2E2E2E2E2E2E2E2E2E2E2E2E2E2E2E2E2E2E2E2
310
E2E2E2E2E2E2E2E2E2E2E2E2E2E2E2E2E2E2E2E2E2E2E2E2E2E2E2E2E2E2E2E2E2E2E2E2E2E2E2E2E2E2E2E2E2E2E2E2E2E2E2E2E2E2E2E2E2E2E2E2E2E2E2E2E2E2E2E2E2E2E2E2E2E2E2E2E2E2E2E2E2E2E2E2E2E2E2E2E2E2E2E2E2E2E2E2E2E2E2E2E2E2E2E2E2E2E2E2E2E2E2E2E2E2E2E2E2E2E2E2E2E2E2E2E2E2E2
310
E2E2E2E2E2E2E2E2E2E2E2E2E2E2E2E2E2E2E2E2E2E2E2E2E2E2E2E2E2E2E2E2E2E2E2E2E2E2E2E2E2E2E2E2E2E2E2E2E2E2E2E2E2E2E2E2E2E2E2E2E2E2E2E2E2E2E2E2E2E2E2E2E2E2E2E2E2E2E2E2E2E2E2E2E2E2E2E2E2E2E2E2E2E2E2E2E2E2E2E2E2E2E2E2E2E2E2E2E2E2E2E2E2E2E2E2E2E2E2E2E2E2E2E2E2E2E2
310
E2E2E2E2E2E2E2E2E2E2E2E2E2E2E2E2E2E2E2E2E2E2E2E2E2E2E2E2E2E2E2E2E2E2E2E2E2E2E2E2E2E2E2E2E2E2E2E2E2E2E2E2E2E2E2E2E2E2E2E2E2E2E2E2E2E2E2E2E2E2E2E2E2E2E2E2E2E2E2E2E2E2E2E2E2E2E2E2E2E2E2E2E2E2E2E2E2E2E2E2E2E2E2E2E2E2E2E2E2E2E2E2E2E2E2E2E2E2E2E2E2E2E2E2E2E2E2
310
E2E2E2E2E2E2E2E2E2E2E2E2E2E2E2E2E2E2E2E2E2E2E2E2E2E2E2E2E2E2E2E2E2E2E2E2E2E2E2E2E2E2E2E2E2E2E2E2E2E2E2E2E2E2E2E2E2E2E2E2E2E2E2E2E2E2E2E2E2E2E2E2E2E2E2E2E2E2E2E2E2E2E2E2E2E2E2E2E2E2E2E2E2E2E2E2E2E2E2E2E2E2E2E2E2E2E2E2E2E2E2E2E2E2E2E2E2E2E2E2E2E2E2E2E2E2E2
310
E2E2E2E2E2E2E2E2E2E2E2E2E2E2E2E2E2E2E2E2E2E2E2E2E2E2E2E2E2E2E2E2E2E2E2E2E2E2E2E2E2E2E2E2E2E2E2E2E2E2E2E2E2E2E2E2E2E2E2E2E2E2E2E2E2E2E2E2E2E2E2E2E2E2E2E2E2E2E2E2E2E2E2E2E2E2E2E2E2E2E2E2E2E2E2E2E2E2E2E2E2E2E2E2E2E2E2E2E2E2E2E2E2E2E2E2E2E2E2E2E2E2E2E2E2E2E2
310
E2E2E2E2E2E2E2E2E2E2E2E2E2E2E2E2E2E2E2E2E2E2E2E2E2E2E2E2E2E2E2E2E2E2E2E2E2E2E2E2E2E2E2E2E2E2E2E2E2E2E2E2E2E2E2E2E2E2E2E2E2E2E2E2E2E2E2E2E2E2E2E2E2E2E2E2E2E2E2E2E2E2E2E2E2E2E2E2E2E2E2E2E2E2E2E2E2E2E2E2E2E2E2E2E2E2E2E2E2E2E2E2E2E2E2E2E2E2E2E2E2E2E2E2E2E2E2
310
E2E2E2E2E2E2E2E2E2E2E2E2E2E2E2E2E2E2E2E2E2E2E2E2E2E2E2E2E2E2E2E2E2E2E2E2E2E2E2E2E2E2E2E2E2E2E2E2E2E2E2E2E2E2E2E2E2E2E2E2E2E2E2E2E2E2E2E2E2E2E2E2E2E2E2E2E2E2E2E2E2E2E2E2E2E2E2E2E2E2E2E2E2E2E2E2E2E2E2E2E2E2E2E2E2E2E2E2E2E2E2E2E2E2E2E2E2E2E2E2E2E2E2E2E2E2E2
310
E2E2E2E2E2E2E2E2E2E2E2E2E2E2E2E2E2E2E2E2E2E2E2E2E2E2E2E2E2E2E2E2E2E2E2E2E2E2E2E2E2E2E2E2E2E2E2E2E2E2E2E2E2E2E2E2E2E2E2E2E2E2E2E2E2E2E2E2E2E2E2E2E2E2E2E2E2E2E2E2E2E2E2E2E2E2E2E2E2E2E2E2E2E2E2E2E2E2E2E2E2E2E2E2E2E2E2E2E2E2E2E2E2E2E2E2E2E2E2E2E2E2E2E2E2E2E2
310
E2E2E2E2E2E2E2E2E2E2E2E2E2E2E2E2E2E2E2E2E2E2E2E2E2E2E2E2E2E2E2E2E2E2E2E2E2E2E2E2E2E2E2E2E2E2E2E2E2E2E2E2E2E2E2E2E2E2E2E2E2E2E2E2E2E2E2E2E2E2E2E2E2E2E2E2E2E2E2E2E2E2E2E2E2E2E2E2E2E2E2E2E2E2E2E2E2E2E2E2E2E2E2E2E2E2E2E2E2E2E2E2E2E2E2E2E2E2E2E2E2E2E2E2E2E2E2
310
E2E2E2E2E2E2E2E2E2E2E2E2E2E2E2E2E2E2E2E2E2E2E2E2E2E2E2E2E2E2E2E2E2E2E2E2E2E2E2E2E2E2E2E2E2E2E2E2E2E2E2E2E2E2E2E2E2E2E2E2E2E2E2E2E2E2E2E2E2E2E2E2E2E2E2E2E2E2E2E2E2E2E2E2E2E2E2E2E2E2E2E2E2E2E2E2E2E2E2E2E2E2E2E2E2E2E2E2E2E2E2E2E2E2E2E2E2E2E2E2E2E2E2E2E2E2E2
310
E2E2E2E2E2E2E2E2E2E2E2E2E2E2E2E2E2E2E2E2E2E2E2E2E2E2E2E2E2E2E2E2E2E2E2E2E2E2E2E2E2E2E2E2E2E2E2E2E2E2E2E2E2E2E2E2E2E2E2E2E2E2E2E2E2E2E2E2E2E2E2E2E2E2E2E2E2E2E2E2E2E2E2E2E2E2E2E2E2E2E2E2E2E2E2E2E2E2E2E2E2E2E2E2E2E2E2E2E2E2E2E2E2E2E2E2E2E2E2E2E2E2E2E2E2E2E2
310
E2E2E2E2E2E2E2E2E2E2E2E2E2E2E2E2E2E2E2E2E2E2E2E2E2E2E2E2E2E2E2E2E2E2E2E2E2E2E2E2E2E2E2E2E2E2E2E2E2E2E2E2E2E2E2E2E2E2E2E2E2E2E2E2E2E2E2E2E2E2E2E2E2E2E2E2E2E2E2E2E2E2E2E2E2E2E2E2E2E2E2E2E2E2E2E2E2E2E2E2E2E2E2E2E2E2E2E2E2E2E2E2E2E2E2E2E2E2E2E2E2E2E2E2E2E2E2
310
E2E2E2E2E2E2E2E2E2E2E2E2E2E2E2E2E2E2E2E2E2E2E2E2E2E2E2E2E2E2E2E2E2E2E2E2E2E2E2E2E2E2E2E2E2E2E2E2E2E2E2E2E2E2E2E2E2E2E2E2E2E2E2E2E2E2E2E2E2E2E2E2E2E2E2E2E2E2E2E2E2E2E2E2E2E2E2E2E2E2E2E2E2E2E2E2E2E2E2E2E2E2E2E2E2E2E2E2E2E2E2E2E2E2E2E2E2E2E2E2E2E2E2E2E2E2E2
310
E2E2E2E2E2E2E2E2E2E2E2E2E2E2E2E2E2E2E2E2E2E2E2E2E2E2E2E2E2E2E2E2E2E2E2E2E2E2E2E2E2E2E2E2E2E2E2E2E2E2E2E2E2E2E2E2E2E2E2E2E2E2E2E2E2E2E2E2E2E2E2E2E2E2E2E2E2E2E2E2E2E2E2E2E2E2E2E2E2E2E2E2E2E2E2E2E2E2E2E2E2E2E2E2E2E2E2E2E2E2E2E2E2E2E2E2E2E2E2E2E2E2E2E2E2E2E2
310
E2E2E2E2E2E2E2E2E2E2E2E2E2E2E2E2E2E2E2E2E2E2E2E2E2E2E2E2E2E2E2E2E2E2E2E2E2E2E2E2E2E2E2E2E2E2E2E2E2E2E2E2E2E2E2E2E2E2E2E2E2E2E2E2E2E2E2E2E2E2E2E2E2E2E2E2E2E2E2E2E2E2E2E2E2E2E2E2E2E2E2E2E2E2E2E2E2E2E2E2E2E2E2E2E2E2E2E2E2E2E2E2E2E2E2E2E2E2E2E2E2E2E2E2E2E2E2
310
E2E2E2E2E2E2E2E2E2E2E2E2E2E2E2E2E2E2E2E2E2E2E2E2E2E2E2E2E2E2E2E2E2E2E2E2E2E2E2E2E2E2E2E2E2E2E2E2E2E2E2E2E2E2E2E2E2E2E2E2E2E2E2E2E2E2E2E2E2E2E2E2E2E2E2E2E2E2E2E2E2E2E2E2E2E2E2E2E2E2E2E2E2E2E2E2E2E2E2E2E2E2E2E2E2E2E2E2E2E2E2E2E2E2E2E2E2E2E2E2E2E2E2E2E2E2E2
310
E2E2E2E2E2E2E2E2E2E2E2E2E2E2E2E2E2E2E2E2E2E2E2E2E2E2E2E2E2E2E2E2E2E2E2E2E2E2E2E2E2E2E2E2E2E2E2E2E2E2E2E2E2E2E2E2E2E2E2E2E2E2E2E2E2E2E2E2E2E2E2E2E2E2E2E2E2E2E2E2E2E2E2E2E2E2E2E2E2E2E2E2E2E2E2E2E2E2E2E2E2E2E2E2E2E2E2E2E2E2E2E2E2E2E2E2E2E2E2E2E2E2E2E2E2E2E2
310
E2E2E2E2E2E2E2E2E2E2E2E2E2E2E2E2E2E2E2E2E2E2E2E2E2E2E2E2E2E2E2E2E2E2E2E2E2E2E2E2E2E2E2E2E2E2E2E2E2E2E2E2E2E2E2E2E2E2E2E2E2E2E2E2E2E2E2E2E2E2E2E2E2E2E2E2E2E2E2E2E2E2E2E2E2E2E2E2E2E2E2E2E2E2E2E2E2E2E2E2E2E2E2E2E2E2E2E2E2E2E2E2E2E2E2E2E2E2E2E2E2E2E2E2E2E2E2
310
E2E2E2E2E2E2E2E2E2E2E2E2E2E2E2E2E2E2E2E2E2E2E2E2E2E2E2E2E2E2E2E2E2E2E2E2E2E2E2E2E2E2E2E2E2E2E2E2E2E2E2E2E2E2E2E2E2E2E2E2E2E2E2E2E2E2E2E2E2E2E2E2E2E2E2E2E2E2E2E2E2E2E2E2E2E2E2E2E2E2E2E2E2E2E2E2E2E2E2E2E2E2E2E2E2E2E2E2E2E2E2E2E2E2E2E2E2E2E2E2E2E2E2E2E2E2E2
310
E2E2E2E2E2E2E2E2E2E2E2E2E2E2E2E2E2E2E2E2E2E2E2E2E2E2E2E2E2E2E2E2E2E2E2E2E2E2E2E2E2E2E2E2E2E2E2E2E2E2E2E2E2E2E2E2E2E2E2E2E2E2E2E2E2E2E2E2E2E2E2E2E2E2E2E2E2E2E2E2E2E2E2E2E2E2E2E2E2E2E2E2E2E2E2E2E2E2E2E2E2E2E2E2E2E2E2E2E2E2E2E2E2E2E2E2E2E2E2E2E2E2E2E2E2E2E2
310
E2E2E2E2E2E2E2E2E2E2E2E2E2E2E2E2E2E2E2E2E2E2E2E2E2E2E2E2E2E2E2E2E2E2E2E2E2E2E2E2E2E2E2E2E2E2E2E2E2E2E2E2E2E2E2E2E2E2E2E2E2E2E2E2E2E2E2E2E2E2E2E2E2E2E2E2E2E2E2E2E2E2E2E2E2E2E2E2E2E2E2E2E2E2E2E2E2E2E2E2E2E2E2E2E2E2E2E2E2E2E2E2E2E2E2E2E2E2E2E2E2E2E2E2E2E2E2
310
E2E2E2E2E2E2E2E2E2E2E2E2E2E2E2E2E2E2E2E2E2E2E2E2E2E2E2E2E2E2E2E2E2E2E2E2E2E2E2E2E2E2E2E2E2E2E2E2E2E2E2E2E2E2E2E2E2E2E2E2E2E2E2E2E2E2E2E2E2E2E2E2E2E2E2E2E2E2E2E2E2E2E2E2E2E2E2E2E2E2E2E2E2E2E2E2E2E2E2E2E2E2E2E2E2E2E2E2E2E2E2E2E2E2E2E2E2E2E2E2E2E2E2E2E2E2E2
310
E2E2E2E2E2E2E2E2E2E2E2E2E2E2E2E2E2E2E2E2E2E2E2E2E2E2E2E2E2E2E2E2E2E2E2E2E2E2E2E2E2E2E2E2E2E2E2E2E2E2E2E2E2E2E2E2E2E2E2E2E2E2E2E2E2E2E2E2E2E2E2E2E2E2E2E2E2E2E2E2E2E2E2E2E2E2E2E2E2E2E2E2E2E2E2E2E2E2E2E2E2E2E2E2E2E2E2E2E2E2E2E2E2E2E2E2E2E2E2E2E2E2E2E2E2E2E2
310
E2E2E2E2E2E2E2E2E2E2E2E2E2E2E2E2E2E2E2E2E2E2E2E2E2E2E2E2E2E2E2E2E2E2E2E2E2E2E2E2E2E2E2E2E2E2E2E2E2E2E2E2E2E2E2E2E2E2E2E2E2E2E2E2E2E2E2E2E2E2E2E2E2E2E2E2E2E2E2E2E2E2E2E2E2E2E2E2E2E2E2E2E2E2E2E2E2E2E2E2E2E2E2E2E2E2E2E2E2E2E2E2E2E2E2E2E2E2E2E2E2E2E2E2E2E2E2
310
E2E2E2E2E2E2E2E2E2E2E2E2E2E2E2E2E2E2E2E2E2E2E2E2E2E2E2E2E2E2E2E2E2E2E2E2E2E2E2E2E2E2E2E2E2E2E2E2E2E2E2E2E2E2E2E2E2E2E2E2E2E2E2E2E2E2E2E2E2E2E2E2E2E2E2E2E2E2E2E2E2E2E2E2E2E2E2E2E2E2E2E2E2E2E2E2E2E2E2E2E2E2E2E2E2E2E2E2E2E2E2E2E2E2E2E2E2E2E2E2E2E2E2E2E2E2E2
310
E2E2E2E2E2E2E2E2E2E2E2E2E2E2E2E2E2E2E2E2E2E2E2E2E2E2E2E2E2E2E2E2E2E2E2E2E2E2E2E2E2E2E2E2E2E2E2E2E2E2E2E2E2E2E2E2E2E2E2E2E2E2E2E2E2E2E2E2E2E2E2E2E2E2E2E2E2E2E2E2E2E2E2E2E2E2E2E2E2E2E2E2E2E2E2E2E2E2E2E2E2E2E2E2E2E2E2E2E2E2E2E2E2E2E2E2E2E2E2E2E2E2E2E2E2E2E2
310
E2E2E2E2E2E2E2E2E2E2E2E2E2E2E2E2E2E2E2E2E2E2E2E2E2E2E2E2E2E2E2E2E2E2E2E2E2E2E2E2E2E2E2E2E2E2E2E2E2E2E2E2E2E2E2E2E2E2E2E2E2E2E2E2E2E2E2E2E2E2E2E2E2E2E2E2E2E2E2E2E2E2E2E2E2E2E2E2E2E2E2E2E2E2E2E2E2E2E2E2E2E2E2E2E2E2E2E2E2E2E2E2E2E2E2E2E2E2E2E2E2E2E2E2E2E2E2
310
E2E2E2E2E2E2E2E2E2E2E2E2E2E2E2E2E2E2E2E2E2E2E2E2E2E2E2E2E2E2E2E2E2E2E2E2E2E2E2E2E2E2E2E2E2E2E2E2E2E2E2E2E2E2E2E2E2E2E2E2E2E2E2E2E2E2E2E2E2E2E2E2E2E2E2E2E2E2E2E2E2E2E2E2E2E2E2E2E2E2E2E2E2E2E2E2E2E2E2E2E2E2E2E2E2E2E2E2E2E2E2E2E2E2E2E2E2E2E2E2E2E2E2E2E2E2E2
310
E2E2E2E2E2E2E2E2E2E2E2E2E2E2E2E2E2E2E2E2E2E2E2E2E2E2E2E2E2E2E2E2E2E2E2E2E2E2E2E2E2E2E2E2E2E2E2E2E2E2E2E2E2E2E2E2E2E2E2E2E2E2E2E2E2E2E2E2E2E2E2E2E2E2E2E2E2E2E2E2E2E2E2E2E2E2E2E2E2E2E2E2E2E2E2E2E2E2E2E2E2E2E2E2E2E2E2E2E2E2E2E2E2E2E2E2E2E2E2E2E2E2E2E2E2E2E2
310
E2E2E2E2E2E2E2E2E2E2E2E2E2E2E2E2E2E2E2E2E2E2E2E2E2E2E2E2E2E2E2E2E2E2E2E2E2E2E2E2E2E2E2E2E2E2E2E2E2E2E2E2E2E2E2E2E2E2E2E2E2E2E2E2E2E2E2E2E2E2E2E2E2E2E2E2E2E2E2E2E2E2E2E2E2E2E2E2E2E2E2E2E2E2E2E2E2E2E2E2E2E2E2E2E2E2E2E2E2E2E2E2E2E2E2E2E2E2E2E2E2E2E2E2E2E2E2
310
E2E2E2E2E2E2E2E2E2E2E2E2E2E2E2E2E2E2E2E2E2E2E2E2E2E2E2E2E2E2E2E2E2E2E2E2E2E2E2E2E2E2E2E2E2E2E2E2E2E2E2E2E2E2E2E2E2E2E2E2E2E2E2E2E2E2E2E2E2E2E2E2E2E2E2E2E2E2E2E2E2E2E2E2E2E2E2E2E2E2E2E2E2E2E2E2E2E2E2E2E2E2E2E2E2E2E2E2E2E2E2E2E2E2E2E2E2E2E2E2E2E2E2E2E2E2E2
310
E2E2E2E2E2E2E2E2E2E2E2E2E2E2E2E2E2E2E2E2E2E2E2E2E2E2E2E2E2E2E2E2E2E2E2E2E2E2E2E2E2E2E2E2E2E2E2E2E2E2E2E2E2E2E2E2E2E2E2E2E2E2E2E2E2E2E2E2E2E2E2E2E2E2E2E2E2E2E2E2E2E2E2E2E2E2E2E2E2E2E2E2E2E2E2E2E2E2E2E2E2E2E2E2E2E2E2E2E2E2E2E2E2E2E2E2E2E2E2E2E2E2E2E2E2E2E2
310
E2E2E2E2E2E2E2E2E2E2E2E2E2E2E2E2E2E2E2E2E2E2E2E2E2E2E2E2E2E2E2E2E2E2E2E2E2E2E2E2E2E2E2E2E2E2E2E2E2E2E2E2E2E2E2E2E2E2E2E2E2E2E2E2E2E2E2E2E2E2E2E2E2E2E2E2E2E2E2E2E2E2E2E2E2E2E2E2E2E2E2E2E2E2E2E2E2E2E2E2E2E2E2E2E2E2E2E2E2E2E2E2E2E2E2E2E2E2E2E2E2E2E2E2E2E2E2
310
E2E2E2E2E2E2E2E2E2E2E2E2E2E2E2E2E2E2E2E2E2E2E2E2E2E2E2E2E2E2E2E2E2E2E2E2E2E2E2E2E2E2E2E2E2E2E2E2E2E2E2E2E2E2E2E2E2E2E2E2E2E2E2E2E2E2E2E2E2E2E2E2E2E2E2E2E2E2E2E2E2E2E2E2E2E2E2E2E2E2E2E2E2E2E2E2E2E2E2E2E2E2E2E2E2E2E2E2E2E2E2E2E2E2E2E2E2E2E2E2E2E2E2E2E2E2E2
310
E2E2E2E2E2E2E2E2E2E2E2E2E2E2E2E2E2E2E2E2E2E2E2E2E2E2E2E2E2E2E2E2E2E2E2E2E2E2E2E2E2E2E2E2E2E2E2E2E2E2E2E2E2E2E2E2E2E2E2E2E2E2E2E2E2E2E2E2E2E2E2E2E2E2E2E2E2E2E2E2E2E2E2E2E2E2E2E2E2E2E2E2E2E2E2E2E2E2E2E2E2E2E2E2E2E2E2E2E2E2E2E2E2E2E2E2E2E2E2E2E2E2E2E2E2E2E2
310
E2E2E2E2E2E2E2E2E2E2E2E2E2E2E2E2E2E2E2E2E2E2E2E2E2E2E2E2E2E2E2E2E2E2E2E2E2E2E2E2E2E2E2E2E2E2E2E2E2E2E2E2E2E2E2E2E2E2E2E2E2E2E2E2E2E2E2E2E2E2E2E2E2E2E2E2E2E2E2E2E2E2E2E2E2E2E2E2E2E2E2E2E2E2E2E2E2E2E2E2E2E2E2E2E2E2E2E2E2E2E2E2E2E2E2E2E2E2E2E2E2E2E2E2E2E2E2
310
E2E2E2E2E2E2E2E2E2E2E2E2E2E2E2E2E2E2E2E2E2E2E2E2E2E2E2E2E2E2E2E2E2E2E2E2E2E2E2E2E2E2E2E2E2E2E2E2E2
  0
XRECORD
  5
1C7A
102
{ACAD_REACTORS
330
1C79
102
}
330
1C79
100
AcDbXrecord
280
     1
102
SHADEPLOT
 70
     0
102
SHADEPLOTRESLEVEL
 70
     2
102
SHADEPLOTCUSTOMDPI
 70
   300
  0
XRECORD
  5
1323
102
{ACAD_REACTORS
330
A40
102
}
330
A40
100
AcDbXrecord
280
     1
102
MATERIAL
148
0.0
149
0.0
149
0.0
 93
        0
 94
      127
282
     0
 72
     0
 77
     0
171
     0
175
     0
179
     0
273
     0
  0
XRECORD
  5
A42
102
{ACAD_REACTORS
330
A40
102
}
330
A40
100
AcDbXrecord
280
     1
270
     1
271
     1
  0
XRECORD
  5
A41
102
{ACAD_REACTORS
330
A40
102
}
330
A40
100
AcDbXrecord
280
     1
270
     1
271
     1
  0
XRECORD
  5
A45
102
{ACAD_REACTORS
330
A40
102
}
330
A40
100
AcDbXrecord
280
     1
270
     1
271
     1
  0
XRECORD
  5
A44
102
{ACAD_REACTORS
330
A40
102
}
330
A40
100
AcDbXrecord
280
     1
270
     1
271
     1
  0
XRECORD
  5
A46
102
{ACAD_REACTORS
330
A40
102
}
330
A40
100
AcDbXrecord
280
     1
270
     1
271
     1
  0
XRECORD
  5
A43
102
{ACAD_REACTORS
330
A40
102
}
330
A40
100
AcDbXrecord
280
     1
270
     1
271
     1
  0
XRECORD
  5
1322
102
{ACAD_REACTORS
330
A38
102
}
330
A38
100
AcDbXrecord
280
     1
102
MATERIAL
148
0.0
149
0.0
149
0.0
 93
        0
 94
      127
282
     0
 72
     0
 77
     0
171
     0
175
     0
179
     0
273
     0
  0
XRECORD
  5
A3A
102
{ACAD_REACTORS
330
A38
102
}
330
A38
100
AcDbXrecord
280
     1
270
     1
271
     1
  0
XRECORD
  5
A39
102
{ACAD_REACTORS
330
A38
102
}
330
A38
100
AcDbXrecord
280
     1
270
     1
271
     1
  0
XRECORD
  5
A3D
102
{ACAD_REACTORS
330
A38
102
}
330
A38
100
AcDbXrecord
280
     1
270
     1
271
     1
  0
XRECORD
  5
A3C
102
{ACAD_REACTORS
330
A38
102
}
330
A38
100
AcDbXrecord
280
     1
270
     1
271
     1
  0
XRECORD
  5
A3E
102
{ACAD_REACTORS
330
A38
102
}
330
A38
100
AcDbXrecord
280
     1
270
     1
271
     1
  0
XRECORD
  5
A3B
102
{ACAD_REACTORS
330
A38
102
}
330
A38
100
AcDbXrecord
280
     1
270
     1
271
     1
  0
XRECORD
  5
1324
102
{ACAD_REACTORS
330
A48
102
}
330
A48
100
AcDbXrecord
280
     1
102
MATERIAL
148
0.0
149
0.0
149
0.0
 93
        0
 94
      127
282
     0
 72
     0
 77
     0
171
     0
175
     0
179
     0
273
     0
  0
XRECORD
  5
A4A
102
{ACAD_REACTORS
330
A48
102
}
330
A48
100
AcDbXrecord
280
     1
270
     1
271
     1
  0
XRECORD
  5
A49
102
{ACAD_REACTORS
330
A48
102
}
330
A48
100
AcDbXrecord
280
     1
270
     1
271
     1
  0
XRECORD
  5
A4D
102
{ACAD_REACTORS
330
A48
102
}
330
A48
100
AcDbXrecord
280
     1
270
     1
271
     1
  0
XRECORD
  5
A4C
102
{ACAD_REACTORS
330
A48
102
}
330
A48
100
AcDbXrecord
280
     1
270
     1
271
     1
  0
XRECORD
  5
A4E
102
{ACAD_REACTORS
330
A48
102
}
330
A48
100
AcDbXrecord
280
     1
270
     1
271
     1
  0
XRECORD
  5
A4B
102
{ACAD_REACTORS
330
A48
102
}
330
A48
100
AcDbXrecord
280
     1
270
     1
271
     1
  0
CELLSTYLEMAP
  5
1C75
102
{ACAD_REACTORS
330
AED
102
}
330
AED
100
AcDbCellStyleMap
 90
        3
300
CELLSTYLE
  1
TABLEFORMAT_BEGIN
 90
        5
170
     1
 91
        0
 92
    32768
 62
   257
 93
        1
300
CONTENTFORMAT
  1
CONTENTFORMAT_BEGIN
 90
        0
 91
        0
 92
        4
 93
        0
300

 40
0.0
140
1.0
 94
        5
 62
     0
340
10
144
6.0
309
CONTENTFORMAT_END
171
     1
301
MARGIN
  1
CELLMARGIN_BEGIN
 40
1.5
 40
1.5
 40
1.5
 40
1.5
 40
0.18
 40
0.18
309
CELLMARGIN_END
 94
        6
 95
        1
302
GRIDFORMAT
  1
GRIDFORMAT_BEGIN
 90
        0
 91
        1
 62
     0
 92
       -2
340
0
 93
        0
 40
0.045
309
GRIDFORMAT_END
 95
        2
302
GRIDFORMAT
  1
GRIDFORMAT_BEGIN
 90
        0
 91
        1
 62
     0
 92
       -2
340
0
 93
        0
 40
0.045
309
GRIDFORMAT_END
 95
        4
302
GRIDFORMAT
  1
GRIDFORMAT_BEGIN
 90
        0
 91
        1
 62
     0
 92
       -2
340
0
 93
        0
 40
0.045
309
GRIDFORMAT_END
 95
        8
302
GRIDFORMAT
  1
GRIDFORMAT_BEGIN
 90
        0
 91
        1
 62
     0
 92
       -2
340
0
 93
        0
 40
0.045
309
GRIDFORMAT_END
 95
       16
302
GRIDFORMAT
  1
GRIDFORMAT_BEGIN
 90
        0
 91
        1
 62
     0
 92
       -2
340
0
 93
        0
 40
0.045
309
GRIDFORMAT_END
 95
       32
302
GRIDFORMAT
  1
GRIDFORMAT_BEGIN
 90
        0
 91
        1
 62
     0
 92
       -2
340
0
 93
        0
 40
0.045
309
GRIDFORMAT_END
309
TABLEFORMAT_END
  1
CELLSTYLE_BEGIN
 90
        1
 91
        1
300
_TITLE
309
CELLSTYLE_END
300
CELLSTYLE
  1
TABLEFORMAT_BEGIN
 90
        5
170
     1
 91
        0
 92
        0
 62
   257
 93
        1
300
CONTENTFORMAT
  1
CONTENTFORMAT_BEGIN
 90
        0
 91
        0
 92
        4
 93
        0
300

 40
0.0
140
1.0
 94
        5
 62
     0
340
10
144
4.5
309
CONTENTFORMAT_END
171
     1
301
MARGIN
  1
CELLMARGIN_BEGIN
 40
1.5
 40
1.5
 40
1.5
 40
1.5
 40
0.18
 40
0.18
309
CELLMARGIN_END
 94
        6
 95
        1
302
GRIDFORMAT
  1
GRIDFORMAT_BEGIN
 90
        0
 91
        1
 62
     0
 92
       -2
340
0
 93
        0
 40
0.045
309
GRIDFORMAT_END
 95
        2
302
GRIDFORMAT
  1
GRIDFORMAT_BEGIN
 90
        0
 91
        1
 62
     0
 92
       -2
340
0
 93
        0
 40
0.045
309
GRIDFORMAT_END
 95
        4
302
GRIDFORMAT
  1
GRIDFORMAT_BEGIN
 90
        0
 91
        1
 62
     0
 92
       -2
340
0
 93
        0
 40
0.045
309
GRIDFORMAT_END
 95
        8
302
GRIDFORMAT
  1
GRIDFORMAT_BEGIN
 90
        0
 91
        1
 62
     0
 92
       -2
340
0
 93
        0
 40
0.045
309
GRIDFORMAT_END
 95
       16
302
GRIDFORMAT
  1
GRIDFORMAT_BEGIN
 90
        0
 91
        1
 62
     0
 92
       -2
340
0
 93
        0
 40
0.045
309
GRIDFORMAT_END
 95
       32
302
GRIDFORMAT
  1
GRIDFORMAT_BEGIN
 90
        0
 91
        1
 62
     0
 92
       -2
340
0
 93
        0
 40
0.045
309
GRIDFORMAT_END
309
TABLEFORMAT_END
  1
CELLSTYLE_BEGIN
 90
        2
 91
        1
300
_HEADER
309
CELLSTYLE_END
300
CELLSTYLE
  1
TABLEFORMAT_BEGIN
 90
        5
170
     1
 91
        0
 92
        0
 62
   257
 93
        1
300
CONTENTFORMAT
  1
CONTENTFORMAT_BEGIN
 90
        0
 91
        0
 92
        4
 93
        0
300

 40
0.0
140
1.0
 94
        2
 62
     0
340
10
144
4.5
309
CONTENTFORMAT_END
171
     1
301
MARGIN
  1
CELLMARGIN_BEGIN
 40
1.5
 40
1.5
 40
1.5
 40
1.5
 40
0.18
 40
0.18
309
CELLMARGIN_END
 94
        6
 95
        1
302
GRIDFORMAT
  1
GRIDFORMAT_BEGIN
 90
        0
 91
        1
 62
     0
 92
       -2
340
0
 93
        0
 40
0.045
309
GRIDFORMAT_END
 95
        2
302
GRIDFORMAT
  1
GRIDFORMAT_BEGIN
 90
        0
 91
        1
 62
     0
 92
       -2
340
0
 93
        0
 40
0.045
309
GRIDFORMAT_END
 95
        4
302
GRIDFORMAT
  1
GRIDFORMAT_BEGIN
 90
        0
 91
        1
 62
     0
 92
       -2
340
0
 93
        0
 40
0.045
309
GRIDFORMAT_END
 95
        8
302
GRIDFORMAT
  1
GRIDFORMAT_BEGIN
 90
        0
 91
        1
 62
     0
 92
       -2
340
0
 93
        0
 40
0.045
309
GRIDFORMAT_END
 95
       16
302
GRIDFORMAT
  1
GRIDFORMAT_BEGIN
 90
        0
 91
        1
 62
     0
 92
       -2
340
0
 93
        0
 40
0.045
309
GRIDFORMAT_END
 95
       32
302
GRIDFORMAT
  1
GRIDFORMAT_BEGIN
 90
        0
 91
        1
 62
     0
 92
       -2
340
0
 93
        0
 40
0.045
309
GRIDFORMAT_END
309
TABLEFORMAT_END
  1
CELLSTYLE_BEGIN
 90
        3
 91
        2
300
_DATA
309
CELLSTYLE_END
  0
XRECORD
  5
1C7C
102
{ACAD_REACTORS
330
AED
102
}
330
AED
100
AcDbXrecord
280
     1
102
ACAD_ROUNDTRIP_PRE2007_TABLESTYLE
 90
        4
 91
        0
  1

 92
        4
 93
        0
  2

 94
        4
 95
        0
  3

  0
ENDSEC
  0
EOF
