  0
SECTION
  2
HEADER
  9
$ACADVER
  1
AC1015
  9
$ACADMAINTVER
 70
    20
  9
$DWGCODEPAGE
  3
ANSI_1252
  9
$INSBASE
 10
0.0
 20
0.0
 30
0.0
  9
$EXTMIN
 10
546.7813711977623
 20
193.4219512008271
 30
0.0
  9
$EXTMAX
 10
1852.781371197764
 20
987.0180876964335
 30
0.0
  9
$LIMMIN
 10
0.0
 20
0.0
  9
$LIMMAX
 10
420.0
 20
297.0
  9
$ORTHOMODE
 70
     1
  9
$REGENMODE
 70
     1
  9
$FILLMODE
 70
     1
  9
$QTEXTMODE
 70
     0
  9
$MIRRTEXT
 70
     0
  9
$LTSCALE
 40
1.0
  9
$ATTMODE
 70
     1
  9
$TEXTSIZE
 40
2.5
  9
$TRACEWID
 40
1.0
  9
$TEXTSTYLE
  7
Standard
  9
$CLAYER
  8
AM0
  9
$CELTYPE
  6
ByLayer
  9
$CECOLOR
 62
   256
  9
$CELTSCALE
 40
1.0
  9
$DISPSILH
 70
     0
  9
$DIMSCALE
 40
3.0
  9
$DIMASZ
 40
2.5
  9
$DIMEXO
 40
1.0
  9
$DIMDLI
 40
10.0
  9
$DIMRND
 40
0.0
  9
$DIMDLE
 40
0.0
  9
$DIMEXE
 40
1.0
  9
$DIMTP
 40
0.1
  9
$DIMTM
 40
0.1
  9
$DIMTXT
 40
3.5
  9
$DIMCEN
 40
0.0
  9
$DIMTSZ
 40
0.0
  9
$DIMTOL
 70
     0
  9
$DIMLIM
 70
     0
  9
$DIMTIH
 70
     0
  9
$DIMTOH
 70
     0
  9
$DIMSE1
 70
     0
  9
$DIMSE2
 70
     0
  9
$DIMTAD
 70
     1
  9
$DIMZIN
 70
     8
  9
$DIMBLK
  1

  9
$DIMASO
 70
     1
  9
$DIMSHO
 70
     1
  9
$DIMPOST
  1

  9
$DIMAPOST
  1
"
  9
$DIMALT
 70
     0
  9
$DIMALTD
 70
     3
  9
$DIMALTF
 40
0.0393701
  9
$DIMLFAC
 40
1.0
  9
$DIMTOFL
 70
     1
  9
$DIMTVP
 40
0.0
  9
$DIMTIX
 70
     0
  9
$DIMSOXD
 70
     0
  9
$DIMSAH
 70
     0
  9
$DIMBLK1
  1

  9
$DIMBLK2
  1

  9
$DIMSTYLE
  2
AM_ISO
  9
$DIMCLRD
 70
   256
  9
$DIMCLRE
 70
   256
  9
$DIMCLRT
 70
     2
  9
$DIMTFAC
 40
0.71
  9
$DIMGAP
 40
1.5
  9
$DIMJUST
 70
     0
  9
$DIMSD1
 70
     0
  9
$DIMSD2
 70
     0
  9
$DIMTOLJ
 70
     0
  9
$DIMTZIN
 70
     8
  9
$DIMALTZ
 70
     0
  9
$DIMALTTZ
 70
     0
  9
$DIMUPT
 70
     0
  9
$DIMDEC
 70
     2
  9
$DIMTDEC
 70
     2
  9
$DIMALTU
 70
     2
  9
$DIMALTTD
 70
     3
  9
$DIMTXSTY
  7
Standard
  9
$DIMAUNIT
 70
     0
  9
$DIMADEC
 70
     0
  9
$DIMALTRND
 40
0.0
  9
$DIMAZIN
 70
     2
  9
$DIMDSEP
 70
    46
  9
$DIMATFIT
 70
     3
  9
$DIMFRAC
 70
     0
  9
$DIMLDRBLK
  1

  9
$DIMLUNIT
 70
     2
  9
$DIMLWD
 70
    -1
  9
$DIMLWE
 70
    -1
  9
$DIMTMOVE
 70
     0
  9
$LUNITS
 70
     2
  9
$LUPREC
 70
     4
  9
$SKETCHINC
 40
1.0
  9
$FILLETRAD
 40
0.0
  9
$AUNITS
 70
     0
  9
$AUPREC
 70
     0
  9
$MENU
  1
.
  9
$ELEVATION
 40
0.0
  9
$PELEVATION
 40
0.0
  9
$THICKNESS
 40
0.0
  9
$LIMCHECK
 70
     0
  9
$CHAMFERA
 40
0.0
  9
$CHAMFERB
 40
0.0
  9
$CHAMFERC
 40
0.0
  9
$CHAMFERD
 40
0.0
  9
$SKPOLY
 70
     0
  9
$TDCREATE
 40
2454914.463530995
  9
$TDUCREATE
 40
2454914.421864329
  9
$TDUPDATE
 40
2456316.683728762
  9
$TDUUPDATE
 40
2456316.642062095
  9
$TDINDWG
 40
0.1493779745
  9
$TDUSRTIMER
 40
0.1493733796
  9
$USRTIMER
 70
     1
  9
$ANGBASE
 50
0.0
  9
$ANGDIR
 70
     0
  9
$PDMODE
 70
     0
  9
$PDSIZE
 40
0.0
  9
$PLINEWID
 40
0.0
  9
$SPLFRAME
 70
     0
  9
$SPLINETYPE
 70
     6
  9
$SPLINESEGS
 70
     8
  9
$HANDSEED
  5
3265
  9
$SURFTAB1
 70
     6
  9
$SURFTAB2
 70
     6
  9
$SURFTYPE
 70
     6
  9
$SURFU
 70
     6
  9
$SURFV
 70
     6
  9
$UCSBASE
  2

  9
$UCSNAME
  2

  9
$UCSORG
 10
0.0
 20
0.0
 30
0.0
  9
$UCSXDIR
 10
1.0
 20
0.0
 30
0.0
  9
$UCSYDIR
 10
0.0
 20
1.0
 30
0.0
  9
$UCSORTHOREF
  2

  9
$UCSORTHOVIEW
 70
     0
  9
$UCSORGTOP
 10
0.0
 20
0.0
 30
0.0
  9
$UCSORGBOTTOM
 10
0.0
 20
0.0
 30
0.0
  9
$UCSORGLEFT
 10
0.0
 20
0.0
 30
0.0
  9
$UCSORGRIGHT
 10
0.0
 20
0.0
 30
0.0
  9
$UCSORGFRONT
 10
0.0
 20
0.0
 30
0.0
  9
$UCSORGBACK
 10
0.0
 20
0.0
 30
0.0
  9
$PUCSBASE
  2

  9
$PUCSNAME
  2

  9
$PUCSORG
 10
0.0
 20
0.0
 30
0.0
  9
$PUCSXDIR
 10
1.0
 20
0.0
 30
0.0
  9
$PUCSYDIR
 10
0.0
 20
1.0
 30
0.0
  9
$PUCSORTHOREF
  2

  9
$PUCSORTHOVIEW
 70
     0
  9
$PUCSORGTOP
 10
0.0
 20
0.0
 30
0.0
  9
$PUCSORGBOTTOM
 10
0.0
 20
0.0
 30
0.0
  9
$PUCSORGLEFT
 10
0.0
 20
0.0
 30
0.0
  9
$PUCSORGRIGHT
 10
0.0
 20
0.0
 30
0.0
  9
$PUCSORGFRONT
 10
0.0
 20
0.0
 30
0.0
  9
$PUCSORGBACK
 10
0.0
 20
0.0
 30
0.0
  9
$USERI1
 70
     0
  9
$USERI2
 70
     0
  9
$USERI3
 70
     0
  9
$USERI4
 70
     0
  9
$USERI5
 70
     0
  9
$USERR1
 40
0.0
  9
$USERR2
 40
0.0
  9
$USERR3
 40
0.0
  9
$USERR4
 40
0.0
  9
$USERR5
 40
0.0
  9
$WORLDVIEW
 70
     1
  9
$SHADEDGE
 70
     3
  9
$SHADEDIF
 70
    70
  9
$TILEMODE
 70
     1
  9
$MAXACTVP
 70
    64
  9
$PINSBASE
 10
0.0
 20
0.0
 30
0.0
  9
$PLIMCHECK
 70
     0
  9
$PEXTMIN
 10
0.0
 20
0.0
 30
0.0
  9
$PEXTMAX
 10
0.0
 20
0.0
 30
0.0
  9
$PLIMMIN
 10
0.0
 20
0.0
  9
$PLIMMAX
 10
12.0
 20
9.0
  9
$UNITMODE
 70
     0
  9
$VISRETAIN
 70
     1
  9
$PLINEGEN
 70
     0
  9
$PSLTSCALE
 70
     1
  9
$TREEDEPTH
 70
  3020
  9
$CMLSTYLE
  2
Standard
  9
$CMLJUST
 70
     0
  9
$CMLSCALE
 40
20.0
  9
$PROXYGRAPHICS
 70
     1
  9
$MEASUREMENT
 70
     1
  9
$CELWEIGHT
370
    -1
  9
$ENDCAPS
280
     0
  9
$JOINSTYLE
280
     0
  9
$LWDISPLAY
290
     0
  9
$INSUNITS
 70
     4
  9
$HYPERLINKBASE
  1

  9
$STYLESHEET
  1

  9
$XEDIT
290
     1
  9
$CEPSNTYPE
380
     0
  9
$PSTYLEMODE
290
     1
  9
$FINGERPRINTGUID
  2
{1641947A-D551-4067-8C6C-F919EB4B0829}
  9
$VERSIONGUID
  2
{B8A3C520-7FC1-4A73-89C6-E8EE76CF0B80}
  9
$EXTNAMES
290
     1
  9
$PSVPSCALE
 40
0.0
  9
$OLESTARTUP
290
     0
  0
ENDSEC
  0
SECTION
  2
CLASSES
  0
CLASS
  1
ACDBDICTIONARYWDFLT
  2
AcDbDictionaryWithDefault
  3
ObjectDBX Classes
 90
        0
280
     0
281
     0
  0
CLASS
  1
ACDBPLACEHOLDER
  2
AcDbPlaceHolder
  3
ObjectDBX Classes
 90
        0
280
     0
281
     0
  0
CLASS
  1
LAYOUT
  2
AcDbLayout
  3
ObjectDBX Classes
 90
        0
280
     0
281
     0
  0
CLASS
  1
DICTIONARYVAR
  2
AcDbDictionaryVar
  3
ObjectDBX Classes
 90
        0
280
     0
281
     0
  0
CLASS
  1
TABLESTYLE
  2
AcDbTableStyle
  3
ObjectDBX Classes
 90
     4095
280
     0
281
     0
  0
CLASS
  1
DIMASSOC
  2
AcDbDimAssoc
  3
"AcDbDimAssoc|Product Desc:     AcDim ARX App For Dimension|Company:          Autodesk, Inc.|WEB Address:      www.autodesk.com"
 90
        0
280
     0
281
     0
  0
CLASS
  1
SORTENTSTABLE
  2
AcDbSortentsTable
  3
ObjectDBX Classes
 90
        0
280
     0
281
     0
  0
CLASS
  1
MATERIAL
  2
AcDbMaterial
  3
ObjectDBX Classes
 90
     1153
280
     0
281
     0
  0
CLASS
  1
VISUALSTYLE
  2
AcDbVisualStyle
  3
ObjectDBX Classes
 90
     4095
280
     0
281
     0
  0
CLASS
  1
SCALE
  2
AcDbScale
  3
ObjectDBX Classes
 90
     1153
280
     0
281
     0
  0
CLASS
  1
MLEADERSTYLE
  2
AcDbMLeaderStyle
  3
ACDB_MLEADERSTYLE_CLASS
 90
     4095
280
     0
281
     0
  0
CLASS
  1
AMGSETTINGSOBJ
  2
AmgSettingsObj
  3
"AcadM|Product Description: AutoCAD Mechanical|Company: Autodesk, Inc."
 90
     1024
280
     0
281
     0
  0
CLASS
  1
AMGOBJPROPCFG
  2
AmgObjPropCfg
  3
"AmgLay|Product Description: AutoCAD Mechanical|Company: Autodesk, Inc."
 90
     1025
280
     0
281
     0
  0
CLASS
  1
ACMESCOPE
  2
AcMeScope
  3
AcMeServices
 90
     1024
280
     0
281
     0
  0
CLASS
  1
ACGREFMASTER
  2
AcGrefMaster
  3
AcAttribServices
 90
     1024
280
     0
281
     0
  0
CLASS
  1
ACME_DOCUMENT
  2
AcMeDbDoc
  3
AcMeServices
 90
     1024
280
     0
281
     0
  0
CLASS
  1
ACMECOMMANDHISTORY
  2
AcMeCommandHistory
  3
AcMeServices
 90
     1024
280
     0
281
     0
  0
CLASS
  1
ACIMSYSVARMAN
  2
AcImSysVarManager
  3
AcMeServices
 90
     1024
280
     0
281
     0
  0
CLASS
  1
ACIMREALSYSVAR
  2
AcImRealSysVar
  3
AcMeServices
 90
     1024
280
     0
281
     0
  0
CLASS
  1
ACIMINTSYSVAR
  2
AcImIntSysVar
  3
AcMeServices
 90
     1024
280
     0
281
     0
  0
CLASS
  1
ACMEDRAWINGMAN
  2
AcMeDrawingMan
  3
AcMeServices
 90
     1024
280
     0
281
     0
  0
CLASS
  1
ACMEVIEW
  2
AcMeView
  3
AcMeServices
 90
     1024
280
     0
281
     0
  0
CLASS
  1
ACDBENTITYCACHE
  2
AcMeEntityCache
  3
AcMeServices
 90
     1024
280
     0
281
     0
  0
CLASS
  1
GSMANAGER
  2
AcMeGSManager
  3
AcMeServices
 90
     1024
280
     0
281
     0
  0
CLASS
  1
AMDTINTERNALREACTOR
  2
AmdtInternalReactor
  3
AcMeServices
 90
     1024
280
     0
281
     0
  0
CLASS
  1
ACMESTATEMGR
  2
AcMeStateMgr
  3
AcMeServices
 90
     1024
280
     0
281
     0
  0
CLASS
  1
AM_DRAWING_MGR
  2
AcDmDwgMgr
  3
AcMechDwgViewMgmt
 90
     1024
280
     0
281
     0
  0
CLASS
  1
AM_DWG_DOCUMENT
  2
AcDmDwgDocument
  3
AcMechDwgViewMgmt
 90
     1024
280
     0
281
     0
  0
CLASS
  1
AM_DWG_SHEET
  2
AcDmSheet
  3
AcMechDwgViewMgmt
 90
     1024
280
     0
281
     0
  0
CLASS
  1
AM_VIEWDIMPARMAP
  2
AcDmViewDimParMap
  3
AcMechDwgViewMgmt
 90
     1024
280
     0
281
     0
  0
CLASS
  1
AM_DWGMGR_NAME
  2
AcDmDwgMgrName
  3
AcMechDwgViewMgmt
 90
     1024
280
     0
281
     0
  0
CLASS
  1
ACME_DATABASE
  2
AcMeDbDatabase
  3
AcMeServices
 90
     1024
280
     0
281
     0
  0
CLASS
  1
ACRFINSADJUSTERMGR
  2
AcRfInsAdjusterMgr
  3
AcMeServices
 90
     1024
280
     0
281
     0
  0
CLASS
  1
ACGREFACADMASTER
  2
AcGrefacadMaster
  3
AcGrefServices
 90
     1024
280
     0
281
     0
  0
CLASS
  1
AMDTMENUSTATEMGR
  2
AmdtMenuStateMgr
  3
McadcomServices
 90
     1024
280
     0
281
     0
  0
CLASS
  1
AMDTMCOMMENUSTATE
  2
AmdtMcomMenuState
  3
McadcomServices
 90
     1024
280
     0
281
     0
  0
CLASS
  1
AMIMASTER
  2
AmiMaster
  3
AmiServices
 90
     1024
280
     0
281
     0
  0
CLASS
  1
ASAPP
  2
AcAsAppObject
  3
AutoSurfServices
 90
     1024
280
     0
281
     0
  0
CLASS
  1
IM_STATIC_MAN
  2
AcImStaticVarManager
  3
AcMeServices
 90
     1024
280
     0
281
     0
  0
CLASS
  1
ACIMSTRSYSVAR
  2
AcImStrSysVar
  3
AcMeServices
 90
     1024
280
     0
281
     0
  0
CLASS
  1
ACIMDBLSTATICVAR
  2
AcImDblStaticVar
  3
AcMeServices
 90
     1024
280
     0
281
     0
  0
CLASS
  1
ACIMSTRSTATICVAR
  2
AcImStrStaticVar
  3
AcMeServices
 90
     1024
280
     0
281
     0
  0
CLASS
  1
ACIMINTSTATICVAR
  2
AcImIntStaticVar
  3
AcMeServices
 90
     1024
280
     0
281
     0
  0
CLASS
  1
ACASGREFMASTER
  2
AcAsGrefMaster
  3
AutoSurfResolverServices
 90
     1024
280
     0
281
     0
  0
CLASS
  1
ACADGREFMODULE
  2
AcAdGrefModule
  3
AdGrefServices
 90
     1024
280
     0
281
     0
  0
CLASS
  1
AMDTMAPISURFMOUDULE
  2
AmdtMApiSurfModule
  3
MApiSurfServices
 90
     1024
280
     0
281
     0
  0
CLASS
  1
MAPIAMMOUDLE
  2
MApiAmModule
  3
MApiAmServices
 90
     1024
280
     0
281
     0
  0
CLASS
  1
ACMSTANDARDANSI
  2
AcmStandardANSI
  3
"Amdt_StdImp|Product Description: AutoCAD Mechanical|Company: Autodesk, Inc."
 90
     1024
280
     0
281
     0
  0
CLASS
  1
ACMSURFSTANDARDANSI
  2
AcmSurfTextStdANSI
  3
"Amdt_StdImp|Product Description: AutoCAD Mechanical|Company: Autodesk, Inc."
 90
     1024
280
     0
281
     0
  0
CLASS
  1
ACMFCFSTANDARDANSI
  2
AcmFCFStdANSI
  3
"Amdt_StdImp|Product Description: AutoCAD Mechanical|Company: Autodesk, Inc."
 90
     1024
280
     0
281
     0
  0
CLASS
  1
ACMWELDSTANDARDANSI
  2
AcmWeldingStdANSI
  3
"Amdt_StdImp|Product Description: AutoCAD Mechanical|Company: Autodesk, Inc."
 90
     1024
280
     0
281
     0
  0
CLASS
  1
ACMIDSTANDARDANSI
  2
AcmIdStdANSI
  3
"Amdt_StdImp|Product Description: AutoCAD Mechanical|Company: Autodesk, Inc."
 90
     1024
280
     0
281
     0
  0
CLASS
  1
ACMDATUMSTANDARDANSI
  2
AcmDatumStdANSI
  3
"Amdt_StdImp|Product Description: AutoCAD Mechanical|Company: Autodesk, Inc."
 90
     1024
280
     0
281
     0
  0
CLASS
  1
ACMBOMSTANDARDANSI
  2
AcmBOMStdANSI
  3
"Amdt_StdImp|Product Description: AutoCAD Mechanical|Company: Autodesk, Inc."
 90
     1024
280
     0
281
     0
  0
CLASS
  1
ACMDETAILSTANDARDANSI
  2
AmdtDetailSymStdANSI
  3
"Amdt_StdImp|Product Description: AutoCAD Mechanical|Company: Autodesk, Inc."
 90
     1024
280
     0
281
     0
  0
CLASS
  1
ACMSECTIONSTANDARDANSI
  2
AmdtSectionSymStdANSI
  3
"Amdt_StdImp|Product Description: AutoCAD Mechanical|Company: Autodesk, Inc."
 90
     1024
280
     0
281
     0
  0
CLASS
  1
ACMCENTERLINESTANDARDANSI
  2
AmdtCenterLineStdANSI
  3
"Amdt_StdImp|Product Description: AutoCAD Mechanical|Company: Autodesk, Inc."
 90
     1024
280
     0
281
     0
  0
CLASS
  1
ACMTHREADLINESTANDARDANSI
  2
AmdtThreadLineStdANSI
  3
"Amdt_StdImp|Product Description: AutoCAD Mechanical|Company: Autodesk, Inc."
 90
     1024
280
     0
281
     0
  0
CLASS
  1
ACMNOTESTANDARDANSI
  2
AmdtNoteStdANSI
  3
"Amdt_StdImp|Product Description: AutoCAD Mechanical|Company: Autodesk, Inc."
 90
     1024
280
     0
281
     0
  0
CLASS
  1
AMDTNOTETEMPLATEDB
  2
AmdtNoteTemplateDB
  3
AcmSymBB|Product Description: AutoCAD Mechanical|Company: Autodesk, Inc.
 90
     1024
280
     0
281
     0
  0
CLASS
  1
ACAMGLAYSTD
  2
AcAmgLayStd
  3
"AmgLay|Product Description: AutoCAD Mechanical|Company: Autodesk, Inc."
 90
     1024
280
     0
281
     0
  0
CLASS
  1
ACAMGDIMSTD
  2
AcAmgDimStd
  3
"AmgDim|Product Description: AutoCAD Mechanical|Company: Autodesk, Inc."
 90
     1024
280
     0
281
     0
  0
CLASS
  1
ACAMGHOLECHARTSTDANSI
  2
AcAmgHoleChartStdANSI
  3
AmgDim|Product Description: AutoCAD Mechanical|Company: Autodesk, Inc.
 90
     1024
280
     0
281
     0
  0
CLASS
  1
ACAMGTITLESTD
  2
AcAmgTitleStd
  3
"AmgTitle|Product Description: AutoCAD Mechanical|Company: Autodesk, Inc."
 90
     4095
280
     0
281
     0
  0
CLASS
  1
ACMTAPERSTANDARDANSI
  2
AcmTaperStdANSI
  3
"Amdt_StdImp|Product Description: AutoCAD Mechanical|Company: Autodesk, Inc."
 90
     1024
280
     0
281
     0
  0
CLASS
  1
ACMANOOTATIONVIEWSTANDARDANSI
  2
AmdtAnViewStdANSI
  3
"Amdt_StdImp|Product Description: AutoCAD Mechanical|Company: Autodesk, Inc."
 90
     1024
280
     0
281
     0
  0
CLASS
  1
ACMSTANDARDISO
  2
AcmStandardISO
  3
"Amdt_StdImp|Product Description: AutoCAD Mechanical|Company: Autodesk, Inc."
 90
     1024
280
     0
281
     0
  0
CLASS
  1
AMDTEDGESTANDARDISO
  2
AmdtEdgeStdISO
  3
"Amdt_StdImp|Product Description: AutoCAD Mechanical|Company: Autodesk, Inc."
 90
     1024
280
     0
281
     0
  0
CLASS
  1
ACMSURFSTANDARDISO
  2
AcmSurfTextStdISO
  3
"Amdt_StdImp|Product Description: AutoCAD Mechanical|Company: Autodesk, Inc."
 90
     1024
280
     0
281
     0
  0
CLASS
  1
ACMFCFSTANDARDISO
  2
AcmFCFStdISO
  3
"Amdt_StdImp|Product Description: AutoCAD Mechanical|Company: Autodesk, Inc."
 90
     1024
280
     0
281
     0
  0
CLASS
  1
ACMWELDSTANDARDISO
  2
AcmWeldingStdISO
  3
"Amdt_StdImp|Product Description: AutoCAD Mechanical|Company: Autodesk, Inc."
 90
     1024
280
     0
281
     0
  0
CLASS
  1
ACMIDSTANDARDISO
  2
AcmIdStdISO
  3
"Amdt_StdImp|Product Description: AutoCAD Mechanical|Company: Autodesk, Inc."
 90
     1024
280
     0
281
     0
  0
CLASS
  1
ACMDATUMSTANDARDISO
  2
AcmDatumStdISO
  3
"Amdt_StdImp|Product Description: AutoCAD Mechanical|Company: Autodesk, Inc."
 90
     1024
280
     0
281
     0
  0
CLASS
  1
ACMBOMSTANDARDISO
  2
AcmBOMStdISO
  3
"Amdt_StdImp|Product Description: AutoCAD Mechanical|Company: Autodesk, Inc."
 90
     1024
280
     0
281
     0
  0
CLASS
  1
ACMDETAILSTANDARDISO
  2
AmdtDetailSymStdISO
  3
"Amdt_StdImp|Product Description: AutoCAD Mechanical|Company: Autodesk, Inc."
 90
     1024
280
     0
281
     0
  0
CLASS
  1
ACMSECTIONSTANDARDISO
  2
AmdtSectionSymStdISO
  3
"Amdt_StdImp|Product Description: AutoCAD Mechanical|Company: Autodesk, Inc."
 90
     1024
280
     0
281
     0
  0
CLASS
  1
ACMCENTERLINESTANDARDISO
  2
AmdtCenterLineStdISO
  3
"Amdt_StdImp|Product Description: AutoCAD Mechanical|Company: Autodesk, Inc."
 90
     1024
280
     0
281
     0
  0
CLASS
  1
ACMTHREADLINESTANDARDISO
  2
AmdtThreadLineStdISO
  3
"Amdt_StdImp|Product Description: AutoCAD Mechanical|Company: Autodesk, Inc."
 90
     1024
280
     0
281
     0
  0
CLASS
  1
ACMNOTESTANDARDISO
  2
AmdtNoteStdISO
  3
"Amdt_StdImp|Product Description: AutoCAD Mechanical|Company: Autodesk, Inc."
 90
     1024
280
     0
281
     0
  0
CLASS
  1
ACAMGHOLECHARTSTDISO
  2
AcAmgHoleChartStdISO
  3
AmgDim|Product Description: AutoCAD Mechanical|Company: Autodesk, Inc.
 90
     1024
280
     0
281
     0
  0
CLASS
  1
ACMTAPERSTANDARDISO
  2
AcmTaperStdISO
  3
"Amdt_StdImp|Product Description: AutoCAD Mechanical|Company: Autodesk, Inc."
 90
     1024
280
     0
281
     0
  0
CLASS
  1
ACMANOOTATIONVIEWSTANDARDISO
  2
AmdtAnViewStdISO
  3
"Amdt_StdImp|Product Description: AutoCAD Mechanical|Company: Autodesk, Inc."
 90
     1024
280
     0
281
     0
  0
CLASS
  1
AMDTADMENUSTATE
  2
AmdtAdMenuState
  3
DesignerServices
 90
     1024
280
     0
281
     0
  0
CLASS
  1
ADAPPL
  2
AcAdAppl
  3
DesignerServices
 90
     1024
280
     0
281
     0
  0
CLASS
  1
DEPMGR
  2
AcAdDepMgr
  3
DesignerServices
 90
     1024
280
     0
281
     0
  0
CLASS
  1
PARAMMGR
  2
AcAdParamMgr
  3
DesignerServices
 90
     1024
280
     0
281
     0
  0
CLASS
  1
PARAMSCOPE
  2
AcAdParamScope
  3
DesignerServices
 90
     1024
280
     0
281
     0
  0
CLASS
  1
NAMEDAPPL
  2
AcAdNamedAppl
  3
DesignerServices
 90
     1024
280
     0
281
     0
  0
CLASS
  1
AMDTDMMENUSTATE
  2
AmdtDmMenuState
  3
AcMechDwgViewMgmt
 90
     1024
280
     0
281
     0
  0
CLASS
  1
MAPIADMODULE
  2
MApiAdModule
  3
MApiAdServices
 90
     1024
280
     0
281
     0
  0
CLASS
  1
AMDTAMMENUSTATE
  2
AmdtAmMenuState
  3
DesignerAssemblies
 90
     1024
280
     0
281
     0
  0
CLASS
  1
ACAMPROJECT
  2
AcAmProject
  3
DesignerAssemblies
 90
     1024
280
     0
281
     0
  0
CLASS
  1
ACAMGRCOMPDEF
  2
AcAmGrCompDef
  3
DesignerAssemblies
 90
     1024
280
     0
281
     0
  0
CLASS
  1
ACCMCONTEXT
  2
AcCmContext
  3
DesignerAssemblies
 90
     1024
280
     0
281
     0
  0
CLASS
  1
ACAMCOMPDEF
  2
AcAmCompDef
  3
DesignerAssemblies
 90
     1024
280
     0
281
     0
  0
CLASS
  1
ACAMCOMPDEFMGR
  2
AcAmCompDefMgr
  3
DesignerAssemblies
 90
     1024
280
     0
281
     0
  0
CLASS
  1
AMCONTEXTMGR
  2
AcAmContextMgr
  3
DesignerAssemblies
 90
     1024
280
     0
281
     0
  0
CLASS
  1
ACAMCONTEXTMODELER
  2
AcAmContextModeler
  3
DesignerAssemblies
 90
     1024
280
     0
281
     0
  0
CLASS
  1
ACMDATADICTIONARY
  2
AcmDataDictionary
  3
"AcmSymBB|Product Description: AutoCAD Mechanical|Company: Autodesk, Inc."
 90
     1024
280
     0
281
     0
  0
CLASS
  1
ACMDATAENTRYBLOCK
  2
AcmDataEntryBlock
  3
AcmSymBB|Product Description: AutoCAD Mechanical|Company: Autodesk, Inc.
 90
     1024
280
     0
281
     0
  0
CLASS
  1
ACRFATTGENMGR
  2
AcRfAttGeneralMgr
  3
AcAttribServices
 90
     1024
280
     0
281
     0
  0
CLASS
  1
ACRFOBJATTMGR
  2
AcRfObjAttGroupMgr
  3
AcAttribServices
 90
     1024
280
     0
281
     0
  0
CLASS
  1
ACRFMCADAPIATTHOLDER
  2
AcRfMCADAPIAttHolder
  3
AcAttribServices
 90
     1024
280
     0
281
     0
  0
CLASS
  1
AMDTSYSATTR
  2
AmdtSystemAttribute
  3
AcAttribServices
 90
     1024
280
     0
281
     0
  0
CLASS
  1
CATALOGSTATE
  2
AcAmCatalogState
  3
DesignerAssemblies
 90
     1024
280
     0
281
     0
  0
CLASS
  1
ACAMGRCOMPDEFSET
  2
AcAmGrCompDefSet
  3
DesignerAssemblies
 90
     1024
280
     0
281
     0
  0
CLASS
  1
AMDTBROWSERDBTAB
  2
AmdtBrowserDbTab
  3
McadcomServices
 90
     1024
280
     0
281
     0
  0
CLASS
  1
CBROWSERAPPOBJECT
  2
CBrowserAppObject
  3
McadcomServices
 90
     1024
280
     0
281
     0
  0
CLASS
  1
DM_PLACEHOLDER
  2
AcDmSelsetPlaceholder
  3
AcMechDwgViewMgmt
 90
     1024
280
     0
281
     0
  0
CLASS
  1
ACAMGFILTERDAT
  2
AcAmgFilterDat
  3
"AcadM|Product Description: AutoCAD Mechanical|Company: Autodesk, Inc."
 90
     1024
280
     0
281
     0
  0
CLASS
  1
AEC_REFEDIT_STATUS_TRACKER
  2
AecDbRefEditStatusTracker
  3
AecArchBase50|Product Desc: Autodesk Architectural Desktop 2007 |Company: Autodesk,Inc. |WEB Address: www.autodesk.com
 90
      129
280
     0
281
     0
  0
CLASS
  1
NPOCOLLECTION
  2
AcDbImpNonPersistentObjectsCollection
  3
ObjectDBX Classes
 90
     1153
280
     0
281
     0
  0
CLASS
  1
LAYER_INDEX
  2
AcDbLayerIndex
  3
ObjectDBX Classes
 90
        0
280
     0
281
     0
  0
CLASS
  1
IDBUFFER
  2
AcDbIdBuffer
  3
ObjectDBX Classes
 90
        0
280
     0
281
     0
  0
CLASS
  1
CELLSTYLEMAP
  2
AcDbCellStyleMap
  3
ObjectDBX Classes
 90
     1152
280
     0
281
     0
  0
ENDSEC
  0
SECTION
  2
TABLES
  0
TABLE
  2
VPORT
  5
8
330
0
100
AcDbSymbolTable
 70
     1
  0
VPORT
  5
2CFF
330
8
100
AcDbSymbolTableRecord
100
AcDbViewportTableRecord
  2
*Active
 70
     0
 10
0.0
 20
0.0
 11
1.0
 21
1.0
 12
994.6460169808178
 22
236.6820411227866
 13
0.0
 23
0.0
 14
10.0
 24
10.0
 15
10.0
 25
10.0
 16
0.0
 26
0.0
 36
1.0
 17
1301.925700512434
 27
670.5457006968464
 37
0.0
 40
2099.721780481841
 41
1.982233502538071
 42
50.0
 43
0.0
 44
0.0
 50
0.0
 51
0.0
 71
     0
 72
  1000
 73
     1
 74
     3
 75
     0
 76
     0
 77
     0
 78
     0
281
     0
 65
     0
110
0.0
120
0.0
130
0.0
111
1.0
121
0.0
131
0.0
112
0.0
122
1.0
132
0.0
 79
     0
146
0.0
  0
ENDTAB
  0
TABLE
  2
LTYPE
  5
5
330
0
100
AcDbSymbolTable
 70
    23
  0
LTYPE
  5
14
330
5
100
AcDbSymbolTableRecord
100
AcDbLinetypeTableRecord
  2
ByBlock
 70
     0
  3

 72
    65
 73
     0
 40
0.0
  0
LTYPE
  5
15
330
5
100
AcDbSymbolTableRecord
100
AcDbLinetypeTableRecord
  2
ByLayer
 70
     0
  3

 72
    65
 73
     0
 40
0.0
  0
LTYPE
  5
16
330
5
100
AcDbSymbolTableRecord
100
AcDbLinetypeTableRecord
  2
Continuous
 70
     0
  3
Solid line
 72
    65
 73
     0
 40
0.0
  0
LTYPE
  5
3F7
330
5
100
AcDbSymbolTableRecord
100
AcDbLinetypeTableRecord
  2
ACAD_ISO02W100
 70
     0
  3
ISO dash __ __ __ __ __ __ __ __ __ __ __ __ __
 72
    65
 73
     2
 40
15.0
 49
12.0
 74
     0
 49
-3.0
 74
     0
  0
LTYPE
  5
2D5C
330
5
100
AcDbSymbolTableRecord
100
AcDbLinetypeTableRecord
  2
AM_ISO02W050
 70
     0
  3
__ __ __ __ __ __ __ __ __ __ __ __ __ __ __
 72
    65
 73
     2
 40
7.5
 49
6.0
 74
     0
 49
-1.5
 74
     0
  0
LTYPE
  5
2D5D
330
5
100
AcDbSymbolTableRecord
100
AcDbLinetypeTableRecord
  2
AM_ISO08W050
 70
     0
  3
____ . ____ . ____ . ____ . ____ . ____ . ____
 72
    65
 73
     4
 40
18.0
 49
12.0
 74
     0
 49
-1.5
 74
     0
 49
3.0
 74
     0
 49
-1.5
 74
     0
  0
LTYPE
  5
2D5E
330
5
100
AcDbSymbolTableRecord
100
AcDbLinetypeTableRecord
  2
AM_ISO09W050
 70
     0
  3
_____ . . _____ . . _____ . . ____ .. ____
 72
    65
 73
     6
 40
22.5
 49
12.0
 74
     0
 49
-1.5
 74
     0
 49
3.0
 74
     0
 49
-1.5
 74
     0
 49
3.0
 74
     0
 49
-1.5
 74
     0
  0
LTYPE
  5
2D5F
330
5
100
AcDbSymbolTableRecord
100
AcDbLinetypeTableRecord
  2
Amconstr
 70
     0
  3
_______________________
 72
    65
 73
     2
 40
9999.0
 49
9999.0
 74
     0
 49
0.0
 74
     0
  0
LTYPE
  5
2D60
330
5
100
AcDbSymbolTableRecord
100
AcDbLinetypeTableRecord
  2
AM_ISO08W050x2
 70
     0
  3
__ . __ . __ . __ . __ . __
 72
    65
 73
     4
 40
9.0
 49
6.0
 74
     0
 49
-0.75
 74
     0
 49
1.5
 74
     0
 49
-0.75
 74
     0
  0
LTYPE
  5
2D61
330
5
100
AcDbSymbolTableRecord
100
AcDbLinetypeTableRecord
  2
AM_ISO02W050x2
 70
     0
  3
 _ _ _ _ _ _ _ _ _ _ _ _
 72
    65
 73
     2
 40
3.75
 49
3.0
 74
     0
 49
-0.75
 74
     0
  0
LTYPE
  5
2D62
330
5
100
AcDbSymbolTableRecord
100
AcDbLinetypeTableRecord
  2
Amzigzag
 70
     0
  3
/\/-/\/-/\/-/\/-/\/-/\/
 72
    65
 73
     2
 40
11.0001
 49
0.0001
 74
     4
 75
   135
340
2D63
 46
0.04
 50
0.0
 44
0.0
 45
0.0
 49
-11.0
 74
     0
  0
LTYPE
  5
2D95
330
5
100
AcDbSymbolTableRecord
100
AcDbLinetypeTableRecord
  2
HIDDEN
 70
     0
  3
__ __ __ __ __ __ __ __ __ __ __ __ __ __ __ __
 72
    65
 73
     2
 40
0.375
 49
0.25
 74
     0
 49
-0.125
 74
     0
  0
LTYPE
  5
2D96
330
5
100
AcDbSymbolTableRecord
100
AcDbLinetypeTableRecord
  2
PHANTOM2
 70
     0
  3
___ _ _ ___ _ _ ___ _ _ ___ _ _ ___ _ _ ___ _ _
 72
    65
 73
     6
 40
1.25
 49
0.625
 74
     0
 49
-0.125
 74
     0
 49
0.125
 74
     0
 49
-0.125
 74
     0
 49
0.125
 74
     0
 49
-0.125
 74
     0
  0
LTYPE
  5
2D97
330
5
100
AcDbSymbolTableRecord
100
AcDbLinetypeTableRecord
  2
CENTER
 70
     0
  3
____ _ ____ _ ____ _ ____ _ ____ _ ____ _ ____ 
 72
    65
 73
     4
 40
2.0
 49
1.25
 74
     0
 49
-0.25
 74
     0
 49
0.25
 74
     0
 49
-0.25
 74
     0
  0
LTYPE
  5
2DF5
330
5
100
AcDbSymbolTableRecord
100
AcDbLinetypeTableRecord
  2
ACANSTGB
 70
     0
  3
__ . . __ . .
 72
    65
 73
     6
 40
0.35433070866
 49
0.15748031496
 74
     0
 49
-0.03937007874
 74
     0
 49
0.03937007874
 74
     0
 49
-0.03937007874
 74
     0
 49
0.03937007874
 74
     0
 49
-0.03937007874
 74
     0
  0
LTYPE
  5
2DF6
330
5
100
AcDbSymbolTableRecord
100
AcDbLinetypeTableRecord
  2
ACANSTGL
 70
     0
  3
_ _ _ _ _
 72
    65
 73
     2
 40
0.11811023622
 49
0.07874015748
 74
     0
 49
-0.03937007874
 74
     0
  0
LTYPE
  5
2E0D
330
5
100
AcDbSymbolTableRecord
100
AcDbLinetypeTableRecord
  2
CENTER2
 70
     0
  3
Center (.5x) ___ _ ___ _ ___ _ ___ _ ___ _ ___
 72
    65
 73
     4
 40
1.125
 49
0.75
 74
     0
 49
-0.125
 74
     0
 49
0.125
 74
     0
 49
-0.125
 74
     0
  0
LTYPE
  5
2E0E
330
5
100
AcDbSymbolTableRecord
100
AcDbLinetypeTableRecord
  2
HIDDEN2
 70
     0
  3
Hidden (.5x) _ _ _ _ _ _ _ _ _ _ _ _ _ _ _ _ _
 72
    65
 73
     2
 40
0.1875
 49
0.125
 74
     0
 49
-0.0625
 74
     0
  0
LTYPE
  5
2E0F
330
5
100
AcDbSymbolTableRecord
100
AcDbLinetypeTableRecord
  2
Amzigzag2
 70
     0
  3
/\/-/\/-/\/-/\/-/\/-/\/
 72
    65
 73
     2
 40
0.4401
 49
0.0001
 74
     4
 75
   135
340
2D63
 46
0.0016
 50
0.0
 44
0.0
 45
0.0
 49
-0.4400000000000001
 74
     0
  0
LTYPE
  5
2E26
330
5
100
AcDbSymbolTableRecord
100
AcDbLinetypeTableRecord
  2
ACISOWELD
 70
     0
  3
_ _ _ _ _
 72
    65
 73
     2
 40
2.0
 49
2.0
 74
     0
 49
-1.0
 74
     0
  0
LTYPE
  5
2E29
330
5
100
AcDbSymbolTableRecord
100
AcDbLinetypeTableRecord
  2
ACISOTGB
 70
     0
  3
__ . . __ . .
 72
    65
 73
     6
 40
9.0
 49
4.0
 74
     0
 49
-1.0
 74
     0
 49
1.0
 74
     0
 49
-1.0
 74
     0
 49
1.0
 74
     0
 49
-1.0
 74
     0
  0
LTYPE
  5
2E2A
330
5
100
AcDbSymbolTableRecord
100
AcDbLinetypeTableRecord
  2
ACISOTGL
 70
     0
  3
_ _ _ _ _
 72
    65
 73
     2
 40
3.0
 49
2.0
 74
     0
 49
-1.0
 74
     0
  0
ENDTAB
  0
TABLE
  2
LAYER
  5
2
102
{ACAD_XDICTIONARY
360
E7
102
}
330
0
100
AcDbSymbolTable
 70
     4
  0
LAYER
  5
10
102
{ACAD_XDICTIONARY
360
323E
102
}
330
2
100
AcDbSymbolTableRecord
100
AcDbLayerTableRecord
  2
0
 70
     0
 62
     7
  6
Continuous
370
    -3
390
F
  0
LAYER
  5
E5
102
{ACAD_XDICTIONARY
360
3240
102
}
330
2
100
AcDbSymbolTableRecord
100
AcDbLayerTableRecord
  2
AM0
 70
     0
 62
     7
  6
Continuous
370
    -3
390
F
1001
AcAecLayerStandard
1000

1000

  0
LAYER
  5
3F8
330
2
100
AcDbSymbolTableRecord
100
AcDbLayerTableRecord
  2
DEFPOINTS
 70
     0
 62
     7
  6
Continuous
290
     0
370
    -3
390
F
  0
LAYER
  5
2EAA
102
{ACAD_XDICTIONARY
360
3242
102
}
330
2
100
AcDbSymbolTableRecord
100
AcDbLayerTableRecord
  2
AM_5
 70
     0
 62
     3
  6
Continuous
370
    25
390
F
1001
AcAecLayerStandard
1000

1000

  0
ENDTAB
  0
TABLE
  2
STYLE
  5
3
330
0
100
AcDbSymbolTable
 70
     6
  0
STYLE
  5
11
330
3
100
AcDbSymbolTableRecord
100
AcDbTextStyleTableRecord
  2
Standard
 70
     0
 40
0.0
 41
1.0
 50
0.0
 71
     0
 42
2.5
  3
txt
  4

  0
STYLE
  5
2D63
330
3
100
AcDbSymbolTableRecord
100
AcDbTextStyleTableRecord
  2

 70
     1
 40
0.0
 41
1.0
 50
0.0
 71
     0
 42
3.5
  3
ltypeshp.shx
  4

  0
STYLE
  5
2DEE
330
3
100
AcDbSymbolTableRecord
100
AcDbTextStyleTableRecord
  2
ACANSTS
 70
     0
 40
1.0
 41
1.0
 50
0.0
 71
     0
 42
3.5
  3
romans.shx
  4

  0
STYLE
  5
2DF1
330
3
100
AcDbSymbolTableRecord
100
AcDbTextStyleTableRecord
  2
ACANSGDT
 70
     0
 40
0.0
 41
1.0
 50
0.0
 71
     0
 42
3.5
  3
amgdt.shx
  4

  0
STYLE
  5
2E20
330
3
100
AcDbSymbolTableRecord
100
AcDbTextStyleTableRecord
  2
ACISOTS
 70
     0
 40
1.0
 41
1.0
 50
0.0
 71
     0
 42
2.5
  3
isocp.shx
  4

  0
STYLE
  5
2E24
330
3
100
AcDbSymbolTableRecord
100
AcDbTextStyleTableRecord
  2
ACISOGDT
 70
     0
 40
0.0
 41
1.0
 50
0.0
 71
     0
 42
2.5
  3
amgdt.shx
  4

  0
ENDTAB
  0
TABLE
  2
VIEW
  5
6
330
0
100
AcDbSymbolTable
 70
     0
  0
ENDTAB
  0
TABLE
  2
UCS
  5
7
330
0
100
AcDbSymbolTable
 70
     0
  0
ENDTAB
  0
TABLE
  2
APPID
  5
9
330
0
100
AcDbSymbolTable
 70
    20
  0
APPID
  5
12
330
9
100
AcDbSymbolTableRecord
100
AcDbRegAppTableRecord
  2
ACAD
 70
     0
  0
APPID
  5
9E
330
9
100
AcDbSymbolTableRecord
100
AcDbRegAppTableRecord
  2
ACAD_PSEXT
 70
     0
  0
APPID
  5
E6
330
9
100
AcDbSymbolTableRecord
100
AcDbRegAppTableRecord
  2
AcAecLayerStandard
 70
     0
  0
APPID
  5
1342
330
9
100
AcDbSymbolTableRecord
100
AcDbRegAppTableRecord
  2
DCO15
 70
     0
  0
APPID
  5
2D48
330
9
100
AcDbSymbolTableRecord
100
AcDbRegAppTableRecord
  2
ACAD_MLEADERVER
 70
     0
  0
APPID
  5
2D4C
330
9
100
AcDbSymbolTableRecord
100
AcDbRegAppTableRecord
  2
AD_DRAW
 70
     0
  0
APPID
  5
2D4D
330
9
100
AcDbSymbolTableRecord
100
AcDbRegAppTableRecord
  2
DESIGNERASSEMBLIES
 70
     0
  0
APPID
  5
2D4E
330
9
100
AcDbSymbolTableRecord
100
AcDbRegAppTableRecord
  2
MCAD_NO_VIS
 70
     0
  0
APPID
  5
2D4F
330
9
100
AcDbSymbolTableRecord
100
AcDbRegAppTableRecord
  2
ASURF_PCURVE_APPNAME
 70
     0
  0
APPID
  5
2D50
330
9
100
AcDbSymbolTableRecord
100
AcDbRegAppTableRecord
  2
ACAD_TEMP_GRAPHIC
 70
     0
  0
APPID
  5
2D51
330
9
100
AcDbSymbolTableRecord
100
AcDbRegAppTableRecord
  2
ACATTRIBSERVICES
 70
     0
  0
APPID
  5
2D52
330
9
100
AcDbSymbolTableRecord
100
AcDbRegAppTableRecord
  2
ACADM_DIM_EDIT
 70
     0
  0
APPID
  5
2D53
330
9
100
AcDbSymbolTableRecord
100
AcDbRegAppTableRecord
  2
GENIUS_GENDIM_13
 70
     0
  0
APPID
  5
2D54
330
9
100
AcDbSymbolTableRecord
100
AcDbRegAppTableRecord
  2
GENIUS_GENDTOL_13
 70
     0
  0
APPID
  5
2D55
330
9
100
AcDbSymbolTableRecord
100
AcDbRegAppTableRecord
  2
GENIUS_GE3DTOL_13
 70
     0
  0
APPID
  5
2D56
330
9
100
AcDbSymbolTableRecord
100
AcDbRegAppTableRecord
  2
AMG_3D2D_5.0
 70
     0
  0
APPID
  5
2D57
330
9
100
AcDbSymbolTableRecord
100
AcDbRegAppTableRecord
  2
AMDT_DM_ADJ
 70
     0
  0
APPID
  5
2D58
330
9
100
AcDbSymbolTableRecord
100
AcDbRegAppTableRecord
  2
ACAD_DSTYLE_DIMTEXT_FILL
 70
     0
  0
APPID
  5
2EC4
330
9
100
AcDbSymbolTableRecord
100
AcDbRegAppTableRecord
  2
ACAD_DSTYLE_DIMINSPECT
 70
     0
  0
APPID
  5
3264
330
9
100
AcDbSymbolTableRecord
100
AcDbRegAppTableRecord
  2
AcDbAttr
 70
     0
  0
ENDTAB
  0
TABLE
  2
DIMSTYLE
  5
A
330
0
100
AcDbSymbolTable
 70
    15
100
AcDbDimStyleTable
 71
     1
340
2E33
  0
DIMSTYLE
105
2E11
330
A
100
AcDbSymbolTableRecord
100
AcDbDimStyleTableRecord
  2
AM_ANSI
 70
     0
  4
mm
 41
0.1
 42
0.05
 43
0.5
 44
0.1
 47
0.1
 48
0.1
 78
     7
 79
     2
140
0.12
141
0.0
146
0.71
147
0.06
176
   256
177
   256
178
     2
274
     4
284
     7
340
11
371
    -1
372
    -1
  0
DIMSTYLE
105
2E12
330
A
100
AcDbSymbolTableRecord
100
AcDbDimStyleTableRecord
  2
AM_ANSI$3
 70
     0
  4
mm
 41
0.1
 42
0.05
 43
0.5
 44
0.1
 47
0.1
 48
0.1
 78
     7
 79
     2
140
0.12
141
0.0
146
0.71
147
0.06
176
   256
177
   256
178
     2
274
     4
284
     7
288
     1
289
     0
340
11
371
    -1
372
    -1
  0
DIMSTYLE
105
2E13
330
A
100
AcDbSymbolTableRecord
100
AcDbDimStyleTableRecord
  2
AM_ANSI$4
 70
     0
  4
mm
 41
0.1
 42
0.05
 43
0.5
 44
0.1
 47
0.1
 48
0.1
 78
     7
 79
     2
140
0.12
141
0.0
146
0.71
147
0.06
176
   256
177
   256
178
     2
274
     4
284
     7
288
     1
289
     0
340
11
371
    -1
372
    -1
  0
DIMSTYLE
105
2E14
330
A
100
AcDbSymbolTableRecord
100
AcDbDimStyleTableRecord
  2
AM_ANSI$7
 70
     0
  4
mm
 41
0.1
 42
0.05
 43
0.5
 44
0.1
 47
0.1
 48
0.1
 78
     7
 79
     2
140
0.24
141
0.0
146
0.71
147
0.06
176
   256
177
   256
178
     2
274
     4
284
     7
340
11
371
    -1
372
    -1
  0
DIMSTYLE
105
2E15
330
A
100
AcDbSymbolTableRecord
100
AcDbDimStyleTableRecord
  2
AM_ANSI$SF
 70
     0
  4
mm
 41
0.1
 42
0.05
 43
0.5
 44
0.1
 47
0.1
 48
0.1
 75
     1
 76
     1
 78
     7
 79
     2
140
0.12
141
0.0
146
0.71
147
0.06
176
   256
177
   256
178
     2
274
     4
284
     7
340
11
371
    -1
372
    -1
  0
DIMSTYLE
105
2E16
330
A
100
AcDbSymbolTableRecord
100
AcDbDimStyleTableRecord
  2
AM_ANSI$SH
 70
     0
  4
mm
 41
0.1
 42
0.05
 43
0.5
 44
0.1
 47
0.1
 48
0.1
 75
     1
 76
     1
 78
     7
 79
     2
140
0.12
141
0.0
146
0.71
147
0.06
173
     1
176
   256
177
   256
178
     2
274
     4
284
     7
340
11
343
2E17
371
    -1
372
    -1
  0
DIMSTYLE
105
2E33
330
A
100
AcDbSymbolTableRecord
100
AcDbDimStyleTableRecord
  2
AM_ISO
 70
     0
  4
"
 41
2.5
 42
1.0
 43
10.0
 44
1.0
 47
0.1
 48
0.1
 73
     0
 74
     0
 77
     1
 78
     8
 79
     2
140
3.5
141
0.0
143
0.0393701
146
0.71
147
1.5
171
     3
172
     1
176
   256
177
   256
178
     2
271
     2
272
     2
274
     3
283
     0
284
     8
340
11
371
    -1
372
    -1
  0
DIMSTYLE
105
2E34
330
A
100
AcDbSymbolTableRecord
100
AcDbDimStyleTableRecord
  2
AM_ISO$3
 70
     0
  4
"
 41
2.5
 42
1.0
 43
10.0
 44
1.0
 47
0.1
 48
0.1
 73
     0
 77
     1
 78
     8
 79
     2
140
3.5
141
0.0
143
0.0393701
146
0.71
147
1.5
176
   256
177
   256
178
     2
271
     2
272
     3
274
     4
283
     0
284
     8
288
     1
289
     0
340
11
371
    -1
372
    -1
  0
DIMSTYLE
105
2E35
330
A
100
AcDbSymbolTableRecord
100
AcDbDimStyleTableRecord
  2
AM_ISO$4
 70
     0
  4
"
 41
2.5
 42
1.0
 43
10.0
 44
1.0
 47
0.1
 48
0.1
 73
     0
 77
     1
 78
     8
 79
     2
140
3.5
141
0.0
143
0.0393701
146
0.71
147
1.5
176
   256
177
   256
178
     2
271
     2
272
     3
274
     4
283
     0
284
     8
288
     1
289
     0
340
11
371
    -1
372
    -1
  0
DIMSTYLE
105
2E36
330
A
100
AcDbSymbolTableRecord
100
AcDbDimStyleTableRecord
  2
AM_ISO$6
 70
     0
  4
"
 41
2.5
 42
1.0
 43
10.0
 44
1.0
 47
0.1
 48
0.1
 73
     0
 74
     0
 78
     8
 79
     2
140
3.5
141
0.0
143
0.0393701
146
0.71
147
1.5
172
     1
176
   256
177
   256
178
     2
271
     2
272
     3
274
     4
283
     0
284
     8
340
11
371
    -1
372
    -1
  0
DIMSTYLE
105
2E37
330
A
100
AcDbSymbolTableRecord
100
AcDbDimStyleTableRecord
  2
AM_ISO$7
 70
     0
  4
"
 41
2.5
 42
1.0
 43
10.0
 44
1.0
 47
0.1
 48
0.1
 73
     0
 74
     0
 77
     1
 78
     8
 79
     2
140
5.0
141
0.0
143
0.0393701
146
0.71
147
1.5
172
     1
176
   256
177
   256
178
     2
271
     2
272
     3
274
     4
283
     0
284
     8
340
11
371
    -1
372
    -1
  0
DIMSTYLE
105
2E38
330
A
100
AcDbSymbolTableRecord
100
AcDbDimStyleTableRecord
  2
AM_ISO$SF
 70
     0
  4
"
 41
2.5
 42
1.0
 43
10.0
 44
1.0
 47
0.1
 48
0.1
 73
     0
 74
     0
 75
     1
 76
     1
 77
     1
 78
     8
 79
     2
140
3.5
141
0.0
143
0.0393701
146
0.71
147
1.5
172
     1
176
   256
177
   256
178
     2
271
     2
272
     3
274
     4
283
     0
284
     8
340
11
371
    -1
372
    -1
  0
DIMSTYLE
105
2E39
330
A
100
AcDbSymbolTableRecord
100
AcDbDimStyleTableRecord
  2
AM_ISO$SH
 70
     0
  4
"
 41
2.5
 42
1.0
 43
10.0
 44
1.0
 47
0.1
 48
0.1
 73
     0
 74
     0
 75
     1
 76
     1
 77
     1
 78
     8
 79
     2
140
3.5
141
0.0
143
0.0393701
144
2.0
146
0.71
147
1.5
172
     1
173
     1
176
   256
177
   256
178
     2
271
     2
272
     3
274
     4
283
     0
284
     8
340
11
343
2E17
371
    -1
372
    -1
  0
DIMSTYLE
105
2E86
330
A
100
AcDbSymbolTableRecord
100
AcDbDimStyleTableRecord
  2
AM_ISO$0
 70
     0
  4
"
 41
2.5
 42
1.0
 43
10.0
 44
1.0
 47
0.1
 48
0.1
 73
     0
 74
     0
 77
     1
 78
     8
 79
     2
140
3.5
141
0.0
143
0.0393701
146
0.71
147
1.5
171
     3
172
     1
176
   256
177
   256
178
     2
271
     2
272
     2
274
     3
283
     0
284
     8
340
11
371
    -1
372
    -1
  0
ENDTAB
  0
TABLE
  2
BLOCK_RECORD
  5
1
330
0
100
AcDbSymbolTable
 70
    86
  0
BLOCK_RECORD
  5
1F
102
{ACAD_XDICTIONARY
360
C8A
102
}
330
1
100
AcDbSymbolTableRecord
100
AcDbBlockTableRecord
  2
*Model_Space
340
22
  0
BLOCK_RECORD
  5
D2
330
1
100
AcDbSymbolTableRecord
100
AcDbBlockTableRecord
  2
*Paper_Space
340
D3
  0
BLOCK_RECORD
  5
D6
330
1
100
AcDbSymbolTableRecord
100
AcDbBlockTableRecord
  2
*Paper_Space0
340
D7
  0
BLOCK_RECORD
  5
2E17
330
1
100
AcDbSymbolTableRecord
100
AcDbBlockTableRecord
  2
GENAXEH
340
0
  0
BLOCK_RECORD
  5
2E80
330
1
100
AcDbSymbolTableRecord
100
AcDbBlockTableRecord
  2
info
340
0
310
2800000020000000200000000100080000000000000400000000000000000000000000000000000000000000000080000080000000808000800000008000800080800000C0C0C000C0DCC000F0CAA6000020400000206000002080000020A0000020C0000020E00000400000004020000040400000406000004080000040A0
310
000040C0000040E00000600000006020000060400000606000006080000060A0000060C0000060E00000800000008020000080400000806000008080000080A0000080C0000080E00000A0000000A0200000A0400000A0600000A0800000A0A00000A0C00000A0E00000C0000000C0200000C0400000C0600000C0800000C0
310
A00000C0C00000C0E00000E0000000E0200000E0400000E0600000E0800000E0A00000E0C00000E0E00040000000400020004000400040006000400080004000A0004000C0004000E00040200000402020004020400040206000402080004020A0004020C0004020E000404000004040200040404000404060004040800040
310
40A0004040C0004040E00040600000406020004060400040606000406080004060A0004060C0004060E00040800000408020004080400040806000408080004080A0004080C0004080E00040A0000040A0200040A0400040A0600040A0800040A0A00040A0C00040A0E00040C0000040C0200040C0400040C0600040C08000
310
40C0A00040C0C00040C0E00040E0000040E0200040E0400040E0600040E0800040E0A00040E0C00040E0E00080000000800020008000400080006000800080008000A0008000C0008000E00080200000802020008020400080206000802080008020A0008020C0008020E00080400000804020008040400080406000804080
310
008040A0008040C0008040E00080600000806020008060400080606000806080008060A0008060C0008060E00080800000808020008080400080806000808080008080A0008080C0008080E00080A0000080A0200080A0400080A0600080A0800080A0A00080A0C00080A0E00080C0000080C0200080C0400080C0600080C0
310
800080C0A00080C0C00080C0E00080E0000080E0200080E0400080E0600080E0800080E0A00080E0C00080E0E000C0000000C0002000C0004000C0006000C0008000C000A000C000C000C000E000C0200000C0202000C0204000C0206000C0208000C020A000C020C000C020E000C0400000C0402000C0404000C0406000C0
310
408000C040A000C040C000C040E000C0600000C0602000C0604000C0606000C0608000C060A000C060C000C060E000C0800000C0802000C0804000C0806000C0808000C080A000C080C000C080E000C0A00000C0A02000C0A04000C0A06000C0A08000C0A0A000C0A0C000C0A0E000C0C00000C0C02000C0C04000C0C06000
310
C0C08000C0C0A000F0FBFF00A4A0A000808080000000FF0000FF000000FFFF00FF000000FF00FF00FFFF0000FFFFFF00FFFFFFFFFFFFFFFFFFFFFFFFFFFFFFFFFFFFFFFFFFFFFFFFFFFFFFFFFFFFFFFFFFFFFFFFFFFFFFFFFFFFFFFFFFFFFFFFFFFFFFFFFFFFFFFFFFFFFFFFFFFFFFFFFFFFFFFFFFFFFFFFFFFFFFFFFFFFFF
310
FFFFFFFFFFFFFFFFFFFFFFFFFFFFFFFFFFFFFFFFFFFFFFFFFFFFFFFFFFFFFFFFFFFFFFFFFFFFFFFFFFFFFFFFFFFFFFFFFFFFFFFFFFFFFFFFFFFFFFFF00FFFFFFFFFFFFFFFFFFFFFFFFFFFFFFFFFFFFFFFFFFFFFFFFFFFFFFFFFFFF00FFFFFFFFFFFFFFFFFFFFFFFFFFFFFFFFFFFFFFFFFFFFFFFFFFFFFFFFFFFF00FFFFFFFF
310
FFFFFFFFFFFFFFFFFFFFFFFFFFFFFFFFFFFF0000000000FFFFFF00FFFFFFFF00FFFFFF00FFFF000000FFFF0000000000FFFFFFFFFFFFFF000000FFFFFFFFFF00FFFFFF00FF00FFFFFF00FFFFFF00FFFF00FFFFFFFFFFFFFF0000FFFFFFFFFF00FFFFFF00FFFFFFFFFF00FFFFFF00FFFF00FFFFFFFFFFFF00FF00FFFFFFFFFF
310
0000000000FFFFFFFFFF00FFFFFF00FFFF00FFFFFFFFFF00FFFFFF00FFFFFFFF00FFFFFF00FFFFFFFFFF00FFFFFF00FFFF00FFFFFFFF00FFFFFFFF00FFFFFFFF00FFFFFF00FFFFFFFFFF00FFFFFF00FFFF00FF00FF00FFFFFFFFFF00FFFFFFFF00FFFFFF00FFFFFFFFFF00FF0000000000FFFFFF00FFFFFFFFFFFFFF00FFFF
310
FFFFFFFFFFFFFFFFFFFFFFFFFFFFFFFFFFFFFFFF00FF00FFFFFFFFFF00FFFFFFFFFFFFFFFFFFFFFFFFFFFFFFFFFFFFFFFFFFFFFFFFFFFF00FFFFFFFF00FFFFFFFFFFFFFFFFFFFFFFFFFFFFFFFFFFFFFFFFFFFFFFFFFFFFFF00FFFFFF00FFFFFFFFFFFFFFFFFFFFFFFFFFFFFFFFFFFFFFFFFFFFFFFFFFFFFFFF00FF00FFFFFF
310
FFFF00000000FFFF00FFFFFF00FF0000000000FFFFFFFFFFFFFFFF0000FFFFFFFFFFFF00FFFF00FF00FFFF00FFFFFFFF00FFFF00FFFFFFFFFFFF000000FFFFFFFFFFFF00FFFF00FF00FF00FFFFFFFFFF00FFFF00FF0000000000FFFFFF00FFFFFFFFFF000000FFFF00000000FFFFFFFF00FFFF00FFFFFFFFFFFFFFFFFFFF00
310
FFFFFFFF00FFFF00FF00FFFFFF00FFFFFF00FFFF00FFFFFFFFFFFFFFFFFFFFFF00FFFFFF00FFFF00FF00FFFFFF00FFFFFF00FFFF00FFFFFFFFFFFFFFFFFFFFFFFF00FF00000000FFFF00000000FFFF0000000000FFFFFFFFFFFFFFFFFFFFFFFFFFFFFFFFFFFFFFFFFFFFFFFFFFFFFFFFFFFFFFFFFFFFFFFFFFFFFFFFFFFFFF
310
FFFFFFFFFFFFFFFFFFFFFFFFFFFFFFFFFFFFFFFFFFFFFFFFFFFFFFFFFFFFFFFFFFFFFFFFFFFFFFFFFFFFFFFFFFFFFFFFFFFFFFFFFFFFFFFFFFFFFFFFFFFFFFFFFFFFFFFFFFFFFFFFFFFFFFFFFFFFFFFFFFFFFFFFFFFFFFFFFFFFFFFFFFFFFFFFFFFFFFFFFFFFFFFFFFFFFFFFFFFFFFFFFFFFFFFFFFFFFFFFFFFFFFFFFFFFFF
310
FFFFFFFFFFFFFFFFFFFFFFFFFFFFFFFFFFFFFFFFFFFFFFFFFFFFFFFFFFFFFFFFFFFFFFFFFFFFFFFFFFFFFFFFFFFFFFFFFFFFFFFFFFFFFFFF
102
{BLKREFS
331
2E89
331
3214
331
3218
331
321C
331
3220
102
}
1001
ACAD
1000
DesignCenter Data
1002
{
1070
     1
1070
     4
1002
}
  0
BLOCK_RECORD
  5
30ED
330
1
100
AcDbSymbolTableRecord
100
AcDbBlockTableRecord
  2
B8X4
340
0
310
2800000020000000200000000100080000000000000400000000000000000000000000000000000000000000000080000080000000808000800000008000800080800000C0C0C000C0DCC000F0CAA6000020400000206000002080000020A0000020C0000020E00000400000004020000040400000406000004080000040A0
310
000040C0000040E00000600000006020000060400000606000006080000060A0000060C0000060E00000800000008020000080400000806000008080000080A0000080C0000080E00000A0000000A0200000A0400000A0600000A0800000A0A00000A0C00000A0E00000C0000000C0200000C0400000C0600000C0800000C0
310
A00000C0C00000C0E00000E0000000E0200000E0400000E0600000E0800000E0A00000E0C00000E0E00040000000400020004000400040006000400080004000A0004000C0004000E00040200000402020004020400040206000402080004020A0004020C0004020E000404000004040200040404000404060004040800040
310
40A0004040C0004040E00040600000406020004060400040606000406080004060A0004060C0004060E00040800000408020004080400040806000408080004080A0004080C0004080E00040A0000040A0200040A0400040A0600040A0800040A0A00040A0C00040A0E00040C0000040C0200040C0400040C0600040C08000
310
40C0A00040C0C00040C0E00040E0000040E0200040E0400040E0600040E0800040E0A00040E0C00040E0E00080000000800020008000400080006000800080008000A0008000C0008000E00080200000802020008020400080206000802080008020A0008020C0008020E00080400000804020008040400080406000804080
310
008040A0008040C0008040E00080600000806020008060400080606000806080008060A0008060C0008060E00080800000808020008080400080806000808080008080A0008080C0008080E00080A0000080A0200080A0400080A0600080A0800080A0A00080A0C00080A0E00080C0000080C0200080C0400080C0600080C0
310
800080C0A00080C0C00080C0E00080E0000080E0200080E0400080E0600080E0800080E0A00080E0C00080E0E000C0000000C0002000C0004000C0006000C0008000C000A000C000C000C000E000C0200000C0202000C0204000C0206000C0208000C020A000C020C000C020E000C0400000C0402000C0404000C0406000C0
310
408000C040A000C040C000C040E000C0600000C0602000C0604000C0606000C0608000C060A000C060C000C060E000C0800000C0802000C0804000C0806000C0808000C080A000C080C000C080E000C0A00000C0A02000C0A04000C0A06000C0A08000C0A0A000C0A0C000C0A0E000C0C00000C0C02000C0C04000C0C06000
310
C0C08000C0C0A000F0FBFF00A4A0A000808080000000FF0000FF000000FFFF00FF000000FF00FF00FFFF0000FFFFFF0000000000000000000000000000000000000000000000000000000000000000000000000000000000000000000000000000000000000000000000000000000000000000000000000000000000000000
310
00000000000000000000000000000000000000000000000000000000000000000000000000000000000000000000000000000000000000000000000000000000000000000000000000000000000000000000000000000000000000000000000000000000000000000000000000000000000000000000000000000000000000
310
00000000000000000000000000000000000000000000FAFAFAFAFAFAFAFAFAFAFAFBFBFBFBFBFAFAFAFAFAFAFAFAFAFAFA0000000000FA00FAFAFAFAFAFAFBFBFBFBFBFB000000000000000000000000FA000000FAFAFAFFFAFFFFFFFFFAFBFBFBFBFBFBFFFFFFFFFFFFFFFFFFFFFFFFFA000000FA00FFFFFFFFFFFFFFFFFF
310
FFFFFFFFFFFFFFFFFFFFFFFFFFFFFFFFFFFF000000FAFAFAFAFAFFFFFFFFFFFFFFFFFFFFFFFFFFFFFFFFFFFFFFFFFFFF00FF000000FAFAFF00FF00000000FFFF00000000FF00000000FFFF00000000FF00FF000000FAFAFF00FF00000000FFFF00000000FF00000000FFFF00000000FF00FF0000FBFBFBFF00FF00000000FF
310
FF00000000FF00000000FFFF00000000FF00FF0000FBFBFBFF00FF00000000FFFF00000000FF00000000FFFF00000000FF00FF0000FBFBFBFF00FF00000000FFFF00000000FF00000000FFFF00000000FF00FF0000FBFBFBFF00FF00000000FFFF00000000FF00000000FFFF00000000FF00FF0000FBFBFBFF00FF00000000
310
FFFF00000000FF00000000FFFF00000000FF00FF0000FBFBFBFF00FF00000000FFFF00000000FF00000000FFFF00000000FF00FF000000FAFAFF00FF00000000FFFF00000000FF00000000FFFF00000000FF00FF000000FAFAFF00FF00000000FFFF00000000FF00000000FFFF00000000FF00FF000000FAFAFF00FF000000
310
00FFFF00000000FF00000000FFFF00000000FF00FF000000FAFAFAFAFAFFFFFFFFFFFFFFFFFFFFFFFFFFFFFFFFFFFFFFFFFFFF00FF000000FAFAFAFFFFFFFFFFFFFFFFFFFFFFFFFFFFFFFFFFFFFFFFFFFFFFFFFFFF000000000000000000000000000000000000000000000000000000000000000000000000000000000000
310
00000000000000000000000000000000000000000000000000000000000000000000000000000000000000000000000000000000000000000000000000000000000000000000000000000000000000000000000000000000000000000000000000000000000000000000000000000000000000000000000000000000000000
310
0000000000000000000000000000000000000000000000000000000000000000000000000000000000000000000000000000000000000000
102
{BLKREFS
331
323D
102
}
1001
ACAD
1000
DesignCenter Data
1002
{
1070
     1
1070
     4
1002
}
  0
ENDTAB
  0
ENDSEC
  0
SECTION
  2
BLOCKS
  0
BLOCK
  5
20
330
1F
100
AcDbEntity
  8
0
100
AcDbBlockBegin
  2
*Model_Space
 70
     0
 10
0.0
 20
0.0
 30
0.0
  3
*Model_Space
  1

  0
ENDBLK
  5
21
330
1F
100
AcDbEntity
  8
0
100
AcDbBlockEnd
  0
BLOCK
  5
D4
330
D2
100
AcDbEntity
 67
     1
  8
0
100
AcDbBlockBegin
  2
*Paper_Space
 70
     0
 10
0.0
 20
0.0
 30
0.0
  3
*Paper_Space
  1

  0
ENDBLK
  5
D5
330
D2
100
AcDbEntity
 67
     1
  8
0
100
AcDbBlockEnd
  0
BLOCK
  5
D8
330
D6
100
AcDbEntity
 67
     1
  8
0
100
AcDbBlockBegin
  2
*Paper_Space0
 70
     0
 10
0.0
 20
0.0
 30
0.0
  3
*Paper_Space0
  1

  0
ENDBLK
  5
D9
330
D6
100
AcDbEntity
 67
     1
  8
0
100
AcDbBlockEnd
  0
BLOCK
  5
2E18
330
2E17
100
AcDbEntity
  8
0
100
AcDbBlockBegin
  2
GENAXEH
 70
     0
 10
0.0
 20
0.0
 30
0.0
  3
GENAXEH
  1

  0
LINE
  5
2E19
330
2E17
100
AcDbEntity
  8
0
100
AcDbLine
 10
-1.0
 20
0.0
 30
0.0
 11
1.0
 21
0.0
 31
0.0
  0
ENDBLK
  5
2E1A
330
2E17
100
AcDbEntity
  8
0
100
AcDbBlockEnd
  0
BLOCK
  5
2E81
330
2E80
100
AcDbEntity
  8
0
100
AcDbBlockBegin
  2
info
 70
     2
 10
0.0
 20
0.0
 30
0.0
  3
info
  1

  0
POINT
  5
2E82
330
2E80
100
AcDbEntity
  8
0
100
AcDbPoint
 10
0.0
 20
0.0
 30
0.0
  0
ATTDEF
  5
2E83
330
2E80
100
AcDbEntity
  8
0
100
AcDbText
 10
9.467092950319427
 20
2.891095235479383
 30
0.00000001
 40
5.0
  1

100
AcDbAttributeDefinition
  3
bredd
  2
BRD
 70
     1
1001
AcDbAttr
1070
     0
1070
     1
  0
ATTDEF
  5
2E84
330
2E80
100
AcDbEntity
  8
0
100
AcDbText
 10
9.467092950319427
 20
-5.442238097853946
 30
0.00000001
 40
5.0
  1

100
AcDbAttributeDefinition
  3
Höjd
  2
HJD
 70
     1
1001
AcDbAttr
1070
     0
1070
     1
  0
ENDBLK
  5
2E85
330
2E80
100
AcDbEntity
  8
0
100
AcDbBlockEnd
  0
BLOCK
  5
30EE
330
30ED
100
AcDbEntity
  8
0
100
AcDbBlockBegin
  2
B8X4
 70
     0
 10
0.0
 20
0.0
 30
0.0
  3
B8X4
  1

  0
CIRCLE
  5
30F0
330
30ED
100
AcDbEntity
  8
AM0
100
AcDbCircle
 10
-281.0
 20
166.9999999999996
 30
0.0
 40
4.5
  0
CIRCLE
  5
30F1
330
30ED
100
AcDbEntity
  8
AM0
100
AcDbCircle
 10
-281.0
 20
-166.9999999999999
 30
0.0
 40
4.5
  0
LWPOLYLINE
  5
30F2
330
30ED
100
AcDbEntity
  8
AM0
100
AcDbPolyline
 90
        4
 70
     1
 43
0.0
 10
-253.0
 20
-138.9999999999997
 10
-132.5
 20
-138.9999999999997
 10
-132.5
 20
138.9999999999996
 10
-253.0
 20
138.9999999999996
  0
LINE
  5
30F3
330
30ED
100
AcDbEntity
  8
AM0
100
AcDbLine
 10
-253.0
 20
138.9999999999996
 30
0.0
 11
-253.0
 21
178.9999999999995
 31
0.0
  0
LINE
  5
30F4
330
30ED
100
AcDbEntity
  8
AM0
100
AcDbLine
 10
-257.9999999999999
 20
-178.9999999999999
 30
0.0
 11
-257.9999999999999
 21
178.9999999999995
 31
0.0
  0
LINE
  5
30F5
330
30ED
100
AcDbEntity
  8
AM0
100
AcDbLine
 10
-132.5
 20
143.9999999999996
 30
0.0
 11
-253.0
 21
143.9999999999996
 31
0.0
  0
LINE
  5
30F6
330
30ED
100
AcDbEntity
  8
AM0
100
AcDbLine
 10
293.0
 20
-178.9999999999999
 30
0.0
 11
-292.9999999999999
 21
-178.9999999999999
 31
0.0
  0
LINE
  5
30F7
330
30ED
100
AcDbEntity
  8
AM0
100
AcDbLine
 10
293.0
 20
178.9999999999995
 30
0.0
 11
-292.9999999999999
 21
178.9999999999995
 31
0.0
  0
LINE
  5
30F8
330
30ED
100
AcDbEntity
  8
AM0
100
AcDbLine
 10
-292.9999999999999
 20
-178.9999999999999
 30
0.0
 11
-292.9999999999999
 21
178.9999999999995
 31
0.0
  0
LINE
  5
30F9
330
30ED
100
AcDbEntity
  8
AM0
100
AcDbLine
 10
258.0
 20
-178.9999999999999
 30
0.0
 11
258.0
 21
178.9999999999995
 31
0.0
  0
LINE
  5
30FA
330
30ED
100
AcDbEntity
  8
AM0
100
AcDbLine
 10
293.0
 20
-178.9999999999999
 30
0.0
 11
293.0
 21
178.9999999999995
 31
0.0
  0
CIRCLE
  5
30FB
330
30ED
100
AcDbEntity
  8
AM0
100
AcDbCircle
 10
280.9999999999991
 20
166.9999999999996
 30
0.0
 40
4.5
  0
CIRCLE
  5
30FC
330
30ED
100
AcDbEntity
  8
AM0
100
AcDbCircle
 10
280.9999999999991
 20
-166.9999999999999
 30
0.0
 40
4.5
  0
LINE
  5
30FD
330
30ED
100
AcDbEntity
  8
AM0
100
AcDbLine
 10
-253.0
 20
-138.9999999999997
 30
0.0
 11
-253.0
 21
-178.9999999999999
 31
0.0
  0
LINE
  5
30FE
330
30ED
100
AcDbEntity
  8
AM0
100
AcDbLine
 10
-132.5
 20
-143.9999999999999
 30
0.0
 11
-253.0
 21
-143.9999999999999
 31
0.0
  0
CIRCLE
  5
30FF
330
30ED
100
AcDbEntity
  8
AM0
100
AcDbCircle
 10
-192.75
 20
166.9999999999996
 30
0.0
 40
4.5
  0
CIRCLE
  5
3100
330
30ED
100
AcDbEntity
  8
AM0
100
AcDbCircle
 10
-192.75
 20
-166.9999999999999
 30
0.0
 40
4.5
  0
LINE
  5
3101
330
30ED
100
AcDbEntity
  8
AM0
  6
Continuous
100
AcDbLine
 10
228.0
 20
152.9999999999996
 30
0.0
 11
228.0
 21
160.9999999999996
 31
0.0
  0
LINE
  5
3102
330
30ED
100
AcDbEntity
  8
AM0
  6
Continuous
100
AcDbLine
 10
241.5999999999999
 20
152.9585481156729
 30
0.0
 11
241.5999999999999
 21
148.9170962313449
 31
0.0
  0
LINE
  5
3103
330
30ED
100
AcDbEntity
  8
AM0
  6
Continuous
100
AcDbLine
 10
247.9999999999991
 20
148.9170962313449
 30
0.0
 11
241.5999999999999
 21
148.9170962313449
 31
0.0
  0
LINE
  5
3104
330
30ED
100
AcDbEntity
  8
AM0
  6
Continuous
100
AcDbLine
 10
241.5999999999999
 20
148.9170962313449
 30
0.0
 11
241.5999999999999
 21
152.9585481156729
 31
0.0
  0
LINE
  5
3105
330
30ED
100
AcDbEntity
  8
AM0
  6
Continuous
100
AcDbLine
 10
247.9999999999991
 20
165.0829037686547
 30
0.0
 11
241.5999999999999
 21
165.0829037686547
 31
0.0
  0
LINE
  5
3106
330
30ED
100
AcDbEntity
  8
AM0
  6
Continuous
100
AcDbLine
 10
241.5999999999999
 20
165.0829037686547
 30
0.0
 11
241.5999999999999
 21
161.0414518843269
 31
0.0
  0
LINE
  5
3107
330
30ED
100
AcDbEntity
  8
AM0
  6
Continuous
100
AcDbLine
 10
241.5999999999999
 20
161.0414518843269
 30
0.0
 11
241.5999999999999
 21
152.9585481156729
 31
0.0
  0
LINE
  5
3108
330
30ED
100
AcDbEntity
  8
AM0
  6
Continuous
100
AcDbLine
 10
258.0
 20
165.0829037686547
 30
0.0
 11
263.5999999999999
 21
165.0829037686547
 31
0.0
  0
LINE
  5
3109
330
30ED
100
AcDbEntity
  8
AM0
  6
Continuous
100
AcDbLine
 10
258.0
 20
148.9170962313449
 30
0.0
 11
263.5999999999999
 21
148.9170962313449
 31
0.0
  0
LINE
  5
310A
330
30ED
100
AcDbEntity
  8
AM0
  6
Continuous
100
AcDbLine
 10
241.5999999999999
 20
152.9999999999996
 30
0.0
 11
228.0
 21
152.9999999999996
 31
0.0
  0
LINE
  5
310B
330
30ED
100
AcDbEntity
  8
AM0
  6
Continuous
100
AcDbLine
 10
228.0
 20
160.9999999999996
 30
0.0
 11
241.5999999999999
 21
160.9999999999996
 31
0.0
  0
LINE
  5
310C
330
30ED
100
AcDbEntity
  8
AM0
  6
Continuous
100
AcDbLine
 10
253.0
 20
143.9999999999996
 30
0.0
 11
253.0
 21
168.9999999999995
 31
0.0
  0
LINE
  5
310D
330
30ED
100
AcDbEntity
  8
AM0
  6
Continuous
100
AcDbLine
 10
253.0
 20
168.9999999999995
 30
0.0
 11
247.9999999999991
 21
168.9999999999995
 31
0.0
  0
LINE
  5
310E
330
30ED
100
AcDbEntity
  8
AM0
  6
Continuous
100
AcDbLine
 10
253.0
 20
143.9999999999996
 30
0.0
 11
247.9999999999991
 21
143.9999999999996
 31
0.0
  0
LINE
  5
310F
330
30ED
100
AcDbEntity
  8
AM0
100
AcDbLine
 10
247.9999999999991
 20
168.9999999999995
 30
0.0
 11
247.9999999999991
 21
143.9999999999996
 31
0.0
  0
LINE
  5
3110
330
30ED
100
AcDbEntity
  8
AM0
100
AcDbLine
 10
247.9999999999991
 20
165.0829037686547
 30
0.0
 11
247.9999999999991
 21
148.9170962313449
 31
0.0
  0
LINE
  5
3111
330
30ED
100
AcDbEntity
  8
AM0
  6
ACAD_ISO02W100
100
AcDbLine
 10
241.5999999999999
 20
160.9999999999996
 30
0.0
 11
258.0
 21
160.9999999999996
 31
0.0
  0
LINE
  5
3112
330
30ED
100
AcDbEntity
  8
AM0
  6
ACAD_ISO02W100
100
AcDbLine
 10
241.5999999999999
 20
152.9999999999996
 30
0.0
 11
258.0
 21
152.9999999999996
 31
0.0
  0
LINE
  5
3113
330
30ED
100
AcDbEntity
  8
AM0
100
AcDbLine
 10
263.5999999999999
 20
165.0829037686547
 30
0.0
 11
263.5999999999999
 21
148.9170962313449
 31
0.0
  0
LINE
  5
3114
330
30ED
100
AcDbEntity
  8
AM0
100
AcDbLine
 10
258.0
 20
160.9999999999996
 30
0.0
 11
263.5999999999999
 21
160.9999999999996
 31
0.0
  0
LINE
  5
3115
330
30ED
100
AcDbEntity
  8
AM0
100
AcDbLine
 10
258.0
 20
152.9999999999996
 30
0.0
 11
263.5999999999999
 21
152.9999999999996
 31
0.0
  0
LINE
  5
3116
330
30ED
100
AcDbEntity
  8
AM0
100
AcDbLine
 10
253.0
 20
138.9999999999996
 30
0.0
 11
253.0
 21
178.9999999999995
 31
0.0
  0
LINE
  5
3117
330
30ED
100
AcDbEntity
  8
AM0
100
AcDbLine
 10
253.0
 20
-138.9999999999997
 30
0.0
 11
253.0
 21
-178.9999999999999
 31
0.0
  0
LINE
  5
3118
330
30ED
100
AcDbEntity
  8
AM0
  6
Continuous
100
AcDbLine
 10
-228.0
 20
152.9999999999996
 30
0.0
 11
-228.0
 21
160.9999999999996
 31
0.0
  0
LINE
  5
3119
330
30ED
100
AcDbEntity
  8
AM0
  6
Continuous
100
AcDbLine
 10
-241.6000000000003
 20
152.9585481156729
 30
0.0
 11
-241.6000000000003
 21
148.9170962313449
 31
0.0
  0
LINE
  5
311A
330
30ED
100
AcDbEntity
  8
AM0
  6
Continuous
100
AcDbLine
 10
-248.0
 20
148.9170962313449
 30
0.0
 11
-241.6000000000003
 21
148.9170962313449
 31
0.0
  0
LINE
  5
311B
330
30ED
100
AcDbEntity
  8
AM0
  6
Continuous
100
AcDbLine
 10
-241.6000000000003
 20
148.9170962313449
 30
0.0
 11
-241.6000000000003
 21
152.9585481156729
 31
0.0
  0
LINE
  5
311C
330
30ED
100
AcDbEntity
  8
AM0
  6
Continuous
100
AcDbLine
 10
-248.0
 20
165.0829037686547
 30
0.0
 11
-241.6000000000003
 21
165.0829037686547
 31
0.0
  0
LINE
  5
311D
330
30ED
100
AcDbEntity
  8
AM0
  6
Continuous
100
AcDbLine
 10
-241.6000000000003
 20
165.0829037686547
 30
0.0
 11
-241.6000000000003
 21
161.0414518843269
 31
0.0
  0
LINE
  5
311E
330
30ED
100
AcDbEntity
  8
AM0
  6
Continuous
100
AcDbLine
 10
-241.6000000000003
 20
161.0414518843269
 30
0.0
 11
-241.6000000000003
 21
152.9585481156729
 31
0.0
  0
LINE
  5
311F
330
30ED
100
AcDbEntity
  8
AM0
  6
Continuous
100
AcDbLine
 10
-257.9999999999999
 20
165.0829037686547
 30
0.0
 11
-263.6000000000004
 21
165.0829037686547
 31
0.0
  0
LINE
  5
3120
330
30ED
100
AcDbEntity
  8
AM0
  6
Continuous
100
AcDbLine
 10
-257.9999999999999
 20
148.9170962313449
 30
0.0
 11
-263.6000000000004
 21
148.9170962313449
 31
0.0
  0
LINE
  5
3121
330
30ED
100
AcDbEntity
  8
AM0
  6
Continuous
100
AcDbLine
 10
-241.6000000000003
 20
152.9999999999996
 30
0.0
 11
-228.0
 21
152.9999999999996
 31
0.0
  0
LINE
  5
3122
330
30ED
100
AcDbEntity
  8
AM0
  6
Continuous
100
AcDbLine
 10
-228.0
 20
160.9999999999996
 30
0.0
 11
-241.6000000000003
 21
160.9999999999996
 31
0.0
  0
LINE
  5
3123
330
30ED
100
AcDbEntity
  8
AM0
  6
Continuous
100
AcDbLine
 10
-253.0
 20
143.9999999999996
 30
0.0
 11
-253.0
 21
168.9999999999995
 31
0.0
  0
LINE
  5
3124
330
30ED
100
AcDbEntity
  8
AM0
  6
Continuous
100
AcDbLine
 10
-253.0
 20
168.9999999999995
 30
0.0
 11
-248.0
 21
168.9999999999995
 31
0.0
  0
LINE
  5
3125
330
30ED
100
AcDbEntity
  8
AM0
  6
Continuous
100
AcDbLine
 10
-253.0
 20
143.9999999999996
 30
0.0
 11
-248.0
 21
143.9999999999996
 31
0.0
  0
LINE
  5
3126
330
30ED
100
AcDbEntity
  8
AM0
100
AcDbLine
 10
-248.0
 20
168.9999999999995
 30
0.0
 11
-248.0
 21
143.9999999999996
 31
0.0
  0
LINE
  5
3127
330
30ED
100
AcDbEntity
  8
AM0
100
AcDbLine
 10
-248.0
 20
165.0829037686547
 30
0.0
 11
-248.0
 21
148.9170962313449
 31
0.0
  0
LINE
  5
3128
330
30ED
100
AcDbEntity
  8
AM0
  6
ACAD_ISO02W100
100
AcDbLine
 10
-241.6000000000003
 20
160.9999999999996
 30
0.0
 11
-257.9999999999999
 21
160.9999999999996
 31
0.0
  0
LINE
  5
3129
330
30ED
100
AcDbEntity
  8
AM0
  6
ACAD_ISO02W100
100
AcDbLine
 10
-241.6000000000003
 20
152.9999999999996
 30
0.0
 11
-257.9999999999999
 21
152.9999999999996
 31
0.0
  0
LINE
  5
312A
330
30ED
100
AcDbEntity
  8
AM0
100
AcDbLine
 10
-263.6000000000004
 20
165.0829037686547
 30
0.0
 11
-263.6000000000004
 21
148.9170962313449
 31
0.0
  0
LINE
  5
312B
330
30ED
100
AcDbEntity
  8
AM0
100
AcDbLine
 10
-257.9999999999999
 20
160.9999999999996
 30
0.0
 11
-263.6000000000004
 21
160.9999999999996
 31
0.0
  0
LINE
  5
312C
330
30ED
100
AcDbEntity
  8
AM0
100
AcDbLine
 10
-257.9999999999999
 20
152.9999999999996
 30
0.0
 11
-263.6000000000004
 21
152.9999999999996
 31
0.0
  0
LINE
  5
312D
330
30ED
100
AcDbEntity
  8
AM0
  6
Continuous
100
AcDbLine
 10
-228.0
 20
-152.9999999999999
 30
0.0
 11
-228.0
 21
-160.9999999999999
 31
0.0
  0
LINE
  5
312E
330
30ED
100
AcDbEntity
  8
AM0
  6
Continuous
100
AcDbLine
 10
-241.6000000000003
 20
-152.9585481156726
 30
0.0
 11
-241.6000000000003
 21
-148.917096231345
 31
0.0
  0
LINE
  5
312F
330
30ED
100
AcDbEntity
  8
AM0
  6
Continuous
100
AcDbLine
 10
-248.0
 20
-148.917096231345
 30
0.0
 11
-241.6000000000003
 21
-148.917096231345
 31
0.0
  0
LINE
  5
3130
330
30ED
100
AcDbEntity
  8
AM0
  6
Continuous
100
AcDbLine
 10
-241.6000000000003
 20
-148.917096231345
 30
0.0
 11
-241.6000000000003
 21
-152.9585481156726
 31
0.0
  0
LINE
  5
3131
330
30ED
100
AcDbEntity
  8
AM0
  6
Continuous
100
AcDbLine
 10
-248.0
 20
-165.0829037686544
 30
0.0
 11
-241.6000000000003
 21
-165.0829037686544
 31
0.0
  0
LINE
  5
3132
330
30ED
100
AcDbEntity
  8
AM0
  6
Continuous
100
AcDbLine
 10
-241.6000000000003
 20
-165.0829037686544
 30
0.0
 11
-241.6000000000003
 21
-161.0414518843271
 31
0.0
  0
LINE
  5
3133
330
30ED
100
AcDbEntity
  8
AM0
  6
Continuous
100
AcDbLine
 10
-241.6000000000003
 20
-161.0414518843271
 30
0.0
 11
-241.6000000000003
 21
-152.9585481156726
 31
0.0
  0
LINE
  5
3134
330
30ED
100
AcDbEntity
  8
AM0
  6
Continuous
100
AcDbLine
 10
-257.9999999999999
 20
-165.0829037686544
 30
0.0
 11
-263.6000000000004
 21
-165.0829037686544
 31
0.0
  0
LINE
  5
3135
330
30ED
100
AcDbEntity
  8
AM0
  6
Continuous
100
AcDbLine
 10
-257.9999999999999
 20
-148.917096231345
 30
0.0
 11
-263.6000000000004
 21
-148.917096231345
 31
0.0
  0
LINE
  5
3136
330
30ED
100
AcDbEntity
  8
AM0
  6
Continuous
100
AcDbLine
 10
-241.6000000000003
 20
-152.9999999999999
 30
0.0
 11
-228.0
 21
-152.9999999999999
 31
0.0
  0
LINE
  5
3137
330
30ED
100
AcDbEntity
  8
AM0
  6
Continuous
100
AcDbLine
 10
-228.0
 20
-160.9999999999999
 30
0.0
 11
-241.6000000000003
 21
-160.9999999999999
 31
0.0
  0
LINE
  5
3138
330
30ED
100
AcDbEntity
  8
AM0
  6
Continuous
100
AcDbLine
 10
-253.0
 20
-143.9999999999999
 30
0.0
 11
-253.0
 21
-168.9999999999999
 31
0.0
  0
LINE
  5
3139
330
30ED
100
AcDbEntity
  8
AM0
  6
Continuous
100
AcDbLine
 10
-253.0
 20
-168.9999999999999
 30
0.0
 11
-248.0
 21
-168.9999999999999
 31
0.0
  0
LINE
  5
313A
330
30ED
100
AcDbEntity
  8
AM0
  6
Continuous
100
AcDbLine
 10
-253.0
 20
-143.9999999999999
 30
0.0
 11
-248.0
 21
-143.9999999999999
 31
0.0
  0
LINE
  5
313B
330
30ED
100
AcDbEntity
  8
AM0
100
AcDbLine
 10
-248.0
 20
-168.9999999999999
 30
0.0
 11
-248.0
 21
-143.9999999999999
 31
0.0
  0
LINE
  5
313C
330
30ED
100
AcDbEntity
  8
AM0
100
AcDbLine
 10
-248.0
 20
-165.0829037686544
 30
0.0
 11
-248.0
 21
-148.917096231345
 31
0.0
  0
LINE
  5
313D
330
30ED
100
AcDbEntity
  8
AM0
  6
ACAD_ISO02W100
100
AcDbLine
 10
-241.6000000000003
 20
-160.9999999999999
 30
0.0
 11
-257.9999999999999
 21
-160.9999999999999
 31
0.0
  0
LINE
  5
313E
330
30ED
100
AcDbEntity
  8
AM0
  6
ACAD_ISO02W100
100
AcDbLine
 10
-241.6000000000003
 20
-152.9999999999999
 30
0.0
 11
-257.9999999999999
 21
-152.9999999999999
 31
0.0
  0
LINE
  5
313F
330
30ED
100
AcDbEntity
  8
AM0
100
AcDbLine
 10
-263.6000000000004
 20
-165.0829037686544
 30
0.0
 11
-263.6000000000004
 21
-148.917096231345
 31
0.0
  0
LINE
  5
3140
330
30ED
100
AcDbEntity
  8
AM0
100
AcDbLine
 10
-257.9999999999999
 20
-160.9999999999999
 30
0.0
 11
-263.6000000000004
 21
-160.9999999999999
 31
0.0
  0
LINE
  5
3141
330
30ED
100
AcDbEntity
  8
AM0
100
AcDbLine
 10
-257.9999999999999
 20
-152.9999999999999
 30
0.0
 11
-263.6000000000004
 21
-152.9999999999999
 31
0.0
  0
LINE
  5
3142
330
30ED
100
AcDbEntity
  8
AM0
  6
Continuous
100
AcDbLine
 10
228.0
 20
-152.9999999999999
 30
0.0
 11
228.0
 21
-160.9999999999999
 31
0.0
  0
LINE
  5
3143
330
30ED
100
AcDbEntity
  8
AM0
  6
Continuous
100
AcDbLine
 10
241.5999999999999
 20
-152.9585481156726
 30
0.0
 11
241.5999999999999
 21
-148.917096231345
 31
0.0
  0
LINE
  5
3144
330
30ED
100
AcDbEntity
  8
AM0
  6
Continuous
100
AcDbLine
 10
247.9999999999991
 20
-148.917096231345
 30
0.0
 11
241.5999999999999
 21
-148.917096231345
 31
0.0
  0
LINE
  5
3145
330
30ED
100
AcDbEntity
  8
AM0
  6
Continuous
100
AcDbLine
 10
241.5999999999999
 20
-148.917096231345
 30
0.0
 11
241.5999999999999
 21
-152.9585481156726
 31
0.0
  0
LINE
  5
3146
330
30ED
100
AcDbEntity
  8
AM0
  6
Continuous
100
AcDbLine
 10
247.9999999999991
 20
-165.0829037686544
 30
0.0
 11
241.5999999999999
 21
-165.0829037686544
 31
0.0
  0
LINE
  5
3147
330
30ED
100
AcDbEntity
  8
AM0
  6
Continuous
100
AcDbLine
 10
241.5999999999999
 20
-165.0829037686544
 30
0.0
 11
241.5999999999999
 21
-161.0414518843271
 31
0.0
  0
LINE
  5
3148
330
30ED
100
AcDbEntity
  8
AM0
  6
Continuous
100
AcDbLine
 10
241.5999999999999
 20
-161.0414518843271
 30
0.0
 11
241.5999999999999
 21
-152.9585481156726
 31
0.0
  0
LINE
  5
3149
330
30ED
100
AcDbEntity
  8
AM0
  6
Continuous
100
AcDbLine
 10
258.0
 20
-165.0829037686544
 30
0.0
 11
263.5999999999999
 21
-165.0829037686544
 31
0.0
  0
LINE
  5
314A
330
30ED
100
AcDbEntity
  8
AM0
  6
Continuous
100
AcDbLine
 10
258.0
 20
-148.917096231345
 30
0.0
 11
263.5999999999999
 21
-148.917096231345
 31
0.0
  0
LINE
  5
314B
330
30ED
100
AcDbEntity
  8
AM0
  6
Continuous
100
AcDbLine
 10
241.5999999999999
 20
-152.9999999999999
 30
0.0
 11
228.0
 21
-152.9999999999999
 31
0.0
  0
LINE
  5
314C
330
30ED
100
AcDbEntity
  8
AM0
  6
Continuous
100
AcDbLine
 10
228.0
 20
-160.9999999999999
 30
0.0
 11
241.5999999999999
 21
-160.9999999999999
 31
0.0
  0
LINE
  5
314D
330
30ED
100
AcDbEntity
  8
AM0
  6
Continuous
100
AcDbLine
 10
253.0
 20
-143.9999999999999
 30
0.0
 11
253.0
 21
-168.9999999999999
 31
0.0
  0
LINE
  5
314E
330
30ED
100
AcDbEntity
  8
AM0
  6
Continuous
100
AcDbLine
 10
253.0
 20
-168.9999999999999
 30
0.0
 11
247.9999999999991
 21
-168.9999999999999
 31
0.0
  0
LINE
  5
314F
330
30ED
100
AcDbEntity
  8
AM0
  6
Continuous
100
AcDbLine
 10
253.0
 20
-143.9999999999999
 30
0.0
 11
247.9999999999991
 21
-143.9999999999999
 31
0.0
  0
LINE
  5
3150
330
30ED
100
AcDbEntity
  8
AM0
100
AcDbLine
 10
247.9999999999991
 20
-168.9999999999999
 30
0.0
 11
247.9999999999991
 21
-143.9999999999999
 31
0.0
  0
LINE
  5
3151
330
30ED
100
AcDbEntity
  8
AM0
100
AcDbLine
 10
247.9999999999991
 20
-165.0829037686544
 30
0.0
 11
247.9999999999991
 21
-148.917096231345
 31
0.0
  0
LINE
  5
3152
330
30ED
100
AcDbEntity
  8
AM0
  6
ACAD_ISO02W100
100
AcDbLine
 10
241.5999999999999
 20
-160.9999999999999
 30
0.0
 11
258.0
 21
-160.9999999999999
 31
0.0
  0
LINE
  5
3153
330
30ED
100
AcDbEntity
  8
AM0
  6
ACAD_ISO02W100
100
AcDbLine
 10
241.5999999999999
 20
-152.9999999999999
 30
0.0
 11
258.0
 21
-152.9999999999999
 31
0.0
  0
LINE
  5
3154
330
30ED
100
AcDbEntity
  8
AM0
100
AcDbLine
 10
263.5999999999999
 20
-165.0829037686544
 30
0.0
 11
263.5999999999999
 21
-148.917096231345
 31
0.0
  0
LINE
  5
3155
330
30ED
100
AcDbEntity
  8
AM0
100
AcDbLine
 10
258.0
 20
-160.9999999999999
 30
0.0
 11
263.5999999999999
 21
-160.9999999999999
 31
0.0
  0
LINE
  5
3156
330
30ED
100
AcDbEntity
  8
AM0
100
AcDbLine
 10
258.0
 20
-152.9999999999999
 30
0.0
 11
263.5999999999999
 21
-152.9999999999999
 31
0.0
  0
LWPOLYLINE
  5
3157
330
30ED
100
AcDbEntity
  8
AM0
100
AcDbPolyline
 90
        4
 70
     1
 43
0.0
 10
-124.5
 20
-138.9999999999997
 10
-3.99999999999909
 20
-138.9999999999997
 10
-3.99999999999909
 20
138.9999999999996
 10
-124.5
 20
138.9999999999996
  0
LINE
  5
3158
330
30ED
100
AcDbEntity
  8
AM0
100
AcDbLine
 10
-132.5
 20
138.9999999999996
 30
0.0
 11
-132.5
 21
178.9999999999995
 31
0.0
  0
LINE
  5
3159
330
30ED
100
AcDbEntity
  8
AM0
100
AcDbLine
 10
-132.5
 20
-138.9999999999997
 30
0.0
 11
-132.5
 21
-178.9999999999999
 31
0.0
  0
LINE
  5
315A
330
30ED
100
AcDbEntity
  8
AM0
100
AcDbLine
 10
-124.5
 20
138.9999999999996
 30
0.0
 11
-124.5
 21
178.9999999999995
 31
0.0
  0
LINE
  5
315B
330
30ED
100
AcDbEntity
  8
AM0
100
AcDbLine
 10
-3.99999999999909
 20
143.9999999999996
 30
0.0
 11
-124.5
 21
143.9999999999996
 31
0.0
  0
LINE
  5
315C
330
30ED
100
AcDbEntity
  8
AM0
100
AcDbLine
 10
-124.5
 20
-138.9999999999997
 30
0.0
 11
-124.5
 21
-178.9999999999999
 31
0.0
  0
LINE
  5
315D
330
30ED
100
AcDbEntity
  8
AM0
100
AcDbLine
 10
-3.99999999999909
 20
-143.9999999999999
 30
0.0
 11
-124.5
 21
-143.9999999999999
 31
0.0
  0
CIRCLE
  5
315E
330
30ED
100
AcDbEntity
  8
AM0
100
AcDbCircle
 10
-64.24999999999909
 20
166.9999999999996
 30
0.0
 40
4.5
  0
CIRCLE
  5
315F
330
30ED
100
AcDbEntity
  8
AM0
100
AcDbCircle
 10
-64.24999999999909
 20
-166.9999999999999
 30
0.0
 40
4.5
  0
LINE
  5
3160
330
30ED
100
AcDbEntity
  8
AM0
100
AcDbLine
 10
-132.5
 20
138.9999999999996
 30
0.0
 11
-132.5
 21
178.9999999999995
 31
0.0
  0
LINE
  5
3161
330
30ED
100
AcDbEntity
  8
AM0
100
AcDbLine
 10
-132.5
 20
-138.9999999999997
 30
0.0
 11
-132.5
 21
-178.9999999999999
 31
0.0
  0
LINE
  5
3162
330
30ED
100
AcDbEntity
  8
AM0
  6
Continuous
100
AcDbLine
 10
-105.5
 20
160.9999999999996
 30
0.0
 11
-105.5
 21
152.9999999999996
 31
0.0
  0
LINE
  5
3163
330
30ED
100
AcDbEntity
  8
AM0
  6
ACAD_ISO02W100
100
AcDbLine
 10
-137.4999999999991
 20
161.0414518843287
 30
0.0
 11
-113.0999999999999
 21
160.9999999999996
 31
0.0
  0
LINE
  5
3164
330
30ED
100
AcDbEntity
  8
AM0
  6
Continuous
100
AcDbLine
 10
-119.4999999999991
 20
165.0829037686557
 30
0.0
 11
-113.0999999999999
 21
165.0829037686557
 31
0.0
  0
LINE
  5
3165
330
30ED
100
AcDbEntity
  8
AM0
  6
Continuous
100
AcDbLine
 10
-119.4999999999991
 20
148.9170962313468
 30
0.0
 11
-113.0999999999999
 21
148.9170962313468
 31
0.0
  0
LINE
  5
3166
330
30ED
100
AcDbEntity
  8
AM0
  6
Continuous
100
AcDbLine
 10
-143.0999999999999
 20
152.9585481156738
 30
0.0
 11
-143.0999999999999
 21
148.9170962313468
 31
0.0
  0
LINE
  5
3167
330
30ED
100
AcDbEntity
  8
AM0
  6
Continuous
100
AcDbLine
 10
-137.4999999999991
 20
148.9170962313468
 30
0.0
 11
-143.0999999999999
 21
148.9170962313468
 31
0.0
  0
LINE
  5
3168
330
30ED
100
AcDbEntity
  8
AM0
  6
Continuous
100
AcDbLine
 10
-143.0999999999999
 20
148.9170962313468
 30
0.0
 11
-143.0999999999999
 21
152.9585481156738
 31
0.0
  0
LINE
  5
3169
330
30ED
100
AcDbEntity
  8
AM0
  6
Continuous
100
AcDbLine
 10
-137.4999999999991
 20
165.0829037686557
 30
0.0
 11
-143.0999999999999
 21
165.0829037686557
 31
0.0
  0
LINE
  5
316A
330
30ED
100
AcDbEntity
  8
AM0
  6
Continuous
100
AcDbLine
 10
-143.0999999999999
 20
165.0829037686557
 30
0.0
 11
-143.0999999999999
 21
161.0414518843287
 31
0.0
  0
LINE
  5
316B
330
30ED
100
AcDbEntity
  8
AM0
  6
Continuous
100
AcDbLine
 10
-137.4999999999991
 20
161.0414518843287
 30
0.0
 11
-143.0999999999999
 21
161.0414518843287
 31
0.0
  0
LINE
  5
316C
330
30ED
100
AcDbEntity
  8
AM0
  6
Continuous
100
AcDbLine
 10
-143.0999999999999
 20
161.0414518843287
 30
0.0
 11
-143.0999999999999
 21
152.9585481156738
 31
0.0
  0
LINE
  5
316D
330
30ED
100
AcDbEntity
  8
AM0
  6
Continuous
100
AcDbLine
 10
-137.4999999999991
 20
143.9999999999996
 30
0.0
 11
-137.4999999999991
 21
168.9999999999995
 31
0.0
  0
LINE
  5
316E
330
30ED
100
AcDbEntity
  8
AM0
  6
Continuous
100
AcDbLine
 10
-137.4999999999991
 20
168.9999999999995
 30
0.0
 11
-132.5
 21
168.9999999999995
 31
0.0
  0
LINE
  5
316F
330
30ED
100
AcDbEntity
  8
AM0
  6
Continuous
100
AcDbLine
 10
-124.5
 20
168.9999999999995
 30
0.0
 11
-119.4999999999991
 21
168.9999999999995
 31
0.0
  0
LINE
  5
3170
330
30ED
100
AcDbEntity
  8
AM0
  6
Continuous
100
AcDbLine
 10
-119.4999999999991
 20
168.9999999999995
 30
0.0
 11
-119.4999999999991
 21
143.9999999999996
 31
0.0
  0
LINE
  5
3171
330
30ED
100
AcDbEntity
  8
AM0
  6
Continuous
100
AcDbLine
 10
-124.5
 20
168.9999999999995
 30
0.0
 11
-124.5
 21
143.9999999999996
 31
0.0
  0
LINE
  5
3172
330
30ED
100
AcDbEntity
  8
AM0
  6
Continuous
100
AcDbLine
 10
-132.5
 20
143.9999999999996
 30
0.0
 11
-132.5
 21
168.9999999999995
 31
0.0
  0
LINE
  5
3173
330
30ED
100
AcDbEntity
  8
AM0
  6
Continuous
100
AcDbLine
 10
-105.5
 20
160.9999999999996
 30
0.0
 11
-113.0999999999999
 21
160.9999999999996
 31
0.0
  0
LINE
  5
3174
330
30ED
100
AcDbEntity
  8
AM0
  6
Continuous
100
AcDbLine
 10
-113.0999999999999
 20
152.9999999999996
 30
0.0
 11
-105.5
 21
152.9999999999996
 31
0.0
  0
LINE
  5
3175
330
30ED
100
AcDbEntity
  8
AM0
100
AcDbLine
 10
-113.0999999999999
 20
165.0829037686557
 30
0.0
 11
-113.0999999999999
 21
148.9170962313468
 31
0.0
  0
LINE
  5
3176
330
30ED
100
AcDbEntity
  8
AM0
100
AcDbLine
 10
-137.4999999999991
 20
152.9999999999996
 30
0.0
 11
-143.0999999999999
 21
152.9999999999996
 31
0.0
  0
LINE
  5
3177
330
30ED
100
AcDbEntity
  8
AM0
  6
ACAD_ISO02W100
100
AcDbLine
 10
-137.4999999999991
 20
152.9999999999996
 30
0.0
 11
-113.0999999999999
 21
152.9999999999996
 31
0.0
  0
LINE
  5
3178
330
30ED
100
AcDbEntity
  8
AM0
100
AcDbLine
 10
-137.4999999999991
 20
143.9999999999996
 30
0.0
 11
-132.5
 21
143.9999999999996
 31
0.0
  0
LINE
  5
3179
330
30ED
100
AcDbEntity
  8
AM0
100
AcDbLine
 10
-124.5
 20
143.9999999999996
 30
0.0
 11
-119.4999999999991
 21
143.9999999999996
 31
0.0
  0
LINE
  5
317A
330
30ED
100
AcDbEntity
  8
AM0
100
AcDbLine
 10
-124.5
 20
138.9999999999996
 30
0.0
 11
-124.5
 21
178.9999999999995
 31
0.0
  0
LINE
  5
317B
330
30ED
100
AcDbEntity
  8
AM0
100
AcDbLine
 10
-124.5
 20
-138.9999999999997
 30
0.0
 11
-124.5
 21
-178.9999999999999
 31
0.0
  0
LINE
  5
317C
330
30ED
100
AcDbEntity
  8
AM0
100
AcDbLine
 10
-132.5
 20
-138.9999999999997
 30
0.0
 11
-132.5
 21
-178.9999999999999
 31
0.0
  0
LINE
  5
317D
330
30ED
100
AcDbEntity
  8
AM0
  6
Continuous
100
AcDbLine
 10
-105.5
 20
-160.9999999999999
 30
0.0
 11
-105.5
 21
-152.9999999999999
 31
0.0
  0
LINE
  5
317E
330
30ED
100
AcDbEntity
  8
AM0
  6
ACAD_ISO02W100
100
AcDbLine
 10
-137.4999999999991
 20
-161.0414518843287
 30
0.0
 11
-113.0999999999999
 21
-160.9999999999999
 31
0.0
  0
LINE
  5
317F
330
30ED
100
AcDbEntity
  8
AM0
  6
Continuous
100
AcDbLine
 10
-119.4999999999991
 20
-165.0829037686562
 30
0.0
 11
-113.0999999999999
 21
-165.0829037686562
 31
0.0
  0
LINE
  5
3180
330
30ED
100
AcDbEntity
  8
AM0
  6
Continuous
100
AcDbLine
 10
-119.4999999999991
 20
-148.9170962313466
 30
0.0
 11
-113.0999999999999
 21
-148.9170962313466
 31
0.0
  0
LINE
  5
3181
330
30ED
100
AcDbEntity
  8
AM0
  6
Continuous
100
AcDbLine
 10
-143.0999999999999
 20
-152.9585481156739
 30
0.0
 11
-143.0999999999999
 21
-148.9170962313469
 31
0.0
  0
LINE
  5
3182
330
30ED
100
AcDbEntity
  8
AM0
  6
Continuous
100
AcDbLine
 10
-137.4999999999991
 20
-148.9170962313469
 30
0.0
 11
-143.0999999999999
 21
-148.9170962313466
 31
0.0
  0
LINE
  5
3183
330
30ED
100
AcDbEntity
  8
AM0
  6
Continuous
100
AcDbLine
 10
-143.0999999999999
 20
-148.9170962313466
 30
0.0
 11
-143.0999999999999
 21
-152.9585481156739
 31
0.0
  0
LINE
  5
3184
330
30ED
100
AcDbEntity
  8
AM0
  6
Continuous
100
AcDbLine
 10
-137.4999999999991
 20
-165.0829037686562
 30
0.0
 11
-143.0999999999999
 21
-165.0829037686562
 31
0.0
  0
LINE
  5
3185
330
30ED
100
AcDbEntity
  8
AM0
  6
Continuous
100
AcDbLine
 10
-143.0999999999999
 20
-165.0829037686562
 30
0.0
 11
-143.0999999999999
 21
-161.0414518843287
 31
0.0
  0
LINE
  5
3186
330
30ED
100
AcDbEntity
  8
AM0
  6
Continuous
100
AcDbLine
 10
-137.4999999999991
 20
-161.0414518843287
 30
0.0
 11
-143.0999999999999
 21
-161.0414518843287
 31
0.0
  0
LINE
  5
3187
330
30ED
100
AcDbEntity
  8
AM0
  6
Continuous
100
AcDbLine
 10
-143.0999999999999
 20
-161.0414518843287
 30
0.0
 11
-143.0999999999999
 21
-152.9585481156739
 31
0.0
  0
LINE
  5
3188
330
30ED
100
AcDbEntity
  8
AM0
  6
Continuous
100
AcDbLine
 10
-137.4999999999991
 20
-143.9999999999999
 30
0.0
 11
-137.4999999999991
 21
-168.9999999999999
 31
0.0
  0
LINE
  5
3189
330
30ED
100
AcDbEntity
  8
AM0
  6
Continuous
100
AcDbLine
 10
-137.4999999999991
 20
-168.9999999999999
 30
0.0
 11
-132.5
 21
-168.9999999999999
 31
0.0
  0
LINE
  5
318A
330
30ED
100
AcDbEntity
  8
AM0
  6
Continuous
100
AcDbLine
 10
-124.5
 20
-169.0000000000002
 30
0.0
 11
-119.4999999999991
 21
-169.0000000000002
 31
0.0
  0
LINE
  5
318B
330
30ED
100
AcDbEntity
  8
AM0
  6
Continuous
100
AcDbLine
 10
-119.4999999999991
 20
-169.0000000000002
 30
0.0
 11
-119.4999999999991
 21
-144.0000000000002
 31
0.0
  0
LINE
  5
318C
330
30ED
100
AcDbEntity
  8
AM0
  6
Continuous
100
AcDbLine
 10
-124.5
 20
-169.0000000000002
 30
0.0
 11
-124.5
 21
-143.9999999999999
 31
0.0
  0
LINE
  5
318D
330
30ED
100
AcDbEntity
  8
AM0
  6
Continuous
100
AcDbLine
 10
-132.5
 20
-143.9999999999999
 30
0.0
 11
-132.5
 21
-168.9999999999999
 31
0.0
  0
LINE
  5
318E
330
30ED
100
AcDbEntity
  8
AM0
  6
Continuous
100
AcDbLine
 10
-105.5
 20
-160.9999999999999
 30
0.0
 11
-113.0999999999999
 21
-160.9999999999999
 31
0.0
  0
LINE
  5
318F
330
30ED
100
AcDbEntity
  8
AM0
  6
Continuous
100
AcDbLine
 10
-113.0999999999999
 20
-152.9999999999999
 30
0.0
 11
-105.5
 21
-152.9999999999999
 31
0.0
  0
LINE
  5
3190
330
30ED
100
AcDbEntity
  8
AM0
100
AcDbLine
 10
-113.0999999999999
 20
-165.0829037686562
 30
0.0
 11
-113.0999999999999
 21
-148.9170962313466
 31
0.0
  0
LINE
  5
3191
330
30ED
100
AcDbEntity
  8
AM0
100
AcDbLine
 10
-137.4999999999991
 20
-152.9999999999999
 30
0.0
 11
-143.0999999999999
 21
-152.9999999999999
 31
0.0
  0
LINE
  5
3192
330
30ED
100
AcDbEntity
  8
AM0
  6
ACAD_ISO02W100
100
AcDbLine
 10
-137.4999999999991
 20
-152.9999999999999
 30
0.0
 11
-113.0999999999999
 21
-152.9999999999999
 31
0.0
  0
LINE
  5
3193
330
30ED
100
AcDbEntity
  8
AM0
100
AcDbLine
 10
-137.4999999999991
 20
-143.9999999999999
 30
0.0
 11
-132.5
 21
-143.9999999999999
 31
0.0
  0
LINE
  5
3194
330
30ED
100
AcDbEntity
  8
AM0
100
AcDbLine
 10
-124.5
 20
-143.9999999999999
 30
0.0
 11
-119.4999999999991
 21
-144.0000000000002
 31
0.0
  0
LINE
  5
3195
330
30ED
100
AcDbEntity
  8
AM0
100
AcDbLine
 10
-124.5
 20
-138.9999999999997
 30
0.0
 11
-124.5
 21
-178.9999999999999
 31
0.0
  0
LWPOLYLINE
  5
3196
330
30ED
100
AcDbEntity
  8
AM0
100
AcDbPolyline
 90
        4
 70
     1
 43
0.0
 10
4.000000000000909
 20
-138.9999999999997
 10
124.5000000000009
 20
-138.9999999999997
 10
124.5000000000009
 20
138.9999999999996
 10
4.000000000000909
 20
138.9999999999996
  0
LINE
  5
3197
330
30ED
100
AcDbEntity
  8
AM0
100
AcDbLine
 10
-3.99999999999909
 20
138.9999999999996
 30
0.0
 11
-3.99999999999909
 21
178.9999999999995
 31
0.0
  0
LINE
  5
3198
330
30ED
100
AcDbEntity
  8
AM0
100
AcDbLine
 10
-3.99999999999909
 20
-138.9999999999997
 30
0.0
 11
-3.99999999999909
 21
-178.9999999999999
 31
0.0
  0
LINE
  5
3199
330
30ED
100
AcDbEntity
  8
AM0
100
AcDbLine
 10
4.000000000000909
 20
138.9999999999996
 30
0.0
 11
4.000000000000909
 21
178.9999999999995
 31
0.0
  0
LINE
  5
319A
330
30ED
100
AcDbEntity
  8
AM0
100
AcDbLine
 10
124.5000000000009
 20
143.9999999999996
 30
0.0
 11
4.000000000000909
 21
143.9999999999996
 31
0.0
  0
LINE
  5
319B
330
30ED
100
AcDbEntity
  8
AM0
100
AcDbLine
 10
4.000000000000909
 20
-138.9999999999997
 30
0.0
 11
4.000000000000909
 21
-178.9999999999999
 31
0.0
  0
LINE
  5
319C
330
30ED
100
AcDbEntity
  8
AM0
100
AcDbLine
 10
124.5000000000009
 20
-143.9999999999999
 30
0.0
 11
4.000000000000909
 21
-143.9999999999999
 31
0.0
  0
CIRCLE
  5
319D
330
30ED
100
AcDbEntity
  8
AM0
100
AcDbCircle
 10
64.25000000000091
 20
166.9999999999996
 30
0.0
 40
4.5
  0
CIRCLE
  5
319E
330
30ED
100
AcDbEntity
  8
AM0
100
AcDbCircle
 10
64.25000000000091
 20
-166.9999999999999
 30
0.0
 40
4.5
  0
LINE
  5
319F
330
30ED
100
AcDbEntity
  8
AM0
100
AcDbLine
 10
-3.99999999999909
 20
138.9999999999996
 30
0.0
 11
-3.99999999999909
 21
178.9999999999995
 31
0.0
  0
LINE
  5
31A0
330
30ED
100
AcDbEntity
  8
AM0
100
AcDbLine
 10
-3.99999999999909
 20
-138.9999999999997
 30
0.0
 11
-3.99999999999909
 21
-178.9999999999999
 31
0.0
  0
LINE
  5
31A1
330
30ED
100
AcDbEntity
  8
AM0
  6
Continuous
100
AcDbLine
 10
23.0
 20
160.9999999999996
 30
0.0
 11
23.0
 21
152.9999999999996
 31
0.0
  0
LINE
  5
31A2
330
30ED
100
AcDbEntity
  8
AM0
  6
ACAD_ISO02W100
100
AcDbLine
 10
-8.99999999999909
 20
161.0414518843287
 30
0.0
 11
15.400000000001
 21
160.9999999999996
 31
0.0
  0
LINE
  5
31A3
330
30ED
100
AcDbEntity
  8
AM0
  6
Continuous
100
AcDbLine
 10
9.000000000000909
 20
165.0829037686557
 30
0.0
 11
15.400000000001
 21
165.0829037686557
 31
0.0
  0
LINE
  5
31A4
330
30ED
100
AcDbEntity
  8
AM0
  6
Continuous
100
AcDbLine
 10
9.000000000000909
 20
148.9170962313468
 30
0.0
 11
15.400000000001
 21
148.9170962313468
 31
0.0
  0
LINE
  5
31A5
330
30ED
100
AcDbEntity
  8
AM0
  6
Continuous
100
AcDbLine
 10
-14.599999999999
 20
152.9585481156738
 30
0.0
 11
-14.599999999999
 21
148.9170962313468
 31
0.0
  0
LINE
  5
31A6
330
30ED
100
AcDbEntity
  8
AM0
  6
Continuous
100
AcDbLine
 10
-8.99999999999909
 20
148.9170962313468
 30
0.0
 11
-14.599999999999
 21
148.9170962313468
 31
0.0
  0
LINE
  5
31A7
330
30ED
100
AcDbEntity
  8
AM0
  6
Continuous
100
AcDbLine
 10
-14.599999999999
 20
148.9170962313468
 30
0.0
 11
-14.599999999999
 21
152.9585481156738
 31
0.0
  0
LINE
  5
31A8
330
30ED
100
AcDbEntity
  8
AM0
  6
Continuous
100
AcDbLine
 10
-8.99999999999909
 20
165.0829037686557
 30
0.0
 11
-14.599999999999
 21
165.0829037686557
 31
0.0
  0
LINE
  5
31A9
330
30ED
100
AcDbEntity
  8
AM0
  6
Continuous
100
AcDbLine
 10
-14.599999999999
 20
165.0829037686557
 30
0.0
 11
-14.599999999999
 21
161.0414518843287
 31
0.0
  0
LINE
  5
31AA
330
30ED
100
AcDbEntity
  8
AM0
  6
Continuous
100
AcDbLine
 10
-8.99999999999909
 20
161.0414518843287
 30
0.0
 11
-14.599999999999
 21
161.0414518843287
 31
0.0
  0
LINE
  5
31AB
330
30ED
100
AcDbEntity
  8
AM0
  6
Continuous
100
AcDbLine
 10
-14.599999999999
 20
161.0414518843287
 30
0.0
 11
-14.599999999999
 21
152.9585481156738
 31
0.0
  0
LINE
  5
31AC
330
30ED
100
AcDbEntity
  8
AM0
  6
Continuous
100
AcDbLine
 10
-8.99999999999909
 20
143.9999999999996
 30
0.0
 11
-8.99999999999909
 21
168.9999999999995
 31
0.0
  0
LINE
  5
31AD
330
30ED
100
AcDbEntity
  8
AM0
  6
Continuous
100
AcDbLine
 10
-8.99999999999909
 20
168.9999999999995
 30
0.0
 11
-3.99999999999909
 21
168.9999999999995
 31
0.0
  0
LINE
  5
31AE
330
30ED
100
AcDbEntity
  8
AM0
  6
Continuous
100
AcDbLine
 10
4.000000000000909
 20
168.9999999999995
 30
0.0
 11
9.000000000000909
 21
168.9999999999995
 31
0.0
  0
LINE
  5
31AF
330
30ED
100
AcDbEntity
  8
AM0
  6
Continuous
100
AcDbLine
 10
9.000000000000909
 20
168.9999999999995
 30
0.0
 11
9.000000000000909
 21
143.9999999999996
 31
0.0
  0
LINE
  5
31B0
330
30ED
100
AcDbEntity
  8
AM0
  6
Continuous
100
AcDbLine
 10
4.000000000000909
 20
168.9999999999995
 30
0.0
 11
4.000000000000909
 21
143.9999999999996
 31
0.0
  0
LINE
  5
31B1
330
30ED
100
AcDbEntity
  8
AM0
  6
Continuous
100
AcDbLine
 10
-3.99999999999909
 20
143.9999999999996
 30
0.0
 11
-3.99999999999909
 21
168.9999999999995
 31
0.0
  0
LINE
  5
31B2
330
30ED
100
AcDbEntity
  8
AM0
  6
Continuous
100
AcDbLine
 10
23.0
 20
160.9999999999996
 30
0.0
 11
15.400000000001
 21
160.9999999999996
 31
0.0
  0
LINE
  5
31B3
330
30ED
100
AcDbEntity
  8
AM0
  6
Continuous
100
AcDbLine
 10
15.400000000001
 20
152.9999999999996
 30
0.0
 11
23.0
 21
152.9999999999996
 31
0.0
  0
LINE
  5
31B4
330
30ED
100
AcDbEntity
  8
AM0
100
AcDbLine
 10
15.400000000001
 20
165.0829037686557
 30
0.0
 11
15.400000000001
 21
148.9170962313468
 31
0.0
  0
LINE
  5
31B5
330
30ED
100
AcDbEntity
  8
AM0
100
AcDbLine
 10
-8.99999999999909
 20
152.9999999999996
 30
0.0
 11
-14.599999999999
 21
152.9999999999996
 31
0.0
  0
LINE
  5
31B6
330
30ED
100
AcDbEntity
  8
AM0
  6
ACAD_ISO02W100
100
AcDbLine
 10
-8.99999999999909
 20
152.9999999999996
 30
0.0
 11
15.400000000001
 21
152.9999999999996
 31
0.0
  0
LINE
  5
31B7
330
30ED
100
AcDbEntity
  8
AM0
100
AcDbLine
 10
-8.99999999999909
 20
143.9999999999996
 30
0.0
 11
-3.99999999999909
 21
143.9999999999996
 31
0.0
  0
LINE
  5
31B8
330
30ED
100
AcDbEntity
  8
AM0
100
AcDbLine
 10
4.000000000000909
 20
143.9999999999996
 30
0.0
 11
9.000000000000909
 21
143.9999999999996
 31
0.0
  0
LINE
  5
31B9
330
30ED
100
AcDbEntity
  8
AM0
100
AcDbLine
 10
4.000000000000909
 20
138.9999999999996
 30
0.0
 11
4.000000000000909
 21
178.9999999999995
 31
0.0
  0
LINE
  5
31BA
330
30ED
100
AcDbEntity
  8
AM0
100
AcDbLine
 10
4.000000000000909
 20
-138.9999999999997
 30
0.0
 11
4.000000000000909
 21
-178.9999999999999
 31
0.0
  0
LINE
  5
31BB
330
30ED
100
AcDbEntity
  8
AM0
100
AcDbLine
 10
-3.99999999999909
 20
-138.9999999999997
 30
0.0
 11
-3.99999999999909
 21
-178.9999999999999
 31
0.0
  0
LINE
  5
31BC
330
30ED
100
AcDbEntity
  8
AM0
  6
Continuous
100
AcDbLine
 10
23.0
 20
-160.9999999999999
 30
0.0
 11
23.0
 21
-152.9999999999999
 31
0.0
  0
LINE
  5
31BD
330
30ED
100
AcDbEntity
  8
AM0
  6
ACAD_ISO02W100
100
AcDbLine
 10
-8.99999999999909
 20
-161.0414518843287
 30
0.0
 11
15.400000000001
 21
-160.9999999999999
 31
0.0
  0
LINE
  5
31BE
330
30ED
100
AcDbEntity
  8
AM0
  6
Continuous
100
AcDbLine
 10
9.000000000000909
 20
-165.0829037686562
 30
0.0
 11
15.400000000001
 21
-165.0829037686562
 31
0.0
  0
LINE
  5
31BF
330
30ED
100
AcDbEntity
  8
AM0
  6
Continuous
100
AcDbLine
 10
9.000000000000909
 20
-148.9170962313466
 30
0.0
 11
15.400000000001
 21
-148.9170962313466
 31
0.0
  0
LINE
  5
31C0
330
30ED
100
AcDbEntity
  8
AM0
  6
Continuous
100
AcDbLine
 10
-14.599999999999
 20
-152.9585481156739
 30
0.0
 11
-14.599999999999
 21
-148.9170962313469
 31
0.0
  0
LINE
  5
31C1
330
30ED
100
AcDbEntity
  8
AM0
  6
Continuous
100
AcDbLine
 10
-8.99999999999909
 20
-148.9170962313469
 30
0.0
 11
-14.599999999999
 21
-148.9170962313466
 31
0.0
  0
LINE
  5
31C2
330
30ED
100
AcDbEntity
  8
AM0
  6
Continuous
100
AcDbLine
 10
-14.599999999999
 20
-148.9170962313466
 30
0.0
 11
-14.599999999999
 21
-152.9585481156739
 31
0.0
  0
LINE
  5
31C3
330
30ED
100
AcDbEntity
  8
AM0
  6
Continuous
100
AcDbLine
 10
-8.99999999999909
 20
-165.0829037686562
 30
0.0
 11
-14.599999999999
 21
-165.0829037686562
 31
0.0
  0
LINE
  5
31C4
330
30ED
100
AcDbEntity
  8
AM0
  6
Continuous
100
AcDbLine
 10
-14.599999999999
 20
-165.0829037686562
 30
0.0
 11
-14.599999999999
 21
-161.0414518843287
 31
0.0
  0
LINE
  5
31C5
330
30ED
100
AcDbEntity
  8
AM0
  6
Continuous
100
AcDbLine
 10
-8.99999999999909
 20
-161.0414518843287
 30
0.0
 11
-14.599999999999
 21
-161.0414518843287
 31
0.0
  0
LINE
  5
31C6
330
30ED
100
AcDbEntity
  8
AM0
  6
Continuous
100
AcDbLine
 10
-14.599999999999
 20
-161.0414518843287
 30
0.0
 11
-14.599999999999
 21
-152.9585481156739
 31
0.0
  0
LINE
  5
31C7
330
30ED
100
AcDbEntity
  8
AM0
  6
Continuous
100
AcDbLine
 10
-8.99999999999909
 20
-143.9999999999999
 30
0.0
 11
-8.99999999999909
 21
-168.9999999999999
 31
0.0
  0
LINE
  5
31C8
330
30ED
100
AcDbEntity
  8
AM0
  6
Continuous
100
AcDbLine
 10
-8.99999999999909
 20
-168.9999999999999
 30
0.0
 11
-3.99999999999909
 21
-168.9999999999999
 31
0.0
  0
LINE
  5
31C9
330
30ED
100
AcDbEntity
  8
AM0
  6
Continuous
100
AcDbLine
 10
4.000000000000909
 20
-169.0000000000002
 30
0.0
 11
9.000000000000909
 21
-169.0000000000002
 31
0.0
  0
LINE
  5
31CA
330
30ED
100
AcDbEntity
  8
AM0
  6
Continuous
100
AcDbLine
 10
9.000000000000909
 20
-169.0000000000002
 30
0.0
 11
9.000000000000909
 21
-144.0000000000002
 31
0.0
  0
LINE
  5
31CB
330
30ED
100
AcDbEntity
  8
AM0
  6
Continuous
100
AcDbLine
 10
4.000000000000909
 20
-169.0000000000002
 30
0.0
 11
4.000000000000909
 21
-143.9999999999999
 31
0.0
  0
LINE
  5
31CC
330
30ED
100
AcDbEntity
  8
AM0
  6
Continuous
100
AcDbLine
 10
-3.99999999999909
 20
-143.9999999999999
 30
0.0
 11
-3.99999999999909
 21
-168.9999999999999
 31
0.0
  0
LINE
  5
31CD
330
30ED
100
AcDbEntity
  8
AM0
  6
Continuous
100
AcDbLine
 10
23.0
 20
-160.9999999999999
 30
0.0
 11
15.400000000001
 21
-160.9999999999999
 31
0.0
  0
LINE
  5
31CE
330
30ED
100
AcDbEntity
  8
AM0
  6
Continuous
100
AcDbLine
 10
15.400000000001
 20
-152.9999999999999
 30
0.0
 11
23.0
 21
-152.9999999999999
 31
0.0
  0
LINE
  5
31CF
330
30ED
100
AcDbEntity
  8
AM0
100
AcDbLine
 10
15.400000000001
 20
-165.0829037686562
 30
0.0
 11
15.400000000001
 21
-148.9170962313466
 31
0.0
  0
LINE
  5
31D0
330
30ED
100
AcDbEntity
  8
AM0
100
AcDbLine
 10
-8.99999999999909
 20
-152.9999999999999
 30
0.0
 11
-14.599999999999
 21
-152.9999999999999
 31
0.0
  0
LINE
  5
31D1
330
30ED
100
AcDbEntity
  8
AM0
  6
ACAD_ISO02W100
100
AcDbLine
 10
-8.99999999999909
 20
-152.9999999999999
 30
0.0
 11
15.400000000001
 21
-152.9999999999999
 31
0.0
  0
LINE
  5
31D2
330
30ED
100
AcDbEntity
  8
AM0
100
AcDbLine
 10
-8.99999999999909
 20
-143.9999999999999
 30
0.0
 11
-3.99999999999909
 21
-143.9999999999999
 31
0.0
  0
LINE
  5
31D3
330
30ED
100
AcDbEntity
  8
AM0
100
AcDbLine
 10
4.000000000000909
 20
-143.9999999999999
 30
0.0
 11
9.000000000000909
 21
-144.0000000000002
 31
0.0
  0
LINE
  5
31D4
330
30ED
100
AcDbEntity
  8
AM0
100
AcDbLine
 10
4.000000000000909
 20
-138.9999999999997
 30
0.0
 11
4.000000000000909
 21
-178.9999999999999
 31
0.0
  0
LWPOLYLINE
  5
31D5
330
30ED
100
AcDbEntity
  8
AM0
100
AcDbPolyline
 90
        4
 70
     1
 43
0.0
 10
132.5000000000009
 20
-138.9999999999997
 10
253.0000000000018
 20
-138.9999999999997
 10
253.0000000000018
 20
138.9999999999996
 10
132.5000000000009
 20
138.9999999999996
  0
LINE
  5
31D6
330
30ED
100
AcDbEntity
  8
AM0
100
AcDbLine
 10
124.5000000000009
 20
138.9999999999996
 30
0.0
 11
124.5000000000009
 21
178.9999999999995
 31
0.0
  0
LINE
  5
31D7
330
30ED
100
AcDbEntity
  8
AM0
100
AcDbLine
 10
124.5000000000009
 20
-138.9999999999997
 30
0.0
 11
124.5000000000009
 21
-178.9999999999999
 31
0.0
  0
LINE
  5
31D8
330
30ED
100
AcDbEntity
  8
AM0
100
AcDbLine
 10
132.5000000000009
 20
138.9999999999996
 30
0.0
 11
132.5000000000009
 21
178.9999999999995
 31
0.0
  0
LINE
  5
31D9
330
30ED
100
AcDbEntity
  8
AM0
100
AcDbLine
 10
253.0000000000018
 20
143.9999999999996
 30
0.0
 11
132.5000000000009
 21
143.9999999999996
 31
0.0
  0
LINE
  5
31DA
330
30ED
100
AcDbEntity
  8
AM0
100
AcDbLine
 10
132.5000000000009
 20
-138.9999999999997
 30
0.0
 11
132.5000000000009
 21
-178.9999999999999
 31
0.0
  0
LINE
  5
31DB
330
30ED
100
AcDbEntity
  8
AM0
100
AcDbLine
 10
253.0000000000018
 20
-143.9999999999999
 30
0.0
 11
132.5000000000009
 21
-143.9999999999999
 31
0.0
  0
CIRCLE
  5
31DC
330
30ED
100
AcDbEntity
  8
AM0
100
AcDbCircle
 10
192.7500000000018
 20
166.9999999999996
 30
0.0
 40
4.5
  0
CIRCLE
  5
31DD
330
30ED
100
AcDbEntity
  8
AM0
100
AcDbCircle
 10
192.7500000000018
 20
-166.9999999999999
 30
0.0
 40
4.5
  0
LINE
  5
31DE
330
30ED
100
AcDbEntity
  8
AM0
100
AcDbLine
 10
124.5000000000009
 20
138.9999999999996
 30
0.0
 11
124.5000000000009
 21
178.9999999999995
 31
0.0
  0
LINE
  5
31DF
330
30ED
100
AcDbEntity
  8
AM0
100
AcDbLine
 10
124.5000000000009
 20
-138.9999999999997
 30
0.0
 11
124.5000000000009
 21
-178.9999999999999
 31
0.0
  0
LINE
  5
31E0
330
30ED
100
AcDbEntity
  8
AM0
  6
Continuous
100
AcDbLine
 10
151.5000000000009
 20
160.9999999999996
 30
0.0
 11
151.5000000000009
 21
152.9999999999996
 31
0.0
  0
LINE
  5
31E1
330
30ED
100
AcDbEntity
  8
AM0
  6
ACAD_ISO02W100
100
AcDbLine
 10
119.500000000002
 20
161.0414518843287
 30
0.0
 11
143.900000000001
 21
160.9999999999996
 31
0.0
  0
LINE
  5
31E2
330
30ED
100
AcDbEntity
  8
AM0
  6
Continuous
100
AcDbLine
 10
137.500000000002
 20
165.0829037686557
 30
0.0
 11
143.900000000001
 21
165.0829037686557
 31
0.0
  0
LINE
  5
31E3
330
30ED
100
AcDbEntity
  8
AM0
  6
Continuous
100
AcDbLine
 10
137.500000000002
 20
148.9170962313468
 30
0.0
 11
143.900000000001
 21
148.9170962313468
 31
0.0
  0
LINE
  5
31E4
330
30ED
100
AcDbEntity
  8
AM0
  6
Continuous
100
AcDbLine
 10
113.900000000001
 20
152.9585481156738
 30
0.0
 11
113.900000000001
 21
148.9170962313468
 31
0.0
  0
LINE
  5
31E5
330
30ED
100
AcDbEntity
  8
AM0
  6
Continuous
100
AcDbLine
 10
119.500000000002
 20
148.9170962313468
 30
0.0
 11
113.900000000001
 21
148.9170962313468
 31
0.0
  0
LINE
  5
31E6
330
30ED
100
AcDbEntity
  8
AM0
  6
Continuous
100
AcDbLine
 10
113.900000000001
 20
148.9170962313468
 30
0.0
 11
113.900000000001
 21
152.9585481156738
 31
0.0
  0
LINE
  5
31E7
330
30ED
100
AcDbEntity
  8
AM0
  6
Continuous
100
AcDbLine
 10
119.500000000002
 20
165.0829037686557
 30
0.0
 11
113.900000000001
 21
165.0829037686557
 31
0.0
  0
LINE
  5
31E8
330
30ED
100
AcDbEntity
  8
AM0
  6
Continuous
100
AcDbLine
 10
113.900000000001
 20
165.0829037686557
 30
0.0
 11
113.900000000001
 21
161.0414518843287
 31
0.0
  0
LINE
  5
31E9
330
30ED
100
AcDbEntity
  8
AM0
  6
Continuous
100
AcDbLine
 10
119.500000000002
 20
161.0414518843287
 30
0.0
 11
113.900000000001
 21
161.0414518843287
 31
0.0
  0
LINE
  5
31EA
330
30ED
100
AcDbEntity
  8
AM0
  6
Continuous
100
AcDbLine
 10
113.900000000001
 20
161.0414518843287
 30
0.0
 11
113.900000000001
 21
152.9585481156738
 31
0.0
  0
LINE
  5
31EB
330
30ED
100
AcDbEntity
  8
AM0
  6
Continuous
100
AcDbLine
 10
119.500000000002
 20
143.9999999999996
 30
0.0
 11
119.500000000002
 21
168.9999999999995
 31
0.0
  0
LINE
  5
31EC
330
30ED
100
AcDbEntity
  8
AM0
  6
Continuous
100
AcDbLine
 10
119.500000000002
 20
168.9999999999995
 30
0.0
 11
124.5000000000009
 21
168.9999999999995
 31
0.0
  0
LINE
  5
31ED
330
30ED
100
AcDbEntity
  8
AM0
  6
Continuous
100
AcDbLine
 10
132.5000000000009
 20
168.9999999999995
 30
0.0
 11
137.500000000002
 21
168.9999999999995
 31
0.0
  0
LINE
  5
31EE
330
30ED
100
AcDbEntity
  8
AM0
  6
Continuous
100
AcDbLine
 10
137.500000000002
 20
168.9999999999995
 30
0.0
 11
137.500000000002
 21
143.9999999999996
 31
0.0
  0
LINE
  5
31EF
330
30ED
100
AcDbEntity
  8
AM0
  6
Continuous
100
AcDbLine
 10
132.5000000000009
 20
168.9999999999995
 30
0.0
 11
132.5000000000009
 21
143.9999999999996
 31
0.0
  0
LINE
  5
31F0
330
30ED
100
AcDbEntity
  8
AM0
  6
Continuous
100
AcDbLine
 10
124.5000000000009
 20
143.9999999999996
 30
0.0
 11
124.5000000000009
 21
168.9999999999995
 31
0.0
  0
LINE
  5
31F1
330
30ED
100
AcDbEntity
  8
AM0
  6
Continuous
100
AcDbLine
 10
151.5000000000009
 20
160.9999999999996
 30
0.0
 11
143.900000000001
 21
160.9999999999996
 31
0.0
  0
LINE
  5
31F2
330
30ED
100
AcDbEntity
  8
AM0
  6
Continuous
100
AcDbLine
 10
143.900000000001
 20
152.9999999999996
 30
0.0
 11
151.5000000000009
 21
152.9999999999996
 31
0.0
  0
LINE
  5
31F3
330
30ED
100
AcDbEntity
  8
AM0
100
AcDbLine
 10
143.900000000001
 20
165.0829037686557
 30
0.0
 11
143.900000000001
 21
148.9170962313468
 31
0.0
  0
LINE
  5
31F4
330
30ED
100
AcDbEntity
  8
AM0
100
AcDbLine
 10
119.500000000002
 20
152.9999999999996
 30
0.0
 11
113.900000000001
 21
152.9999999999996
 31
0.0
  0
LINE
  5
31F5
330
30ED
100
AcDbEntity
  8
AM0
  6
ACAD_ISO02W100
100
AcDbLine
 10
119.500000000002
 20
152.9999999999996
 30
0.0
 11
143.900000000001
 21
152.9999999999996
 31
0.0
  0
LINE
  5
31F6
330
30ED
100
AcDbEntity
  8
AM0
100
AcDbLine
 10
119.500000000002
 20
143.9999999999996
 30
0.0
 11
124.5000000000009
 21
143.9999999999996
 31
0.0
  0
LINE
  5
31F7
330
30ED
100
AcDbEntity
  8
AM0
100
AcDbLine
 10
132.5000000000009
 20
143.9999999999996
 30
0.0
 11
137.500000000002
 21
143.9999999999996
 31
0.0
  0
LINE
  5
31F8
330
30ED
100
AcDbEntity
  8
AM0
100
AcDbLine
 10
132.5000000000009
 20
138.9999999999996
 30
0.0
 11
132.5000000000009
 21
178.9999999999995
 31
0.0
  0
LINE
  5
31F9
330
30ED
100
AcDbEntity
  8
AM0
100
AcDbLine
 10
132.5000000000009
 20
-138.9999999999997
 30
0.0
 11
132.5000000000009
 21
-178.9999999999999
 31
0.0
  0
LINE
  5
31FA
330
30ED
100
AcDbEntity
  8
AM0
100
AcDbLine
 10
124.5000000000009
 20
-138.9999999999997
 30
0.0
 11
124.5000000000009
 21
-178.9999999999999
 31
0.0
  0
LINE
  5
31FB
330
30ED
100
AcDbEntity
  8
AM0
  6
Continuous
100
AcDbLine
 10
151.5000000000009
 20
-160.9999999999999
 30
0.0
 11
151.5000000000009
 21
-152.9999999999999
 31
0.0
  0
LINE
  5
31FC
330
30ED
100
AcDbEntity
  8
AM0
  6
ACAD_ISO02W100
100
AcDbLine
 10
119.500000000002
 20
-161.0414518843287
 30
0.0
 11
143.900000000001
 21
-160.9999999999999
 31
0.0
  0
LINE
  5
31FD
330
30ED
100
AcDbEntity
  8
AM0
  6
Continuous
100
AcDbLine
 10
137.500000000002
 20
-165.0829037686562
 30
0.0
 11
143.900000000001
 21
-165.0829037686562
 31
0.0
  0
LINE
  5
31FE
330
30ED
100
AcDbEntity
  8
AM0
  6
Continuous
100
AcDbLine
 10
137.500000000002
 20
-148.9170962313466
 30
0.0
 11
143.900000000001
 21
-148.9170962313466
 31
0.0
  0
LINE
  5
31FF
330
30ED
100
AcDbEntity
  8
AM0
  6
Continuous
100
AcDbLine
 10
113.900000000001
 20
-152.9585481156739
 30
0.0
 11
113.900000000001
 21
-148.9170962313469
 31
0.0
  0
LINE
  5
3200
330
30ED
100
AcDbEntity
  8
AM0
  6
Continuous
100
AcDbLine
 10
119.500000000002
 20
-148.9170962313469
 30
0.0
 11
113.900000000001
 21
-148.9170962313466
 31
0.0
  0
LINE
  5
3201
330
30ED
100
AcDbEntity
  8
AM0
  6
Continuous
100
AcDbLine
 10
113.900000000001
 20
-148.9170962313466
 30
0.0
 11
113.900000000001
 21
-152.9585481156739
 31
0.0
  0
LINE
  5
3202
330
30ED
100
AcDbEntity
  8
AM0
  6
Continuous
100
AcDbLine
 10
119.500000000002
 20
-165.0829037686562
 30
0.0
 11
113.900000000001
 21
-165.0829037686562
 31
0.0
  0
LINE
  5
3203
330
30ED
100
AcDbEntity
  8
AM0
  6
Continuous
100
AcDbLine
 10
113.900000000001
 20
-165.0829037686562
 30
0.0
 11
113.900000000001
 21
-161.0414518843287
 31
0.0
  0
LINE
  5
3204
330
30ED
100
AcDbEntity
  8
AM0
  6
Continuous
100
AcDbLine
 10
119.500000000002
 20
-161.0414518843287
 30
0.0
 11
113.900000000001
 21
-161.0414518843287
 31
0.0
  0
LINE
  5
3205
330
30ED
100
AcDbEntity
  8
AM0
  6
Continuous
100
AcDbLine
 10
113.900000000001
 20
-161.0414518843287
 30
0.0
 11
113.900000000001
 21
-152.9585481156739
 31
0.0
  0
LINE
  5
3206
330
30ED
100
AcDbEntity
  8
AM0
  6
Continuous
100
AcDbLine
 10
119.500000000002
 20
-143.9999999999999
 30
0.0
 11
119.500000000002
 21
-168.9999999999999
 31
0.0
  0
LINE
  5
3207
330
30ED
100
AcDbEntity
  8
AM0
  6
Continuous
100
AcDbLine
 10
119.500000000002
 20
-168.9999999999999
 30
0.0
 11
124.5000000000009
 21
-168.9999999999999
 31
0.0
  0
LINE
  5
3208
330
30ED
100
AcDbEntity
  8
AM0
  6
Continuous
100
AcDbLine
 10
132.5000000000009
 20
-169.0000000000002
 30
0.0
 11
137.500000000002
 21
-169.0000000000002
 31
0.0
  0
LINE
  5
3209
330
30ED
100
AcDbEntity
  8
AM0
  6
Continuous
100
AcDbLine
 10
137.500000000002
 20
-169.0000000000002
 30
0.0
 11
137.500000000002
 21
-144.0000000000002
 31
0.0
  0
LINE
  5
320A
330
30ED
100
AcDbEntity
  8
AM0
  6
Continuous
100
AcDbLine
 10
132.5000000000009
 20
-169.0000000000002
 30
0.0
 11
132.5000000000009
 21
-143.9999999999999
 31
0.0
  0
LINE
  5
320B
330
30ED
100
AcDbEntity
  8
AM0
  6
Continuous
100
AcDbLine
 10
124.5000000000009
 20
-143.9999999999999
 30
0.0
 11
124.5000000000009
 21
-168.9999999999999
 31
0.0
  0
LINE
  5
320C
330
30ED
100
AcDbEntity
  8
AM0
  6
Continuous
100
AcDbLine
 10
151.5000000000009
 20
-160.9999999999999
 30
0.0
 11
143.900000000001
 21
-160.9999999999999
 31
0.0
  0
LINE
  5
320D
330
30ED
100
AcDbEntity
  8
AM0
  6
Continuous
100
AcDbLine
 10
143.900000000001
 20
-152.9999999999999
 30
0.0
 11
151.5000000000009
 21
-152.9999999999999
 31
0.0
  0
LINE
  5
320E
330
30ED
100
AcDbEntity
  8
AM0
100
AcDbLine
 10
143.900000000001
 20
-165.0829037686562
 30
0.0
 11
143.900000000001
 21
-148.9170962313466
 31
0.0
  0
LINE
  5
320F
330
30ED
100
AcDbEntity
  8
AM0
100
AcDbLine
 10
119.500000000002
 20
-152.9999999999999
 30
0.0
 11
113.900000000001
 21
-152.9999999999999
 31
0.0
  0
LINE
  5
3210
330
30ED
100
AcDbEntity
  8
AM0
  6
ACAD_ISO02W100
100
AcDbLine
 10
119.500000000002
 20
-152.9999999999999
 30
0.0
 11
143.900000000001
 21
-152.9999999999999
 31
0.0
  0
LINE
  5
3211
330
30ED
100
AcDbEntity
  8
AM0
100
AcDbLine
 10
119.500000000002
 20
-143.9999999999999
 30
0.0
 11
124.5000000000009
 21
-143.9999999999999
 31
0.0
  0
LINE
  5
3212
330
30ED
100
AcDbEntity
  8
AM0
100
AcDbLine
 10
132.5000000000009
 20
-143.9999999999999
 30
0.0
 11
137.500000000002
 21
-144.0000000000002
 31
0.0
  0
LINE
  5
3213
330
30ED
100
AcDbEntity
  8
AM0
100
AcDbLine
 10
132.5000000000009
 20
-138.9999999999997
 30
0.0
 11
132.5000000000009
 21
-178.9999999999999
 31
0.0
  0
INSERT
  5
3214
330
30ED
100
AcDbEntity
  8
0
100
AcDbBlockReference
 66
     1
  2
info
 10
-252.7500005521387
 20
-139.0000017748743
 30
0.0
 50
270.0
  0
ATTRIB
  5
3215
330
3214
100
AcDbEntity
  8
0
100
AcDbText
 10
-249.8589053166591
 20
-148.4670947251939
 30
0.00000001
 40
5.0
  1
120,5
 50
270.0
100
AcDbAttribute
  2
BRD
 70
     1
1001
AcDbAttr
1070
     0
1070
     1
  0
ATTRIB
  5
3216
330
3214
100
AcDbEntity
  8
0
100
AcDbText
 10
-258.1922386499926
 20
-148.4670947251939
 30
0.00000001
 40
5.0
  1
278
 50
270.0
100
AcDbAttribute
  2
HJD
 70
     1
1001
AcDbAttr
1070
     0
1070
     1
  0
SEQEND
  5
3217
330
3214
100
AcDbEntity
  8
0
  0
INSERT
  5
3218
330
30ED
100
AcDbEntity
  8
0
100
AcDbBlockReference
 66
     1
  2
info
 10
-124.2500005521376
 20
-139.0000017748743
 30
0.0
 50
270.0
  0
ATTRIB
  5
3219
330
3218
100
AcDbEntity
  8
0
100
AcDbText
 10
-121.3589053166581
 20
-148.4670947251939
 30
0.00000001
 40
5.0
  1
120,5
 50
270.0
100
AcDbAttribute
  2
BRD
 70
     1
1001
AcDbAttr
1070
     0
1070
     1
  0
ATTRIB
  5
321A
330
3218
100
AcDbEntity
  8
0
100
AcDbText
 10
-129.6922386499916
 20
-148.4670947251939
 30
0.00000001
 40
5.0
  1
278
 50
270.0
100
AcDbAttribute
  2
HJD
 70
     1
1001
AcDbAttr
1070
     0
1070
     1
  0
SEQEND
  5
321B
330
3218
100
AcDbEntity
  8
0
  0
INSERT
  5
321C
330
30ED
100
AcDbEntity
  8
0
100
AcDbBlockReference
 66
     1
  2
info
 10
4.249999447862364
 20
-139.0000017748743
 30
0.0
 50
270.0
  0
ATTRIB
  5
321D
330
321C
100
AcDbEntity
  8
0
100
AcDbText
 10
7.141094683341862
 20
-148.4670947251939
 30
0.00000001
 40
5.0
  1
120,5
 50
270.0
100
AcDbAttribute
  2
BRD
 70
     1
1001
AcDbAttr
1070
     0
1070
     1
  0
ATTRIB
  5
321E
330
321C
100
AcDbEntity
  8
0
100
AcDbText
 10
-1.192238649991622
 20
-148.4670947251939
 30
0.00000001
 40
5.0
  1
278
 50
270.0
100
AcDbAttribute
  2
HJD
 70
     1
1001
AcDbAttr
1070
     0
1070
     1
  0
SEQEND
  5
321F
330
321C
100
AcDbEntity
  8
0
  0
INSERT
  5
3220
330
30ED
100
AcDbEntity
  8
0
100
AcDbBlockReference
 66
     1
  2
info
 10
132.7499994478632
 20
-139.0000017748743
 30
0.0
 50
270.0
  0
ATTRIB
  5
3221
330
3220
100
AcDbEntity
  8
0
100
AcDbText
 10
135.6410946833427
 20
-148.4670947251939
 30
0.00000001
 40
5.0
  1
120,5
 50
270.0
100
AcDbAttribute
  2
BRD
 70
     1
1001
AcDbAttr
1070
     0
1070
     1
  0
ATTRIB
  5
3222
330
3220
100
AcDbEntity
  8
0
100
AcDbText
 10
127.3077613500093
 20
-148.4670947251939
 30
0.00000001
 40
5.0
  1
278
 50
270.0
100
AcDbAttribute
  2
HJD
 70
     1
1001
AcDbAttr
1070
     0
1070
     1
  0
SEQEND
  5
3223
330
3220
100
AcDbEntity
  8
0
  0
LINE
  5
3224
330
30ED
100
AcDbEntity
  8
AM_5
100
AcDbLine
 10
-253.0
 20
-181.9999999999999
 30
0.0
 11
-253.0
 21
-207.0821560023193
 31
0.0
  0
LINE
  5
3225
330
30ED
100
AcDbEntity
  8
AM_5
100
AcDbLine
 10
-132.5
 20
-181.9999999999999
 30
0.0
 11
-132.5
 21
-207.0821560023193
 31
0.0
  0
LINE
  5
3226
330
30ED
100
AcDbEntity
  8
AM_5
100
AcDbLine
 10
-245.5
 20
-204.0821560023192
 30
0.0
 11
-140.0
 21
-204.0821560023192
 31
0.0
  0
LINE
  5
3227
330
30ED
100
AcDbEntity
  8
AM_5
100
AcDbLine
 10
-132.5
 20
-204.0821560023192
 30
0.0
 11
-2.25
 21
-204.0821560023192
 31
0.0
  0
SOLID
  5
3228
330
30ED
100
AcDbEntity
  8
AM_5
100
AcDbTrace
 10
-245.5
 20
-202.8321560023193
 30
0.0
 11
-245.5
 21
-205.3321560023193
 31
0.0
 12
-253.0
 22
-204.0821560023192
 32
0.0
 13
-253.0
 23
-204.0821560023192
 33
0.0
  0
SOLID
  5
3229
330
30ED
100
AcDbEntity
  8
AM_5
100
AcDbTrace
 10
-140.0
 20
-202.8321560023193
 30
0.0
 11
-140.0
 21
-205.3321560023193
 31
0.0
 12
-132.5
 22
-204.0821560023192
 32
0.0
 13
-132.5
 23
-204.0821560023192
 33
0.0
  0
MTEXT
  5
322A
330
30ED
100
AcDbEntity
  8
AM_5
 62
     2
100
AcDbMText
 10
-63.625
 20
-194.3321560023193
 30
0.0
 40
10.5
 41
0.0
 71
     5
 72
     1
  1
120.5 [4.744"]
 73
     1
 44
1.0
1001
ACAD
1000
MTEXTBEGIN
1070
    73
1070
     1
1070
    44
1040
1.0
1070
    74
1070
     0
1000
MTEXTEND
  0
LINE
  5
322B
330
30ED
100
AcDbEntity
  8
AM_5
100
AcDbLine
 10
-292.9999999999999
 20
-181.9999999999999
 30
0.0
 11
-292.9999999999999
 21
-232.2454838990012
 31
0.0
  0
LINE
  5
322C
330
30ED
100
AcDbEntity
  8
AM_5
100
AcDbLine
 10
293.0
 20
-181.9999999999999
 30
0.0
 11
293.0
 21
-232.2454838990012
 31
0.0
  0
LINE
  5
322D
330
30ED
100
AcDbEntity
  8
AM_5
100
AcDbLine
 10
-285.4999999999999
 20
-229.2454838990012
 30
0.0
 11
285.5
 21
-229.2454838990012
 31
0.0
  0
SOLID
  5
322E
330
30ED
100
AcDbEntity
  8
AM_5
100
AcDbTrace
 10
-285.4999999999999
 20
-227.9954838990012
 30
0.0
 11
-285.4999999999999
 21
-230.4954838990012
 31
0.0
 12
-292.9999999999999
 22
-229.2454838990012
 32
0.0
 13
-292.9999999999999
 23
-229.2454838990012
 33
0.0
  0
SOLID
  5
322F
330
30ED
100
AcDbEntity
  8
AM_5
100
AcDbTrace
 10
285.5
 20
-227.9954838990012
 30
0.0
 11
285.5
 21
-230.4954838990012
 31
0.0
 12
293.0
 22
-229.2454838990012
 32
0.0
 13
293.0
 23
-229.2454838990012
 33
0.0
  0
MTEXT
  5
3230
330
30ED
100
AcDbEntity
  8
AM_5
 62
     2
100
AcDbMText
 10
0.0
 20
-219.4954838990012
 30
0.0
 40
10.5
 41
0.0
 71
     5
 72
     1
  1
586 [23.071"]
 73
     1
 44
1.0
1001
ACAD
1000
MTEXTBEGIN
1070
    73
1070
     1
1070
    44
1040
1.0
1070
    74
1070
     0
1000
MTEXTEND
  0
LINE
  5
3231
330
30ED
100
AcDbEntity
  8
AM_5
100
AcDbLine
 10
-255.7500005521387
 20
-139.0000017748743
 30
0.0
 11
-320.987705748533
 21
-139.0000017748743
 31
0.0
  0
LINE
  5
3232
330
30ED
100
AcDbEntity
  8
AM_5
100
AcDbLine
 10
-256.0
 20
138.9999999999996
 30
0.0
 11
-320.9877057485329
 21
138.9999999999996
 31
0.0
  0
LINE
  5
3233
330
30ED
100
AcDbEntity
  8
AM_5
100
AcDbLine
 10
-317.987705748533
 20
-131.5000017748743
 30
0.0
 11
-317.9877057485329
 21
131.4999999999996
 31
0.0
  0
SOLID
  5
3234
330
30ED
100
AcDbEntity
  8
AM_5
100
AcDbTrace
 10
-319.237705748533
 20
-131.5000017748743
 30
0.0
 11
-316.737705748533
 21
-131.5000017748743
 31
0.0
 12
-317.987705748533
 22
-139.0000017748743
 32
0.0
 13
-317.987705748533
 23
-139.0000017748743
 33
0.0
  0
SOLID
  5
3235
330
30ED
100
AcDbEntity
  8
AM_5
100
AcDbTrace
 10
-319.2377057485329
 20
131.4999999999996
 30
0.0
 11
-316.7377057485329
 21
131.4999999999996
 31
0.0
 12
-317.9877057485329
 22
138.9999999999996
 32
0.0
 13
-317.9877057485329
 23
138.9999999999996
 33
0.0
  0
MTEXT
  5
3236
330
30ED
100
AcDbEntity
  8
AM_5
 62
     2
100
AcDbMText
 10
-327.7377057485332
 20
-0.0000008874371815
 30
0.0
 40
10.5
 41
0.0
 71
     5
 72
     1
  1
278 [10.945"]
 11
0.0000000000000001
 21
1.0
 31
0.0
 73
     1
 44
1.0
1001
ACAD
1000
MTEXTBEGIN
1070
    73
1070
     1
1070
    44
1040
1.0
1070
    74
1070
     0
1000
MTEXTEND
  0
LINE
  5
3237
330
30ED
100
AcDbEntity
  8
AM_5
100
AcDbLine
 10
-295.9999999999999
 20
178.9999999999995
 30
0.0
 11
-352.0913502353161
 21
178.9999999999995
 31
0.0
  0
LINE
  5
3238
330
30ED
100
AcDbEntity
  8
AM_5
100
AcDbLine
 10
-295.9999999999999
 20
-178.9999999999999
 30
0.0
 11
-352.0913502353162
 21
-178.9999999999999
 31
0.0
  0
LINE
  5
3239
330
30ED
100
AcDbEntity
  8
AM_5
100
AcDbLine
 10
-349.0913502353161
 20
171.4999999999995
 30
0.0
 11
-349.0913502353162
 21
-171.4999999999999
 31
0.0
  0
SOLID
  5
323A
330
30ED
100
AcDbEntity
  8
AM_5
100
AcDbTrace
 10
-350.3413502353161
 20
171.4999999999995
 30
0.0
 11
-347.8413502353161
 21
171.4999999999995
 31
0.0
 12
-349.0913502353161
 22
178.9999999999995
 32
0.0
 13
-349.0913502353161
 23
178.9999999999995
 33
0.0
  0
SOLID
  5
323B
330
30ED
100
AcDbEntity
  8
AM_5
100
AcDbTrace
 10
-350.3413502353162
 20
-171.4999999999999
 30
0.0
 11
-347.8413502353162
 21
-171.4999999999999
 31
0.0
 12
-349.0913502353162
 22
-178.9999999999999
 32
0.0
 13
-349.0913502353162
 23
-178.9999999999999
 33
0.0
  0
MTEXT
  5
323C
330
30ED
100
AcDbEntity
  8
AM_5
 62
     2
100
AcDbMText
 10
-358.8413502353163
 20
0.0
 30
0.0
 40
10.5
 41
0.0
 71
     5
 72
     1
  1
358 [14.094"]
 11
0.0000000000000001
 21
1.0
 31
0.0
 73
     1
 44
1.0
1001
ACAD
1000
MTEXTBEGIN
1070
    73
1070
     1
1070
    44
1040
1.0
1070
    74
1070
     0
1000
MTEXTEND
  0
ENDBLK
  5
30EF
330
30ED
100
AcDbEntity
  8
0
100
AcDbBlockEnd
  0
ENDSEC
  0
SECTION
  2
ENTITIES
  0
INSERT
  5
323D
330
1F
100
AcDbEntity
  8
AM0
100
AcDbBlockReference
  2
B8X4
 10
1199.781371197763
 20
732.4219512008269
 30
0.0
  0
ENDSEC
  0
SECTION
  2
OBJECTS
  0
DICTIONARY
  5
C
330
0
100
AcDbDictionary
281
     1
  3
ACAD_COLOR
350
6B
  3
ACAD_GROUP
350
D
  3
ACAD_LAYOUT
350
1A
  3
ACAD_MATERIAL
350
6A
  3
ACAD_MLEADERSTYLE
350
2D46
  3
ACAD_MLINESTYLE
350
17
  3
ACAD_PLOTSETTINGS
350
19
  3
ACAD_PLOTSTYLENAME
350
E
  3
ACAD_SCALELIST
350
2D34
  3
ACAD_TABLESTYLE
350
7E
  3
ACAD_VISUALSTYLE
350
2D23
  3
ACDB_RECOMPOSE_DATA
350
3250
  3
AcDbVariableDictionary
350
5E
  3
AcmDictionary
350
2DEB
  3
AEC_PROPERTY_SET_DEFS
350
2E92
  3
AMG
350
2D4A
  3
AMGSNAPSETTINGS
350
2E7A
  3
ASE_INDEX_DICTIONARY
350
1341
  3
DWGPROPS
350
3251
  3
MAPISURF_MODULE
350
2DE8
  0
DICTIONARY
  5
E7
330
2
100
AcDbDictionary
280
     1
281
     1
  3
ACAD_LAYERFILTERS
360
E9
  3
ACAD_LAYERSTATES
360
2E87
  3
ACLYDICTIONARY
360
E8
  0
DICTIONARY
  5
323E
330
10
100
AcDbDictionary
280
     1
281
     1
  3
ADSK_XREC_LAYER_RECONCILED
360
323F
  0
DICTIONARY
  5
3240
330
E5
100
AcDbDictionary
280
     1
281
     1
  3
ADSK_XREC_LAYER_RECONCILED
360
3241
  0
DICTIONARY
  5
3242
330
2EAA
100
AcDbDictionary
280
     1
281
     1
  3
ADSK_XREC_LAYER_RECONCILED
360
3243
  0
DICTIONARY
  5
C8A
330
1F
100
AcDbDictionary
280
     1
281
     1
  3
ACAD_INDEX
360
3244
  3
ACAD_SORTENTS
360
C8B
  0
DICTIONARY
  5
6B
102
{ACAD_REACTORS
330
C
102
}
330
C
100
AcDbDictionary
281
     1
  0
DICTIONARY
  5
D
102
{ACAD_REACTORS
330
C
102
}
330
C
100
AcDbDictionary
281
     1
  0
DICTIONARY
  5
1A
102
{ACAD_REACTORS
330
C
102
}
330
C
100
AcDbDictionary
281
     1
  3
Layout1
350
D3
  3
Layout2
350
D7
  3
Model
350
22
  0
DICTIONARY
  5
6A
102
{ACAD_REACTORS
330
C
102
}
330
C
100
AcDbDictionary
281
     1
  3
ByBlock
350
2D13
  3
ByLayer
350
2D0B
  3
Global
350
2D1B
  0
DICTIONARY
  5
2D46
102
{ACAD_REACTORS
330
C
102
}
330
C
100
AcDbDictionary
281
     1
  3
Standard
350
2D47
  0
DICTIONARY
  5
17
102
{ACAD_REACTORS
330
C
102
}
330
C
100
AcDbDictionary
281
     1
  3
Standard
350
18
  0
DICTIONARY
  5
19
102
{ACAD_REACTORS
330
C
102
}
330
C
100
AcDbDictionary
281
     1
  0
ACDBDICTIONARYWDFLT
  5
E
102
{ACAD_REACTORS
330
C
102
}
330
C
100
AcDbDictionary
281
     1
  3
Normal
350
F
100
AcDbDictionaryWithDefault
340
F
  0
DICTIONARY
  5
2D34
102
{ACAD_REACTORS
330
C
102
}
330
C
100
AcDbDictionary
281
     1
  3
A0
350
2D35
  3
A1
350
2D36
  3
A2
350
2D37
  3
A3
350
2D38
  3
A4
350
2D39
  3
A5
350
2D3A
  3
A6
350
2D3B
  3
A7
350
2D3C
  3
A8
350
2D3D
  3
A9
350
2D3E
  3
B0
350
2D3F
  3
B1
350
2D40
  3
B2
350
2D41
  3
B3
350
2D42
  3
B4
350
2D43
  3
B5
350
2D44
  3
B6
350
2D45
  0
DICTIONARY
  5
7E
102
{ACAD_REACTORS
330
C
102
}
330
C
100
AcDbDictionary
281
     1
  3
Standard
350
7F
  0
DICTIONARY
  5
2D23
102
{ACAD_REACTORS
330
C
102
}
330
C
100
AcDbDictionary
281
     1
  3
2dWireframe
350
2D29
  3
3D Hidden
350
2D2B
  3
3dWireframe
350
2D2A
  3
Basic
350
2D28
  3
Brighten
350
2D2F
  3
ColorChange
350
2D33
  3
Conceptual
350
2D2C
  3
Dim
350
2D2E
  3
Facepattern
350
2D32
  3
Flat
350
2D24
  3
FlatWithEdges
350
2D25
  3
Gouraud
350
2D26
  3
GouraudWithEdges
350
2D27
  3
Linepattern
350
2D31
  3
Realistic
350
2D2D
  3
Thicken
350
2D30
  0
XRECORD
  5
3250
102
{ACAD_REACTORS
330
C
102
}
330
C
100
AcDbXrecord
280
     1
 90
        1
330
7F
  0
DICTIONARY
  5
5E
102
{ACAD_REACTORS
330
C
102
}
330
C
100
AcDbDictionary
281
     1
  3
CANNOSCALE
350
324B
  3
CMLEADERSTYLE
350
324A
  3
CTABLESTYLE
350
84
  3
DIMASSOC
350
5F
  3
HIDETEXT
350
63
  3
INDEXCTL
350
324D
  3
PROJECTNAME
350
EA
  3
SORTENTS
350
324C
  0
DICTIONARY
  5
2DEB
102
{ACAD_REACTORS
330
C
102
}
330
C
100
AcDbDictionary
281
     1
  3
AcmStdDictionary
350
2DEC
  0
DICTIONARY
  5
2E92
102
{ACAD_REACTORS
330
C
102
}
330
C
100
AcDbDictionary
281
     1
  0
DICTIONARY
  5
2D4A
102
{ACAD_REACTORS
330
C
102
}
330
C
100
AcDbDictionary
281
     1
  3
AcMgSettings
350
2D4B
  0
DICTIONARY
  5
2E7A
102
{ACAD_REACTORS
330
C
102
}
330
C
100
AcDbDictionary
281
     1
  3
DIMENSION
350
2E7B
  3
FEA
350
2E7C
  3
HATCH
350
2E7D
  3
SYMBOLS
350
2E7E
  0
DICTIONARY
  5
1341
102
{ACAD_REACTORS
330
C
102
}
330
C
100
AcDbDictionary
281
     1
  3
ASEBlockHierarchyIndexRecord
350
1343
1001
DCO15
1040
1651815345.609
  0
XRECORD
  5
3251
102
{ACAD_REACTORS
330
C
102
}
330
C
100
AcDbXrecord
280
     1
  1
DWGPROPS COOKIE
  2

  3

  4

  6

  7

  8
se-jenboh
  9

300
AmdtFileType=84
301
=
302
=
303
=
304
=
305
=
306
=
307
=
308
=
309
=
 40
0.1493776388888889
 41
2454914.463530995
 42
2456316.683728762
  1

 90
        1
  0
DICTIONARY
  5
E9
102
{ACAD_REACTORS
330
E7
102
}
330
E7
100
AcDbDictionary
281
     1
  0
DICTIONARY
  5
2E87
102
{ACAD_REACTORS
330
E7
102
}
330
E7
100
AcDbDictionary
281
     1
  0
DICTIONARY
  5
E8
102
{ACAD_REACTORS
330
E7
102
}
330
E7
100
AcDbDictionary
281
     1
1001
ACAD
1000
<All
  0
XRECORD
  5
323F
102
{ACAD_REACTORS
330
323E
102
}
330
323E
100
AcDbXrecord
280
     1
290
     1
  0
XRECORD
  5
3241
102
{ACAD_REACTORS
330
3240
102
}
330
3240
100
AcDbXrecord
280
     1
290
     1
  0
XRECORD
  5
3243
102
{ACAD_REACTORS
330
3242
102
}
330
3242
100
AcDbXrecord
280
     1
290
     1
  0
DICTIONARY
  5
3244
102
{ACAD_REACTORS
330
C8A
102
}
330
C8A
100
AcDbDictionary
281
     1
  3
*A1
350
3245
  0
SORTENTSTABLE
  5
C8B
102
{ACAD_REACTORS
330
C8A
102
}
330
C8A
100
AcDbSortentsTable
330
1F
  0
LAYOUT
  5
D3
102
{ACAD_XDICTIONARY
360
3255
102
}
102
{ACAD_REACTORS
330
1A
102
}
330
1A
100
AcDbPlotSettings
  1

  2
C:\Documents and Settings\basas\Application Data\Autodesk\AutoCAD 2005\R16.1\enu\plotters\Default Windows System Printer.pc3
  4

  6

 40
0.0
 41
0.0
 42
0.0
 43
0.0
 44
0.0
 45
0.0
 46
0.0
 47
0.0
 48
0.0
 49
0.0
140
0.0
141
0.0
142
1.0
143
1.0
 70
   688
 72
     0
 73
     0
 74
     5
  7

 75
    16
147
1.0
148
0.0
149
0.0
100
AcDbLayout
  1
Layout1
 70
     1
 71
     1
 10
0.0
 20
0.0
 11
12.0
 21
9.0
 12
0.0
 22
0.0
 32
0.0
 14
0.0
 24
0.0
 34
0.0
 15
0.0
 25
0.0
 35
0.0
146
0.0
 13
0.0
 23
0.0
 33
0.0
 16
1.0
 26
0.0
 36
0.0
 17
0.0
 27
1.0
 37
0.0
 76
     0
330
D2
  0
LAYOUT
  5
D7
102
{ACAD_XDICTIONARY
360
3257
102
}
102
{ACAD_REACTORS
330
1A
102
}
330
1A
100
AcDbPlotSettings
  1

  2
C:\Documents and Settings\basas\Application Data\Autodesk\AutoCAD 2005\R16.1\enu\plotters\Default Windows System Printer.pc3
  4

  6

 40
0.0
 41
0.0
 42
0.0
 43
0.0
 44
0.0
 45
0.0
 46
0.0
 47
0.0
 48
0.0
 49
0.0
140
0.0
141
0.0
142
1.0
143
1.0
 70
   688
 72
     0
 73
     0
 74
     5
  7

 75
    16
147
1.0
148
0.0
149
0.0
100
AcDbLayout
  1
Layout2
 70
     1
 71
     2
 10
0.0
 20
0.0
 11
12.0
 21
9.0
 12
0.0
 22
0.0
 32
0.0
 14
0.0
 24
0.0
 34
0.0
 15
0.0
 25
0.0
 35
0.0
146
0.0
 13
0.0
 23
0.0
 33
0.0
 16
1.0
 26
0.0
 36
0.0
 17
0.0
 27
1.0
 37
0.0
 76
     0
330
D6
  0
LAYOUT
  5
22
102
{ACAD_XDICTIONARY
360
3252
102
}
102
{ACAD_REACTORS
330
1A
102
}
330
1A
100
AcDbPlotSettings
  1

  2
none_device
  4
ISO_A4_(210.00_x_297.00_MM)
  6

 40
7.5
 41
20.0
 42
7.5
 43
20.0
 44
210.0
 45
297.0
 46
11.54999923706054
 47
-13.65000009536743
 48
0.0
 49
0.0
140
0.0
141
0.0
142
1.0
143
8.704084754739808
 70
 11952
 72
     1
 73
     0
 74
     0
  7

 75
     0
147
0.1148885871608098
148
0.0
149
0.0
100
AcDbLayout
  1
Model
 70
     1
 71
     0
 10
0.0
 20
0.0
 11
12.0
 21
9.0
 12
0.0
 22
0.0
 32
0.0
 14
0.0
 24
0.0
 34
0.0
 15
0.0
 25
0.0
 35
0.0
146
0.0
 13
0.0
 23
0.0
 33
0.0
 16
1.0
 26
0.0
 36
0.0
 17
0.0
 27
1.0
 37
0.0
 76
     0
330
1F
331
2CFF
1001
ACAD_PSEXT
1000
None
1000
None
1000
Not applicable
1000
The layout will not be plotted unless a new plotter configuration name is selected.
1070
     0
  0
MATERIAL
  5
2D13
102
{ACAD_XDICTIONARY
360
2D14
102
}
102
{ACAD_REACTORS
330
6A
102
}
330
6A
100
AcDbMaterial
  1
ByBlock
 72
     0
 43
0.0008202099737533
 43
0.0
 43
0.0
 43
0.0
 43
0.0
 43
0.0008202099737533
 43
0.0
 43
0.0
 43
0.0
 43
0.0
 43
1.0
 43
0.0
 43
0.0
 43
0.0
 43
0.0
 43
1.0
 77
     0
 47
0.0008202099737533
 47
0.0
 47
0.0
 47
0.0
 47
0.0
 47
0.0008202099737533
 47
0.0
 47
0.0
 47
0.0
 47
0.0
 47
1.0
 47
0.0
 47
0.0
 47
0.0
 47
0.0
 47
1.0
171
     0
 49
0.0008202099737533
 49
0.0
 49
0.0
 49
0.0
 49
0.0
 49
0.0008202099737533
 49
0.0
 49
0.0
 49
0.0
 49
0.0
 49
1.0
 49
0.0
 49
0.0
 49
0.0
 49
0.0
 49
1.0
175
     0
142
0.0008202099737533
142
0.0
142
0.0
142
0.0
142
0.0
142
0.0008202099737533
142
0.0
142
0.0
142
0.0
142
0.0
142
1.0
142
0.0
142
0.0
142
0.0
142
0.0
142
1.0
179
     0
144
0.0008202099737533
144
0.0
144
0.0
144
0.0
144
0.0
144
0.0008202099737533
144
0.0
144
0.0
144
0.0
144
0.0
144
1.0
144
0.0
144
0.0
144
0.0
144
0.0
144
1.0
147
0.0008202099737533
147
0.0
147
0.0
147
0.0
147
0.0
147
0.0008202099737533
147
0.0
147
0.0
147
0.0
147
0.0
147
1.0
147
0.0
147
0.0
147
0.0
147
0.0
147
1.0
  0
MATERIAL
  5
2D0B
102
{ACAD_XDICTIONARY
360
2D0C
102
}
102
{ACAD_REACTORS
330
6A
102
}
330
6A
100
AcDbMaterial
  1
ByLayer
 72
     0
 43
0.0008202099737533
 43
0.0
 43
0.0
 43
0.0
 43
0.0
 43
0.0008202099737533
 43
0.0
 43
0.0
 43
0.0
 43
0.0
 43
1.0
 43
0.0
 43
0.0
 43
0.0
 43
0.0
 43
1.0
 77
     0
 47
0.0008202099737533
 47
0.0
 47
0.0
 47
0.0
 47
0.0
 47
0.0008202099737533
 47
0.0
 47
0.0
 47
0.0
 47
0.0
 47
1.0
 47
0.0
 47
0.0
 47
0.0
 47
0.0
 47
1.0
171
     0
 49
0.0008202099737533
 49
0.0
 49
0.0
 49
0.0
 49
0.0
 49
0.0008202099737533
 49
0.0
 49
0.0
 49
0.0
 49
0.0
 49
1.0
 49
0.0
 49
0.0
 49
0.0
 49
0.0
 49
1.0
175
     0
142
0.0008202099737533
142
0.0
142
0.0
142
0.0
142
0.0
142
0.0008202099737533
142
0.0
142
0.0
142
0.0
142
0.0
142
1.0
142
0.0
142
0.0
142
0.0
142
0.0
142
1.0
179
     0
144
0.0008202099737533
144
0.0
144
0.0
144
0.0
144
0.0
144
0.0008202099737533
144
0.0
144
0.0
144
0.0
144
0.0
144
1.0
144
0.0
144
0.0
144
0.0
144
0.0
144
1.0
147
0.0008202099737533
147
0.0
147
0.0
147
0.0
147
0.0
147
0.0008202099737533
147
0.0
147
0.0
147
0.0
147
0.0
147
1.0
147
0.0
147
0.0
147
0.0
147
0.0
147
1.0
  0
MATERIAL
  5
2D1B
102
{ACAD_XDICTIONARY
360
2D1C
102
}
102
{ACAD_REACTORS
330
6A
102
}
330
6A
100
AcDbMaterial
  1
Global
 72
     0
 43
0.0008202099737533
 43
0.0
 43
0.0
 43
0.0
 43
0.0
 43
0.0008202099737533
 43
0.0
 43
0.0
 43
0.0
 43
0.0
 43
1.0
 43
0.0
 43
0.0
 43
0.0
 43
0.0
 43
1.0
 77
     0
 47
0.0008202099737533
 47
0.0
 47
0.0
 47
0.0
 47
0.0
 47
0.0008202099737533
 47
0.0
 47
0.0
 47
0.0
 47
0.0
 47
1.0
 47
0.0
 47
0.0
 47
0.0
 47
0.0
 47
1.0
171
     0
 49
0.0008202099737533
 49
0.0
 49
0.0
 49
0.0
 49
0.0
 49
0.0008202099737533
 49
0.0
 49
0.0
 49
0.0
 49
0.0
 49
1.0
 49
0.0
 49
0.0
 49
0.0
 49
0.0
 49
1.0
175
     0
142
0.0008202099737533
142
0.0
142
0.0
142
0.0
142
0.0
142
0.0008202099737533
142
0.0
142
0.0
142
0.0
142
0.0
142
1.0
142
0.0
142
0.0
142
0.0
142
0.0
142
1.0
179
     0
144
0.0008202099737533
144
0.0
144
0.0
144
0.0
144
0.0
144
0.0008202099737533
144
0.0
144
0.0
144
0.0
144
0.0
144
1.0
144
0.0
144
0.0
144
0.0
144
0.0
144
1.0
147
0.0008202099737533
147
0.0
147
0.0
147
0.0
147
0.0
147
0.0008202099737533
147
0.0
147
0.0
147
0.0
147
0.0
147
1.0
147
0.0
147
0.0
147
0.0
147
0.0
147
1.0
  0
MLEADERSTYLE
  5
2D47
102
{ACAD_REACTORS
330
2D46
102
}
330
2D46
100
AcDbMLeaderStyle
170
     2
171
     1
172
     0
 90
        2
 40
0.0
 41
0.0
173
     1
 91
-1056964608
340
14
 92
       -2
290
     1
 42
2.0
291
     1
 43
0.36
  3
Standard
 44
4.0
300

342
11
174
     1
178
     6
175
     1
176
     0
 93
-1056964608
 45
4.0
292
     0
297
     0
 46
4.0
 94
-1056964608
 47
1.0
 49
1.0
140
1.0
293
     1
141
0.0
294
     1
177
     0
142
1.0
295
     0
296
     0
143
0.125
1001
ACAD_MLEADERVER
1070
     2
  0
MLINESTYLE
  5
18
102
{ACAD_REACTORS
330
17
102
}
330
17
100
AcDbMlineStyle
  2
STANDARD
 70
     0
  3

 62
   256
 51
90.0
 52
90.0
 71
     2
 49
0.5
 62
   256
  6
BYLAYER
 49
-0.5
 62
   256
  6
BYLAYER
  0
ACDBPLACEHOLDER
  5
F
102
{ACAD_REACTORS
330
E
102
}
330
E
  0
SCALE
  5
2D35
102
{ACAD_REACTORS
330
2D34
102
}
330
2D34
100
AcDbScale
 70
     0
300
1:1
140
1.0
141
1.0
290
     1
  0
SCALE
  5
2D36
102
{ACAD_REACTORS
330
2D34
102
}
330
2D34
100
AcDbScale
 70
     0
300
1:2
140
1.0
141
2.0
290
     0
  0
SCALE
  5
2D37
102
{ACAD_REACTORS
330
2D34
102
}
330
2D34
100
AcDbScale
 70
     0
300
1:4
140
1.0
141
4.0
290
     0
  0
SCALE
  5
2D38
102
{ACAD_REACTORS
330
2D34
102
}
330
2D34
100
AcDbScale
 70
     0
300
1:5
140
1.0
141
5.0
290
     0
  0
SCALE
  5
2D39
102
{ACAD_REACTORS
330
2D34
102
}
330
2D34
100
AcDbScale
 70
     0
300
1:8
140
1.0
141
8.0
290
     0
  0
SCALE
  5
2D3A
102
{ACAD_REACTORS
330
2D34
102
}
330
2D34
100
AcDbScale
 70
     0
300
1:10
140
1.0
141
10.0
290
     0
  0
SCALE
  5
2D3B
102
{ACAD_REACTORS
330
2D34
102
}
330
2D34
100
AcDbScale
 70
     0
300
1:16
140
1.0
141
16.0
290
     0
  0
SCALE
  5
2D3C
102
{ACAD_REACTORS
330
2D34
102
}
330
2D34
100
AcDbScale
 70
     0
300
1:20
140
1.0
141
20.0
290
     0
  0
SCALE
  5
2D3D
102
{ACAD_REACTORS
330
2D34
102
}
330
2D34
100
AcDbScale
 70
     0
300
1:30
140
1.0
141
30.0
290
     0
  0
SCALE
  5
2D3E
102
{ACAD_REACTORS
330
2D34
102
}
330
2D34
100
AcDbScale
 70
     0
300
1:40
140
1.0
141
40.0
290
     0
  0
SCALE
  5
2D3F
102
{ACAD_REACTORS
330
2D34
102
}
330
2D34
100
AcDbScale
 70
     0
300
1:50
140
1.0
141
50.0
290
     0
  0
SCALE
  5
2D40
102
{ACAD_REACTORS
330
2D34
102
}
330
2D34
100
AcDbScale
 70
     0
300
1:100
140
1.0
141
100.0
290
     0
  0
SCALE
  5
2D41
102
{ACAD_REACTORS
330
2D34
102
}
330
2D34
100
AcDbScale
 70
     0
300
2:1
140
2.0
141
1.0
290
     0
  0
SCALE
  5
2D42
102
{ACAD_REACTORS
330
2D34
102
}
330
2D34
100
AcDbScale
 70
     0
300
4:1
140
4.0
141
1.0
290
     0
  0
SCALE
  5
2D43
102
{ACAD_REACTORS
330
2D34
102
}
330
2D34
100
AcDbScale
 70
     0
300
8:1
140
8.0
141
1.0
290
     0
  0
SCALE
  5
2D44
102
{ACAD_REACTORS
330
2D34
102
}
330
2D34
100
AcDbScale
 70
     0
300
10:1
140
10.0
141
1.0
290
     0
  0
SCALE
  5
2D45
102
{ACAD_REACTORS
330
2D34
102
}
330
2D34
100
AcDbScale
 70
     0
300
100:1
140
100.0
141
1.0
290
     0
  0
TABLESTYLE
  5
7F
102
{ACAD_XDICTIONARY
360
324E
102
}
102
{ACAD_REACTORS
330
7E
102
}
330
7E
100
AcDbTableStyle
  3
Standard
 70
     0
 71
     0
 40
1.5
 41
1.5
280
     0
281
     0
  7
Standard
140
4.5
170
     2
 62
     0
 63
     7
283
     0
274
    -2
284
     1
 64
     0
275
    -2
285
     1
 65
     0
276
    -2
286
     1
 66
     0
277
    -2
287
     1
 67
     0
278
    -2
288
     1
 68
     0
279
    -2
289
     1
 69
     0
  7
Standard
140
6.0
170
     5
 62
     0
 63
     7
283
     0
274
    -2
284
     1
 64
     0
275
    -2
285
     1
 65
     0
276
    -2
286
     1
 66
     0
277
    -2
287
     1
 67
     0
278
    -2
288
     1
 68
     0
279
    -2
289
     1
 69
     0
  7
Standard
140
4.5
170
     5
 62
     0
 63
     7
283
     0
274
    -2
284
     1
 64
     0
275
    -2
285
     1
 65
     0
276
    -2
286
     1
 66
     0
277
    -2
287
     1
 67
     0
278
    -2
288
     1
 68
     0
279
    -2
289
     1
 69
     0
  0
VISUALSTYLE
  5
2D29
102
{ACAD_REACTORS
330
2D23
102
}
330
2D23
100
AcDbVisualStyle
  2
2dWireframe
 70
     4
 71
     0
 72
     2
 73
     0
 90
        0
 40
-0.6
 41
-30.0
 62
     5
 63
     7
 74
     1
 91
        4
 64
     7
 65
   257
 75
     1
175
     1
 42
1.0
 92
        0
 66
   257
 43
1.0
 76
     1
 77
     6
 78
     2
 67
     7
 79
     5
170
     0
171
     0
290
     0
174
     0
 93
        1
 44
0.0
173
     0
291
     0
 45
0.0
1001
ACAD
1000
AcDbSavedByObjectVersion
1070
     0
  0
VISUALSTYLE
  5
2D2B
102
{ACAD_REACTORS
330
2D23
102
}
330
2D23
100
AcDbVisualStyle
  2
3D Hidden
 70
     6
 71
     1
 72
     2
 73
     2
 90
        0
 40
-0.6
 41
-30.0
 62
     5
 63
     7
 74
     2
 91
        2
 64
     7
 65
   257
 75
     2
175
     1
 42
40.0
 92
        0
 66
   257
 43
1.0
 76
     1
 77
     6
 78
     2
 67
     7
 79
     3
170
     0
171
     0
290
     0
174
     0
 93
        1
 44
0.0
173
     0
291
     0
 45
0.0
1001
ACAD
1000
AcDbSavedByObjectVersion
1070
     0
  0
VISUALSTYLE
  5
2D2A
102
{ACAD_REACTORS
330
2D23
102
}
330
2D23
100
AcDbVisualStyle
  2
3dWireframe
 70
     5
 71
     0
 72
     2
 73
     0
 90
        0
 40
-0.6
 41
-30.0
 62
     5
 63
     7
 74
     1
 91
        4
 64
     7
 65
   257
 75
     1
175
     1
 42
1.0
 92
        0
 66
   257
 43
1.0
 76
     1
 77
     6
 78
     2
 67
     7
 79
     5
170
     0
171
     0
290
     0
174
     0
 93
        1
 44
0.0
173
     0
291
     0
 45
0.0
1001
ACAD
1000
AcDbSavedByObjectVersion
1070
     0
  0
VISUALSTYLE
  5
2D28
102
{ACAD_REACTORS
330
2D23
102
}
330
2D23
100
AcDbVisualStyle
  2
Basic
 70
     7
 71
     1
 72
     0
 73
     1
 90
        0
 40
-0.6
 41
-30.0
 62
     5
 63
     7
 74
     0
 91
        4
 64
     7
 65
   257
 75
     1
175
     1
 42
1.0
 92
        8
 66
     7
 43
1.0
 76
     1
 77
     6
 78
     2
 67
     7
 79
     5
170
     0
171
     0
290
     0
174
     0
 93
        1
 44
0.0
173
     0
291
     1
 45
0.0
1001
ACAD
1000
AcDbSavedByObjectVersion
1070
     0
  0
VISUALSTYLE
  5
2D2F
102
{ACAD_REACTORS
330
2D23
102
}
330
2D23
100
AcDbVisualStyle
  2
Brighten
 70
    12
 71
     2
 72
     2
 73
     0
 90
        0
 40
-0.6
 41
-30.0
 62
     5
 63
     7
 74
     1
 91
        4
 64
     7
 65
   257
 75
     1
175
     1
 42
1.0
 92
        8
 66
     7
 43
1.0
 76
     1
 77
     6
 78
     2
 67
     7
 79
     5
170
     0
171
     0
290
     0
174
     0
 93
        1
 44
50.0
173
     0
291
     1
 45
0.0
1001
ACAD
1000
AcDbSavedByObjectVersion
1070
     0
  0
VISUALSTYLE
  5
2D33
102
{ACAD_REACTORS
330
2D23
102
}
330
2D23
100
AcDbVisualStyle
  2
ColorChange
 70
    16
 71
     2
 72
     2
 73
     3
 90
        0
 40
-0.6
 41
-30.0
 62
     5
 63
     8
 74
     1
 91
        4
 64
     7
 65
   257
 75
     1
175
     1
 42
1.0
 92
        8
 66
     8
 43
1.0
 76
     1
 77
     6
 78
     2
 67
     7
 79
     5
170
     0
171
     0
290
     0
174
     0
 93
        1
 44
0.0
173
     0
291
     1
 45
0.0
1001
ACAD
1000
AcDbSavedByObjectVersion
1070
     0
  0
VISUALSTYLE
  5
2D2C
102
{ACAD_REACTORS
330
2D23
102
}
330
2D23
100
AcDbVisualStyle
  2
Conceptual
 70
     9
 71
     3
 72
     2
 73
     0
 90
        0
 40
-0.6
 41
-30.0
 62
     5
 63
     7
 74
     2
 91
        2
 64
     7
 65
   257
 75
     1
175
     1
 42
40.0
 92
        8
 66
     7
 43
1.0
 76
     1
 77
     6
 78
     2
 67
     7
 79
     3
170
     0
171
     0
290
     0
174
     0
 93
        1
 44
0.0
173
     0
291
     0
 45
0.0
1001
ACAD
1000
AcDbSavedByObjectVersion
1070
     0
  0
VISUALSTYLE
  5
2D2E
102
{ACAD_REACTORS
330
2D23
102
}
330
2D23
100
AcDbVisualStyle
  2
Dim
 70
    11
 71
     2
 72
     2
 73
     0
 90
        0
 40
-0.6
 41
-30.0
 62
     5
 63
     7
 74
     1
 91
        4
 64
     7
 65
   257
 75
     1
175
     1
 42
1.0
 92
        8
 66
     7
 43
1.0
 76
     1
 77
     6
 78
     2
 67
     7
 79
     5
170
     0
171
     0
290
     0
174
     0
 93
        1
 44
-50.0
173
     0
291
     1
 45
0.0
1001
ACAD
1000
AcDbSavedByObjectVersion
1070
     0
  0
VISUALSTYLE
  5
2D32
102
{ACAD_REACTORS
330
2D23
102
}
330
2D23
100
AcDbVisualStyle
  2
Facepattern
 70
    15
 71
     2
 72
     2
 73
     0
 90
        0
 40
-0.6
 41
-30.0
 62
     5
 63
     7
 74
     1
 91
        4
 64
     7
 65
   257
 75
     1
175
     1
 42
1.0
 92
        8
 66
     7
 43
1.0
 76
     1
 77
     6
 78
     2
 67
     7
 79
     5
170
     0
171
     0
290
     0
174
     0
 93
        1
 44
0.0
173
     0
291
     1
 45
0.0
1001
ACAD
1000
AcDbSavedByObjectVersion
1070
     0
  0
VISUALSTYLE
  5
2D24
102
{ACAD_REACTORS
330
2D23
102
}
330
2D23
100
AcDbVisualStyle
  2
Flat
 70
     0
 71
     2
 72
     1
 73
     1
 90
        2
 40
-0.6
 41
30.0
 62
     5
 63
     7
 74
     0
 91
        4
 64
     7
 65
   257
 75
     1
175
     1
 42
1.0
 92
        8
 66
     7
 43
1.0
 76
     1
 77
     6
 78
     2
 67
     7
 79
     5
170
     0
171
     0
290
     0
174
     0
 93
       13
 44
0.0
173
     0
291
     1
 45
0.0
1001
ACAD
1000
AcDbSavedByObjectVersion
1070
     0
  0
VISUALSTYLE
  5
2D25
102
{ACAD_REACTORS
330
2D23
102
}
330
2D23
100
AcDbVisualStyle
  2
FlatWithEdges
 70
     1
 71
     2
 72
     1
 73
     1
 90
        2
 40
-0.6
 41
30.0
 62
     5
 63
     7
 74
     1
 91
        4
 64
     7
 65
   257
 75
     1
175
     1
 42
1.0
 92
        0
 66
   257
 43
1.0
 76
     1
 77
     6
 78
     2
 67
     7
 79
     5
170
     0
171
     0
290
     0
174
     0
 93
       13
 44
0.0
173
     0
291
     1
 45
0.0
1001
ACAD
1000
AcDbSavedByObjectVersion
1070
     0
  0
VISUALSTYLE
  5
2D26
102
{ACAD_REACTORS
330
2D23
102
}
330
2D23
100
AcDbVisualStyle
  2
Gouraud
 70
     2
 71
     2
 72
     2
 73
     1
 90
        2
 40
-0.6
 41
30.0
 62
     5
 63
     7
 74
     0
 91
        4
 64
     7
 65
   257
 75
     1
175
     1
 42
1.0
 92
        0
 66
     7
 43
1.0
 76
     1
 77
     6
 78
     2
 67
     7
 79
     5
170
     0
171
     0
290
     0
174
     0
 93
       13
 44
0.0
173
     0
291
     1
 45
0.0
1001
ACAD
1000
AcDbSavedByObjectVersion
1070
     0
  0
VISUALSTYLE
  5
2D27
102
{ACAD_REACTORS
330
2D23
102
}
330
2D23
100
AcDbVisualStyle
  2
GouraudWithEdges
 70
     3
 71
     2
 72
     2
 73
     1
 90
        2
 40
-0.6
 41
30.0
 62
     5
 63
     7
 74
     1
 91
        4
 64
     7
 65
   257
 75
     1
175
     1
 42
1.0
 92
        0
 66
   257
 43
1.0
 76
     1
 77
     6
 78
     2
 67
     7
 79
     5
170
     0
171
     0
290
     0
174
     0
 93
       13
 44
0.0
173
     0
291
     1
 45
0.0
1001
ACAD
1000
AcDbSavedByObjectVersion
1070
     0
  0
VISUALSTYLE
  5
2D31
102
{ACAD_REACTORS
330
2D23
102
}
330
2D23
100
AcDbVisualStyle
  2
Linepattern
 70
    14
 71
     2
 72
     2
 73
     0
 90
        0
 40
-0.6
 41
-30.0
 62
     5
 63
     7
 74
     1
 91
        4
 64
     7
 65
   257
 75
     7
175
     7
 42
1.0
 92
        8
 66
     7
 43
1.0
 76
     1
 77
     6
 78
     2
 67
     7
 79
     5
170
     0
171
     0
290
     0
174
     0
 93
        1
 44
0.0
173
     0
291
     1
 45
0.0
1001
ACAD
1000
AcDbSavedByObjectVersion
1070
     0
  0
VISUALSTYLE
  5
2D2D
102
{ACAD_REACTORS
330
2D23
102
}
330
2D23
100
AcDbVisualStyle
  2
Realistic
 70
     8
 71
     2
 72
     2
 73
     0
 90
        0
 40
-0.6
 41
-30.0
 62
     5
 63
     7
 74
     1
 91
        0
 64
     7
 65
   257
 75
     1
175
     1
 42
1.0
 92
        8
 66
     8
 43
1.0
 76
     1
 77
     6
 78
     2
 67
     7
 79
     5
170
     0
171
     0
290
     0
174
     0
 93
       13
 44
0.0
173
     0
291
     0
 45
0.0
1001
ACAD
1000
AcDbSavedByObjectVersion
1070
     0
  0
VISUALSTYLE
  5
2D30
102
{ACAD_REACTORS
330
2D23
102
}
330
2D23
100
AcDbVisualStyle
  2
Thicken
 70
    13
 71
     2
 72
     2
 73
     0
 90
        0
 40
-0.6
 41
-30.0
 62
     5
 63
     7
 74
     1
 91
        4
 64
     7
 65
   257
 75
     1
175
     1
 42
1.0
 92
       12
 66
     7
 43
1.0
 76
     1
 77
     6
 78
     2
 67
     7
 79
     5
170
     0
171
     0
290
     0
174
     0
 93
        1
 44
0.0
173
     0
291
     1
 45
0.0
1001
ACAD
1000
AcDbSavedByObjectVersion
1070
     0
  0
DICTIONARYVAR
  5
324B
102
{ACAD_REACTORS
330
5E
102
}
330
5E
100
DictionaryVariables
280
     0
  1
1:1
  0
DICTIONARYVAR
  5
324A
102
{ACAD_REACTORS
330
5E
102
}
330
5E
100
DictionaryVariables
280
     0
  1
STANDARD
  0
DICTIONARYVAR
  5
84
102
{ACAD_REACTORS
330
5E
102
}
330
5E
100
DictionaryVariables
280
     0
  1
STANDARD
  0
DICTIONARYVAR
  5
5F
102
{ACAD_REACTORS
330
5E
102
}
330
5E
100
DictionaryVariables
280
     0
  1
2
  0
DICTIONARYVAR
  5
63
102
{ACAD_REACTORS
330
5E
102
}
330
5E
100
DictionaryVariables
280
     0
  1
1
  0
DICTIONARYVAR
  5
324D
102
{ACAD_REACTORS
330
5E
102
}
330
5E
100
DictionaryVariables
280
     0
  1
1
  0
DICTIONARYVAR
  5
EA
102
{ACAD_REACTORS
330
5E
102
}
330
5E
100
DictionaryVariables
280
     0
  1

  0
DICTIONARYVAR
  5
324C
102
{ACAD_REACTORS
330
5E
102
}
330
5E
100
DictionaryVariables
280
     0
  1
127
  0
DICTIONARY
  5
2DEC
102
{ACAD_REACTORS
330
2DEB
102
}
330
2DEB
100
AcDbDictionary
281
     1
  0
DICTIONARY
  5
2D4B
102
{ACAD_REACTORS
330
2D4A
102
}
330
2D4A
100
AcDbDictionary
281
     1
  3
DWGSETTINGS
350
2D59
  3
TRANSSETTINGS
350
2D65
  0
ACAMGFILTERDAT
  5
2E7B
102
{ACAD_REACTORS
330
2E7A
102
}
330
2E7A
100
AcAmgFilterDat
 70
    15
  1
DIMENSION,AMDT_*_DIM
  2
*
  3
*
  4
*
  5
*
290
     1
  0
ACAMGFILTERDAT
  5
2E7C
102
{ACAD_REACTORS
330
2E7A
102
}
330
2E7A
100
AcAmgFilterDat
 70
    15
  1
*
  2
AM_FEA-AM_*
  3
*
  4
*
  5
*
290
     1
  0
ACAMGFILTERDAT
  5
2E7D
102
{ACAD_REACTORS
330
2E7A
102
}
330
2E7A
100
AcAmgFilterDat
 70
    15
  1
HATCH
  2
*
  3
*
  4
*
  5
*
290
     1
  0
ACAMGFILTERDAT
  5
2E7E
102
{ACAD_REACTORS
330
2E7A
102
}
330
2E7A
100
AcAmgFilterDat
 70
    15
  1
ACMFCFRAME,ACMDATUMTARGET,ACMDATUMID,ACMWELDSYM,ACMSURFSYM,ACMFEATID,ACMPARTREF,ACMBALLOON
  2
*
  3
*
  4
*
  5
*
290
     1
  0
XRECORD
  5
1343
102
{ACAD_REACTORS
330
1341
102
}
330
1341
100
AcDbXrecord
280
     1
  0
LAYER_INDEX
  5
3245
102
{ACAD_REACTORS
330
3244
102
}
330
3244
100
AcDbIndex
 40
2456316.683728762
100
AcDbLayerIndex
  8
0
360
3246
 90
        0
  8
AM0
360
3247
 90
        1
  8
DEFPOINTS
360
3248
 90
        0
  8
AM_5
360
3249
 90
        0
  0
DICTIONARY
  5
3255
330
D3
100
AcDbDictionary
280
     1
281
     1
  3
ACAD_XREC_ROUNDTRIP
360
3256
  0
DICTIONARY
  5
3257
330
D7
100
AcDbDictionary
280
     1
281
     1
  3
ACAD_XREC_ROUNDTRIP
360
3258
  0
DICTIONARY
  5
3252
330
22
100
AcDbDictionary
280
     1
281
     1
  3
ACAD_XREC_ROUNDTRIP
360
3253
  0
DICTIONARY
  5
2D14
330
2D13
100
AcDbDictionary
280
     1
281
     1
  3
ACAD_XREC_ROUNDTRIP
360
3262
  3
BUMPTILE
360
2D16
  3
DIFFUSETILE
360
2D15
  3
OPACITYTILE
360
2D19
  3
REFLECTIONTILE
360
2D18
  3
REFRACTIONTILE
360
2D1A
  3
SPECULARTILE
360
2D17
  0
DICTIONARY
  5
2D0C
330
2D0B
100
AcDbDictionary
280
     1
281
     1
  3
ACAD_XREC_ROUNDTRIP
360
3261
  3
BUMPTILE
360
2D0E
  3
DIFFUSETILE
360
2D0D
  3
OPACITYTILE
360
2D11
  3
REFLECTIONTILE
360
2D10
  3
REFRACTIONTILE
360
2D12
  3
SPECULARTILE
360
2D0F
  0
DICTIONARY
  5
2D1C
330
2D1B
100
AcDbDictionary
280
     1
281
     1
  3
ACAD_XREC_ROUNDTRIP
360
3263
  3
BUMPTILE
360
2D1E
  3
DIFFUSETILE
360
2D1D
  3
OPACITYTILE
360
2D21
  3
REFLECTIONTILE
360
2D20
  3
REFRACTIONTILE
360
2D22
  3
SPECULARTILE
360
2D1F
  0
DICTIONARY
  5
324E
330
7F
100
AcDbDictionary
280
     1
281
     1
  3
ACAD_ROUNDTRIP_2008_TABLESTYLE_CELLSTYLEMAP
360
324F
  3
ACAD_XREC_ROUNDTRIP
360
3254
  0
IDBUFFER
  5
3246
330
0
100
AcDbIdBuffer
  0
IDBUFFER
  5
3247
330
0
100
AcDbIdBuffer
330
323D
  0
IDBUFFER
  5
3248
330
0
100
AcDbIdBuffer
  0
IDBUFFER
  5
3249
330
0
100
AcDbIdBuffer
  0
XRECORD
  5
3256
102
{ACAD_REACTORS
330
3255
102
}
330
3255
100
AcDbXrecord
280
     1
102
SHADEPLOT
 70
     0
102
SHADEPLOTRESLEVEL
 70
     2
102
SHADEPLOTCUSTOMDPI
 70
   300
  0
XRECORD
  5
3258
102
{ACAD_REACTORS
330
3257
102
}
330
3257
100
AcDbXrecord
280
     1
102
SHADEPLOT
 70
     0
102
SHADEPLOTRESLEVEL
 70
     2
102
SHADEPLOTCUSTOMDPI
 70
   300
  0
XRECORD
  5
3253
102
{ACAD_REACTORS
330
3252
102
}
330
3252
100
AcDbXrecord
280
     1
102
SHADEPLOT
 70
     0
102
SHADEPLOTRESLEVEL
 70
     2
102
SHADEPLOTCUSTOMDPI
 70
   300
  0
XRECORD
  5
3262
102
{ACAD_REACTORS
330
2D14
102
}
330
2D14
100
AcDbXrecord
280
     1
102
MATERIAL
148
0.0
149
0.0
149
0.0
 93
        0
 94
      127
282
     0
 72
     0
 77
     0
171
     0
175
     0
179
     0
273
     0
  0
XRECORD
  5
2D16
102
{ACAD_REACTORS
330
2D14
102
}
330
2D14
100
AcDbXrecord
280
     1
270
     1
271
     1
  0
XRECORD
  5
2D15
102
{ACAD_REACTORS
330
2D14
102
}
330
2D14
100
AcDbXrecord
280
     1
270
     1
271
     1
  0
XRECORD
  5
2D19
102
{ACAD_REACTORS
330
2D14
102
}
330
2D14
100
AcDbXrecord
280
     1
270
     1
271
     1
  0
XRECORD
  5
2D18
102
{ACAD_REACTORS
330
2D14
102
}
330
2D14
100
AcDbXrecord
280
     1
270
     1
271
     1
  0
XRECORD
  5
2D1A
102
{ACAD_REACTORS
330
2D14
102
}
330
2D14
100
AcDbXrecord
280
     1
270
     1
271
     1
  0
XRECORD
  5
2D17
102
{ACAD_REACTORS
330
2D14
102
}
330
2D14
100
AcDbXrecord
280
     1
270
     1
271
     1
  0
XRECORD
  5
3261
102
{ACAD_REACTORS
330
2D0C
102
}
330
2D0C
100
AcDbXrecord
280
     1
102
MATERIAL
148
0.0
149
0.0
149
0.0
 93
        0
 94
      127
282
     0
 72
     0
 77
     0
171
     0
175
     0
179
     0
273
     0
  0
XRECORD
  5
2D0E
102
{ACAD_REACTORS
330
2D0C
102
}
330
2D0C
100
AcDbXrecord
280
     1
270
     1
271
     1
  0
XRECORD
  5
2D0D
102
{ACAD_REACTORS
330
2D0C
102
}
330
2D0C
100
AcDbXrecord
280
     1
270
     1
271
     1
  0
XRECORD
  5
2D11
102
{ACAD_REACTORS
330
2D0C
102
}
330
2D0C
100
AcDbXrecord
280
     1
270
     1
271
     1
  0
XRECORD
  5
2D10
102
{ACAD_REACTORS
330
2D0C
102
}
330
2D0C
100
AcDbXrecord
280
     1
270
     1
271
     1
  0
XRECORD
  5
2D12
102
{ACAD_REACTORS
330
2D0C
102
}
330
2D0C
100
AcDbXrecord
280
     1
270
     1
271
     1
  0
XRECORD
  5
2D0F
102
{ACAD_REACTORS
330
2D0C
102
}
330
2D0C
100
AcDbXrecord
280
     1
270
     1
271
     1
  0
XRECORD
  5
3263
102
{ACAD_REACTORS
330
2D1C
102
}
330
2D1C
100
AcDbXrecord
280
     1
102
MATERIAL
148
0.0
149
0.0
149
0.0
 93
        0
 94
      127
282
     0
 72
     0
 77
     0
171
     0
175
     0
179
     0
273
     0
  0
XRECORD
  5
2D1E
102
{ACAD_REACTORS
330
2D1C
102
}
330
2D1C
100
AcDbXrecord
280
     1
270
     1
271
     1
  0
XRECORD
  5
2D1D
102
{ACAD_REACTORS
330
2D1C
102
}
330
2D1C
100
AcDbXrecord
280
     1
270
     1
271
     1
  0
XRECORD
  5
2D21
102
{ACAD_REACTORS
330
2D1C
102
}
330
2D1C
100
AcDbXrecord
280
     1
270
     1
271
     1
  0
XRECORD
  5
2D20
102
{ACAD_REACTORS
330
2D1C
102
}
330
2D1C
100
AcDbXrecord
280
     1
270
     1
271
     1
  0
XRECORD
  5
2D22
102
{ACAD_REACTORS
330
2D1C
102
}
330
2D1C
100
AcDbXrecord
280
     1
270
     1
271
     1
  0
XRECORD
  5
2D1F
102
{ACAD_REACTORS
330
2D1C
102
}
330
2D1C
100
AcDbXrecord
280
     1
270
     1
271
     1
  0
CELLSTYLEMAP
  5
324F
102
{ACAD_REACTORS
330
324E
102
}
330
324E
100
AcDbCellStyleMap
 90
        3
300
CELLSTYLE
  1
TABLEFORMAT_BEGIN
 90
        5
170
     1
 91
        0
 92
    32768
 62
   257
 93
        1
300
CONTENTFORMAT
  1
CONTENTFORMAT_BEGIN
 90
        0
 91
        0
 92
        4
 93
        0
300

 40
0.0
140
1.0
 94
        5
 62
     0
340
11
144
6.0
309
CONTENTFORMAT_END
171
     1
301
MARGIN
  1
CELLMARGIN_BEGIN
 40
1.5
 40
1.5
 40
1.5
 40
1.5
 40
0.18
 40
0.18
309
CELLMARGIN_END
 94
        6
 95
        1
302
GRIDFORMAT
  1
GRIDFORMAT_BEGIN
 90
        0
 91
        1
 62
     0
 92
       -2
340
0
 93
        0
 40
0.045
309
GRIDFORMAT_END
 95
        2
302
GRIDFORMAT
  1
GRIDFORMAT_BEGIN
 90
        0
 91
        1
 62
     0
 92
       -2
340
0
 93
        0
 40
0.045
309
GRIDFORMAT_END
 95
        4
302
GRIDFORMAT
  1
GRIDFORMAT_BEGIN
 90
        0
 91
        1
 62
     0
 92
       -2
340
0
 93
        0
 40
0.045
309
GRIDFORMAT_END
 95
        8
302
GRIDFORMAT
  1
GRIDFORMAT_BEGIN
 90
        0
 91
        1
 62
     0
 92
       -2
340
0
 93
        0
 40
0.045
309
GRIDFORMAT_END
 95
       16
302
GRIDFORMAT
  1
GRIDFORMAT_BEGIN
 90
        0
 91
        1
 62
     0
 92
       -2
340
0
 93
        0
 40
0.045
309
GRIDFORMAT_END
 95
       32
302
GRIDFORMAT
  1
GRIDFORMAT_BEGIN
 90
        0
 91
        1
 62
     0
 92
       -2
340
0
 93
        0
 40
0.045
309
GRIDFORMAT_END
309
TABLEFORMAT_END
  1
CELLSTYLE_BEGIN
 90
        1
 91
        1
300
_TITLE
309
CELLSTYLE_END
300
CELLSTYLE
  1
TABLEFORMAT_BEGIN
 90
        5
170
     1
 91
        0
 92
        0
 62
   257
 93
        1
300
CONTENTFORMAT
  1
CONTENTFORMAT_BEGIN
 90
        0
 91
        0
 92
        4
 93
        0
300

 40
0.0
140
1.0
 94
        5
 62
     0
340
11
144
4.5
309
CONTENTFORMAT_END
171
     1
301
MARGIN
  1
CELLMARGIN_BEGIN
 40
1.5
 40
1.5
 40
1.5
 40
1.5
 40
0.18
 40
0.18
309
CELLMARGIN_END
 94
        6
 95
        1
302
GRIDFORMAT
  1
GRIDFORMAT_BEGIN
 90
        0
 91
        1
 62
     0
 92
       -2
340
0
 93
        0
 40
0.045
309
GRIDFORMAT_END
 95
        2
302
GRIDFORMAT
  1
GRIDFORMAT_BEGIN
 90
        0
 91
        1
 62
     0
 92
       -2
340
0
 93
        0
 40
0.045
309
GRIDFORMAT_END
 95
        4
302
GRIDFORMAT
  1
GRIDFORMAT_BEGIN
 90
        0
 91
        1
 62
     0
 92
       -2
340
0
 93
        0
 40
0.045
309
GRIDFORMAT_END
 95
        8
302
GRIDFORMAT
  1
GRIDFORMAT_BEGIN
 90
        0
 91
        1
 62
     0
 92
       -2
340
0
 93
        0
 40
0.045
309
GRIDFORMAT_END
 95
       16
302
GRIDFORMAT
  1
GRIDFORMAT_BEGIN
 90
        0
 91
        1
 62
     0
 92
       -2
340
0
 93
        0
 40
0.045
309
GRIDFORMAT_END
 95
       32
302
GRIDFORMAT
  1
GRIDFORMAT_BEGIN
 90
        0
 91
        1
 62
     0
 92
       -2
340
0
 93
        0
 40
0.045
309
GRIDFORMAT_END
309
TABLEFORMAT_END
  1
CELLSTYLE_BEGIN
 90
        2
 91
        1
300
_HEADER
309
CELLSTYLE_END
300
CELLSTYLE
  1
TABLEFORMAT_BEGIN
 90
        5
170
     1
 91
        0
 92
        0
 62
   257
 93
        1
300
CONTENTFORMAT
  1
CONTENTFORMAT_BEGIN
 90
        0
 91
        0
 92
        4
 93
        0
300

 40
0.0
140
1.0
 94
        2
 62
     0
340
11
144
4.5
309
CONTENTFORMAT_END
171
     1
301
MARGIN
  1
CELLMARGIN_BEGIN
 40
1.5
 40
1.5
 40
1.5
 40
1.5
 40
0.18
 40
0.18
309
CELLMARGIN_END
 94
        6
 95
        1
302
GRIDFORMAT
  1
GRIDFORMAT_BEGIN
 90
        0
 91
        1
 62
     0
 92
       -2
340
0
 93
        0
 40
0.045
309
GRIDFORMAT_END
 95
        2
302
GRIDFORMAT
  1
GRIDFORMAT_BEGIN
 90
        0
 91
        1
 62
     0
 92
       -2
340
0
 93
        0
 40
0.045
309
GRIDFORMAT_END
 95
        4
302
GRIDFORMAT
  1
GRIDFORMAT_BEGIN
 90
        0
 91
        1
 62
     0
 92
       -2
340
0
 93
        0
 40
0.045
309
GRIDFORMAT_END
 95
        8
302
GRIDFORMAT
  1
GRIDFORMAT_BEGIN
 90
        0
 91
        1
 62
     0
 92
       -2
340
0
 93
        0
 40
0.045
309
GRIDFORMAT_END
 95
       16
302
GRIDFORMAT
  1
GRIDFORMAT_BEGIN
 90
        0
 91
        1
 62
     0
 92
       -2
340
0
 93
        0
 40
0.045
309
GRIDFORMAT_END
 95
       32
302
GRIDFORMAT
  1
GRIDFORMAT_BEGIN
 90
        0
 91
        1
 62
     0
 92
       -2
340
0
 93
        0
 40
0.045
309
GRIDFORMAT_END
309
TABLEFORMAT_END
  1
CELLSTYLE_BEGIN
 90
        3
 91
        2
300
_DATA
309
CELLSTYLE_END
  0
XRECORD
  5
3254
102
{ACAD_REACTORS
330
324E
102
}
330
324E
100
AcDbXrecord
280
     1
102
ACAD_ROUNDTRIP_PRE2007_TABLESTYLE
 90
        4
 91
        0
  1

 92
        4
 93
        0
  2

 94
        4
 95
        0
  3

  0
ENDSEC
  0
EOF
