  0
SECTION
  2
HEADER
  9
$ACADVER
  1
AC1015
  9
$ACADMAINTVER
 70
    20
  9
$DWGCODEPAGE
  3
ANSI_1252
  9
$INSBASE
 10
0.0
 20
0.0
 30
0.0
  9
$EXTMIN
 10
685.2170462249753
 20
942.6872601694544
 30
0.0
  9
$EXTMAX
 10
2119.717046224979
 20
1677.577334172669
 30
0.0
  9
$LIMMIN
 10
0.0
 20
0.0
  9
$LIMMAX
 10
420.0
 20
297.0
  9
$ORTHOMODE
 70
     1
  9
$REGENMODE
 70
     1
  9
$FILLMODE
 70
     1
  9
$QTEXTMODE
 70
     0
  9
$MIRRTEXT
 70
     0
  9
$LTSCALE
 40
1.0
  9
$ATTMODE
 70
     1
  9
$TEXTSIZE
 40
2.5
  9
$TRACEWID
 40
1.0
  9
$TEXTSTYLE
  7
Standard
  9
$CLAYER
  8
AM0
  9
$CELTYPE
  6
ByLayer
  9
$CECOLOR
 62
   256
  9
$CELTSCALE
 40
1.0
  9
$DISPSILH
 70
     0
  9
$DIMSCALE
 40
3.0
  9
$DIMASZ
 40
2.5
  9
$DIMEXO
 40
1.0
  9
$DIMDLI
 40
10.0
  9
$DIMRND
 40
0.0
  9
$DIMDLE
 40
0.0
  9
$DIMEXE
 40
1.0
  9
$DIMTP
 40
0.1
  9
$DIMTM
 40
0.1
  9
$DIMTXT
 40
3.5
  9
$DIMCEN
 40
0.0
  9
$DIMTSZ
 40
0.0
  9
$DIMTOL
 70
     0
  9
$DIMLIM
 70
     0
  9
$DIMTIH
 70
     0
  9
$DIMTOH
 70
     0
  9
$DIMSE1
 70
     0
  9
$DIMSE2
 70
     0
  9
$DIMTAD
 70
     1
  9
$DIMZIN
 70
     8
  9
$DIMBLK
  1

  9
$DIMASO
 70
     1
  9
$DIMSHO
 70
     1
  9
$DIMPOST
  1

  9
$DIMAPOST
  1
"
  9
$DIMALT
 70
     0
  9
$DIMALTD
 70
     3
  9
$DIMALTF
 40
0.0393701
  9
$DIMLFAC
 40
1.0
  9
$DIMTOFL
 70
     1
  9
$DIMTVP
 40
0.0
  9
$DIMTIX
 70
     0
  9
$DIMSOXD
 70
     0
  9
$DIMSAH
 70
     0
  9
$DIMBLK1
  1

  9
$DIMBLK2
  1

  9
$DIMSTYLE
  2
AM_ISO
  9
$DIMCLRD
 70
   256
  9
$DIMCLRE
 70
   256
  9
$DIMCLRT
 70
     2
  9
$DIMTFAC
 40
0.71
  9
$DIMGAP
 40
1.5
  9
$DIMJUST
 70
     0
  9
$DIMSD1
 70
     0
  9
$DIMSD2
 70
     0
  9
$DIMTOLJ
 70
     0
  9
$DIMTZIN
 70
     8
  9
$DIMALTZ
 70
     0
  9
$DIMALTTZ
 70
     0
  9
$DIMUPT
 70
     0
  9
$DIMDEC
 70
     2
  9
$DIMTDEC
 70
     2
  9
$DIMALTU
 70
     2
  9
$DIMALTTD
 70
     3
  9
$DIMTXSTY
  7
Standard
  9
$DIMAUNIT
 70
     0
  9
$DIMADEC
 70
     0
  9
$DIMALTRND
 40
0.0
  9
$DIMAZIN
 70
     2
  9
$DIMDSEP
 70
    46
  9
$DIMATFIT
 70
     3
  9
$DIMFRAC
 70
     0
  9
$DIMLDRBLK
  1

  9
$DIMLUNIT
 70
     2
  9
$DIMLWD
 70
    -1
  9
$DIMLWE
 70
    -1
  9
$DIMTMOVE
 70
     0
  9
$LUNITS
 70
     2
  9
$LUPREC
 70
     4
  9
$SKETCHINC
 40
1.0
  9
$FILLETRAD
 40
0.0
  9
$AUNITS
 70
     0
  9
$AUPREC
 70
     0
  9
$MENU
  1
.
  9
$ELEVATION
 40
0.0
  9
$PELEVATION
 40
0.0
  9
$THICKNESS
 40
0.0
  9
$LIMCHECK
 70
     0
  9
$CHAMFERA
 40
0.0
  9
$CHAMFERB
 40
0.0
  9
$CHAMFERC
 40
0.0
  9
$CHAMFERD
 40
0.0
  9
$SKPOLY
 70
     0
  9
$TDCREATE
 40
2454921.404451678
  9
$TDUCREATE
 40
2454921.362785011
  9
$TDUPDATE
 40
2456316.654983137
  9
$TDUUPDATE
 40
2456316.613316470
  9
$TDINDWG
 40
0.0350284491
  9
$TDUSRTIMER
 40
0.0350281944
  9
$USRTIMER
 70
     1
  9
$ANGBASE
 50
0.0
  9
$ANGDIR
 70
     0
  9
$PDMODE
 70
     0
  9
$PDSIZE
 40
0.0
  9
$PLINEWID
 40
0.0
  9
$SPLFRAME
 70
     0
  9
$SPLINETYPE
 70
     6
  9
$SPLINESEGS
 70
     8
  9
$HANDSEED
  5
3146
  9
$SURFTAB1
 70
     6
  9
$SURFTAB2
 70
     6
  9
$SURFTYPE
 70
     6
  9
$SURFU
 70
     6
  9
$SURFV
 70
     6
  9
$UCSBASE
  2

  9
$UCSNAME
  2

  9
$UCSORG
 10
0.0
 20
0.0
 30
0.0
  9
$UCSXDIR
 10
1.0
 20
0.0
 30
0.0
  9
$UCSYDIR
 10
0.0
 20
1.0
 30
0.0
  9
$UCSORTHOREF
  2

  9
$UCSORTHOVIEW
 70
     0
  9
$UCSORGTOP
 10
0.0
 20
0.0
 30
0.0
  9
$UCSORGBOTTOM
 10
0.0
 20
0.0
 30
0.0
  9
$UCSORGLEFT
 10
0.0
 20
0.0
 30
0.0
  9
$UCSORGRIGHT
 10
0.0
 20
0.0
 30
0.0
  9
$UCSORGFRONT
 10
0.0
 20
0.0
 30
0.0
  9
$UCSORGBACK
 10
0.0
 20
0.0
 30
0.0
  9
$PUCSBASE
  2

  9
$PUCSNAME
  2

  9
$PUCSORG
 10
0.0
 20
0.0
 30
0.0
  9
$PUCSXDIR
 10
1.0
 20
0.0
 30
0.0
  9
$PUCSYDIR
 10
0.0
 20
1.0
 30
0.0
  9
$PUCSORTHOREF
  2

  9
$PUCSORTHOVIEW
 70
     0
  9
$PUCSORGTOP
 10
0.0
 20
0.0
 30
0.0
  9
$PUCSORGBOTTOM
 10
0.0
 20
0.0
 30
0.0
  9
$PUCSORGLEFT
 10
0.0
 20
0.0
 30
0.0
  9
$PUCSORGRIGHT
 10
0.0
 20
0.0
 30
0.0
  9
$PUCSORGFRONT
 10
0.0
 20
0.0
 30
0.0
  9
$PUCSORGBACK
 10
0.0
 20
0.0
 30
0.0
  9
$USERI1
 70
     0
  9
$USERI2
 70
     0
  9
$USERI3
 70
     0
  9
$USERI4
 70
     0
  9
$USERI5
 70
     0
  9
$USERR1
 40
0.0
  9
$USERR2
 40
0.0
  9
$USERR3
 40
0.0
  9
$USERR4
 40
0.0
  9
$USERR5
 40
0.0
  9
$WORLDVIEW
 70
     1
  9
$SHADEDGE
 70
     3
  9
$SHADEDIF
 70
    70
  9
$TILEMODE
 70
     1
  9
$MAXACTVP
 70
    64
  9
$PINSBASE
 10
0.0
 20
0.0
 30
0.0
  9
$PLIMCHECK
 70
     0
  9
$PEXTMIN
 10
0.0
 20
0.0
 30
0.0
  9
$PEXTMAX
 10
0.0
 20
0.0
 30
0.0
  9
$PLIMMIN
 10
0.0
 20
0.0
  9
$PLIMMAX
 10
12.0
 20
9.0
  9
$UNITMODE
 70
     0
  9
$VISRETAIN
 70
     1
  9
$PLINEGEN
 70
     0
  9
$PSLTSCALE
 70
     1
  9
$TREEDEPTH
 70
  3020
  9
$CMLSTYLE
  2
Standard
  9
$CMLJUST
 70
     0
  9
$CMLSCALE
 40
20.0
  9
$PROXYGRAPHICS
 70
     1
  9
$MEASUREMENT
 70
     1
  9
$CELWEIGHT
370
    -1
  9
$ENDCAPS
280
     0
  9
$JOINSTYLE
280
     0
  9
$LWDISPLAY
290
     0
  9
$INSUNITS
 70
     4
  9
$HYPERLINKBASE
  1

  9
$STYLESHEET
  1

  9
$XEDIT
290
     1
  9
$CEPSNTYPE
380
     0
  9
$PSTYLEMODE
290
     1
  9
$FINGERPRINTGUID
  2
{E4499B6C-1080-4C38-8193-60CD157A31AB}
  9
$VERSIONGUID
  2
{BF02E431-910B-4C85-B59F-8A0A5A247CC8}
  9
$EXTNAMES
290
     1
  9
$PSVPSCALE
 40
0.0
  9
$OLESTARTUP
290
     0
  0
ENDSEC
  0
SECTION
  2
CLASSES
  0
CLASS
  1
ACDBDICTIONARYWDFLT
  2
AcDbDictionaryWithDefault
  3
ObjectDBX Classes
 90
        0
280
     0
281
     0
  0
CLASS
  1
ACDBPLACEHOLDER
  2
AcDbPlaceHolder
  3
ObjectDBX Classes
 90
        0
280
     0
281
     0
  0
CLASS
  1
LAYOUT
  2
AcDbLayout
  3
ObjectDBX Classes
 90
        0
280
     0
281
     0
  0
CLASS
  1
DICTIONARYVAR
  2
AcDbDictionaryVar
  3
ObjectDBX Classes
 90
        0
280
     0
281
     0
  0
CLASS
  1
TABLESTYLE
  2
AcDbTableStyle
  3
ObjectDBX Classes
 90
     4095
280
     0
281
     0
  0
CLASS
  1
SORTENTSTABLE
  2
AcDbSortentsTable
  3
ObjectDBX Classes
 90
        0
280
     0
281
     0
  0
CLASS
  1
MATERIAL
  2
AcDbMaterial
  3
ObjectDBX Classes
 90
     1153
280
     0
281
     0
  0
CLASS
  1
VISUALSTYLE
  2
AcDbVisualStyle
  3
ObjectDBX Classes
 90
     4095
280
     0
281
     0
  0
CLASS
  1
SCALE
  2
AcDbScale
  3
ObjectDBX Classes
 90
     1153
280
     0
281
     0
  0
CLASS
  1
MLEADERSTYLE
  2
AcDbMLeaderStyle
  3
ACDB_MLEADERSTYLE_CLASS
 90
     4095
280
     0
281
     0
  0
CLASS
  1
AMGSETTINGSOBJ
  2
AmgSettingsObj
  3
"AcadM|Product Description: AutoCAD Mechanical|Company: Autodesk, Inc."
 90
     1024
280
     0
281
     0
  0
CLASS
  1
AMGOBJPROPCFG
  2
AmgObjPropCfg
  3
"AmgLay|Product Description: AutoCAD Mechanical|Company: Autodesk, Inc."
 90
     1025
280
     0
281
     0
  0
CLASS
  1
ACMESCOPE
  2
AcMeScope
  3
AcMeServices
 90
     1024
280
     0
281
     0
  0
CLASS
  1
ACGREFMASTER
  2
AcGrefMaster
  3
AcAttribServices
 90
     1024
280
     0
281
     0
  0
CLASS
  1
ACME_DOCUMENT
  2
AcMeDbDoc
  3
AcMeServices
 90
     1024
280
     0
281
     0
  0
CLASS
  1
ACMECOMMANDHISTORY
  2
AcMeCommandHistory
  3
AcMeServices
 90
     1024
280
     0
281
     0
  0
CLASS
  1
ACIMSYSVARMAN
  2
AcImSysVarManager
  3
AcMeServices
 90
     1024
280
     0
281
     0
  0
CLASS
  1
ACIMREALSYSVAR
  2
AcImRealSysVar
  3
AcMeServices
 90
     1024
280
     0
281
     0
  0
CLASS
  1
ACIMINTSYSVAR
  2
AcImIntSysVar
  3
AcMeServices
 90
     1024
280
     0
281
     0
  0
CLASS
  1
ACMEDRAWINGMAN
  2
AcMeDrawingMan
  3
AcMeServices
 90
     1024
280
     0
281
     0
  0
CLASS
  1
ACMEVIEW
  2
AcMeView
  3
AcMeServices
 90
     1024
280
     0
281
     0
  0
CLASS
  1
ACDBENTITYCACHE
  2
AcMeEntityCache
  3
AcMeServices
 90
     1024
280
     0
281
     0
  0
CLASS
  1
GSMANAGER
  2
AcMeGSManager
  3
AcMeServices
 90
     1024
280
     0
281
     0
  0
CLASS
  1
AMDTINTERNALREACTOR
  2
AmdtInternalReactor
  3
AcMeServices
 90
     1024
280
     0
281
     0
  0
CLASS
  1
ACMESTATEMGR
  2
AcMeStateMgr
  3
AcMeServices
 90
     1024
280
     0
281
     0
  0
CLASS
  1
AM_DRAWING_MGR
  2
AcDmDwgMgr
  3
AcMechDwgViewMgmt
 90
     1024
280
     0
281
     0
  0
CLASS
  1
AM_DWG_DOCUMENT
  2
AcDmDwgDocument
  3
AcMechDwgViewMgmt
 90
     1024
280
     0
281
     0
  0
CLASS
  1
AM_DWG_SHEET
  2
AcDmSheet
  3
AcMechDwgViewMgmt
 90
     1024
280
     0
281
     0
  0
CLASS
  1
AM_VIEWDIMPARMAP
  2
AcDmViewDimParMap
  3
AcMechDwgViewMgmt
 90
     1024
280
     0
281
     0
  0
CLASS
  1
AM_DWGMGR_NAME
  2
AcDmDwgMgrName
  3
AcMechDwgViewMgmt
 90
     1024
280
     0
281
     0
  0
CLASS
  1
ACME_DATABASE
  2
AcMeDbDatabase
  3
AcMeServices
 90
     1024
280
     0
281
     0
  0
CLASS
  1
ACRFINSADJUSTERMGR
  2
AcRfInsAdjusterMgr
  3
AcMeServices
 90
     1024
280
     0
281
     0
  0
CLASS
  1
ACGREFACADMASTER
  2
AcGrefacadMaster
  3
AcGrefServices
 90
     1024
280
     0
281
     0
  0
CLASS
  1
AMDTMENUSTATEMGR
  2
AmdtMenuStateMgr
  3
McadcomServices
 90
     1024
280
     0
281
     0
  0
CLASS
  1
AMDTMCOMMENUSTATE
  2
AmdtMcomMenuState
  3
McadcomServices
 90
     1024
280
     0
281
     0
  0
CLASS
  1
AMIMASTER
  2
AmiMaster
  3
AmiServices
 90
     1024
280
     0
281
     0
  0
CLASS
  1
ASAPP
  2
AcAsAppObject
  3
AutoSurfServices
 90
     1024
280
     0
281
     0
  0
CLASS
  1
IM_STATIC_MAN
  2
AcImStaticVarManager
  3
AcMeServices
 90
     1024
280
     0
281
     0
  0
CLASS
  1
ACIMSTRSYSVAR
  2
AcImStrSysVar
  3
AcMeServices
 90
     1024
280
     0
281
     0
  0
CLASS
  1
ACIMDBLSTATICVAR
  2
AcImDblStaticVar
  3
AcMeServices
 90
     1024
280
     0
281
     0
  0
CLASS
  1
ACIMSTRSTATICVAR
  2
AcImStrStaticVar
  3
AcMeServices
 90
     1024
280
     0
281
     0
  0
CLASS
  1
ACIMINTSTATICVAR
  2
AcImIntStaticVar
  3
AcMeServices
 90
     1024
280
     0
281
     0
  0
CLASS
  1
ACASGREFMASTER
  2
AcAsGrefMaster
  3
AutoSurfResolverServices
 90
     1024
280
     0
281
     0
  0
CLASS
  1
ACADGREFMODULE
  2
AcAdGrefModule
  3
AdGrefServices
 90
     1024
280
     0
281
     0
  0
CLASS
  1
AMDTMAPISURFMOUDULE
  2
AmdtMApiSurfModule
  3
MApiSurfServices
 90
     1024
280
     0
281
     0
  0
CLASS
  1
MAPIAMMOUDLE
  2
MApiAmModule
  3
MApiAmServices
 90
     1024
280
     0
281
     0
  0
CLASS
  1
ACMSTANDARDANSI
  2
AcmStandardANSI
  3
"Amdt_StdImp|Product Description: AutoCAD Mechanical|Company: Autodesk, Inc."
 90
     1024
280
     0
281
     0
  0
CLASS
  1
ACMSURFSTANDARDANSI
  2
AcmSurfTextStdANSI
  3
"Amdt_StdImp|Product Description: AutoCAD Mechanical|Company: Autodesk, Inc."
 90
     1024
280
     0
281
     0
  0
CLASS
  1
ACMFCFSTANDARDANSI
  2
AcmFCFStdANSI
  3
"Amdt_StdImp|Product Description: AutoCAD Mechanical|Company: Autodesk, Inc."
 90
     1024
280
     0
281
     0
  0
CLASS
  1
ACMWELDSTANDARDANSI
  2
AcmWeldingStdANSI
  3
"Amdt_StdImp|Product Description: AutoCAD Mechanical|Company: Autodesk, Inc."
 90
     1024
280
     0
281
     0
  0
CLASS
  1
ACMIDSTANDARDANSI
  2
AcmIdStdANSI
  3
"Amdt_StdImp|Product Description: AutoCAD Mechanical|Company: Autodesk, Inc."
 90
     1024
280
     0
281
     0
  0
CLASS
  1
ACMDATUMSTANDARDANSI
  2
AcmDatumStdANSI
  3
"Amdt_StdImp|Product Description: AutoCAD Mechanical|Company: Autodesk, Inc."
 90
     1024
280
     0
281
     0
  0
CLASS
  1
ACMBOMSTANDARDANSI
  2
AcmBOMStdANSI
  3
"Amdt_StdImp|Product Description: AutoCAD Mechanical|Company: Autodesk, Inc."
 90
     1024
280
     0
281
     0
  0
CLASS
  1
ACMDETAILSTANDARDANSI
  2
AmdtDetailSymStdANSI
  3
"Amdt_StdImp|Product Description: AutoCAD Mechanical|Company: Autodesk, Inc."
 90
     1024
280
     0
281
     0
  0
CLASS
  1
ACMSECTIONSTANDARDANSI
  2
AmdtSectionSymStdANSI
  3
"Amdt_StdImp|Product Description: AutoCAD Mechanical|Company: Autodesk, Inc."
 90
     1024
280
     0
281
     0
  0
CLASS
  1
ACMCENTERLINESTANDARDANSI
  2
AmdtCenterLineStdANSI
  3
"Amdt_StdImp|Product Description: AutoCAD Mechanical|Company: Autodesk, Inc."
 90
     1024
280
     0
281
     0
  0
CLASS
  1
ACMTHREADLINESTANDARDANSI
  2
AmdtThreadLineStdANSI
  3
"Amdt_StdImp|Product Description: AutoCAD Mechanical|Company: Autodesk, Inc."
 90
     1024
280
     0
281
     0
  0
CLASS
  1
ACMNOTESTANDARDANSI
  2
AmdtNoteStdANSI
  3
"Amdt_StdImp|Product Description: AutoCAD Mechanical|Company: Autodesk, Inc."
 90
     1024
280
     0
281
     0
  0
CLASS
  1
AMDTNOTETEMPLATEDB
  2
AmdtNoteTemplateDB
  3
AcmSymBB|Product Description: AutoCAD Mechanical|Company: Autodesk, Inc.
 90
     1024
280
     0
281
     0
  0
CLASS
  1
ACAMGLAYSTD
  2
AcAmgLayStd
  3
"AmgLay|Product Description: AutoCAD Mechanical|Company: Autodesk, Inc."
 90
     1024
280
     0
281
     0
  0
CLASS
  1
ACAMGDIMSTD
  2
AcAmgDimStd
  3
"AmgDim|Product Description: AutoCAD Mechanical|Company: Autodesk, Inc."
 90
     1024
280
     0
281
     0
  0
CLASS
  1
ACAMGHOLECHARTSTDANSI
  2
AcAmgHoleChartStdANSI
  3
AmgDim|Product Description: AutoCAD Mechanical|Company: Autodesk, Inc.
 90
     1024
280
     0
281
     0
  0
CLASS
  1
ACAMGTITLESTD
  2
AcAmgTitleStd
  3
"AmgTitle|Product Description: AutoCAD Mechanical|Company: Autodesk, Inc."
 90
     4095
280
     0
281
     0
  0
CLASS
  1
ACMTAPERSTANDARDANSI
  2
AcmTaperStdANSI
  3
"Amdt_StdImp|Product Description: AutoCAD Mechanical|Company: Autodesk, Inc."
 90
     1024
280
     0
281
     0
  0
CLASS
  1
ACMANOOTATIONVIEWSTANDARDANSI
  2
AmdtAnViewStdANSI
  3
"Amdt_StdImp|Product Description: AutoCAD Mechanical|Company: Autodesk, Inc."
 90
     1024
280
     0
281
     0
  0
CLASS
  1
ACMSTANDARDISO
  2
AcmStandardISO
  3
"Amdt_StdImp|Product Description: AutoCAD Mechanical|Company: Autodesk, Inc."
 90
     1024
280
     0
281
     0
  0
CLASS
  1
AMDTEDGESTANDARDISO
  2
AmdtEdgeStdISO
  3
"Amdt_StdImp|Product Description: AutoCAD Mechanical|Company: Autodesk, Inc."
 90
     1024
280
     0
281
     0
  0
CLASS
  1
ACMSURFSTANDARDISO
  2
AcmSurfTextStdISO
  3
"Amdt_StdImp|Product Description: AutoCAD Mechanical|Company: Autodesk, Inc."
 90
     1024
280
     0
281
     0
  0
CLASS
  1
ACMFCFSTANDARDISO
  2
AcmFCFStdISO
  3
"Amdt_StdImp|Product Description: AutoCAD Mechanical|Company: Autodesk, Inc."
 90
     1024
280
     0
281
     0
  0
CLASS
  1
ACMWELDSTANDARDISO
  2
AcmWeldingStdISO
  3
"Amdt_StdImp|Product Description: AutoCAD Mechanical|Company: Autodesk, Inc."
 90
     1024
280
     0
281
     0
  0
CLASS
  1
ACMIDSTANDARDISO
  2
AcmIdStdISO
  3
"Amdt_StdImp|Product Description: AutoCAD Mechanical|Company: Autodesk, Inc."
 90
     1024
280
     0
281
     0
  0
CLASS
  1
ACMDATUMSTANDARDISO
  2
AcmDatumStdISO
  3
"Amdt_StdImp|Product Description: AutoCAD Mechanical|Company: Autodesk, Inc."
 90
     1024
280
     0
281
     0
  0
CLASS
  1
ACMBOMSTANDARDISO
  2
AcmBOMStdISO
  3
"Amdt_StdImp|Product Description: AutoCAD Mechanical|Company: Autodesk, Inc."
 90
     1024
280
     0
281
     0
  0
CLASS
  1
ACMDETAILSTANDARDISO
  2
AmdtDetailSymStdISO
  3
"Amdt_StdImp|Product Description: AutoCAD Mechanical|Company: Autodesk, Inc."
 90
     1024
280
     0
281
     0
  0
CLASS
  1
ACMSECTIONSTANDARDISO
  2
AmdtSectionSymStdISO
  3
"Amdt_StdImp|Product Description: AutoCAD Mechanical|Company: Autodesk, Inc."
 90
     1024
280
     0
281
     0
  0
CLASS
  1
ACMCENTERLINESTANDARDISO
  2
AmdtCenterLineStdISO
  3
"Amdt_StdImp|Product Description: AutoCAD Mechanical|Company: Autodesk, Inc."
 90
     1024
280
     0
281
     0
  0
CLASS
  1
ACMTHREADLINESTANDARDISO
  2
AmdtThreadLineStdISO
  3
"Amdt_StdImp|Product Description: AutoCAD Mechanical|Company: Autodesk, Inc."
 90
     1024
280
     0
281
     0
  0
CLASS
  1
ACMNOTESTANDARDISO
  2
AmdtNoteStdISO
  3
"Amdt_StdImp|Product Description: AutoCAD Mechanical|Company: Autodesk, Inc."
 90
     1024
280
     0
281
     0
  0
CLASS
  1
ACAMGHOLECHARTSTDISO
  2
AcAmgHoleChartStdISO
  3
AmgDim|Product Description: AutoCAD Mechanical|Company: Autodesk, Inc.
 90
     1024
280
     0
281
     0
  0
CLASS
  1
ACMTAPERSTANDARDISO
  2
AcmTaperStdISO
  3
"Amdt_StdImp|Product Description: AutoCAD Mechanical|Company: Autodesk, Inc."
 90
     1024
280
     0
281
     0
  0
CLASS
  1
ACMANOOTATIONVIEWSTANDARDISO
  2
AmdtAnViewStdISO
  3
"Amdt_StdImp|Product Description: AutoCAD Mechanical|Company: Autodesk, Inc."
 90
     1024
280
     0
281
     0
  0
CLASS
  1
AMDTADMENUSTATE
  2
AmdtAdMenuState
  3
DesignerServices
 90
     1024
280
     0
281
     0
  0
CLASS
  1
ADAPPL
  2
AcAdAppl
  3
DesignerServices
 90
     1024
280
     0
281
     0
  0
CLASS
  1
DEPMGR
  2
AcAdDepMgr
  3
DesignerServices
 90
     1024
280
     0
281
     0
  0
CLASS
  1
PARAMMGR
  2
AcAdParamMgr
  3
DesignerServices
 90
     1024
280
     0
281
     0
  0
CLASS
  1
PARAMSCOPE
  2
AcAdParamScope
  3
DesignerServices
 90
     1024
280
     0
281
     0
  0
CLASS
  1
NAMEDAPPL
  2
AcAdNamedAppl
  3
DesignerServices
 90
     1024
280
     0
281
     0
  0
CLASS
  1
AMDTDMMENUSTATE
  2
AmdtDmMenuState
  3
AcMechDwgViewMgmt
 90
     1024
280
     0
281
     0
  0
CLASS
  1
MAPIADMODULE
  2
MApiAdModule
  3
MApiAdServices
 90
     1024
280
     0
281
     0
  0
CLASS
  1
AMDTAMMENUSTATE
  2
AmdtAmMenuState
  3
DesignerAssemblies
 90
     1024
280
     0
281
     0
  0
CLASS
  1
ACAMPROJECT
  2
AcAmProject
  3
DesignerAssemblies
 90
     1024
280
     0
281
     0
  0
CLASS
  1
ACAMGRCOMPDEF
  2
AcAmGrCompDef
  3
DesignerAssemblies
 90
     1024
280
     0
281
     0
  0
CLASS
  1
ACCMCONTEXT
  2
AcCmContext
  3
DesignerAssemblies
 90
     1024
280
     0
281
     0
  0
CLASS
  1
ACAMCOMPDEF
  2
AcAmCompDef
  3
DesignerAssemblies
 90
     1024
280
     0
281
     0
  0
CLASS
  1
ACAMCOMPDEFMGR
  2
AcAmCompDefMgr
  3
DesignerAssemblies
 90
     1024
280
     0
281
     0
  0
CLASS
  1
AMCONTEXTMGR
  2
AcAmContextMgr
  3
DesignerAssemblies
 90
     1024
280
     0
281
     0
  0
CLASS
  1
ACAMCONTEXTMODELER
  2
AcAmContextModeler
  3
DesignerAssemblies
 90
     1024
280
     0
281
     0
  0
CLASS
  1
ACMDATADICTIONARY
  2
AcmDataDictionary
  3
"AcmSymBB|Product Description: AutoCAD Mechanical|Company: Autodesk, Inc."
 90
     1024
280
     0
281
     0
  0
CLASS
  1
ACMDATAENTRYBLOCK
  2
AcmDataEntryBlock
  3
AcmSymBB|Product Description: AutoCAD Mechanical|Company: Autodesk, Inc.
 90
     1024
280
     0
281
     0
  0
CLASS
  1
ACRFATTGENMGR
  2
AcRfAttGeneralMgr
  3
AcAttribServices
 90
     1024
280
     0
281
     0
  0
CLASS
  1
ACRFOBJATTMGR
  2
AcRfObjAttGroupMgr
  3
AcAttribServices
 90
     1024
280
     0
281
     0
  0
CLASS
  1
ACRFMCADAPIATTHOLDER
  2
AcRfMCADAPIAttHolder
  3
AcAttribServices
 90
     1024
280
     0
281
     0
  0
CLASS
  1
AMDTSYSATTR
  2
AmdtSystemAttribute
  3
AcAttribServices
 90
     1024
280
     0
281
     0
  0
CLASS
  1
CATALOGSTATE
  2
AcAmCatalogState
  3
DesignerAssemblies
 90
     1024
280
     0
281
     0
  0
CLASS
  1
ACAMGRCOMPDEFSET
  2
AcAmGrCompDefSet
  3
DesignerAssemblies
 90
     1024
280
     0
281
     0
  0
CLASS
  1
AMDTBROWSERDBTAB
  2
AmdtBrowserDbTab
  3
McadcomServices
 90
     1024
280
     0
281
     0
  0
CLASS
  1
CBROWSERAPPOBJECT
  2
CBrowserAppObject
  3
McadcomServices
 90
     1024
280
     0
281
     0
  0
CLASS
  1
DM_PLACEHOLDER
  2
AcDmSelsetPlaceholder
  3
AcMechDwgViewMgmt
 90
     1024
280
     0
281
     0
  0
CLASS
  1
ACAMGFILTERDAT
  2
AcAmgFilterDat
  3
"AcadM|Product Description: AutoCAD Mechanical|Company: Autodesk, Inc."
 90
     1024
280
     0
281
     0
  0
CLASS
  1
DIMASSOC
  2
AcDbDimAssoc
  3
"AcDbDimAssoc|Product Desc:     AcDim ARX App For Dimension|Company:          Autodesk, Inc.|WEB Address:      www.autodesk.com"
 90
        0
280
     0
281
     0
  0
CLASS
  1
AEC_REFEDIT_STATUS_TRACKER
  2
AecDbRefEditStatusTracker
  3
AecArchBase50|Product Desc: Autodesk Architectural Desktop 2007 |Company: Autodesk,Inc. |WEB Address: www.autodesk.com
 90
      129
280
     0
281
     0
  0
CLASS
  1
NPOCOLLECTION
  2
AcDbImpNonPersistentObjectsCollection
  3
ObjectDBX Classes
 90
     1153
280
     0
281
     0
  0
CLASS
  1
LAYER_INDEX
  2
AcDbLayerIndex
  3
ObjectDBX Classes
 90
        0
280
     0
281
     0
  0
CLASS
  1
IDBUFFER
  2
AcDbIdBuffer
  3
ObjectDBX Classes
 90
        0
280
     0
281
     0
  0
CLASS
  1
CELLSTYLEMAP
  2
AcDbCellStyleMap
  3
ObjectDBX Classes
 90
     1152
280
     0
281
     0
  0
ENDSEC
  0
SECTION
  2
TABLES
  0
TABLE
  2
VPORT
  5
8
330
0
100
AcDbSymbolTable
 70
     1
  0
VPORT
  5
2B83
330
8
100
AcDbSymbolTableRecord
100
AcDbViewportTableRecord
  2
*Active
 70
     0
 10
0.0
 20
0.0
 11
1.0
 21
1.0
 12
198.3403409856532
 22
73.04397120674258
 13
0.0
 23
0.0
 14
10.0
 24
10.0
 15
10.0
 25
10.0
 16
0.0
 26
0.0
 36
1.0
 17
1442.535641837433
 27
1302.552531561481
 37
0.0
 40
825.2199883657773
 41
1.982233502538071
 42
50.0
 43
0.0
 44
0.0
 50
0.0
 51
0.0
 71
     0
 72
  1000
 73
     1
 74
     3
 75
     0
 76
     0
 77
     0
 78
     0
281
     0
 65
     0
110
0.0
120
0.0
130
0.0
111
1.0
121
0.0
131
0.0
112
0.0
122
1.0
132
0.0
 79
     0
146
0.0
  0
ENDTAB
  0
TABLE
  2
LTYPE
  5
5
330
0
100
AcDbSymbolTable
 70
    23
  0
LTYPE
  5
14
330
5
100
AcDbSymbolTableRecord
100
AcDbLinetypeTableRecord
  2
ByBlock
 70
     0
  3

 72
    65
 73
     0
 40
0.0
  0
LTYPE
  5
15
330
5
100
AcDbSymbolTableRecord
100
AcDbLinetypeTableRecord
  2
ByLayer
 70
     0
  3

 72
    65
 73
     0
 40
0.0
  0
LTYPE
  5
16
330
5
100
AcDbSymbolTableRecord
100
AcDbLinetypeTableRecord
  2
Continuous
 70
     0
  3
Solid line
 72
    65
 73
     0
 40
0.0
  0
LTYPE
  5
E5
330
5
100
AcDbSymbolTableRecord
100
AcDbLinetypeTableRecord
  2
ACAD_ISO02W100
 70
     0
  3
ISO dash __ __ __ __ __ __ __ __ __ __ __ __ __
 72
    65
 73
     2
 40
15.0
 49
12.0
 74
     0
 49
-3.0
 74
     0
  0
LTYPE
  5
2BE0
330
5
100
AcDbSymbolTableRecord
100
AcDbLinetypeTableRecord
  2
AM_ISO02W050
 70
     0
  3
__ __ __ __ __ __ __ __ __ __ __ __ __ __ __
 72
    65
 73
     2
 40
7.5
 49
6.0
 74
     0
 49
-1.5
 74
     0
  0
LTYPE
  5
2BE1
330
5
100
AcDbSymbolTableRecord
100
AcDbLinetypeTableRecord
  2
AM_ISO08W050
 70
     0
  3
____ . ____ . ____ . ____ . ____ . ____ . ____
 72
    65
 73
     4
 40
18.0
 49
12.0
 74
     0
 49
-1.5
 74
     0
 49
3.0
 74
     0
 49
-1.5
 74
     0
  0
LTYPE
  5
2BE2
330
5
100
AcDbSymbolTableRecord
100
AcDbLinetypeTableRecord
  2
AM_ISO09W050
 70
     0
  3
_____ . . _____ . . _____ . . ____ .. ____
 72
    65
 73
     6
 40
22.5
 49
12.0
 74
     0
 49
-1.5
 74
     0
 49
3.0
 74
     0
 49
-1.5
 74
     0
 49
3.0
 74
     0
 49
-1.5
 74
     0
  0
LTYPE
  5
2BE3
330
5
100
AcDbSymbolTableRecord
100
AcDbLinetypeTableRecord
  2
Amconstr
 70
     0
  3
_______________________
 72
    65
 73
     2
 40
9999.0
 49
9999.0
 74
     0
 49
0.0
 74
     0
  0
LTYPE
  5
2BE4
330
5
100
AcDbSymbolTableRecord
100
AcDbLinetypeTableRecord
  2
AM_ISO08W050x2
 70
     0
  3
__ . __ . __ . __ . __ . __
 72
    65
 73
     4
 40
9.0
 49
6.0
 74
     0
 49
-0.75
 74
     0
 49
1.5
 74
     0
 49
-0.75
 74
     0
  0
LTYPE
  5
2BE5
330
5
100
AcDbSymbolTableRecord
100
AcDbLinetypeTableRecord
  2
AM_ISO02W050x2
 70
     0
  3
 _ _ _ _ _ _ _ _ _ _ _ _
 72
    65
 73
     2
 40
3.75
 49
3.0
 74
     0
 49
-0.75
 74
     0
  0
LTYPE
  5
2BE6
330
5
100
AcDbSymbolTableRecord
100
AcDbLinetypeTableRecord
  2
Amzigzag
 70
     0
  3
/\/-/\/-/\/-/\/-/\/-/\/
 72
    65
 73
     2
 40
11.0001
 49
0.0001
 74
     4
 75
   135
340
2BE7
 46
0.04
 50
0.0
 44
0.0
 45
0.0
 49
-11.0
 74
     0
  0
LTYPE
  5
2C19
330
5
100
AcDbSymbolTableRecord
100
AcDbLinetypeTableRecord
  2
HIDDEN
 70
     0
  3
__ __ __ __ __ __ __ __ __ __ __ __ __ __ __ __
 72
    65
 73
     2
 40
0.375
 49
0.25
 74
     0
 49
-0.125
 74
     0
  0
LTYPE
  5
2C1A
330
5
100
AcDbSymbolTableRecord
100
AcDbLinetypeTableRecord
  2
PHANTOM2
 70
     0
  3
___ _ _ ___ _ _ ___ _ _ ___ _ _ ___ _ _ ___ _ _
 72
    65
 73
     6
 40
1.25
 49
0.625
 74
     0
 49
-0.125
 74
     0
 49
0.125
 74
     0
 49
-0.125
 74
     0
 49
0.125
 74
     0
 49
-0.125
 74
     0
  0
LTYPE
  5
2C1B
330
5
100
AcDbSymbolTableRecord
100
AcDbLinetypeTableRecord
  2
CENTER
 70
     0
  3
____ _ ____ _ ____ _ ____ _ ____ _ ____ _ ____ 
 72
    65
 73
     4
 40
2.0
 49
1.25
 74
     0
 49
-0.25
 74
     0
 49
0.25
 74
     0
 49
-0.25
 74
     0
  0
LTYPE
  5
2C79
330
5
100
AcDbSymbolTableRecord
100
AcDbLinetypeTableRecord
  2
ACANSTGB
 70
     0
  3
__ . . __ . .
 72
    65
 73
     6
 40
0.35433070866
 49
0.15748031496
 74
     0
 49
-0.03937007874
 74
     0
 49
0.03937007874
 74
     0
 49
-0.03937007874
 74
     0
 49
0.03937007874
 74
     0
 49
-0.03937007874
 74
     0
  0
LTYPE
  5
2C7A
330
5
100
AcDbSymbolTableRecord
100
AcDbLinetypeTableRecord
  2
ACANSTGL
 70
     0
  3
_ _ _ _ _
 72
    65
 73
     2
 40
0.11811023622
 49
0.07874015748
 74
     0
 49
-0.03937007874
 74
     0
  0
LTYPE
  5
2C91
330
5
100
AcDbSymbolTableRecord
100
AcDbLinetypeTableRecord
  2
CENTER2
 70
     0
  3
Center (.5x) ___ _ ___ _ ___ _ ___ _ ___ _ ___
 72
    65
 73
     4
 40
1.125
 49
0.75
 74
     0
 49
-0.125
 74
     0
 49
0.125
 74
     0
 49
-0.125
 74
     0
  0
LTYPE
  5
2C92
330
5
100
AcDbSymbolTableRecord
100
AcDbLinetypeTableRecord
  2
HIDDEN2
 70
     0
  3
Hidden (.5x) _ _ _ _ _ _ _ _ _ _ _ _ _ _ _ _ _
 72
    65
 73
     2
 40
0.1875
 49
0.125
 74
     0
 49
-0.0625
 74
     0
  0
LTYPE
  5
2C93
330
5
100
AcDbSymbolTableRecord
100
AcDbLinetypeTableRecord
  2
Amzigzag2
 70
     0
  3
/\/-/\/-/\/-/\/-/\/-/\/
 72
    65
 73
     2
 40
0.4401
 49
0.0001
 74
     4
 75
   135
340
2BE7
 46
0.0016
 50
0.0
 44
0.0
 45
0.0
 49
-0.4400000000000001
 74
     0
  0
LTYPE
  5
2CAA
330
5
100
AcDbSymbolTableRecord
100
AcDbLinetypeTableRecord
  2
ACISOWELD
 70
     0
  3
_ _ _ _ _
 72
    65
 73
     2
 40
2.0
 49
2.0
 74
     0
 49
-1.0
 74
     0
  0
LTYPE
  5
2CAD
330
5
100
AcDbSymbolTableRecord
100
AcDbLinetypeTableRecord
  2
ACISOTGB
 70
     0
  3
__ . . __ . .
 72
    65
 73
     6
 40
9.0
 49
4.0
 74
     0
 49
-1.0
 74
     0
 49
1.0
 74
     0
 49
-1.0
 74
     0
 49
1.0
 74
     0
 49
-1.0
 74
     0
  0
LTYPE
  5
2CAE
330
5
100
AcDbSymbolTableRecord
100
AcDbLinetypeTableRecord
  2
ACISOTGL
 70
     0
  3
_ _ _ _ _
 72
    65
 73
     2
 40
3.0
 49
2.0
 74
     0
 49
-1.0
 74
     0
  0
ENDTAB
  0
TABLE
  2
LAYER
  5
2
102
{ACAD_XDICTIONARY
360
2F5C
102
}
330
0
100
AcDbSymbolTable
 70
     4
  0
LAYER
  5
10
102
{ACAD_XDICTIONARY
360
3127
102
}
330
2
100
AcDbSymbolTableRecord
100
AcDbLayerTableRecord
  2
0
 70
     0
 62
     7
  6
Continuous
370
    -3
390
F
  0
LAYER
  5
E7
102
{ACAD_XDICTIONARY
360
3129
102
}
330
2
100
AcDbSymbolTableRecord
100
AcDbLayerTableRecord
  2
AM0
 70
     0
 62
     7
  6
Continuous
370
    -3
390
F
1001
AcAecLayerStandard
1000

1000

  0
LAYER
  5
2E5C
102
{ACAD_XDICTIONARY
360
312B
102
}
330
2
100
AcDbSymbolTableRecord
100
AcDbLayerTableRecord
  2
AM_5
 70
     0
 62
     3
  6
Continuous
370
    25
390
F
1001
AcAecLayerStandard
1000

1000

  0
LAYER
  5
2E60
330
2
100
AcDbSymbolTableRecord
100
AcDbLayerTableRecord
  2
Defpoints
 70
     0
 62
     7
  6
Continuous
290
     0
370
    -3
390
F
  0
ENDTAB
  0
TABLE
  2
STYLE
  5
3
330
0
100
AcDbSymbolTable
 70
     6
  0
STYLE
  5
11
330
3
100
AcDbSymbolTableRecord
100
AcDbTextStyleTableRecord
  2
Standard
 70
     0
 40
0.0
 41
1.0
 50
0.0
 71
     0
 42
2.5
  3
txt
  4

  0
STYLE
  5
2BE7
330
3
100
AcDbSymbolTableRecord
100
AcDbTextStyleTableRecord
  2

 70
     1
 40
0.0
 41
1.0
 50
0.0
 71
     0
 42
3.5
  3
ltypeshp.shx
  4

  0
STYLE
  5
2C72
330
3
100
AcDbSymbolTableRecord
100
AcDbTextStyleTableRecord
  2
ACANSTS
 70
     0
 40
1.0
 41
1.0
 50
0.0
 71
     0
 42
3.5
  3
romans.shx
  4

  0
STYLE
  5
2C75
330
3
100
AcDbSymbolTableRecord
100
AcDbTextStyleTableRecord
  2
ACANSGDT
 70
     0
 40
0.0
 41
1.0
 50
0.0
 71
     0
 42
3.5
  3
amgdt.shx
  4

  0
STYLE
  5
2CA4
330
3
100
AcDbSymbolTableRecord
100
AcDbTextStyleTableRecord
  2
ACISOTS
 70
     0
 40
1.0
 41
1.0
 50
0.0
 71
     0
 42
2.5
  3
isocp.shx
  4

  0
STYLE
  5
2CA8
330
3
100
AcDbSymbolTableRecord
100
AcDbTextStyleTableRecord
  2
ACISOGDT
 70
     0
 40
0.0
 41
1.0
 50
0.0
 71
     0
 42
2.5
  3
amgdt.shx
  4

  0
ENDTAB
  0
TABLE
  2
VIEW
  5
6
330
0
100
AcDbSymbolTable
 70
     0
  0
ENDTAB
  0
TABLE
  2
UCS
  5
7
330
0
100
AcDbSymbolTable
 70
     0
  0
ENDTAB
  0
TABLE
  2
APPID
  5
9
330
0
100
AcDbSymbolTable
 70
    20
  0
APPID
  5
12
330
9
100
AcDbSymbolTableRecord
100
AcDbRegAppTableRecord
  2
ACAD
 70
     0
  0
APPID
  5
9E
330
9
100
AcDbSymbolTableRecord
100
AcDbRegAppTableRecord
  2
ACAD_PSEXT
 70
     0
  0
APPID
  5
E8
330
9
100
AcDbSymbolTableRecord
100
AcDbRegAppTableRecord
  2
AcAecLayerStandard
 70
     0
  0
APPID
  5
E9
330
9
100
AcDbSymbolTableRecord
100
AcDbRegAppTableRecord
  2
DCO15
 70
     0
  0
APPID
  5
2BCC
330
9
100
AcDbSymbolTableRecord
100
AcDbRegAppTableRecord
  2
ACAD_MLEADERVER
 70
     0
  0
APPID
  5
2BD0
330
9
100
AcDbSymbolTableRecord
100
AcDbRegAppTableRecord
  2
AD_DRAW
 70
     0
  0
APPID
  5
2BD1
330
9
100
AcDbSymbolTableRecord
100
AcDbRegAppTableRecord
  2
DESIGNERASSEMBLIES
 70
     0
  0
APPID
  5
2BD2
330
9
100
AcDbSymbolTableRecord
100
AcDbRegAppTableRecord
  2
MCAD_NO_VIS
 70
     0
  0
APPID
  5
2BD3
330
9
100
AcDbSymbolTableRecord
100
AcDbRegAppTableRecord
  2
ASURF_PCURVE_APPNAME
 70
     0
  0
APPID
  5
2BD4
330
9
100
AcDbSymbolTableRecord
100
AcDbRegAppTableRecord
  2
ACAD_TEMP_GRAPHIC
 70
     0
  0
APPID
  5
2BD5
330
9
100
AcDbSymbolTableRecord
100
AcDbRegAppTableRecord
  2
ACATTRIBSERVICES
 70
     0
  0
APPID
  5
2BD6
330
9
100
AcDbSymbolTableRecord
100
AcDbRegAppTableRecord
  2
ACADM_DIM_EDIT
 70
     0
  0
APPID
  5
2BD7
330
9
100
AcDbSymbolTableRecord
100
AcDbRegAppTableRecord
  2
GENIUS_GENDIM_13
 70
     0
  0
APPID
  5
2BD8
330
9
100
AcDbSymbolTableRecord
100
AcDbRegAppTableRecord
  2
GENIUS_GENDTOL_13
 70
     0
  0
APPID
  5
2BD9
330
9
100
AcDbSymbolTableRecord
100
AcDbRegAppTableRecord
  2
GENIUS_GE3DTOL_13
 70
     0
  0
APPID
  5
2BDA
330
9
100
AcDbSymbolTableRecord
100
AcDbRegAppTableRecord
  2
AMG_3D2D_5.0
 70
     0
  0
APPID
  5
2BDB
330
9
100
AcDbSymbolTableRecord
100
AcDbRegAppTableRecord
  2
AMDT_DM_ADJ
 70
     0
  0
APPID
  5
2BDC
330
9
100
AcDbSymbolTableRecord
100
AcDbRegAppTableRecord
  2
ACAD_DSTYLE_DIMTEXT_FILL
 70
     0
  0
APPID
  5
2E78
330
9
100
AcDbSymbolTableRecord
100
AcDbRegAppTableRecord
  2
ACAD_DSTYLE_DIMINSPECT
 70
     0
  0
APPID
  5
3145
330
9
100
AcDbSymbolTableRecord
100
AcDbRegAppTableRecord
  2
AcDbAttr
 70
     0
  0
ENDTAB
  0
TABLE
  2
DIMSTYLE
  5
A
330
0
100
AcDbSymbolTable
 70
    15
100
AcDbDimStyleTable
 71
     1
340
2CB7
  0
DIMSTYLE
105
2C95
330
A
100
AcDbSymbolTableRecord
100
AcDbDimStyleTableRecord
  2
AM_ANSI
 70
     0
  4
mm
 41
0.1
 42
0.05
 43
0.5
 44
0.1
 47
0.1
 48
0.1
 78
     7
 79
     2
140
0.12
141
0.0
146
0.71
147
0.06
176
   256
177
   256
178
     2
274
     4
284
     7
340
11
371
    -1
372
    -1
  0
DIMSTYLE
105
2C96
330
A
100
AcDbSymbolTableRecord
100
AcDbDimStyleTableRecord
  2
AM_ANSI$3
 70
     0
  4
mm
 41
0.1
 42
0.05
 43
0.5
 44
0.1
 47
0.1
 48
0.1
 78
     7
 79
     2
140
0.12
141
0.0
146
0.71
147
0.06
176
   256
177
   256
178
     2
274
     4
284
     7
288
     1
289
     0
340
11
371
    -1
372
    -1
  0
DIMSTYLE
105
2C97
330
A
100
AcDbSymbolTableRecord
100
AcDbDimStyleTableRecord
  2
AM_ANSI$4
 70
     0
  4
mm
 41
0.1
 42
0.05
 43
0.5
 44
0.1
 47
0.1
 48
0.1
 78
     7
 79
     2
140
0.12
141
0.0
146
0.71
147
0.06
176
   256
177
   256
178
     2
274
     4
284
     7
288
     1
289
     0
340
11
371
    -1
372
    -1
  0
DIMSTYLE
105
2C98
330
A
100
AcDbSymbolTableRecord
100
AcDbDimStyleTableRecord
  2
AM_ANSI$7
 70
     0
  4
mm
 41
0.1
 42
0.05
 43
0.5
 44
0.1
 47
0.1
 48
0.1
 78
     7
 79
     2
140
0.24
141
0.0
146
0.71
147
0.06
176
   256
177
   256
178
     2
274
     4
284
     7
340
11
371
    -1
372
    -1
  0
DIMSTYLE
105
2C99
330
A
100
AcDbSymbolTableRecord
100
AcDbDimStyleTableRecord
  2
AM_ANSI$SF
 70
     0
  4
mm
 41
0.1
 42
0.05
 43
0.5
 44
0.1
 47
0.1
 48
0.1
 75
     1
 76
     1
 78
     7
 79
     2
140
0.12
141
0.0
146
0.71
147
0.06
176
   256
177
   256
178
     2
274
     4
284
     7
340
11
371
    -1
372
    -1
  0
DIMSTYLE
105
2C9A
330
A
100
AcDbSymbolTableRecord
100
AcDbDimStyleTableRecord
  2
AM_ANSI$SH
 70
     0
  4
mm
 41
0.1
 42
0.05
 43
0.5
 44
0.1
 47
0.1
 48
0.1
 75
     1
 76
     1
 78
     7
 79
     2
140
0.12
141
0.0
146
0.71
147
0.06
173
     1
176
   256
177
   256
178
     2
274
     4
284
     7
340
11
343
2C9B
371
    -1
372
    -1
  0
DIMSTYLE
105
2CB7
330
A
100
AcDbSymbolTableRecord
100
AcDbDimStyleTableRecord
  2
AM_ISO
 70
     0
  4
"
 41
2.5
 42
1.0
 43
10.0
 44
1.0
 47
0.1
 48
0.1
 73
     0
 74
     0
 77
     1
 78
     8
 79
     2
140
3.5
141
0.0
143
0.0393701
146
0.71
147
1.5
171
     3
172
     1
176
   256
177
   256
178
     2
271
     2
272
     2
274
     3
283
     0
284
     8
340
11
371
    -1
372
    -1
  0
DIMSTYLE
105
2CB8
330
A
100
AcDbSymbolTableRecord
100
AcDbDimStyleTableRecord
  2
AM_ISO$3
 70
     0
  4
"
 41
2.5
 42
1.0
 43
10.0
 44
1.0
 47
0.1
 48
0.1
 73
     0
 77
     1
 78
     8
 79
     2
140
3.5
141
0.0
143
0.0393701
146
0.71
147
1.5
176
   256
177
   256
178
     2
271
     2
272
     3
274
     4
283
     0
284
     8
288
     1
289
     0
340
11
371
    -1
372
    -1
  0
DIMSTYLE
105
2CB9
330
A
100
AcDbSymbolTableRecord
100
AcDbDimStyleTableRecord
  2
AM_ISO$4
 70
     0
  4
"
 41
2.5
 42
1.0
 43
10.0
 44
1.0
 47
0.1
 48
0.1
 73
     0
 77
     1
 78
     8
 79
     2
140
3.5
141
0.0
143
0.0393701
146
0.71
147
1.5
176
   256
177
   256
178
     2
271
     2
272
     3
274
     4
283
     0
284
     8
288
     1
289
     0
340
11
371
    -1
372
    -1
  0
DIMSTYLE
105
2CBA
330
A
100
AcDbSymbolTableRecord
100
AcDbDimStyleTableRecord
  2
AM_ISO$6
 70
     0
  4
"
 41
2.5
 42
1.0
 43
10.0
 44
1.0
 47
0.1
 48
0.1
 73
     0
 74
     0
 78
     8
 79
     2
140
3.5
141
0.0
143
0.0393701
146
0.71
147
1.5
172
     1
176
   256
177
   256
178
     2
271
     2
272
     3
274
     4
283
     0
284
     8
340
11
371
    -1
372
    -1
  0
DIMSTYLE
105
2CBB
330
A
100
AcDbSymbolTableRecord
100
AcDbDimStyleTableRecord
  2
AM_ISO$7
 70
     0
  4
"
 41
2.5
 42
1.0
 43
10.0
 44
1.0
 47
0.1
 48
0.1
 73
     0
 74
     0
 77
     1
 78
     8
 79
     2
140
5.0
141
0.0
143
0.0393701
146
0.71
147
1.5
172
     1
176
   256
177
   256
178
     2
271
     2
272
     3
274
     4
283
     0
284
     8
340
11
371
    -1
372
    -1
  0
DIMSTYLE
105
2CBC
330
A
100
AcDbSymbolTableRecord
100
AcDbDimStyleTableRecord
  2
AM_ISO$SF
 70
     0
  4
"
 41
2.5
 42
1.0
 43
10.0
 44
1.0
 47
0.1
 48
0.1
 73
     0
 74
     0
 75
     1
 76
     1
 77
     1
 78
     8
 79
     2
140
3.5
141
0.0
143
0.0393701
146
0.71
147
1.5
172
     1
176
   256
177
   256
178
     2
271
     2
272
     3
274
     4
283
     0
284
     8
340
11
371
    -1
372
    -1
  0
DIMSTYLE
105
2CBD
330
A
100
AcDbSymbolTableRecord
100
AcDbDimStyleTableRecord
  2
AM_ISO$SH
 70
     0
  4
"
 41
2.5
 42
1.0
 43
10.0
 44
1.0
 47
0.1
 48
0.1
 73
     0
 74
     0
 75
     1
 76
     1
 77
     1
 78
     8
 79
     2
140
3.5
141
0.0
143
0.0393701
144
2.0
146
0.71
147
1.5
172
     1
173
     1
176
   256
177
   256
178
     2
271
     2
272
     3
274
     4
283
     0
284
     8
340
11
343
2C9B
371
    -1
372
    -1
  0
DIMSTYLE
105
2E5D
330
A
100
AcDbSymbolTableRecord
100
AcDbDimStyleTableRecord
  2
AM_ISO$0
 70
     0
  4
"
 41
2.5
 42
1.0
 43
10.0
 44
1.0
 47
0.1
 48
0.1
 73
     0
 74
     0
 77
     1
 78
     8
 79
     2
140
3.5
141
0.0
143
0.0393701
146
0.71
147
1.5
171
     3
172
     1
176
   256
177
   256
178
     2
271
     2
272
     2
274
     3
283
     0
284
     8
340
11
371
    -1
372
    -1
  0
ENDTAB
  0
TABLE
  2
BLOCK_RECORD
  5
1
330
0
100
AcDbSymbolTable
 70
    14
  0
BLOCK_RECORD
  5
1F
102
{ACAD_XDICTIONARY
360
23E3
102
}
330
1
100
AcDbSymbolTableRecord
100
AcDbBlockTableRecord
  2
*Model_Space
340
22
  0
BLOCK_RECORD
  5
D2
330
1
100
AcDbSymbolTableRecord
100
AcDbBlockTableRecord
  2
*Paper_Space
340
D3
  0
BLOCK_RECORD
  5
D6
330
1
100
AcDbSymbolTableRecord
100
AcDbBlockTableRecord
  2
*Paper_Space0
340
D7
  0
BLOCK_RECORD
  5
2C9B
330
1
100
AcDbSymbolTableRecord
100
AcDbBlockTableRecord
  2
GENAXEH
340
0
  0
BLOCK_RECORD
  5
2F56
330
1
100
AcDbSymbolTableRecord
100
AcDbBlockTableRecord
  2
info
340
0
310
2800000020000000200000000100080000000000000400000000000000000000000000000000000000000000000080000080000000808000800000008000800080800000C0C0C000C0DCC000F0CAA6000020400000206000002080000020A0000020C0000020E00000400000004020000040400000406000004080000040A0
310
000040C0000040E00000600000006020000060400000606000006080000060A0000060C0000060E00000800000008020000080400000806000008080000080A0000080C0000080E00000A0000000A0200000A0400000A0600000A0800000A0A00000A0C00000A0E00000C0000000C0200000C0400000C0600000C0800000C0
310
A00000C0C00000C0E00000E0000000E0200000E0400000E0600000E0800000E0A00000E0C00000E0E00040000000400020004000400040006000400080004000A0004000C0004000E00040200000402020004020400040206000402080004020A0004020C0004020E000404000004040200040404000404060004040800040
310
40A0004040C0004040E00040600000406020004060400040606000406080004060A0004060C0004060E00040800000408020004080400040806000408080004080A0004080C0004080E00040A0000040A0200040A0400040A0600040A0800040A0A00040A0C00040A0E00040C0000040C0200040C0400040C0600040C08000
310
40C0A00040C0C00040C0E00040E0000040E0200040E0400040E0600040E0800040E0A00040E0C00040E0E00080000000800020008000400080006000800080008000A0008000C0008000E00080200000802020008020400080206000802080008020A0008020C0008020E00080400000804020008040400080406000804080
310
008040A0008040C0008040E00080600000806020008060400080606000806080008060A0008060C0008060E00080800000808020008080400080806000808080008080A0008080C0008080E00080A0000080A0200080A0400080A0600080A0800080A0A00080A0C00080A0E00080C0000080C0200080C0400080C0600080C0
310
800080C0A00080C0C00080C0E00080E0000080E0200080E0400080E0600080E0800080E0A00080E0C00080E0E000C0000000C0002000C0004000C0006000C0008000C000A000C000C000C000E000C0200000C0202000C0204000C0206000C0208000C020A000C020C000C020E000C0400000C0402000C0404000C0406000C0
310
408000C040A000C040C000C040E000C0600000C0602000C0604000C0606000C0608000C060A000C060C000C060E000C0800000C0802000C0804000C0806000C0808000C080A000C080C000C080E000C0A00000C0A02000C0A04000C0A06000C0A08000C0A0A000C0A0C000C0A0E000C0C00000C0C02000C0C04000C0C06000
310
C0C08000C0C0A000F0FBFF00A4A0A000808080000000FF0000FF000000FFFF00FF000000FF00FF00FFFF0000FFFFFF00FFFFFFFFFFFFFFFFFFFFFFFFFFFFFFFFFFFFFFFFFFFFFFFFFFFFFFFFFFFFFFFFFFFFFFFFFFFFFFFFFFFFFFFFFFFFFFFFFFFFFFFFFFFFFFFFFFFFFFFFFFFFFFFFFFFFFFFFFFFFFFFFFFFFFFFFFFFFFF
310
FFFFFFFFFFFFFFFFFFFFFFFFFFFFFFFFFFFFFFFFFFFFFFFFFFFFFFFFFFFFFFFFFFFFFFFFFFFFFFFFFFFFFFFFFFFFFFFFFFFFFFFFFFFFFFFFFFFFFFFF00FFFFFFFFFFFFFFFFFFFFFFFFFFFFFFFFFFFFFFFFFFFFFFFFFFFFFFFFFFFF00FFFFFFFFFFFFFFFFFFFFFFFFFFFFFFFFFFFFFFFFFFFFFFFFFFFFFFFFFFFF00FFFFFFFF
310
FFFFFFFFFFFFFFFFFFFFFFFFFFFFFFFFFFFF0000000000FFFFFF00FFFFFFFF00FFFFFF00FFFF000000FFFF0000000000FFFFFFFFFFFFFF000000FFFFFFFFFF00FFFFFF00FF00FFFFFF00FFFFFF00FFFF00FFFFFFFFFFFFFF0000FFFFFFFFFF00FFFFFF00FFFFFFFFFF00FFFFFF00FFFF00FFFFFFFFFFFF00FF00FFFFFFFFFF
310
0000000000FFFFFFFFFF00FFFFFF00FFFF00FFFFFFFFFF00FFFFFF00FFFFFFFF00FFFFFF00FFFFFFFFFF00FFFFFF00FFFF00FFFFFFFF00FFFFFFFF00FFFFFFFF00FFFFFF00FFFFFFFFFF00FFFFFF00FFFF00FF00FF00FFFFFFFFFF00FFFFFFFF00FFFFFF00FFFFFFFFFF00FF0000000000FFFFFF00FFFFFFFFFFFFFF00FFFF
310
FFFFFFFFFFFFFFFFFFFFFFFFFFFFFFFFFFFFFFFF00FF00FFFFFFFFFF00FFFFFFFFFFFFFFFFFFFFFFFFFFFFFFFFFFFFFFFFFFFFFFFFFFFF00FFFFFFFF00FFFFFFFFFFFFFFFFFFFFFFFFFFFFFFFFFFFFFFFFFFFFFFFFFFFFFF00FFFFFF00FFFFFFFFFFFFFFFFFFFFFFFFFFFFFFFFFFFFFFFFFFFFFFFFFFFFFFFF00FF00FFFFFF
310
FFFF00000000FFFF00FFFFFF00FF0000000000FFFFFFFFFFFFFFFF0000FFFFFFFFFFFF00FFFF00FF00FFFF00FFFFFFFF00FFFF00FFFFFFFFFFFF000000FFFFFFFFFFFF00FFFF00FF00FF00FFFFFFFFFF00FFFF00FF0000000000FFFFFF00FFFFFFFFFF000000FFFF00000000FFFFFFFF00FFFF00FFFFFFFFFFFFFFFFFFFF00
310
FFFFFFFF00FFFF00FF00FFFFFF00FFFFFF00FFFF00FFFFFFFFFFFFFFFFFFFFFF00FFFFFF00FFFF00FF00FFFFFF00FFFFFF00FFFF00FFFFFFFFFFFFFFFFFFFFFFFF00FF00000000FFFF00000000FFFF0000000000FFFFFFFFFFFFFFFFFFFFFFFFFFFFFFFFFFFFFFFFFFFFFFFFFFFFFFFFFFFFFFFFFFFFFFFFFFFFFFFFFFFFFF
310
FFFFFFFFFFFFFFFFFFFFFFFFFFFFFFFFFFFFFFFFFFFFFFFFFFFFFFFFFFFFFFFFFFFFFFFFFFFFFFFFFFFFFFFFFFFFFFFFFFFFFFFFFFFFFFFFFFFFFFFFFFFFFFFFFFFFFFFFFFFFFFFFFFFFFFFFFFFFFFFFFFFFFFFFFFFFFFFFFFFFFFFFFFFFFFFFFFFFFFFFFFFFFFFFFFFFFFFFFFFFFFFFFFFFFFFFFFFFFFFFFFFFFFFFFFFFFF
310
FFFFFFFFFFFFFFFFFFFFFFFFFFFFFFFFFFFFFFFFFFFFFFFFFFFFFFFFFFFFFFFFFFFFFFFFFFFFFFFFFFFFFFFFFFFFFFFFFFFFFFFFFFFFFFFF
102
{BLKREFS
331
2F5F
331
3112
331
3116
331
311A
331
311E
331
3122
102
}
1001
ACAD
1000
DesignCenter Data
1002
{
1070
     1
1070
     4
1002
}
  0
BLOCK_RECORD
  5
2F9D
330
1
100
AcDbSymbolTableRecord
100
AcDbBlockTableRecord
  2
B6X5
340
0
310
2800000020000000200000000100080000000000000400000000000000000000000000000000000000000000000080000080000000808000800000008000800080800000C0C0C000C0DCC000F0CAA6000020400000206000002080000020A0000020C0000020E00000400000004020000040400000406000004080000040A0
310
000040C0000040E00000600000006020000060400000606000006080000060A0000060C0000060E00000800000008020000080400000806000008080000080A0000080C0000080E00000A0000000A0200000A0400000A0600000A0800000A0A00000A0C00000A0E00000C0000000C0200000C0400000C0600000C0800000C0
310
A00000C0C00000C0E00000E0000000E0200000E0400000E0600000E0800000E0A00000E0C00000E0E00040000000400020004000400040006000400080004000A0004000C0004000E00040200000402020004020400040206000402080004020A0004020C0004020E000404000004040200040404000404060004040800040
310
40A0004040C0004040E00040600000406020004060400040606000406080004060A0004060C0004060E00040800000408020004080400040806000408080004080A0004080C0004080E00040A0000040A0200040A0400040A0600040A0800040A0A00040A0C00040A0E00040C0000040C0200040C0400040C0600040C08000
310
40C0A00040C0C00040C0E00040E0000040E0200040E0400040E0600040E0800040E0A00040E0C00040E0E00080000000800020008000400080006000800080008000A0008000C0008000E00080200000802020008020400080206000802080008020A0008020C0008020E00080400000804020008040400080406000804080
310
008040A0008040C0008040E00080600000806020008060400080606000806080008060A0008060C0008060E00080800000808020008080400080806000808080008080A0008080C0008080E00080A0000080A0200080A0400080A0600080A0800080A0A00080A0C00080A0E00080C0000080C0200080C0400080C0600080C0
310
800080C0A00080C0C00080C0E00080E0000080E0200080E0400080E0600080E0800080E0A00080E0C00080E0E000C0000000C0002000C0004000C0006000C0008000C000A000C000C000C000E000C0200000C0202000C0204000C0206000C0208000C020A000C020C000C020E000C0400000C0402000C0404000C0406000C0
310
408000C040A000C040C000C040E000C0600000C0602000C0604000C0606000C0608000C060A000C060C000C060E000C0800000C0802000C0804000C0806000C0808000C080A000C080C000C080E000C0A00000C0A02000C0A04000C0A06000C0A08000C0A0A000C0A0C000C0A0E000C0C00000C0C02000C0C04000C0C06000
310
C0C08000C0C0A000F0FBFF00A4A0A000808080000000FF0000FF000000FFFF00FF000000FF00FF00FFFF0000FFFFFF0000000000000000000000000000000000000000000000000000000000000000000000000000000000000000000000000000000000000000000000000000000000000000000000000000000000000000
310
00000000000000000000000000000000000000000000000000000000000000000000000000000000000000000000000000000000000000000000000000000000000000000000000000000000000000000000000000000000000000000000000000000000000000000000000000000000000000000000000000000000000000
310
0000000000000000000000000000000000000000000000000000000000000000000000000000000000000000000000000000000000000000000000000000000000000000000000000000000000000000000000000000FAFAFAFAFAFAFAFAFAFAFAFBFBFBFBFBFAFAFAFAFAFAFAFAFAFAFA0000000000FAFAFAFAFAFAFBFBFB
310
FBFB000000000000000000000000000000FA0000000000FAFA00000000FBFBFBFBFB000000000000000000000000000000FA000000FAFAFAFFFFFFFFFFFFFFFFFFFFFFFFFFFFFFFFFFFFFFFFFFFFFFFFFFFF000000FAFAFAFFFFFFFFFFFFFFFFFFFFFFFFFFFFFFFFFFFFFFFFFFFFFFFFFFFF000000FAFAFFFF00000000FF00
310
0000FFFF000000FF00000000FF000000FF00FF0000FBFBFBFFFF00000000FF000000FFFF000000FF00000000FF000000FF00FF0000FBFBFBFFFF00000000FF000000FFFF000000FF00000000FF000000FF00FF0000FBFBFBFFFF00000000FF000000FFFF000000FF00000000FF000000FF00FF0000FBFBFBFFFF00000000FF
310
000000FFFF000000FF00000000FF000000FF00FF0000FBFBFBFFFF00000000FF000000FFFF000000FF00000000FF000000FF00FF000000FAFAFFFF00000000FF000000FFFF000000FF00000000FF000000FF00FF000000FAFAFAFAFFFFFFFFFFFFFFFFFFFFFFFFFFFFFFFFFFFFFFFFFFFFFFFFFF000000FAFAFAFFFFFFFFFF
310
FFFFFFFFFFFFFFFFFFFFFFFFFFFFFFFFFFFFFFFFFF00000000000000000000000000000000000000000000000000000000000000000000000000000000000000000000000000000000000000000000000000000000000000000000000000000000000000000000000000000000000000000000000000000000000000000000
310
00000000000000000000000000000000000000000000000000000000000000000000000000000000000000000000000000000000000000000000000000000000000000000000000000000000000000000000000000000000000000000000000000000000000000000000000000000000000000000000000000000000000000
310
0000000000000000000000000000000000000000000000000000000000000000000000000000000000000000000000000000000000000000
102
{BLKREFS
331
3126
102
}
1001
ACAD
1000
DesignCenter Data
1002
{
1070
     1
1070
     4
1002
}
  0
ENDTAB
  0
ENDSEC
  0
SECTION
  2
BLOCKS
  0
BLOCK
  5
20
330
1F
100
AcDbEntity
  8
0
100
AcDbBlockBegin
  2
*Model_Space
 70
     0
 10
0.0
 20
0.0
 30
0.0
  3
*Model_Space
  1

  0
ENDBLK
  5
21
330
1F
100
AcDbEntity
  8
0
100
AcDbBlockEnd
  0
BLOCK
  5
D4
330
D2
100
AcDbEntity
 67
     1
  8
0
100
AcDbBlockBegin
  2
*Paper_Space
 70
     0
 10
0.0
 20
0.0
 30
0.0
  3
*Paper_Space
  1

  0
ENDBLK
  5
D5
330
D2
100
AcDbEntity
 67
     1
  8
0
100
AcDbBlockEnd
  0
BLOCK
  5
D8
330
D6
100
AcDbEntity
 67
     1
  8
0
100
AcDbBlockBegin
  2
*Paper_Space0
 70
     0
 10
0.0
 20
0.0
 30
0.0
  3
*Paper_Space0
  1

  0
ENDBLK
  5
D9
330
D6
100
AcDbEntity
 67
     1
  8
0
100
AcDbBlockEnd
  0
BLOCK
  5
2C9C
330
2C9B
100
AcDbEntity
  8
0
100
AcDbBlockBegin
  2
GENAXEH
 70
     0
 10
0.0
 20
0.0
 30
0.0
  3
GENAXEH
  1

  0
LINE
  5
2C9D
330
2C9B
100
AcDbEntity
  8
0
100
AcDbLine
 10
-1.0
 20
0.0
 30
0.0
 11
1.0
 21
0.0
 31
0.0
  0
ENDBLK
  5
2C9E
330
2C9B
100
AcDbEntity
  8
0
100
AcDbBlockEnd
  0
BLOCK
  5
2F57
330
2F56
100
AcDbEntity
  8
0
100
AcDbBlockBegin
  2
info
 70
     2
 10
0.0
 20
0.0
 30
0.0
  3
info
  1

  0
POINT
  5
2F58
330
2F56
100
AcDbEntity
  8
0
100
AcDbPoint
 10
0.0
 20
0.0
 30
0.0
  0
ATTDEF
  5
2F59
330
2F56
100
AcDbEntity
  8
0
100
AcDbText
 10
9.467092950319427
 20
2.891095235479383
 30
0.00000001
 40
5.0
  1

100
AcDbAttributeDefinition
  3
bredd
  2
BRD
 70
     1
1001
AcDbAttr
1070
     0
1070
     1
  0
ATTDEF
  5
2F5A
330
2F56
100
AcDbEntity
  8
0
100
AcDbText
 10
9.467092950319427
 20
-5.442238097853946
 30
0.00000001
 40
5.0
  1

100
AcDbAttributeDefinition
  3
Höjd
  2
HJD
 70
     1
1001
AcDbAttr
1070
     0
1070
     1
  0
ENDBLK
  5
2F5B
330
2F56
100
AcDbEntity
  8
0
100
AcDbBlockEnd
  0
BLOCK
  5
2F9E
330
2F9D
100
AcDbEntity
  8
0
100
AcDbBlockBegin
  2
B6X5
 70
     0
 10
0.0
 20
0.0
 30
0.0
  3
B6X5
  1

  0
CIRCLE
  5
2FA0
330
2F9D
100
AcDbEntity
  8
AM0
100
AcDbCircle
 10
-345.2500000000009
 20
137.0000000000011
 30
0.0
 40
4.5
  0
CIRCLE
  5
2FA1
330
2F9D
100
AcDbEntity
  8
AM0
100
AcDbCircle
 10
-345.2500000000009
 20
-136.9999999999997
 30
0.0
 40
4.5
  0
LINE
  5
2FA2
330
2F9D
100
AcDbEntity
  8
AM0
100
AcDbLine
 10
-322.2500000000009
 20
-148.9999999999997
 30
0.0
 11
-322.2500000000009
 21
149.0000000000002
 31
0.0
  0
LINE
  5
2FA3
330
2F9D
100
AcDbEntity
  8
AM0
100
AcDbLine
 10
-196.7500000000009
 20
114.0000000000002
 30
0.0
 11
-317.2500000000009
 21
114.0000000000002
 31
0.0
  0
LINE
  5
2FA4
330
2F9D
100
AcDbEntity
  8
AM0
100
AcDbLine
 10
357.2500000000002
 20
-148.9999999999997
 30
0.0
 11
-357.2500000000009
 21
-148.9999999999997
 31
0.0
  0
LINE
  5
2FA5
330
2F9D
100
AcDbEntity
  8
AM0
100
AcDbLine
 10
357.2500000000002
 20
149.0000000000002
 30
0.0
 11
-357.2500000000009
 21
149.0000000000002
 31
0.0
  0
LINE
  5
2FA6
330
2F9D
100
AcDbEntity
  8
AM0
100
AcDbLine
 10
-357.2500000000009
 20
-148.9999999999997
 30
0.0
 11
-357.2500000000009
 21
149.0000000000002
 31
0.0
  0
LINE
  5
2FA7
330
2F9D
100
AcDbEntity
  8
AM0
100
AcDbLine
 10
322.2499999999991
 20
-148.9999999999997
 30
0.0
 11
322.2499999999991
 21
149.0000000000002
 31
0.0
  0
LINE
  5
2FA8
330
2F9D
100
AcDbEntity
  8
AM0
100
AcDbLine
 10
357.2500000000002
 20
-148.9999999999997
 30
0.0
 11
357.2500000000002
 21
149.0000000000002
 31
0.0
  0
CIRCLE
  5
2FA9
330
2F9D
100
AcDbEntity
  8
AM0
100
AcDbCircle
 10
345.2499999999991
 20
137.0000000000011
 30
0.0
 40
4.5
  0
CIRCLE
  5
2FAA
330
2F9D
100
AcDbEntity
  8
AM0
100
AcDbCircle
 10
345.2499999999991
 20
-136.9999999999997
 30
0.0
 40
4.5
  0
LINE
  5
2FAB
330
2F9D
100
AcDbEntity
  8
AM0
100
AcDbLine
 10
-317.2500000000009
 20
149.0000000000002
 30
0.0
 11
-317.2500000000009
 21
-148.9999999999997
 31
0.0
  0
LINE
  5
2FAC
330
2F9D
100
AcDbEntity
  8
AM0
100
AcDbLine
 10
-196.7500000000009
 20
-113.9999999999997
 30
0.0
 11
-317.2500000000009
 21
-113.9999999999997
 31
0.0
  0
CIRCLE
  5
2FAD
330
2F9D
100
AcDbEntity
  8
AM0
100
AcDbCircle
 10
-257.0000000000009
 20
137.0000000000011
 30
0.0
 40
4.5
  0
CIRCLE
  5
2FAE
330
2F9D
100
AcDbEntity
  8
AM0
100
AcDbCircle
 10
-257.0000000000009
 20
-136.9999999999997
 30
0.0
 40
4.5
  0
LINE
  5
2FAF
330
2F9D
100
AcDbEntity
  8
AM0
  6
Continuous
100
AcDbLine
 10
292.2499999999991
 20
123.0000000000002
 30
0.0
 11
292.2499999999991
 21
131.0000000000011
 31
0.0
  0
LINE
  5
2FB0
330
2F9D
100
AcDbEntity
  8
AM0
  6
Continuous
100
AcDbLine
 10
305.849999999999
 20
122.9585481156741
 30
0.0
 11
305.849999999999
 21
118.917096231346
 31
0.0
  0
LINE
  5
2FB1
330
2F9D
100
AcDbEntity
  8
AM0
  6
Continuous
100
AcDbLine
 10
312.2499999999991
 20
118.917096231346
 30
0.0
 11
305.849999999999
 21
118.917096231346
 31
0.0
  0
LINE
  5
2FB2
330
2F9D
100
AcDbEntity
  8
AM0
  6
Continuous
100
AcDbLine
 10
305.849999999999
 20
118.917096231346
 30
0.0
 11
305.849999999999
 21
122.9585481156741
 31
0.0
  0
LINE
  5
2FB3
330
2F9D
100
AcDbEntity
  8
AM0
  6
Continuous
100
AcDbLine
 10
312.2499999999991
 20
135.0829037686553
 30
0.0
 11
305.849999999999
 21
135.0829037686553
 31
0.0
  0
LINE
  5
2FB4
330
2F9D
100
AcDbEntity
  8
AM0
  6
Continuous
100
AcDbLine
 10
305.849999999999
 20
135.0829037686553
 30
0.0
 11
305.849999999999
 21
131.0414518843283
 31
0.0
  0
LINE
  5
2FB5
330
2F9D
100
AcDbEntity
  8
AM0
  6
Continuous
100
AcDbLine
 10
305.849999999999
 20
131.0414518843283
 30
0.0
 11
305.849999999999
 21
122.9585481156741
 31
0.0
  0
LINE
  5
2FB6
330
2F9D
100
AcDbEntity
  8
AM0
  6
Continuous
100
AcDbLine
 10
322.2499999999991
 20
135.0829037686553
 30
0.0
 11
327.8500000000001
 21
135.0829037686553
 31
0.0
  0
LINE
  5
2FB7
330
2F9D
100
AcDbEntity
  8
AM0
  6
Continuous
100
AcDbLine
 10
322.2499999999991
 20
118.917096231346
 30
0.0
 11
327.8500000000001
 21
118.917096231346
 31
0.0
  0
LINE
  5
2FB8
330
2F9D
100
AcDbEntity
  8
AM0
  6
Continuous
100
AcDbLine
 10
305.849999999999
 20
123.0000000000002
 30
0.0
 11
292.2499999999991
 21
123.0000000000002
 31
0.0
  0
LINE
  5
2FB9
330
2F9D
100
AcDbEntity
  8
AM0
  6
Continuous
100
AcDbLine
 10
292.2499999999991
 20
131.0000000000011
 30
0.0
 11
305.849999999999
 21
131.0000000000011
 31
0.0
  0
LINE
  5
2FBA
330
2F9D
100
AcDbEntity
  8
AM0
  6
Continuous
100
AcDbLine
 10
317.2500000000002
 20
114.0000000000002
 30
0.0
 11
317.2500000000002
 21
139.0000000000002
 31
0.0
  0
LINE
  5
2FBB
330
2F9D
100
AcDbEntity
  8
AM0
  6
Continuous
100
AcDbLine
 10
317.2500000000002
 20
139.0000000000002
 30
0.0
 11
312.2499999999991
 21
139.0000000000002
 31
0.0
  0
LINE
  5
2FBC
330
2F9D
100
AcDbEntity
  8
AM0
  6
Continuous
100
AcDbLine
 10
317.2500000000002
 20
114.0000000000002
 30
0.0
 11
312.2499999999991
 21
114.0000000000002
 31
0.0
  0
LINE
  5
2FBD
330
2F9D
100
AcDbEntity
  8
AM0
100
AcDbLine
 10
312.2499999999991
 20
139.0000000000002
 30
0.0
 11
312.2499999999991
 21
114.0000000000002
 31
0.0
  0
LINE
  5
2FBE
330
2F9D
100
AcDbEntity
  8
AM0
100
AcDbLine
 10
312.2499999999991
 20
135.0829037686553
 30
0.0
 11
312.2499999999991
 21
118.917096231346
 31
0.0
  0
LINE
  5
2FBF
330
2F9D
100
AcDbEntity
  8
AM0
  6
ACAD_ISO02W100
100
AcDbLine
 10
305.849999999999
 20
131.0000000000011
 30
0.0
 11
322.2499999999991
 21
131.0000000000011
 31
0.0
  0
LINE
  5
2FC0
330
2F9D
100
AcDbEntity
  8
AM0
  6
ACAD_ISO02W100
100
AcDbLine
 10
305.849999999999
 20
123.0000000000002
 30
0.0
 11
322.2499999999991
 21
123.0000000000002
 31
0.0
  0
LINE
  5
2FC1
330
2F9D
100
AcDbEntity
  8
AM0
100
AcDbLine
 10
327.8500000000001
 20
135.0829037686553
 30
0.0
 11
327.8500000000001
 21
118.917096231346
 31
0.0
  0
LINE
  5
2FC2
330
2F9D
100
AcDbEntity
  8
AM0
100
AcDbLine
 10
322.2499999999991
 20
131.0000000000011
 30
0.0
 11
327.8500000000001
 21
131.0000000000011
 31
0.0
  0
LINE
  5
2FC3
330
2F9D
100
AcDbEntity
  8
AM0
100
AcDbLine
 10
322.2499999999991
 20
123.0000000000002
 30
0.0
 11
327.8500000000001
 21
123.0000000000002
 31
0.0
  0
LINE
  5
2FC4
330
2F9D
100
AcDbEntity
  8
AM0
100
AcDbLine
 10
317.2500000000002
 20
149.0000000000002
 30
0.0
 11
317.2500000000002
 21
-148.9999999999997
 31
0.0
  0
LINE
  5
2FC5
330
2F9D
100
AcDbEntity
  8
AM0
  6
Continuous
100
AcDbLine
 10
-292.2500000000009
 20
123.0000000000002
 30
0.0
 11
-292.2500000000009
 21
131.0000000000011
 31
0.0
  0
LINE
  5
2FC6
330
2F9D
100
AcDbEntity
  8
AM0
  6
Continuous
100
AcDbLine
 10
-305.8500000000008
 20
122.9585481156741
 30
0.0
 11
-305.8500000000008
 21
118.917096231346
 31
0.0
  0
LINE
  5
2FC7
330
2F9D
100
AcDbEntity
  8
AM0
  6
Continuous
100
AcDbLine
 10
-312.2500000000009
 20
118.917096231346
 30
0.0
 11
-305.8500000000008
 21
118.917096231346
 31
0.0
  0
LINE
  5
2FC8
330
2F9D
100
AcDbEntity
  8
AM0
  6
Continuous
100
AcDbLine
 10
-305.8500000000008
 20
118.917096231346
 30
0.0
 11
-305.8500000000008
 21
122.9585481156741
 31
0.0
  0
LINE
  5
2FC9
330
2F9D
100
AcDbEntity
  8
AM0
  6
Continuous
100
AcDbLine
 10
-312.2500000000009
 20
135.0829037686553
 30
0.0
 11
-305.8500000000008
 21
135.0829037686553
 31
0.0
  0
LINE
  5
2FCA
330
2F9D
100
AcDbEntity
  8
AM0
  6
Continuous
100
AcDbLine
 10
-305.8500000000008
 20
135.0829037686553
 30
0.0
 11
-305.8500000000008
 21
131.0414518843283
 31
0.0
  0
LINE
  5
2FCB
330
2F9D
100
AcDbEntity
  8
AM0
  6
Continuous
100
AcDbLine
 10
-305.8500000000008
 20
131.0414518843283
 30
0.0
 11
-305.8500000000008
 21
122.9585481156741
 31
0.0
  0
LINE
  5
2FCC
330
2F9D
100
AcDbEntity
  8
AM0
  6
Continuous
100
AcDbLine
 10
-322.2500000000009
 20
135.0829037686553
 30
0.0
 11
-327.850000000002
 21
135.0829037686553
 31
0.0
  0
LINE
  5
2FCD
330
2F9D
100
AcDbEntity
  8
AM0
  6
Continuous
100
AcDbLine
 10
-322.2500000000009
 20
118.917096231346
 30
0.0
 11
-327.850000000002
 21
118.917096231346
 31
0.0
  0
LINE
  5
2FCE
330
2F9D
100
AcDbEntity
  8
AM0
  6
Continuous
100
AcDbLine
 10
-305.8500000000008
 20
123.0000000000002
 30
0.0
 11
-292.2500000000009
 21
123.0000000000002
 31
0.0
  0
LINE
  5
2FCF
330
2F9D
100
AcDbEntity
  8
AM0
  6
Continuous
100
AcDbLine
 10
-292.2500000000009
 20
131.0000000000011
 30
0.0
 11
-305.8500000000008
 21
131.0000000000011
 31
0.0
  0
LINE
  5
2FD0
330
2F9D
100
AcDbEntity
  8
AM0
  6
Continuous
100
AcDbLine
 10
-317.2500000000009
 20
114.0000000000002
 30
0.0
 11
-317.2500000000009
 21
139.0000000000002
 31
0.0
  0
LINE
  5
2FD1
330
2F9D
100
AcDbEntity
  8
AM0
  6
Continuous
100
AcDbLine
 10
-317.2500000000009
 20
139.0000000000002
 30
0.0
 11
-312.2500000000009
 21
139.0000000000002
 31
0.0
  0
LINE
  5
2FD2
330
2F9D
100
AcDbEntity
  8
AM0
  6
Continuous
100
AcDbLine
 10
-317.2500000000009
 20
114.0000000000002
 30
0.0
 11
-312.2500000000009
 21
114.0000000000002
 31
0.0
  0
LINE
  5
2FD3
330
2F9D
100
AcDbEntity
  8
AM0
100
AcDbLine
 10
-312.2500000000009
 20
139.0000000000002
 30
0.0
 11
-312.2500000000009
 21
114.0000000000002
 31
0.0
  0
LINE
  5
2FD4
330
2F9D
100
AcDbEntity
  8
AM0
100
AcDbLine
 10
-312.2500000000009
 20
135.0829037686553
 30
0.0
 11
-312.2500000000009
 21
118.917096231346
 31
0.0
  0
LINE
  5
2FD5
330
2F9D
100
AcDbEntity
  8
AM0
  6
ACAD_ISO02W100
100
AcDbLine
 10
-305.8500000000008
 20
131.0000000000011
 30
0.0
 11
-322.2500000000009
 21
131.0000000000011
 31
0.0
  0
LINE
  5
2FD6
330
2F9D
100
AcDbEntity
  8
AM0
  6
ACAD_ISO02W100
100
AcDbLine
 10
-305.8500000000008
 20
123.0000000000002
 30
0.0
 11
-322.2500000000009
 21
123.0000000000002
 31
0.0
  0
LINE
  5
2FD7
330
2F9D
100
AcDbEntity
  8
AM0
100
AcDbLine
 10
-327.850000000002
 20
135.0829037686553
 30
0.0
 11
-327.850000000002
 21
118.917096231346
 31
0.0
  0
LINE
  5
2FD8
330
2F9D
100
AcDbEntity
  8
AM0
100
AcDbLine
 10
-322.2500000000009
 20
131.0000000000011
 30
0.0
 11
-327.850000000002
 21
131.0000000000011
 31
0.0
  0
LINE
  5
2FD9
330
2F9D
100
AcDbEntity
  8
AM0
100
AcDbLine
 10
-322.2500000000009
 20
123.0000000000002
 30
0.0
 11
-327.850000000002
 21
123.0000000000002
 31
0.0
  0
LINE
  5
2FDA
330
2F9D
100
AcDbEntity
  8
AM0
  6
Continuous
100
AcDbLine
 10
-292.2500000000009
 20
-122.9999999999997
 30
0.0
 11
-292.2500000000009
 21
-130.9999999999998
 31
0.0
  0
LINE
  5
2FDB
330
2F9D
100
AcDbEntity
  8
AM0
  6
Continuous
100
AcDbLine
 10
-305.8500000000008
 20
-122.9585481156716
 30
0.0
 11
-305.8500000000008
 21
-118.9170962313449
 31
0.0
  0
LINE
  5
2FDC
330
2F9D
100
AcDbEntity
  8
AM0
  6
Continuous
100
AcDbLine
 10
-312.2500000000009
 20
-118.9170962313449
 30
0.0
 11
-305.8500000000008
 21
-118.9170962313449
 31
0.0
  0
LINE
  5
2FDD
330
2F9D
100
AcDbEntity
  8
AM0
  6
Continuous
100
AcDbLine
 10
-305.8500000000008
 20
-118.9170962313449
 30
0.0
 11
-305.8500000000008
 21
-122.9585481156716
 31
0.0
  0
LINE
  5
2FDE
330
2F9D
100
AcDbEntity
  8
AM0
  6
Continuous
100
AcDbLine
 10
-312.2500000000009
 20
-135.0829037686537
 30
0.0
 11
-305.8500000000008
 21
-135.0829037686537
 31
0.0
  0
LINE
  5
2FDF
330
2F9D
100
AcDbEntity
  8
AM0
  6
Continuous
100
AcDbLine
 10
-305.8500000000008
 20
-135.0829037686537
 30
0.0
 11
-305.8500000000008
 21
-131.0414518843267
 31
0.0
  0
LINE
  5
2FE0
330
2F9D
100
AcDbEntity
  8
AM0
  6
Continuous
100
AcDbLine
 10
-305.8500000000008
 20
-131.0414518843267
 30
0.0
 11
-305.8500000000008
 21
-122.9585481156716
 31
0.0
  0
LINE
  5
2FE1
330
2F9D
100
AcDbEntity
  8
AM0
  6
Continuous
100
AcDbLine
 10
-322.2500000000009
 20
-135.0829037686537
 30
0.0
 11
-327.850000000002
 21
-135.0829037686537
 31
0.0
  0
LINE
  5
2FE2
330
2F9D
100
AcDbEntity
  8
AM0
  6
Continuous
100
AcDbLine
 10
-322.2500000000009
 20
-118.9170962313449
 30
0.0
 11
-327.850000000002
 21
-118.9170962313449
 31
0.0
  0
LINE
  5
2FE3
330
2F9D
100
AcDbEntity
  8
AM0
  6
Continuous
100
AcDbLine
 10
-305.8500000000008
 20
-122.9999999999997
 30
0.0
 11
-292.2500000000009
 21
-122.9999999999997
 31
0.0
  0
LINE
  5
2FE4
330
2F9D
100
AcDbEntity
  8
AM0
  6
Continuous
100
AcDbLine
 10
-292.2500000000009
 20
-130.9999999999998
 30
0.0
 11
-305.8500000000008
 21
-130.9999999999998
 31
0.0
  0
LINE
  5
2FE5
330
2F9D
100
AcDbEntity
  8
AM0
  6
Continuous
100
AcDbLine
 10
-317.2500000000009
 20
-113.9999999999997
 30
0.0
 11
-317.2500000000009
 21
-138.9999999999997
 31
0.0
  0
LINE
  5
2FE6
330
2F9D
100
AcDbEntity
  8
AM0
  6
Continuous
100
AcDbLine
 10
-317.2500000000009
 20
-138.9999999999997
 30
0.0
 11
-312.2500000000009
 21
-138.9999999999997
 31
0.0
  0
LINE
  5
2FE7
330
2F9D
100
AcDbEntity
  8
AM0
  6
Continuous
100
AcDbLine
 10
-317.2500000000009
 20
-113.9999999999997
 30
0.0
 11
-312.2500000000009
 21
-113.9999999999997
 31
0.0
  0
LINE
  5
2FE8
330
2F9D
100
AcDbEntity
  8
AM0
100
AcDbLine
 10
-312.2500000000009
 20
-138.9999999999997
 30
0.0
 11
-312.2500000000009
 21
-113.9999999999997
 31
0.0
  0
LINE
  5
2FE9
330
2F9D
100
AcDbEntity
  8
AM0
100
AcDbLine
 10
-312.2500000000009
 20
-135.0829037686537
 30
0.0
 11
-312.2500000000009
 21
-118.9170962313449
 31
0.0
  0
LINE
  5
2FEA
330
2F9D
100
AcDbEntity
  8
AM0
  6
ACAD_ISO02W100
100
AcDbLine
 10
-305.8500000000008
 20
-130.9999999999998
 30
0.0
 11
-322.2500000000009
 21
-130.9999999999998
 31
0.0
  0
LINE
  5
2FEB
330
2F9D
100
AcDbEntity
  8
AM0
  6
ACAD_ISO02W100
100
AcDbLine
 10
-305.8500000000008
 20
-122.9999999999997
 30
0.0
 11
-322.2500000000009
 21
-122.9999999999997
 31
0.0
  0
LINE
  5
2FEC
330
2F9D
100
AcDbEntity
  8
AM0
100
AcDbLine
 10
-327.850000000002
 20
-135.0829037686537
 30
0.0
 11
-327.850000000002
 21
-118.9170962313449
 31
0.0
  0
LINE
  5
2FED
330
2F9D
100
AcDbEntity
  8
AM0
100
AcDbLine
 10
-322.2500000000009
 20
-130.9999999999998
 30
0.0
 11
-327.850000000002
 21
-130.9999999999998
 31
0.0
  0
LINE
  5
2FEE
330
2F9D
100
AcDbEntity
  8
AM0
100
AcDbLine
 10
-322.2500000000009
 20
-122.9999999999997
 30
0.0
 11
-327.850000000002
 21
-122.9999999999997
 31
0.0
  0
LINE
  5
2FEF
330
2F9D
100
AcDbEntity
  8
AM0
  6
Continuous
100
AcDbLine
 10
292.2499999999991
 20
-122.9999999999997
 30
0.0
 11
292.2499999999991
 21
-130.9999999999998
 31
0.0
  0
LINE
  5
2FF0
330
2F9D
100
AcDbEntity
  8
AM0
  6
Continuous
100
AcDbLine
 10
305.849999999999
 20
-122.9585481156716
 30
0.0
 11
305.849999999999
 21
-118.9170962313449
 31
0.0
  0
LINE
  5
2FF1
330
2F9D
100
AcDbEntity
  8
AM0
  6
Continuous
100
AcDbLine
 10
312.2499999999991
 20
-118.9170962313449
 30
0.0
 11
305.849999999999
 21
-118.9170962313449
 31
0.0
  0
LINE
  5
2FF2
330
2F9D
100
AcDbEntity
  8
AM0
  6
Continuous
100
AcDbLine
 10
305.849999999999
 20
-118.9170962313449
 30
0.0
 11
305.849999999999
 21
-122.9585481156716
 31
0.0
  0
LINE
  5
2FF3
330
2F9D
100
AcDbEntity
  8
AM0
  6
Continuous
100
AcDbLine
 10
312.2499999999991
 20
-135.0829037686537
 30
0.0
 11
305.849999999999
 21
-135.0829037686537
 31
0.0
  0
LINE
  5
2FF4
330
2F9D
100
AcDbEntity
  8
AM0
  6
Continuous
100
AcDbLine
 10
305.849999999999
 20
-135.0829037686537
 30
0.0
 11
305.849999999999
 21
-131.0414518843267
 31
0.0
  0
LINE
  5
2FF5
330
2F9D
100
AcDbEntity
  8
AM0
  6
Continuous
100
AcDbLine
 10
305.849999999999
 20
-131.0414518843267
 30
0.0
 11
305.849999999999
 21
-122.9585481156716
 31
0.0
  0
LINE
  5
2FF6
330
2F9D
100
AcDbEntity
  8
AM0
  6
Continuous
100
AcDbLine
 10
322.2499999999991
 20
-135.0829037686537
 30
0.0
 11
327.8500000000001
 21
-135.0829037686537
 31
0.0
  0
LINE
  5
2FF7
330
2F9D
100
AcDbEntity
  8
AM0
  6
Continuous
100
AcDbLine
 10
322.2499999999991
 20
-118.9170962313449
 30
0.0
 11
327.8500000000001
 21
-118.9170962313449
 31
0.0
  0
LINE
  5
2FF8
330
2F9D
100
AcDbEntity
  8
AM0
  6
Continuous
100
AcDbLine
 10
305.849999999999
 20
-122.9999999999997
 30
0.0
 11
292.2499999999991
 21
-122.9999999999997
 31
0.0
  0
LINE
  5
2FF9
330
2F9D
100
AcDbEntity
  8
AM0
  6
Continuous
100
AcDbLine
 10
292.2499999999991
 20
-130.9999999999998
 30
0.0
 11
305.849999999999
 21
-130.9999999999998
 31
0.0
  0
LINE
  5
2FFA
330
2F9D
100
AcDbEntity
  8
AM0
  6
Continuous
100
AcDbLine
 10
317.2500000000002
 20
-113.9999999999997
 30
0.0
 11
317.2500000000002
 21
-138.9999999999997
 31
0.0
  0
LINE
  5
2FFB
330
2F9D
100
AcDbEntity
  8
AM0
  6
Continuous
100
AcDbLine
 10
317.2500000000002
 20
-138.9999999999997
 30
0.0
 11
312.2499999999991
 21
-138.9999999999997
 31
0.0
  0
LINE
  5
2FFC
330
2F9D
100
AcDbEntity
  8
AM0
  6
Continuous
100
AcDbLine
 10
317.2500000000002
 20
-113.9999999999997
 30
0.0
 11
312.2499999999991
 21
-113.9999999999997
 31
0.0
  0
LINE
  5
2FFD
330
2F9D
100
AcDbEntity
  8
AM0
100
AcDbLine
 10
312.2499999999991
 20
-138.9999999999997
 30
0.0
 11
312.2499999999991
 21
-113.9999999999997
 31
0.0
  0
LINE
  5
2FFE
330
2F9D
100
AcDbEntity
  8
AM0
100
AcDbLine
 10
312.2499999999991
 20
-135.0829037686537
 30
0.0
 11
312.2499999999991
 21
-118.9170962313449
 31
0.0
  0
LINE
  5
2FFF
330
2F9D
100
AcDbEntity
  8
AM0
  6
ACAD_ISO02W100
100
AcDbLine
 10
305.849999999999
 20
-130.9999999999998
 30
0.0
 11
322.2499999999991
 21
-130.9999999999998
 31
0.0
  0
LINE
  5
3000
330
2F9D
100
AcDbEntity
  8
AM0
  6
ACAD_ISO02W100
100
AcDbLine
 10
305.849999999999
 20
-122.9999999999997
 30
0.0
 11
322.2499999999991
 21
-122.9999999999997
 31
0.0
  0
LINE
  5
3001
330
2F9D
100
AcDbEntity
  8
AM0
100
AcDbLine
 10
327.8500000000001
 20
-135.0829037686537
 30
0.0
 11
327.8500000000001
 21
-118.9170962313449
 31
0.0
  0
LINE
  5
3002
330
2F9D
100
AcDbEntity
  8
AM0
100
AcDbLine
 10
322.2499999999991
 20
-130.9999999999998
 30
0.0
 11
327.8500000000001
 21
-130.9999999999998
 31
0.0
  0
LINE
  5
3003
330
2F9D
100
AcDbEntity
  8
AM0
100
AcDbLine
 10
322.2499999999991
 20
-122.9999999999997
 30
0.0
 11
327.8500000000001
 21
-122.9999999999997
 31
0.0
  0
LINE
  5
3004
330
2F9D
100
AcDbEntity
  8
AM0
100
AcDbLine
 10
-196.7500000000009
 20
109.0000000000011
 30
0.0
 11
-196.7500000000009
 21
149.0000000000002
 31
0.0
  0
LINE
  5
3005
330
2F9D
100
AcDbEntity
  8
AM0
100
AcDbLine
 10
-196.7500000000009
 20
-108.9999999999998
 30
0.0
 11
-196.7500000000009
 21
-148.9999999999997
 31
0.0
  0
LINE
  5
3006
330
2F9D
100
AcDbEntity
  8
AM0
100
AcDbLine
 10
-188.7500000000009
 20
109.0000000000011
 30
0.0
 11
-188.7500000000009
 21
149.0000000000002
 31
0.0
  0
LINE
  5
3007
330
2F9D
100
AcDbEntity
  8
AM0
100
AcDbLine
 10
-68.25000000000091
 20
114.0000000000002
 30
0.0
 11
-188.7500000000009
 21
114.0000000000002
 31
0.0
  0
LINE
  5
3008
330
2F9D
100
AcDbEntity
  8
AM0
100
AcDbLine
 10
-188.7500000000009
 20
-108.9999999999998
 30
0.0
 11
-188.7500000000009
 21
-148.9999999999997
 31
0.0
  0
LINE
  5
3009
330
2F9D
100
AcDbEntity
  8
AM0
100
AcDbLine
 10
-68.25000000000091
 20
-113.9999999999997
 30
0.0
 11
-188.7500000000009
 21
-113.9999999999997
 31
0.0
  0
CIRCLE
  5
300A
330
2F9D
100
AcDbEntity
  8
AM0
100
AcDbCircle
 10
-128.5
 20
137.0000000000011
 30
0.0
 40
4.5
  0
CIRCLE
  5
300B
330
2F9D
100
AcDbEntity
  8
AM0
100
AcDbCircle
 10
-128.5
 20
-136.9999999999997
 30
0.0
 40
4.5
  0
LINE
  5
300C
330
2F9D
100
AcDbEntity
  8
AM0
100
AcDbLine
 10
-196.7500000000009
 20
-108.9999999999998
 30
0.0
 11
-196.7500000000009
 21
-148.9999999999997
 31
0.0
  0
LINE
  5
300D
330
2F9D
100
AcDbEntity
  8
AM0
  6
Continuous
100
AcDbLine
 10
-169.7500000000009
 20
131.0000000000011
 30
0.0
 11
-169.7500000000009
 21
123.0000000000002
 31
0.0
  0
LINE
  5
300E
330
2F9D
100
AcDbEntity
  8
AM0
  6
ACAD_ISO02W100
100
AcDbLine
 10
-201.75
 20
131.0414518843302
 30
0.0
 11
-177.3500000000008
 21
131.0000000000011
 31
0.0
  0
LINE
  5
300F
330
2F9D
100
AcDbEntity
  8
AM0
  6
Continuous
100
AcDbLine
 10
-183.75
 20
135.0829037686562
 30
0.0
 11
-177.3500000000008
 21
135.0829037686562
 31
0.0
  0
LINE
  5
3010
330
2F9D
100
AcDbEntity
  8
AM0
  6
Continuous
100
AcDbLine
 10
-183.75
 20
118.9170962313474
 30
0.0
 11
-177.3500000000008
 21
118.9170962313474
 31
0.0
  0
LINE
  5
3011
330
2F9D
100
AcDbEntity
  8
AM0
  6
Continuous
100
AcDbLine
 10
-207.3499999999999
 20
122.9585481156753
 30
0.0
 11
-207.3499999999999
 21
118.9170962313474
 31
0.0
  0
LINE
  5
3012
330
2F9D
100
AcDbEntity
  8
AM0
  6
Continuous
100
AcDbLine
 10
-201.75
 20
118.9170962313474
 30
0.0
 11
-207.3499999999999
 21
118.9170962313474
 31
0.0
  0
LINE
  5
3013
330
2F9D
100
AcDbEntity
  8
AM0
  6
Continuous
100
AcDbLine
 10
-207.3499999999999
 20
118.9170962313474
 30
0.0
 11
-207.3499999999999
 21
122.9585481156753
 31
0.0
  0
LINE
  5
3014
330
2F9D
100
AcDbEntity
  8
AM0
  6
Continuous
100
AcDbLine
 10
-201.75
 20
135.0829037686562
 30
0.0
 11
-207.3499999999999
 21
135.0829037686562
 31
0.0
  0
LINE
  5
3015
330
2F9D
100
AcDbEntity
  8
AM0
  6
Continuous
100
AcDbLine
 10
-207.3499999999999
 20
135.0829037686562
 30
0.0
 11
-207.3499999999999
 21
131.0414518843302
 31
0.0
  0
LINE
  5
3016
330
2F9D
100
AcDbEntity
  8
AM0
  6
Continuous
100
AcDbLine
 10
-201.75
 20
131.0414518843302
 30
0.0
 11
-207.3499999999999
 21
131.0414518843302
 31
0.0
  0
LINE
  5
3017
330
2F9D
100
AcDbEntity
  8
AM0
  6
Continuous
100
AcDbLine
 10
-207.3499999999999
 20
131.0414518843302
 30
0.0
 11
-207.3499999999999
 21
122.9585481156753
 31
0.0
  0
LINE
  5
3018
330
2F9D
100
AcDbEntity
  8
AM0
  6
Continuous
100
AcDbLine
 10
-201.75
 20
114.0000000000002
 30
0.0
 11
-201.75
 21
139.0000000000002
 31
0.0
  0
LINE
  5
3019
330
2F9D
100
AcDbEntity
  8
AM0
  6
Continuous
100
AcDbLine
 10
-201.75
 20
139.0000000000002
 30
0.0
 11
-196.7500000000009
 21
139.0000000000002
 31
0.0
  0
LINE
  5
301A
330
2F9D
100
AcDbEntity
  8
AM0
  6
Continuous
100
AcDbLine
 10
-188.7500000000009
 20
139.0000000000002
 30
0.0
 11
-183.75
 21
139.0000000000002
 31
0.0
  0
LINE
  5
301B
330
2F9D
100
AcDbEntity
  8
AM0
  6
Continuous
100
AcDbLine
 10
-183.75
 20
139.0000000000002
 30
0.0
 11
-183.75
 21
114.0000000000002
 31
0.0
  0
LINE
  5
301C
330
2F9D
100
AcDbEntity
  8
AM0
  6
Continuous
100
AcDbLine
 10
-188.7500000000009
 20
139.0000000000002
 30
0.0
 11
-188.7500000000009
 21
114.0000000000002
 31
0.0
  0
LINE
  5
301D
330
2F9D
100
AcDbEntity
  8
AM0
  6
Continuous
100
AcDbLine
 10
-196.7500000000009
 20
114.0000000000002
 30
0.0
 11
-196.7500000000009
 21
139.0000000000002
 31
0.0
  0
LINE
  5
301E
330
2F9D
100
AcDbEntity
  8
AM0
  6
Continuous
100
AcDbLine
 10
-169.7500000000009
 20
131.0000000000011
 30
0.0
 11
-177.3500000000008
 21
131.0000000000011
 31
0.0
  0
LINE
  5
301F
330
2F9D
100
AcDbEntity
  8
AM0
  6
Continuous
100
AcDbLine
 10
-177.3500000000008
 20
123.0000000000002
 30
0.0
 11
-169.7500000000009
 21
123.0000000000002
 31
0.0
  0
LINE
  5
3020
330
2F9D
100
AcDbEntity
  8
AM0
100
AcDbLine
 10
-177.3500000000008
 20
135.0829037686562
 30
0.0
 11
-177.3500000000008
 21
118.9170962313474
 31
0.0
  0
LINE
  5
3021
330
2F9D
100
AcDbEntity
  8
AM0
100
AcDbLine
 10
-201.75
 20
123.0000000000002
 30
0.0
 11
-207.3499999999999
 21
123.0000000000002
 31
0.0
  0
LINE
  5
3022
330
2F9D
100
AcDbEntity
  8
AM0
  6
ACAD_ISO02W100
100
AcDbLine
 10
-201.75
 20
123.0000000000002
 30
0.0
 11
-177.3500000000008
 21
123.0000000000002
 31
0.0
  0
LINE
  5
3023
330
2F9D
100
AcDbEntity
  8
AM0
100
AcDbLine
 10
-201.75
 20
114.0000000000002
 30
0.0
 11
-196.7500000000009
 21
114.0000000000002
 31
0.0
  0
LINE
  5
3024
330
2F9D
100
AcDbEntity
  8
AM0
100
AcDbLine
 10
-188.7500000000009
 20
114.0000000000002
 30
0.0
 11
-183.75
 21
114.0000000000002
 31
0.0
  0
LINE
  5
3025
330
2F9D
100
AcDbEntity
  8
AM0
100
AcDbLine
 10
-188.7500000000009
 20
-108.9999999999998
 30
0.0
 11
-188.7500000000009
 21
-148.9999999999997
 31
0.0
  0
LINE
  5
3026
330
2F9D
100
AcDbEntity
  8
AM0
100
AcDbLine
 10
-196.7500000000009
 20
149.0000000000002
 30
0.0
 11
-196.7500000000009
 21
-148.9999999999997
 31
0.0
  0
LINE
  5
3027
330
2F9D
100
AcDbEntity
  8
AM0
  6
Continuous
100
AcDbLine
 10
-169.7500000000009
 20
-130.9999999999998
 30
0.0
 11
-169.7500000000009
 21
-122.9999999999997
 31
0.0
  0
LINE
  5
3028
330
2F9D
100
AcDbEntity
  8
AM0
  6
ACAD_ISO02W100
100
AcDbLine
 10
-201.75
 20
-131.0414518843288
 30
0.0
 11
-177.3500000000008
 21
-130.9999999999998
 31
0.0
  0
LINE
  5
3029
330
2F9D
100
AcDbEntity
  8
AM0
  6
Continuous
100
AcDbLine
 10
-183.75
 20
-135.0829037686558
 30
0.0
 11
-177.3500000000008
 21
-135.0829037686558
 31
0.0
  0
LINE
  5
302A
330
2F9D
100
AcDbEntity
  8
AM0
  6
Continuous
100
AcDbLine
 10
-183.75
 20
-118.9170962313467
 30
0.0
 11
-177.3500000000008
 21
-118.9170962313467
 31
0.0
  0
LINE
  5
302B
330
2F9D
100
AcDbEntity
  8
AM0
  6
Continuous
100
AcDbLine
 10
-207.3499999999999
 20
-122.9585481156737
 30
0.0
 11
-207.3499999999999
 21
-118.9170962313467
 31
0.0
  0
LINE
  5
302C
330
2F9D
100
AcDbEntity
  8
AM0
  6
Continuous
100
AcDbLine
 10
-201.75
 20
-118.9170962313467
 30
0.0
 11
-207.3499999999999
 21
-118.9170962313467
 31
0.0
  0
LINE
  5
302D
330
2F9D
100
AcDbEntity
  8
AM0
  6
Continuous
100
AcDbLine
 10
-207.3499999999999
 20
-118.9170962313467
 30
0.0
 11
-207.3499999999999
 21
-122.9585481156737
 31
0.0
  0
LINE
  5
302E
330
2F9D
100
AcDbEntity
  8
AM0
  6
Continuous
100
AcDbLine
 10
-201.75
 20
-135.0829037686558
 30
0.0
 11
-207.3499999999999
 21
-135.0829037686558
 31
0.0
  0
LINE
  5
302F
330
2F9D
100
AcDbEntity
  8
AM0
  6
Continuous
100
AcDbLine
 10
-207.3499999999999
 20
-135.0829037686558
 30
0.0
 11
-207.3499999999999
 21
-131.0414518843288
 31
0.0
  0
LINE
  5
3030
330
2F9D
100
AcDbEntity
  8
AM0
  6
Continuous
100
AcDbLine
 10
-201.75
 20
-131.0414518843288
 30
0.0
 11
-207.3499999999999
 21
-131.0414518843288
 31
0.0
  0
LINE
  5
3031
330
2F9D
100
AcDbEntity
  8
AM0
  6
Continuous
100
AcDbLine
 10
-207.3499999999999
 20
-131.0414518843288
 30
0.0
 11
-207.3499999999999
 21
-122.9585481156737
 31
0.0
  0
LINE
  5
3032
330
2F9D
100
AcDbEntity
  8
AM0
  6
Continuous
100
AcDbLine
 10
-201.75
 20
-113.9999999999997
 30
0.0
 11
-201.75
 21
-138.9999999999997
 31
0.0
  0
LINE
  5
3033
330
2F9D
100
AcDbEntity
  8
AM0
  6
Continuous
100
AcDbLine
 10
-201.75
 20
-138.9999999999997
 30
0.0
 11
-196.7500000000009
 21
-138.9999999999997
 31
0.0
  0
LINE
  5
3034
330
2F9D
100
AcDbEntity
  8
AM0
  6
Continuous
100
AcDbLine
 10
-188.7500000000009
 20
-138.9999999999997
 30
0.0
 11
-183.75
 21
-138.9999999999997
 31
0.0
  0
LINE
  5
3035
330
2F9D
100
AcDbEntity
  8
AM0
  6
Continuous
100
AcDbLine
 10
-183.75
 20
-138.9999999999997
 30
0.0
 11
-183.75
 21
-113.9999999999997
 31
0.0
  0
LINE
  5
3036
330
2F9D
100
AcDbEntity
  8
AM0
  6
Continuous
100
AcDbLine
 10
-188.7500000000009
 20
-138.9999999999997
 30
0.0
 11
-188.7500000000009
 21
-113.9999999999997
 31
0.0
  0
LINE
  5
3037
330
2F9D
100
AcDbEntity
  8
AM0
  6
Continuous
100
AcDbLine
 10
-196.7500000000009
 20
-113.9999999999997
 30
0.0
 11
-196.7500000000009
 21
-138.9999999999997
 31
0.0
  0
LINE
  5
3038
330
2F9D
100
AcDbEntity
  8
AM0
  6
Continuous
100
AcDbLine
 10
-169.7500000000009
 20
-130.9999999999998
 30
0.0
 11
-177.3500000000008
 21
-130.9999999999998
 31
0.0
  0
LINE
  5
3039
330
2F9D
100
AcDbEntity
  8
AM0
  6
Continuous
100
AcDbLine
 10
-177.3500000000008
 20
-122.9999999999997
 30
0.0
 11
-169.7500000000009
 21
-122.9999999999997
 31
0.0
  0
LINE
  5
303A
330
2F9D
100
AcDbEntity
  8
AM0
100
AcDbLine
 10
-177.3500000000008
 20
-135.0829037686558
 30
0.0
 11
-177.3500000000008
 21
-118.9170962313467
 31
0.0
  0
LINE
  5
303B
330
2F9D
100
AcDbEntity
  8
AM0
100
AcDbLine
 10
-201.75
 20
-122.9999999999997
 30
0.0
 11
-207.3499999999999
 21
-122.9999999999997
 31
0.0
  0
LINE
  5
303C
330
2F9D
100
AcDbEntity
  8
AM0
  6
ACAD_ISO02W100
100
AcDbLine
 10
-201.75
 20
-122.9999999999997
 30
0.0
 11
-177.3500000000008
 21
-122.9999999999997
 31
0.0
  0
LINE
  5
303D
330
2F9D
100
AcDbEntity
  8
AM0
100
AcDbLine
 10
-201.75
 20
-113.9999999999997
 30
0.0
 11
-196.7500000000009
 21
-113.9999999999997
 31
0.0
  0
LINE
  5
303E
330
2F9D
100
AcDbEntity
  8
AM0
100
AcDbLine
 10
-188.7500000000009
 20
-113.9999999999997
 30
0.0
 11
-183.75
 21
-113.9999999999997
 31
0.0
  0
LINE
  5
303F
330
2F9D
100
AcDbEntity
  8
AM0
100
AcDbLine
 10
-188.7500000000009
 20
149.0000000000002
 30
0.0
 11
-188.7500000000009
 21
-148.9999999999997
 31
0.0
  0
LINE
  5
3040
330
2F9D
100
AcDbEntity
  8
AM0
100
AcDbLine
 10
-68.25000000000091
 20
109.0000000000011
 30
0.0
 11
-68.25000000000091
 21
149.0000000000002
 31
0.0
  0
LINE
  5
3041
330
2F9D
100
AcDbEntity
  8
AM0
100
AcDbLine
 10
-68.25000000000091
 20
-108.9999999999998
 30
0.0
 11
-68.25000000000091
 21
-148.9999999999997
 31
0.0
  0
LINE
  5
3042
330
2F9D
100
AcDbEntity
  8
AM0
100
AcDbLine
 10
-60.2500000000009
 20
109.0000000000011
 30
0.0
 11
-60.2500000000009
 21
149.0000000000002
 31
0.0
  0
LINE
  5
3043
330
2F9D
100
AcDbEntity
  8
AM0
100
AcDbLine
 10
60.25000000000023
 20
114.0000000000002
 30
0.0
 11
-60.2500000000009
 21
114.0000000000002
 31
0.0
  0
LINE
  5
3044
330
2F9D
100
AcDbEntity
  8
AM0
100
AcDbLine
 10
-60.2500000000009
 20
-108.9999999999998
 30
0.0
 11
-60.2500000000009
 21
-148.9999999999997
 31
0.0
  0
LINE
  5
3045
330
2F9D
100
AcDbEntity
  8
AM0
100
AcDbLine
 10
60.25000000000023
 20
-113.9999999999997
 30
0.0
 11
-60.2500000000009
 21
-113.9999999999997
 31
0.0
  0
CIRCLE
  5
3046
330
2F9D
100
AcDbEntity
  8
AM0
100
AcDbCircle
 10
0.0000000000011369
 20
137.0000000000011
 30
0.0
 40
4.5
  0
CIRCLE
  5
3047
330
2F9D
100
AcDbEntity
  8
AM0
100
AcDbCircle
 10
0.0000000000011369
 20
-136.9999999999997
 30
0.0
 40
4.5
  0
LINE
  5
3048
330
2F9D
100
AcDbEntity
  8
AM0
100
AcDbLine
 10
-68.25000000000091
 20
-108.9999999999998
 30
0.0
 11
-68.25000000000091
 21
-148.9999999999997
 31
0.0
  0
LINE
  5
3049
330
2F9D
100
AcDbEntity
  8
AM0
  6
Continuous
100
AcDbLine
 10
-41.25000000000091
 20
131.0000000000011
 30
0.0
 11
-41.25000000000091
 21
123.0000000000002
 31
0.0
  0
LINE
  5
304A
330
2F9D
100
AcDbEntity
  8
AM0
  6
ACAD_ISO02W100
100
AcDbLine
 10
-73.25
 20
131.0414518843302
 30
0.0
 11
-48.8499999999999
 21
131.0000000000011
 31
0.0
  0
LINE
  5
304B
330
2F9D
100
AcDbEntity
  8
AM0
  6
Continuous
100
AcDbLine
 10
-55.25
 20
135.0829037686562
 30
0.0
 11
-48.8499999999999
 21
135.0829037686562
 31
0.0
  0
LINE
  5
304C
330
2F9D
100
AcDbEntity
  8
AM0
  6
Continuous
100
AcDbLine
 10
-55.25
 20
118.9170962313474
 30
0.0
 11
-48.8499999999999
 21
118.9170962313474
 31
0.0
  0
LINE
  5
304D
330
2F9D
100
AcDbEntity
  8
AM0
  6
Continuous
100
AcDbLine
 10
-78.8499999999999
 20
122.9585481156753
 30
0.0
 11
-78.8499999999999
 21
118.9170962313474
 31
0.0
  0
LINE
  5
304E
330
2F9D
100
AcDbEntity
  8
AM0
  6
Continuous
100
AcDbLine
 10
-73.25
 20
118.9170962313474
 30
0.0
 11
-78.8499999999999
 21
118.9170962313474
 31
0.0
  0
LINE
  5
304F
330
2F9D
100
AcDbEntity
  8
AM0
  6
Continuous
100
AcDbLine
 10
-78.8499999999999
 20
118.9170962313474
 30
0.0
 11
-78.8499999999999
 21
122.9585481156753
 31
0.0
  0
LINE
  5
3050
330
2F9D
100
AcDbEntity
  8
AM0
  6
Continuous
100
AcDbLine
 10
-73.25
 20
135.0829037686562
 30
0.0
 11
-78.8499999999999
 21
135.0829037686562
 31
0.0
  0
LINE
  5
3051
330
2F9D
100
AcDbEntity
  8
AM0
  6
Continuous
100
AcDbLine
 10
-78.8499999999999
 20
135.0829037686562
 30
0.0
 11
-78.8499999999999
 21
131.0414518843302
 31
0.0
  0
LINE
  5
3052
330
2F9D
100
AcDbEntity
  8
AM0
  6
Continuous
100
AcDbLine
 10
-73.25
 20
131.0414518843302
 30
0.0
 11
-78.8499999999999
 21
131.0414518843302
 31
0.0
  0
LINE
  5
3053
330
2F9D
100
AcDbEntity
  8
AM0
  6
Continuous
100
AcDbLine
 10
-78.8499999999999
 20
131.0414518843302
 30
0.0
 11
-78.8499999999999
 21
122.9585481156753
 31
0.0
  0
LINE
  5
3054
330
2F9D
100
AcDbEntity
  8
AM0
  6
Continuous
100
AcDbLine
 10
-73.25
 20
114.0000000000002
 30
0.0
 11
-73.25
 21
139.0000000000002
 31
0.0
  0
LINE
  5
3055
330
2F9D
100
AcDbEntity
  8
AM0
  6
Continuous
100
AcDbLine
 10
-73.25
 20
139.0000000000002
 30
0.0
 11
-68.25000000000091
 21
139.0000000000002
 31
0.0
  0
LINE
  5
3056
330
2F9D
100
AcDbEntity
  8
AM0
  6
Continuous
100
AcDbLine
 10
-60.2500000000009
 20
139.0000000000002
 30
0.0
 11
-55.25
 21
139.0000000000002
 31
0.0
  0
LINE
  5
3057
330
2F9D
100
AcDbEntity
  8
AM0
  6
Continuous
100
AcDbLine
 10
-55.25
 20
139.0000000000002
 30
0.0
 11
-55.25
 21
114.0000000000002
 31
0.0
  0
LINE
  5
3058
330
2F9D
100
AcDbEntity
  8
AM0
  6
Continuous
100
AcDbLine
 10
-60.2500000000009
 20
139.0000000000002
 30
0.0
 11
-60.2500000000009
 21
114.0000000000002
 31
0.0
  0
LINE
  5
3059
330
2F9D
100
AcDbEntity
  8
AM0
  6
Continuous
100
AcDbLine
 10
-68.25000000000091
 20
114.0000000000002
 30
0.0
 11
-68.25000000000091
 21
139.0000000000002
 31
0.0
  0
LINE
  5
305A
330
2F9D
100
AcDbEntity
  8
AM0
  6
Continuous
100
AcDbLine
 10
-41.25000000000091
 20
131.0000000000011
 30
0.0
 11
-48.8499999999999
 21
131.0000000000011
 31
0.0
  0
LINE
  5
305B
330
2F9D
100
AcDbEntity
  8
AM0
  6
Continuous
100
AcDbLine
 10
-48.8499999999999
 20
123.0000000000002
 30
0.0
 11
-41.25000000000091
 21
123.0000000000002
 31
0.0
  0
LINE
  5
305C
330
2F9D
100
AcDbEntity
  8
AM0
100
AcDbLine
 10
-48.8499999999999
 20
135.0829037686562
 30
0.0
 11
-48.8499999999999
 21
118.9170962313474
 31
0.0
  0
LINE
  5
305D
330
2F9D
100
AcDbEntity
  8
AM0
100
AcDbLine
 10
-73.25
 20
123.0000000000002
 30
0.0
 11
-78.8499999999999
 21
123.0000000000002
 31
0.0
  0
LINE
  5
305E
330
2F9D
100
AcDbEntity
  8
AM0
  6
ACAD_ISO02W100
100
AcDbLine
 10
-73.25
 20
123.0000000000002
 30
0.0
 11
-48.8499999999999
 21
123.0000000000002
 31
0.0
  0
LINE
  5
305F
330
2F9D
100
AcDbEntity
  8
AM0
100
AcDbLine
 10
-73.25
 20
114.0000000000002
 30
0.0
 11
-68.25000000000091
 21
114.0000000000002
 31
0.0
  0
LINE
  5
3060
330
2F9D
100
AcDbEntity
  8
AM0
100
AcDbLine
 10
-60.2500000000009
 20
114.0000000000002
 30
0.0
 11
-55.25
 21
114.0000000000002
 31
0.0
  0
LINE
  5
3061
330
2F9D
100
AcDbEntity
  8
AM0
100
AcDbLine
 10
-60.2500000000009
 20
-108.9999999999998
 30
0.0
 11
-60.2500000000009
 21
-148.9999999999997
 31
0.0
  0
LINE
  5
3062
330
2F9D
100
AcDbEntity
  8
AM0
100
AcDbLine
 10
-68.25
 20
149.0000000000002
 30
0.0
 11
-68.25000000000091
 21
-148.9999999999997
 31
0.0
  0
LINE
  5
3063
330
2F9D
100
AcDbEntity
  8
AM0
  6
Continuous
100
AcDbLine
 10
-41.25000000000091
 20
-130.9999999999998
 30
0.0
 11
-41.25000000000091
 21
-122.9999999999997
 31
0.0
  0
LINE
  5
3064
330
2F9D
100
AcDbEntity
  8
AM0
  6
ACAD_ISO02W100
100
AcDbLine
 10
-73.25
 20
-131.0414518843288
 30
0.0
 11
-48.8499999999999
 21
-130.9999999999998
 31
0.0
  0
LINE
  5
3065
330
2F9D
100
AcDbEntity
  8
AM0
  6
Continuous
100
AcDbLine
 10
-55.25
 20
-135.0829037686558
 30
0.0
 11
-48.8499999999999
 21
-135.0829037686558
 31
0.0
  0
LINE
  5
3066
330
2F9D
100
AcDbEntity
  8
AM0
  6
Continuous
100
AcDbLine
 10
-55.25
 20
-118.9170962313467
 30
0.0
 11
-48.8499999999999
 21
-118.9170962313467
 31
0.0
  0
LINE
  5
3067
330
2F9D
100
AcDbEntity
  8
AM0
  6
Continuous
100
AcDbLine
 10
-78.8499999999999
 20
-122.9585481156737
 30
0.0
 11
-78.8499999999999
 21
-118.9170962313467
 31
0.0
  0
LINE
  5
3068
330
2F9D
100
AcDbEntity
  8
AM0
  6
Continuous
100
AcDbLine
 10
-73.25
 20
-118.9170962313467
 30
0.0
 11
-78.8499999999999
 21
-118.9170962313467
 31
0.0
  0
LINE
  5
3069
330
2F9D
100
AcDbEntity
  8
AM0
  6
Continuous
100
AcDbLine
 10
-78.8499999999999
 20
-118.9170962313467
 30
0.0
 11
-78.8499999999999
 21
-122.9585481156737
 31
0.0
  0
LINE
  5
306A
330
2F9D
100
AcDbEntity
  8
AM0
  6
Continuous
100
AcDbLine
 10
-73.25
 20
-135.0829037686558
 30
0.0
 11
-78.8499999999999
 21
-135.0829037686558
 31
0.0
  0
LINE
  5
306B
330
2F9D
100
AcDbEntity
  8
AM0
  6
Continuous
100
AcDbLine
 10
-78.8499999999999
 20
-135.0829037686558
 30
0.0
 11
-78.8499999999999
 21
-131.0414518843288
 31
0.0
  0
LINE
  5
306C
330
2F9D
100
AcDbEntity
  8
AM0
  6
Continuous
100
AcDbLine
 10
-73.25
 20
-131.0414518843288
 30
0.0
 11
-78.8499999999999
 21
-131.0414518843288
 31
0.0
  0
LINE
  5
306D
330
2F9D
100
AcDbEntity
  8
AM0
  6
Continuous
100
AcDbLine
 10
-78.8499999999999
 20
-131.0414518843288
 30
0.0
 11
-78.8499999999999
 21
-122.9585481156737
 31
0.0
  0
LINE
  5
306E
330
2F9D
100
AcDbEntity
  8
AM0
  6
Continuous
100
AcDbLine
 10
-73.25
 20
-113.9999999999997
 30
0.0
 11
-73.25
 21
-138.9999999999997
 31
0.0
  0
LINE
  5
306F
330
2F9D
100
AcDbEntity
  8
AM0
  6
Continuous
100
AcDbLine
 10
-73.25
 20
-138.9999999999997
 30
0.0
 11
-68.25000000000091
 21
-138.9999999999997
 31
0.0
  0
LINE
  5
3070
330
2F9D
100
AcDbEntity
  8
AM0
  6
Continuous
100
AcDbLine
 10
-60.2500000000009
 20
-138.9999999999997
 30
0.0
 11
-55.25
 21
-138.9999999999997
 31
0.0
  0
LINE
  5
3071
330
2F9D
100
AcDbEntity
  8
AM0
  6
Continuous
100
AcDbLine
 10
-55.25
 20
-138.9999999999997
 30
0.0
 11
-55.25
 21
-113.9999999999997
 31
0.0
  0
LINE
  5
3072
330
2F9D
100
AcDbEntity
  8
AM0
  6
Continuous
100
AcDbLine
 10
-60.2500000000009
 20
-138.9999999999997
 30
0.0
 11
-60.2500000000009
 21
-113.9999999999997
 31
0.0
  0
LINE
  5
3073
330
2F9D
100
AcDbEntity
  8
AM0
  6
Continuous
100
AcDbLine
 10
-68.25000000000091
 20
-113.9999999999997
 30
0.0
 11
-68.25000000000091
 21
-138.9999999999997
 31
0.0
  0
LINE
  5
3074
330
2F9D
100
AcDbEntity
  8
AM0
  6
Continuous
100
AcDbLine
 10
-41.25000000000091
 20
-130.9999999999998
 30
0.0
 11
-48.8499999999999
 21
-130.9999999999998
 31
0.0
  0
LINE
  5
3075
330
2F9D
100
AcDbEntity
  8
AM0
  6
Continuous
100
AcDbLine
 10
-48.8499999999999
 20
-122.9999999999997
 30
0.0
 11
-41.25000000000091
 21
-122.9999999999997
 31
0.0
  0
LINE
  5
3076
330
2F9D
100
AcDbEntity
  8
AM0
100
AcDbLine
 10
-48.8499999999999
 20
-135.0829037686558
 30
0.0
 11
-48.8499999999999
 21
-118.9170962313467
 31
0.0
  0
LINE
  5
3077
330
2F9D
100
AcDbEntity
  8
AM0
100
AcDbLine
 10
-73.25
 20
-122.9999999999997
 30
0.0
 11
-78.8499999999999
 21
-122.9999999999997
 31
0.0
  0
LINE
  5
3078
330
2F9D
100
AcDbEntity
  8
AM0
  6
ACAD_ISO02W100
100
AcDbLine
 10
-73.25
 20
-122.9999999999997
 30
0.0
 11
-48.8499999999999
 21
-122.9999999999997
 31
0.0
  0
LINE
  5
3079
330
2F9D
100
AcDbEntity
  8
AM0
100
AcDbLine
 10
-73.25
 20
-113.9999999999997
 30
0.0
 11
-68.25000000000091
 21
-113.9999999999997
 31
0.0
  0
LINE
  5
307A
330
2F9D
100
AcDbEntity
  8
AM0
100
AcDbLine
 10
-60.2500000000009
 20
-113.9999999999997
 30
0.0
 11
-55.25
 21
-113.9999999999997
 31
0.0
  0
LINE
  5
307B
330
2F9D
100
AcDbEntity
  8
AM0
100
AcDbLine
 10
-60.25
 20
149.0000000000002
 30
0.0
 11
-60.2500000000009
 21
-148.9999999999997
 31
0.0
  0
LINE
  5
307C
330
2F9D
100
AcDbEntity
  8
AM0
100
AcDbLine
 10
60.25000000000023
 20
109.0000000000011
 30
0.0
 11
60.25000000000023
 21
149.0000000000002
 31
0.0
  0
LINE
  5
307D
330
2F9D
100
AcDbEntity
  8
AM0
100
AcDbLine
 10
60.25000000000023
 20
-108.9999999999998
 30
0.0
 11
60.25000000000023
 21
-148.9999999999997
 31
0.0
  0
LINE
  5
307E
330
2F9D
100
AcDbEntity
  8
AM0
100
AcDbLine
 10
68.25000000000023
 20
109.0000000000011
 30
0.0
 11
68.25000000000023
 21
149.0000000000002
 31
0.0
  0
LINE
  5
307F
330
2F9D
100
AcDbEntity
  8
AM0
100
AcDbLine
 10
188.7500000000002
 20
114.0000000000002
 30
0.0
 11
68.25000000000023
 21
114.0000000000002
 31
0.0
  0
LINE
  5
3080
330
2F9D
100
AcDbEntity
  8
AM0
100
AcDbLine
 10
68.25000000000023
 20
-108.9999999999998
 30
0.0
 11
68.25000000000023
 21
-148.9999999999997
 31
0.0
  0
LINE
  5
3081
330
2F9D
100
AcDbEntity
  8
AM0
100
AcDbLine
 10
188.7500000000002
 20
-113.9999999999997
 30
0.0
 11
68.25000000000023
 21
-113.9999999999997
 31
0.0
  0
CIRCLE
  5
3082
330
2F9D
100
AcDbEntity
  8
AM0
100
AcDbCircle
 10
128.5000000000011
 20
137.0000000000011
 30
0.0
 40
4.5
  0
CIRCLE
  5
3083
330
2F9D
100
AcDbEntity
  8
AM0
100
AcDbCircle
 10
128.5000000000011
 20
-136.9999999999997
 30
0.0
 40
4.5
  0
LINE
  5
3084
330
2F9D
100
AcDbEntity
  8
AM0
100
AcDbLine
 10
60.25000000000023
 20
-108.9999999999998
 30
0.0
 11
60.25000000000023
 21
-148.9999999999997
 31
0.0
  0
LINE
  5
3085
330
2F9D
100
AcDbEntity
  8
AM0
  6
Continuous
100
AcDbLine
 10
87.24999999999909
 20
131.0000000000011
 30
0.0
 11
87.24999999999909
 21
123.0000000000002
 31
0.0
  0
LINE
  5
3086
330
2F9D
100
AcDbEntity
  8
AM0
  6
ACAD_ISO02W100
100
AcDbLine
 10
55.25000000000114
 20
131.0414518843302
 30
0.0
 11
79.65000000000123
 21
131.0000000000011
 31
0.0
  0
LINE
  5
3087
330
2F9D
100
AcDbEntity
  8
AM0
  6
Continuous
100
AcDbLine
 10
73.25000000000113
 20
135.0829037686562
 30
0.0
 11
79.65000000000123
 21
135.0829037686562
 31
0.0
  0
LINE
  5
3088
330
2F9D
100
AcDbEntity
  8
AM0
  6
Continuous
100
AcDbLine
 10
73.25000000000113
 20
118.9170962313474
 30
0.0
 11
79.65000000000123
 21
118.9170962313474
 31
0.0
  0
LINE
  5
3089
330
2F9D
100
AcDbEntity
  8
AM0
  6
Continuous
100
AcDbLine
 10
49.65000000000123
 20
122.9585481156753
 30
0.0
 11
49.65000000000123
 21
118.9170962313474
 31
0.0
  0
LINE
  5
308A
330
2F9D
100
AcDbEntity
  8
AM0
  6
Continuous
100
AcDbLine
 10
55.25000000000114
 20
118.9170962313474
 30
0.0
 11
49.65000000000123
 21
118.9170962313474
 31
0.0
  0
LINE
  5
308B
330
2F9D
100
AcDbEntity
  8
AM0
  6
Continuous
100
AcDbLine
 10
49.65000000000123
 20
118.9170962313474
 30
0.0
 11
49.65000000000123
 21
122.9585481156753
 31
0.0
  0
LINE
  5
308C
330
2F9D
100
AcDbEntity
  8
AM0
  6
Continuous
100
AcDbLine
 10
55.25000000000114
 20
135.0829037686562
 30
0.0
 11
49.65000000000123
 21
135.0829037686562
 31
0.0
  0
LINE
  5
308D
330
2F9D
100
AcDbEntity
  8
AM0
  6
Continuous
100
AcDbLine
 10
49.65000000000123
 20
135.0829037686562
 30
0.0
 11
49.65000000000123
 21
131.0414518843302
 31
0.0
  0
LINE
  5
308E
330
2F9D
100
AcDbEntity
  8
AM0
  6
Continuous
100
AcDbLine
 10
55.25000000000114
 20
131.0414518843302
 30
0.0
 11
49.65000000000123
 21
131.0414518843302
 31
0.0
  0
LINE
  5
308F
330
2F9D
100
AcDbEntity
  8
AM0
  6
Continuous
100
AcDbLine
 10
49.65000000000123
 20
131.0414518843302
 30
0.0
 11
49.65000000000123
 21
122.9585481156753
 31
0.0
  0
LINE
  5
3090
330
2F9D
100
AcDbEntity
  8
AM0
  6
Continuous
100
AcDbLine
 10
55.25000000000114
 20
114.0000000000002
 30
0.0
 11
55.25000000000114
 21
139.0000000000002
 31
0.0
  0
LINE
  5
3091
330
2F9D
100
AcDbEntity
  8
AM0
  6
Continuous
100
AcDbLine
 10
55.25000000000114
 20
139.0000000000002
 30
0.0
 11
60.25000000000023
 21
139.0000000000002
 31
0.0
  0
LINE
  5
3092
330
2F9D
100
AcDbEntity
  8
AM0
  6
Continuous
100
AcDbLine
 10
68.25000000000023
 20
139.0000000000002
 30
0.0
 11
73.25000000000113
 21
139.0000000000002
 31
0.0
  0
LINE
  5
3093
330
2F9D
100
AcDbEntity
  8
AM0
  6
Continuous
100
AcDbLine
 10
73.25000000000113
 20
139.0000000000002
 30
0.0
 11
73.25000000000113
 21
114.0000000000002
 31
0.0
  0
LINE
  5
3094
330
2F9D
100
AcDbEntity
  8
AM0
  6
Continuous
100
AcDbLine
 10
68.25000000000023
 20
139.0000000000002
 30
0.0
 11
68.25000000000023
 21
114.0000000000002
 31
0.0
  0
LINE
  5
3095
330
2F9D
100
AcDbEntity
  8
AM0
  6
Continuous
100
AcDbLine
 10
60.25000000000023
 20
114.0000000000002
 30
0.0
 11
60.25000000000023
 21
139.0000000000002
 31
0.0
  0
LINE
  5
3096
330
2F9D
100
AcDbEntity
  8
AM0
  6
Continuous
100
AcDbLine
 10
87.24999999999909
 20
131.0000000000011
 30
0.0
 11
79.65000000000123
 21
131.0000000000011
 31
0.0
  0
LINE
  5
3097
330
2F9D
100
AcDbEntity
  8
AM0
  6
Continuous
100
AcDbLine
 10
79.65000000000123
 20
123.0000000000002
 30
0.0
 11
87.24999999999909
 21
123.0000000000002
 31
0.0
  0
LINE
  5
3098
330
2F9D
100
AcDbEntity
  8
AM0
100
AcDbLine
 10
79.65000000000123
 20
135.0829037686562
 30
0.0
 11
79.65000000000123
 21
118.9170962313474
 31
0.0
  0
LINE
  5
3099
330
2F9D
100
AcDbEntity
  8
AM0
100
AcDbLine
 10
55.25000000000114
 20
123.0000000000002
 30
0.0
 11
49.65000000000123
 21
123.0000000000002
 31
0.0
  0
LINE
  5
309A
330
2F9D
100
AcDbEntity
  8
AM0
  6
ACAD_ISO02W100
100
AcDbLine
 10
55.25000000000114
 20
123.0000000000002
 30
0.0
 11
79.65000000000123
 21
123.0000000000002
 31
0.0
  0
LINE
  5
309B
330
2F9D
100
AcDbEntity
  8
AM0
100
AcDbLine
 10
55.25000000000114
 20
114.0000000000002
 30
0.0
 11
60.25000000000023
 21
114.0000000000002
 31
0.0
  0
LINE
  5
309C
330
2F9D
100
AcDbEntity
  8
AM0
100
AcDbLine
 10
68.25000000000023
 20
114.0000000000002
 30
0.0
 11
73.25000000000113
 21
114.0000000000002
 31
0.0
  0
LINE
  5
309D
330
2F9D
100
AcDbEntity
  8
AM0
100
AcDbLine
 10
68.25000000000023
 20
-108.9999999999998
 30
0.0
 11
68.25000000000023
 21
-148.9999999999997
 31
0.0
  0
LINE
  5
309E
330
2F9D
100
AcDbEntity
  8
AM0
100
AcDbLine
 10
60.25000000000023
 20
149.0000000000002
 30
0.0
 11
60.25000000000023
 21
-148.9999999999997
 31
0.0
  0
LINE
  5
309F
330
2F9D
100
AcDbEntity
  8
AM0
  6
Continuous
100
AcDbLine
 10
87.24999999999909
 20
-130.9999999999998
 30
0.0
 11
87.24999999999909
 21
-122.9999999999997
 31
0.0
  0
LINE
  5
30A0
330
2F9D
100
AcDbEntity
  8
AM0
  6
ACAD_ISO02W100
100
AcDbLine
 10
55.25000000000114
 20
-131.0414518843288
 30
0.0
 11
79.65000000000123
 21
-130.9999999999998
 31
0.0
  0
LINE
  5
30A1
330
2F9D
100
AcDbEntity
  8
AM0
  6
Continuous
100
AcDbLine
 10
73.25000000000113
 20
-135.0829037686558
 30
0.0
 11
79.65000000000123
 21
-135.0829037686558
 31
0.0
  0
LINE
  5
30A2
330
2F9D
100
AcDbEntity
  8
AM0
  6
Continuous
100
AcDbLine
 10
73.25000000000113
 20
-118.9170962313467
 30
0.0
 11
79.65000000000123
 21
-118.9170962313467
 31
0.0
  0
LINE
  5
30A3
330
2F9D
100
AcDbEntity
  8
AM0
  6
Continuous
100
AcDbLine
 10
49.65000000000123
 20
-122.9585481156737
 30
0.0
 11
49.65000000000123
 21
-118.9170962313467
 31
0.0
  0
LINE
  5
30A4
330
2F9D
100
AcDbEntity
  8
AM0
  6
Continuous
100
AcDbLine
 10
55.25000000000114
 20
-118.9170962313467
 30
0.0
 11
49.65000000000123
 21
-118.9170962313467
 31
0.0
  0
LINE
  5
30A5
330
2F9D
100
AcDbEntity
  8
AM0
  6
Continuous
100
AcDbLine
 10
49.65000000000123
 20
-118.9170962313467
 30
0.0
 11
49.65000000000123
 21
-122.9585481156737
 31
0.0
  0
LINE
  5
30A6
330
2F9D
100
AcDbEntity
  8
AM0
  6
Continuous
100
AcDbLine
 10
55.25000000000114
 20
-135.0829037686558
 30
0.0
 11
49.65000000000123
 21
-135.0829037686558
 31
0.0
  0
LINE
  5
30A7
330
2F9D
100
AcDbEntity
  8
AM0
  6
Continuous
100
AcDbLine
 10
49.65000000000123
 20
-135.0829037686558
 30
0.0
 11
49.65000000000123
 21
-131.0414518843288
 31
0.0
  0
LINE
  5
30A8
330
2F9D
100
AcDbEntity
  8
AM0
  6
Continuous
100
AcDbLine
 10
55.25000000000114
 20
-131.0414518843288
 30
0.0
 11
49.65000000000123
 21
-131.0414518843288
 31
0.0
  0
LINE
  5
30A9
330
2F9D
100
AcDbEntity
  8
AM0
  6
Continuous
100
AcDbLine
 10
49.65000000000123
 20
-131.0414518843288
 30
0.0
 11
49.65000000000123
 21
-122.9585481156737
 31
0.0
  0
LINE
  5
30AA
330
2F9D
100
AcDbEntity
  8
AM0
  6
Continuous
100
AcDbLine
 10
55.25000000000114
 20
-113.9999999999997
 30
0.0
 11
55.25000000000114
 21
-138.9999999999997
 31
0.0
  0
LINE
  5
30AB
330
2F9D
100
AcDbEntity
  8
AM0
  6
Continuous
100
AcDbLine
 10
55.25000000000114
 20
-138.9999999999997
 30
0.0
 11
60.25000000000023
 21
-138.9999999999997
 31
0.0
  0
LINE
  5
30AC
330
2F9D
100
AcDbEntity
  8
AM0
  6
Continuous
100
AcDbLine
 10
68.25000000000023
 20
-138.9999999999997
 30
0.0
 11
73.25000000000113
 21
-138.9999999999997
 31
0.0
  0
LINE
  5
30AD
330
2F9D
100
AcDbEntity
  8
AM0
  6
Continuous
100
AcDbLine
 10
73.25000000000113
 20
-138.9999999999997
 30
0.0
 11
73.25000000000113
 21
-113.9999999999997
 31
0.0
  0
LINE
  5
30AE
330
2F9D
100
AcDbEntity
  8
AM0
  6
Continuous
100
AcDbLine
 10
68.25000000000023
 20
-138.9999999999997
 30
0.0
 11
68.25000000000023
 21
-113.9999999999997
 31
0.0
  0
LINE
  5
30AF
330
2F9D
100
AcDbEntity
  8
AM0
  6
Continuous
100
AcDbLine
 10
60.25000000000023
 20
-113.9999999999997
 30
0.0
 11
60.25000000000023
 21
-138.9999999999997
 31
0.0
  0
LINE
  5
30B0
330
2F9D
100
AcDbEntity
  8
AM0
  6
Continuous
100
AcDbLine
 10
87.24999999999909
 20
-130.9999999999998
 30
0.0
 11
79.65000000000123
 21
-130.9999999999998
 31
0.0
  0
LINE
  5
30B1
330
2F9D
100
AcDbEntity
  8
AM0
  6
Continuous
100
AcDbLine
 10
79.65000000000123
 20
-122.9999999999997
 30
0.0
 11
87.24999999999909
 21
-122.9999999999997
 31
0.0
  0
LINE
  5
30B2
330
2F9D
100
AcDbEntity
  8
AM0
100
AcDbLine
 10
79.65000000000123
 20
-135.0829037686558
 30
0.0
 11
79.65000000000123
 21
-118.9170962313467
 31
0.0
  0
LINE
  5
30B3
330
2F9D
100
AcDbEntity
  8
AM0
100
AcDbLine
 10
55.25000000000114
 20
-122.9999999999997
 30
0.0
 11
49.65000000000123
 21
-122.9999999999997
 31
0.0
  0
LINE
  5
30B4
330
2F9D
100
AcDbEntity
  8
AM0
  6
ACAD_ISO02W100
100
AcDbLine
 10
55.25000000000114
 20
-122.9999999999997
 30
0.0
 11
79.65000000000123
 21
-122.9999999999997
 31
0.0
  0
LINE
  5
30B5
330
2F9D
100
AcDbEntity
  8
AM0
100
AcDbLine
 10
55.25000000000114
 20
-113.9999999999997
 30
0.0
 11
60.25000000000023
 21
-113.9999999999997
 31
0.0
  0
LINE
  5
30B6
330
2F9D
100
AcDbEntity
  8
AM0
100
AcDbLine
 10
68.25000000000023
 20
-113.9999999999997
 30
0.0
 11
73.25000000000113
 21
-113.9999999999997
 31
0.0
  0
LINE
  5
30B7
330
2F9D
100
AcDbEntity
  8
AM0
100
AcDbLine
 10
68.25000000000023
 20
149.0000000000002
 30
0.0
 11
68.25000000000023
 21
-148.9999999999997
 31
0.0
  0
LINE
  5
30B8
330
2F9D
100
AcDbEntity
  8
AM0
100
AcDbLine
 10
188.7500000000002
 20
109.0000000000011
 30
0.0
 11
188.7500000000002
 21
149.0000000000002
 31
0.0
  0
LINE
  5
30B9
330
2F9D
100
AcDbEntity
  8
AM0
100
AcDbLine
 10
188.7500000000002
 20
-108.9999999999998
 30
0.0
 11
188.7500000000002
 21
-148.9999999999997
 31
0.0
  0
LINE
  5
30BA
330
2F9D
100
AcDbEntity
  8
AM0
100
AcDbLine
 10
196.7500000000002
 20
109.0000000000011
 30
0.0
 11
196.7500000000002
 21
149.0000000000002
 31
0.0
  0
LINE
  5
30BB
330
2F9D
100
AcDbEntity
  8
AM0
100
AcDbLine
 10
317.2500000000011
 20
114.0000000000002
 30
0.0
 11
196.7500000000002
 21
114.0000000000002
 31
0.0
  0
LINE
  5
30BC
330
2F9D
100
AcDbEntity
  8
AM0
100
AcDbLine
 10
196.7500000000002
 20
-108.9999999999998
 30
0.0
 11
196.7500000000002
 21
-148.9999999999997
 31
0.0
  0
LINE
  5
30BD
330
2F9D
100
AcDbEntity
  8
AM0
100
AcDbLine
 10
317.2500000000011
 20
-113.9999999999997
 30
0.0
 11
196.7500000000002
 21
-113.9999999999997
 31
0.0
  0
CIRCLE
  5
30BE
330
2F9D
100
AcDbEntity
  8
AM0
100
AcDbCircle
 10
257.0000000000011
 20
137.0000000000011
 30
0.0
 40
4.5
  0
CIRCLE
  5
30BF
330
2F9D
100
AcDbEntity
  8
AM0
100
AcDbCircle
 10
257.0000000000011
 20
-136.9999999999997
 30
0.0
 40
4.5
  0
LINE
  5
30C0
330
2F9D
100
AcDbEntity
  8
AM0
100
AcDbLine
 10
188.7500000000002
 20
-108.9999999999998
 30
0.0
 11
188.7500000000002
 21
-148.9999999999997
 31
0.0
  0
LINE
  5
30C1
330
2F9D
100
AcDbEntity
  8
AM0
  6
Continuous
100
AcDbLine
 10
215.7500000000002
 20
131.0000000000011
 30
0.0
 11
215.7500000000002
 21
123.0000000000002
 31
0.0
  0
LINE
  5
30C2
330
2F9D
100
AcDbEntity
  8
AM0
  6
ACAD_ISO02W100
100
AcDbLine
 10
183.750000000002
 20
131.0414518843302
 30
0.0
 11
208.1500000000012
 21
131.0000000000011
 31
0.0
  0
LINE
  5
30C3
330
2F9D
100
AcDbEntity
  8
AM0
  6
Continuous
100
AcDbLine
 10
201.750000000002
 20
135.0829037686562
 30
0.0
 11
208.1500000000012
 21
135.0829037686562
 31
0.0
  0
LINE
  5
30C4
330
2F9D
100
AcDbEntity
  8
AM0
  6
Continuous
100
AcDbLine
 10
201.750000000002
 20
118.9170962313474
 30
0.0
 11
208.1500000000012
 21
118.9170962313474
 31
0.0
  0
LINE
  5
30C5
330
2F9D
100
AcDbEntity
  8
AM0
  6
Continuous
100
AcDbLine
 10
178.1500000000001
 20
122.9585481156753
 30
0.0
 11
178.1500000000001
 21
118.9170962313474
 31
0.0
  0
LINE
  5
30C6
330
2F9D
100
AcDbEntity
  8
AM0
  6
Continuous
100
AcDbLine
 10
183.750000000002
 20
118.9170962313474
 30
0.0
 11
178.1500000000001
 21
118.9170962313474
 31
0.0
  0
LINE
  5
30C7
330
2F9D
100
AcDbEntity
  8
AM0
  6
Continuous
100
AcDbLine
 10
178.1500000000001
 20
118.9170962313474
 30
0.0
 11
178.1500000000001
 21
122.9585481156753
 31
0.0
  0
LINE
  5
30C8
330
2F9D
100
AcDbEntity
  8
AM0
  6
Continuous
100
AcDbLine
 10
183.750000000002
 20
135.0829037686562
 30
0.0
 11
178.1500000000001
 21
135.0829037686562
 31
0.0
  0
LINE
  5
30C9
330
2F9D
100
AcDbEntity
  8
AM0
  6
Continuous
100
AcDbLine
 10
178.1500000000001
 20
135.0829037686562
 30
0.0
 11
178.1500000000001
 21
131.0414518843302
 31
0.0
  0
LINE
  5
30CA
330
2F9D
100
AcDbEntity
  8
AM0
  6
Continuous
100
AcDbLine
 10
183.750000000002
 20
131.0414518843302
 30
0.0
 11
178.1500000000001
 21
131.0414518843302
 31
0.0
  0
LINE
  5
30CB
330
2F9D
100
AcDbEntity
  8
AM0
  6
Continuous
100
AcDbLine
 10
178.1500000000001
 20
131.0414518843302
 30
0.0
 11
178.1500000000001
 21
122.9585481156753
 31
0.0
  0
LINE
  5
30CC
330
2F9D
100
AcDbEntity
  8
AM0
  6
Continuous
100
AcDbLine
 10
183.750000000002
 20
114.0000000000002
 30
0.0
 11
183.750000000002
 21
139.0000000000002
 31
0.0
  0
LINE
  5
30CD
330
2F9D
100
AcDbEntity
  8
AM0
  6
Continuous
100
AcDbLine
 10
183.750000000002
 20
139.0000000000002
 30
0.0
 11
188.7500000000002
 21
139.0000000000002
 31
0.0
  0
LINE
  5
30CE
330
2F9D
100
AcDbEntity
  8
AM0
  6
Continuous
100
AcDbLine
 10
196.7500000000002
 20
139.0000000000002
 30
0.0
 11
201.750000000002
 21
139.0000000000002
 31
0.0
  0
LINE
  5
30CF
330
2F9D
100
AcDbEntity
  8
AM0
  6
Continuous
100
AcDbLine
 10
201.750000000002
 20
139.0000000000002
 30
0.0
 11
201.750000000002
 21
114.0000000000002
 31
0.0
  0
LINE
  5
30D0
330
2F9D
100
AcDbEntity
  8
AM0
  6
Continuous
100
AcDbLine
 10
196.7500000000002
 20
139.0000000000002
 30
0.0
 11
196.7500000000002
 21
114.0000000000002
 31
0.0
  0
LINE
  5
30D1
330
2F9D
100
AcDbEntity
  8
AM0
  6
Continuous
100
AcDbLine
 10
188.7500000000002
 20
114.0000000000002
 30
0.0
 11
188.7500000000002
 21
139.0000000000002
 31
0.0
  0
LINE
  5
30D2
330
2F9D
100
AcDbEntity
  8
AM0
  6
Continuous
100
AcDbLine
 10
215.7500000000002
 20
131.0000000000011
 30
0.0
 11
208.1500000000012
 21
131.0000000000011
 31
0.0
  0
LINE
  5
30D3
330
2F9D
100
AcDbEntity
  8
AM0
  6
Continuous
100
AcDbLine
 10
208.1500000000012
 20
123.0000000000002
 30
0.0
 11
215.7500000000002
 21
123.0000000000002
 31
0.0
  0
LINE
  5
30D4
330
2F9D
100
AcDbEntity
  8
AM0
100
AcDbLine
 10
208.1500000000012
 20
135.0829037686562
 30
0.0
 11
208.1500000000012
 21
118.9170962313474
 31
0.0
  0
LINE
  5
30D5
330
2F9D
100
AcDbEntity
  8
AM0
100
AcDbLine
 10
183.750000000002
 20
123.0000000000002
 30
0.0
 11
178.1500000000001
 21
123.0000000000002
 31
0.0
  0
LINE
  5
30D6
330
2F9D
100
AcDbEntity
  8
AM0
  6
ACAD_ISO02W100
100
AcDbLine
 10
183.750000000002
 20
123.0000000000002
 30
0.0
 11
208.1500000000012
 21
123.0000000000002
 31
0.0
  0
LINE
  5
30D7
330
2F9D
100
AcDbEntity
  8
AM0
100
AcDbLine
 10
183.750000000002
 20
114.0000000000002
 30
0.0
 11
188.7500000000002
 21
114.0000000000002
 31
0.0
  0
LINE
  5
30D8
330
2F9D
100
AcDbEntity
  8
AM0
100
AcDbLine
 10
196.7500000000002
 20
114.0000000000002
 30
0.0
 11
201.750000000002
 21
114.0000000000002
 31
0.0
  0
LINE
  5
30D9
330
2F9D
100
AcDbEntity
  8
AM0
100
AcDbLine
 10
196.7500000000002
 20
-108.9999999999998
 30
0.0
 11
196.7500000000002
 21
-148.9999999999997
 31
0.0
  0
LINE
  5
30DA
330
2F9D
100
AcDbEntity
  8
AM0
100
AcDbLine
 10
188.7500000000002
 20
149.0000000000002
 30
0.0
 11
188.7500000000002
 21
-148.9999999999997
 31
0.0
  0
LINE
  5
30DB
330
2F9D
100
AcDbEntity
  8
AM0
  6
Continuous
100
AcDbLine
 10
215.7500000000002
 20
-130.9999999999998
 30
0.0
 11
215.7500000000002
 21
-122.9999999999997
 31
0.0
  0
LINE
  5
30DC
330
2F9D
100
AcDbEntity
  8
AM0
  6
ACAD_ISO02W100
100
AcDbLine
 10
183.750000000002
 20
-131.0414518843288
 30
0.0
 11
208.1500000000012
 21
-130.9999999999998
 31
0.0
  0
LINE
  5
30DD
330
2F9D
100
AcDbEntity
  8
AM0
  6
Continuous
100
AcDbLine
 10
201.750000000002
 20
-135.0829037686558
 30
0.0
 11
208.1500000000012
 21
-135.0829037686558
 31
0.0
  0
LINE
  5
30DE
330
2F9D
100
AcDbEntity
  8
AM0
  6
Continuous
100
AcDbLine
 10
201.750000000002
 20
-118.9170962313467
 30
0.0
 11
208.1500000000012
 21
-118.9170962313467
 31
0.0
  0
LINE
  5
30DF
330
2F9D
100
AcDbEntity
  8
AM0
  6
Continuous
100
AcDbLine
 10
178.1500000000001
 20
-122.9585481156737
 30
0.0
 11
178.1500000000001
 21
-118.9170962313467
 31
0.0
  0
LINE
  5
30E0
330
2F9D
100
AcDbEntity
  8
AM0
  6
Continuous
100
AcDbLine
 10
183.750000000002
 20
-118.9170962313467
 30
0.0
 11
178.1500000000001
 21
-118.9170962313467
 31
0.0
  0
LINE
  5
30E1
330
2F9D
100
AcDbEntity
  8
AM0
  6
Continuous
100
AcDbLine
 10
178.1500000000001
 20
-118.9170962313467
 30
0.0
 11
178.1500000000001
 21
-122.9585481156737
 31
0.0
  0
LINE
  5
30E2
330
2F9D
100
AcDbEntity
  8
AM0
  6
Continuous
100
AcDbLine
 10
183.750000000002
 20
-135.0829037686558
 30
0.0
 11
178.1500000000001
 21
-135.0829037686558
 31
0.0
  0
LINE
  5
30E3
330
2F9D
100
AcDbEntity
  8
AM0
  6
Continuous
100
AcDbLine
 10
178.1500000000001
 20
-135.0829037686558
 30
0.0
 11
178.1500000000001
 21
-131.0414518843288
 31
0.0
  0
LINE
  5
30E4
330
2F9D
100
AcDbEntity
  8
AM0
  6
Continuous
100
AcDbLine
 10
183.750000000002
 20
-131.0414518843288
 30
0.0
 11
178.1500000000001
 21
-131.0414518843288
 31
0.0
  0
LINE
  5
30E5
330
2F9D
100
AcDbEntity
  8
AM0
  6
Continuous
100
AcDbLine
 10
178.1500000000001
 20
-131.0414518843288
 30
0.0
 11
178.1500000000001
 21
-122.9585481156737
 31
0.0
  0
LINE
  5
30E6
330
2F9D
100
AcDbEntity
  8
AM0
  6
Continuous
100
AcDbLine
 10
183.750000000002
 20
-113.9999999999997
 30
0.0
 11
183.750000000002
 21
-138.9999999999997
 31
0.0
  0
LINE
  5
30E7
330
2F9D
100
AcDbEntity
  8
AM0
  6
Continuous
100
AcDbLine
 10
183.750000000002
 20
-138.9999999999997
 30
0.0
 11
188.7500000000002
 21
-138.9999999999997
 31
0.0
  0
LINE
  5
30E8
330
2F9D
100
AcDbEntity
  8
AM0
  6
Continuous
100
AcDbLine
 10
196.7500000000002
 20
-138.9999999999997
 30
0.0
 11
201.750000000002
 21
-138.9999999999997
 31
0.0
  0
LINE
  5
30E9
330
2F9D
100
AcDbEntity
  8
AM0
  6
Continuous
100
AcDbLine
 10
201.750000000002
 20
-138.9999999999997
 30
0.0
 11
201.750000000002
 21
-113.9999999999997
 31
0.0
  0
LINE
  5
30EA
330
2F9D
100
AcDbEntity
  8
AM0
  6
Continuous
100
AcDbLine
 10
196.7500000000002
 20
-138.9999999999997
 30
0.0
 11
196.7500000000002
 21
-113.9999999999997
 31
0.0
  0
LINE
  5
30EB
330
2F9D
100
AcDbEntity
  8
AM0
  6
Continuous
100
AcDbLine
 10
188.7500000000002
 20
-113.9999999999997
 30
0.0
 11
188.7500000000002
 21
-138.9999999999997
 31
0.0
  0
LINE
  5
30EC
330
2F9D
100
AcDbEntity
  8
AM0
  6
Continuous
100
AcDbLine
 10
215.7500000000002
 20
-130.9999999999998
 30
0.0
 11
208.1500000000012
 21
-130.9999999999998
 31
0.0
  0
LINE
  5
30ED
330
2F9D
100
AcDbEntity
  8
AM0
  6
Continuous
100
AcDbLine
 10
208.1500000000012
 20
-122.9999999999997
 30
0.0
 11
215.7500000000002
 21
-122.9999999999997
 31
0.0
  0
LINE
  5
30EE
330
2F9D
100
AcDbEntity
  8
AM0
100
AcDbLine
 10
208.1500000000012
 20
-135.0829037686558
 30
0.0
 11
208.1500000000012
 21
-118.9170962313467
 31
0.0
  0
LINE
  5
30EF
330
2F9D
100
AcDbEntity
  8
AM0
100
AcDbLine
 10
183.750000000002
 20
-122.9999999999997
 30
0.0
 11
178.1500000000001
 21
-122.9999999999997
 31
0.0
  0
LINE
  5
30F0
330
2F9D
100
AcDbEntity
  8
AM0
  6
ACAD_ISO02W100
100
AcDbLine
 10
183.750000000002
 20
-122.9999999999997
 30
0.0
 11
208.1500000000012
 21
-122.9999999999997
 31
0.0
  0
LINE
  5
30F1
330
2F9D
100
AcDbEntity
  8
AM0
100
AcDbLine
 10
183.750000000002
 20
-113.9999999999997
 30
0.0
 11
188.7500000000002
 21
-113.9999999999997
 31
0.0
  0
LINE
  5
30F2
330
2F9D
100
AcDbEntity
  8
AM0
100
AcDbLine
 10
196.7500000000002
 20
-113.9999999999997
 30
0.0
 11
201.750000000002
 21
-113.9999999999997
 31
0.0
  0
LINE
  5
30F3
330
2F9D
100
AcDbEntity
  8
AM0
100
AcDbLine
 10
196.7500000000002
 20
149.0000000000002
 30
0.0
 11
196.7500000000002
 21
-148.9999999999997
 31
0.0
  0
LWPOLYLINE
  5
30F4
330
2F9D
100
AcDbEntity
  8
AM0
100
AcDbPolyline
 90
        4
 70
     1
 43
0.0
 10
-317.2500000000009
 20
-108.9999999999998
 10
-196.7500000000009
 20
-108.9999999999998
 10
-196.7500000000009
 20
109.0000000000011
 10
-317.2500000000009
 20
109.0000000000011
  0
LWPOLYLINE
  5
30F5
330
2F9D
100
AcDbEntity
  8
AM0
100
AcDbPolyline
 90
        4
 70
     1
 43
0.0
 10
-188.7500000000009
 20
-108.9999999999998
 10
-68.25000000000091
 20
-108.9999999999998
 10
-68.25000000000091
 20
109.0000000000011
 10
-188.7500000000009
 20
109.0000000000011
  0
LWPOLYLINE
  5
30F6
330
2F9D
100
AcDbEntity
  8
AM0
100
AcDbPolyline
 90
        4
 70
     1
 43
0.0
 10
-60.25
 20
-108.9999999999998
 10
60.25000000000023
 20
-108.9999999999998
 10
60.25000000000023
 20
109.0000000000011
 10
-60.25
 20
109.0000000000011
  0
LWPOLYLINE
  5
30F7
330
2F9D
100
AcDbEntity
  8
AM0
100
AcDbPolyline
 90
        4
 70
     1
 43
0.0
 10
68.25000000000023
 20
-108.9999999999998
 10
188.7500000000002
 20
-108.9999999999998
 10
188.7500000000002
 20
109.0000000000011
 10
68.25000000000023
 20
109.0000000000011
  0
LWPOLYLINE
  5
30F8
330
2F9D
100
AcDbEntity
  8
AM0
100
AcDbPolyline
 90
        4
 70
     1
 43
0.0
 10
196.7500000000011
 20
-108.9999999999998
 10
317.2500000000011
 20
-108.9999999999998
 10
317.2500000000011
 20
109.0000000000011
 10
196.7500000000011
 20
109.0000000000011
  0
LINE
  5
30F9
330
2F9D
100
AcDbEntity
  8
AM_5
100
AcDbLine
 10
-317.2500000000009
 20
-151.9999999999997
 30
0.0
 11
-317.2500000000009
 21
-192.7652192819953
 31
0.0
  0
LINE
  5
30FA
330
2F9D
100
AcDbEntity
  8
AM_5
100
AcDbLine
 10
-196.7500000000009
 20
-151.9999999999997
 30
0.0
 11
-196.7500000000009
 21
-192.7652192819953
 31
0.0
  0
LINE
  5
30FB
330
2F9D
100
AcDbEntity
  8
AM_5
100
AcDbLine
 10
-309.7500000000009
 20
-189.7652192819953
 30
0.0
 11
-204.2500000000009
 21
-189.7652192819953
 31
0.0
  0
LINE
  5
30FC
330
2F9D
100
AcDbEntity
  8
AM_5
100
AcDbLine
 10
-196.7500000000009
 20
-189.7652192819953
 30
0.0
 11
-66.5000000000009
 21
-189.7652192819953
 31
0.0
  0
SOLID
  5
30FD
330
2F9D
100
AcDbEntity
  8
AM_5
100
AcDbTrace
 10
-309.7500000000009
 20
-188.5152192819953
 30
0.0
 11
-309.7500000000009
 21
-191.0152192819953
 31
0.0
 12
-317.2500000000009
 22
-189.7652192819953
 32
0.0
 13
-317.2500000000009
 23
-189.7652192819953
 33
0.0
  0
SOLID
  5
30FE
330
2F9D
100
AcDbEntity
  8
AM_5
100
AcDbTrace
 10
-204.2500000000009
 20
-188.5152192819953
 30
0.0
 11
-204.2500000000009
 21
-191.0152192819953
 31
0.0
 12
-196.7500000000009
 22
-189.7652192819953
 32
0.0
 13
-196.7500000000009
 23
-189.7652192819953
 33
0.0
  0
MTEXT
  5
30FF
330
2F9D
100
AcDbEntity
  8
AM_5
 62
     2
100
AcDbMText
 10
-127.8750000000009
 20
-180.0152192819953
 30
0.0
 40
10.5
 41
0.0
 71
     5
 72
     1
  1
120.5 [4.744"]
 73
     1
 44
1.0
1001
ACAD
1000
MTEXTBEGIN
1070
    73
1070
     1
1070
    44
1040
1.0
1070
    74
1070
     0
1000
MTEXTEND
  0
LINE
  5
3100
330
2F9D
100
AcDbEntity
  8
AM_5
100
AcDbLine
 10
-357.2500000000009
 20
-151.9999999999997
 30
0.0
 11
-357.2500000000009
 21
-227.9558883878737
 31
0.0
  0
LINE
  5
3101
330
2F9D
100
AcDbEntity
  8
AM_5
100
AcDbLine
 10
357.2500000000002
 20
-152.0
 30
0.0
 11
357.2500000000002
 21
-227.9558883878737
 31
0.0
  0
LINE
  5
3102
330
2F9D
100
AcDbEntity
  8
AM_5
100
AcDbLine
 10
-349.7500000000009
 20
-224.9558883878738
 30
0.0
 11
349.7500000000002
 21
-224.9558883878738
 31
0.0
  0
SOLID
  5
3103
330
2F9D
100
AcDbEntity
  8
AM_5
100
AcDbTrace
 10
-349.7500000000009
 20
-223.7058883878737
 30
0.0
 11
-349.7500000000009
 21
-226.2058883878737
 31
0.0
 12
-357.2500000000009
 22
-224.9558883878738
 32
0.0
 13
-357.2500000000009
 23
-224.9558883878738
 33
0.0
  0
SOLID
  5
3104
330
2F9D
100
AcDbEntity
  8
AM_5
100
AcDbTrace
 10
349.7500000000002
 20
-223.7058883878737
 30
0.0
 11
349.7500000000002
 21
-226.2058883878737
 31
0.0
 12
357.2500000000002
 22
-224.9558883878738
 32
0.0
 13
357.2500000000002
 23
-224.9558883878738
 33
0.0
  0
MTEXT
  5
3105
330
2F9D
100
AcDbEntity
  8
AM_5
 62
     2
100
AcDbMText
 10
-0.0000000000004547
 20
-215.2058883878738
 30
0.0
 40
10.5
 41
0.0
 71
     5
 72
     1
  1
714.5 [28.130"]
 73
     1
 44
1.0
1001
ACAD
1000
MTEXTBEGIN
1070
    73
1070
     1
1070
    44
1040
1.0
1070
    74
1070
     0
1000
MTEXTEND
  0
LINE
  5
3106
330
2F9D
100
AcDbEntity
  8
AM_5
100
AcDbLine
 10
-320.2500000000009
 20
-108.9999999999998
 30
0.0
 11
-382.2980338094597
 21
-108.9999999999998
 31
0.0
  0
LINE
  5
3107
330
2F9D
100
AcDbEntity
  8
AM_5
100
AcDbLine
 10
-320.2500000000009
 20
109.0000000000011
 30
0.0
 11
-382.2980338094597
 21
109.0000000000011
 31
0.0
  0
LINE
  5
3108
330
2F9D
100
AcDbEntity
  8
AM_5
100
AcDbLine
 10
-379.2980338094596
 20
-101.4999999999997
 30
0.0
 11
-379.2980338094596
 21
101.5000000000011
 31
0.0
  0
SOLID
  5
3109
330
2F9D
100
AcDbEntity
  8
AM_5
100
AcDbTrace
 10
-380.5480338094596
 20
-101.4999999999997
 30
0.0
 11
-378.0480338094597
 21
-101.4999999999997
 31
0.0
 12
-379.2980338094596
 22
-108.9999999999998
 32
0.0
 13
-379.2980338094596
 23
-108.9999999999998
 33
0.0
  0
SOLID
  5
310A
330
2F9D
100
AcDbEntity
  8
AM_5
100
AcDbTrace
 10
-380.5480338094596
 20
101.5000000000011
 30
0.0
 11
-378.0480338094594
 21
101.5000000000011
 31
0.0
 12
-379.2980338094596
 22
109.0000000000011
 32
0.0
 13
-379.2980338094596
 23
109.0000000000011
 33
0.0
  0
MTEXT
  5
310B
330
2F9D
100
AcDbEntity
  8
AM_5
 62
     2
100
AcDbMText
 10
-389.0480338094599
 20
0.0000000000009095
 30
0.0
 40
10.5
 41
0.0
 71
     5
 72
     1
  1
218 [8.583"]
 11
0.0000000000000001
 21
1.0
 31
0.0
 73
     1
 44
1.0
1001
ACAD
1000
MTEXTBEGIN
1070
    73
1070
     1
1070
    44
1040
1.0
1070
    74
1070
     0
1000
MTEXTEND
  0
LINE
  5
310C
330
2F9D
100
AcDbEntity
  8
AM_5
100
AcDbLine
 10
-360.2500000000009
 20
-148.9999999999997
 30
0.0
 11
-412.4530924491084
 21
-148.9999999999997
 31
0.0
  0
LINE
  5
310D
330
2F9D
100
AcDbEntity
  8
AM_5
100
AcDbLine
 10
-360.2500000000009
 20
149.0000000000002
 30
0.0
 11
-412.4530924491084
 21
149.0000000000002
 31
0.0
  0
LINE
  5
310E
330
2F9D
100
AcDbEntity
  8
AM_5
100
AcDbLine
 10
-409.4530924491084
 20
-141.4999999999998
 30
0.0
 11
-409.4530924491084
 21
141.5000000000002
 31
0.0
  0
SOLID
  5
310F
330
2F9D
100
AcDbEntity
  8
AM_5
100
AcDbTrace
 10
-410.7030924491084
 20
-141.4999999999998
 30
0.0
 11
-408.2030924491084
 21
-141.4999999999998
 31
0.0
 12
-409.4530924491084
 22
-148.9999999999997
 32
0.0
 13
-409.4530924491084
 23
-148.9999999999997
 33
0.0
  0
SOLID
  5
3110
330
2F9D
100
AcDbEntity
  8
AM_5
100
AcDbTrace
 10
-410.7030924491084
 20
141.5000000000002
 30
0.0
 11
-408.2030924491084
 21
141.5000000000002
 31
0.0
 12
-409.4530924491084
 22
149.0000000000002
 32
0.0
 13
-409.4530924491084
 23
149.0000000000002
 33
0.0
  0
MTEXT
  5
3111
330
2F9D
100
AcDbEntity
  8
AM_5
 62
     2
100
AcDbMText
 10
-419.2030924491087
 20
0.0000000000004547
 30
0.0
 40
10.5
 41
0.0
 71
     5
 72
     1
  1
298 [11.732"]
 11
0.0000000000000001
 21
1.0
 31
0.0
 73
     1
 44
1.0
1001
ACAD
1000
MTEXTBEGIN
1070
    73
1070
     1
1070
    44
1040
1.0
1070
    74
1070
     0
1000
MTEXTEND
  0
INSERT
  5
3112
330
2F9D
100
AcDbEntity
  8
0
100
AcDbBlockReference
 66
     1
  2
info
 10
-317.0000023598186
 20
-109.0000011472773
 30
0.0
 50
270.0
  0
ATTRIB
  5
3113
330
3112
100
AcDbEntity
  8
0
100
AcDbText
 10
-314.1089071243391
 20
-118.4670940975968
 30
0.00000001
 40
5.0
  1
120,5
 50
270.0
100
AcDbAttribute
  2
BRD
 70
     1
1001
AcDbAttr
1070
     0
1070
     1
  0
ATTRIB
  5
3114
330
3112
100
AcDbEntity
  8
0
100
AcDbText
 10
-322.4422404576726
 20
-118.4670940975968
 30
0.00000001
 40
5.0
  1
218
 50
270.0
100
AcDbAttribute
  2
HJD
 70
     1
1001
AcDbAttr
1070
     0
1070
     1
  0
SEQEND
  5
3115
330
3112
100
AcDbEntity
  8
0
  0
INSERT
  5
3116
330
2F9D
100
AcDbEntity
  8
0
100
AcDbBlockReference
 66
     1
  2
info
 10
-188.5000023598177
 20
-109.0000011472773
 30
0.0
 50
270.0
  0
ATTRIB
  5
3117
330
3116
100
AcDbEntity
  8
0
100
AcDbText
 10
-185.6089071243382
 20
-118.4670940975968
 30
0.00000001
 40
5.0
  1
120,5
 50
270.0
100
AcDbAttribute
  2
BRD
 70
     1
1001
AcDbAttr
1070
     0
1070
     1
  0
ATTRIB
  5
3118
330
3116
100
AcDbEntity
  8
0
100
AcDbText
 10
-193.9422404576717
 20
-118.4670940975968
 30
0.00000001
 40
5.0
  1
218
 50
270.0
100
AcDbAttribute
  2
HJD
 70
     1
1001
AcDbAttr
1070
     0
1070
     1
  0
SEQEND
  5
3119
330
3116
100
AcDbEntity
  8
0
  0
INSERT
  5
311A
330
2F9D
100
AcDbEntity
  8
0
100
AcDbBlockReference
 66
     1
  2
info
 10
-60.00000235981656
 20
-109.0000011472773
 30
0.0
 50
270.0
  0
ATTRIB
  5
311B
330
311A
100
AcDbEntity
  8
0
100
AcDbText
 10
-57.10890712433706
 20
-118.4670940975968
 30
0.00000001
 40
5.0
  1
120,5
 50
270.0
100
AcDbAttribute
  2
BRD
 70
     1
1001
AcDbAttr
1070
     0
1070
     1
  0
ATTRIB
  5
311C
330
311A
100
AcDbEntity
  8
0
100
AcDbText
 10
-65.44224045767055
 20
-118.4670940975968
 30
0.00000001
 40
5.0
  1
218
 50
270.0
100
AcDbAttribute
  2
HJD
 70
     1
1001
AcDbAttr
1070
     0
1070
     1
  0
SEQEND
  5
311D
330
311A
100
AcDbEntity
  8
0
  0
INSERT
  5
311E
330
2F9D
100
AcDbEntity
  8
0
100
AcDbBlockReference
 66
     1
  2
info
 10
68.49999764018344
 20
-109.0000011472773
 30
0.0
 50
270.0
  0
ATTRIB
  5
311F
330
311E
100
AcDbEntity
  8
0
100
AcDbText
 10
71.39109287566293
 20
-118.4670940975968
 30
0.00000001
 40
5.0
  1
120,5
 50
270.0
100
AcDbAttribute
  2
BRD
 70
     1
1001
AcDbAttr
1070
     0
1070
     1
  0
ATTRIB
  5
3120
330
311E
100
AcDbEntity
  8
0
100
AcDbText
 10
63.05775954232945
 20
-118.4670940975968
 30
0.00000001
 40
5.0
  1
218
 50
270.0
100
AcDbAttribute
  2
HJD
 70
     1
1001
AcDbAttr
1070
     0
1070
     1
  0
SEQEND
  5
3121
330
311E
100
AcDbEntity
  8
0
  0
INSERT
  5
3122
330
2F9D
100
AcDbEntity
  8
0
100
AcDbBlockReference
 66
     1
  2
info
 10
196.9999976401834
 20
-109.0000011472773
 30
0.0
 50
270.0
  0
ATTRIB
  5
3123
330
3122
100
AcDbEntity
  8
0
100
AcDbText
 10
199.8910928756629
 20
-118.4670940975968
 30
0.00000001
 40
5.0
  1
120,5
 50
270.0
100
AcDbAttribute
  2
BRD
 70
     1
1001
AcDbAttr
1070
     0
1070
     1
  0
ATTRIB
  5
3124
330
3122
100
AcDbEntity
  8
0
100
AcDbText
 10
191.5577595423294
 20
-118.4670940975968
 30
0.00000001
 40
5.0
  1
218
 50
270.0
100
AcDbAttribute
  2
HJD
 70
     1
1001
AcDbAttr
1070
     0
1070
     1
  0
SEQEND
  5
3125
330
3122
100
AcDbEntity
  8
0
  0
ENDBLK
  5
2F9F
330
2F9D
100
AcDbEntity
  8
0
100
AcDbBlockEnd
  0
ENDSEC
  0
SECTION
  2
ENTITIES
  0
INSERT
  5
3126
330
1F
100
AcDbEntity
  8
AM0
100
AcDbBlockReference
  2
B6X5
 10
1402.467046224977
 20
1451.687260169454
 30
0.0
  0
ENDSEC
  0
SECTION
  2
OBJECTS
  0
DICTIONARY
  5
C
330
0
100
AcDbDictionary
281
     1
  3
ACAD_COLOR
350
6B
  3
ACAD_GROUP
350
D
  3
ACAD_LAYOUT
350
1A
  3
ACAD_MATERIAL
350
6A
  3
ACAD_MLEADERSTYLE
350
2BCA
  3
ACAD_MLINESTYLE
350
17
  3
ACAD_PLOTSETTINGS
350
19
  3
ACAD_PLOTSTYLENAME
350
E
  3
ACAD_SCALELIST
350
2BB8
  3
ACAD_TABLESTYLE
350
7E
  3
ACAD_VISUALSTYLE
350
2BA7
  3
ACDB_RECOMPOSE_DATA
350
3139
  3
AcDbVariableDictionary
350
5E
  3
AcmDictionary
350
2C6F
  3
AEC_PROPERTY_SET_DEFS
350
2F68
  3
AMG
350
2BCE
  3
AMGSNAPSETTINGS
350
2CFE
  3
ASE_INDEX_DICTIONARY
350
23D6
  3
DWGPROPS
350
313A
  3
MAPISURF_MODULE
350
2C6C
  0
DICTIONARY
  5
2F5C
330
2
100
AcDbDictionary
280
     1
281
     1
  3
ACAD_LAYERSTATES
360
2F5D
  0
DICTIONARY
  5
3127
330
10
100
AcDbDictionary
280
     1
281
     1
  3
ADSK_XREC_LAYER_RECONCILED
360
3128
  0
DICTIONARY
  5
3129
330
E7
100
AcDbDictionary
280
     1
281
     1
  3
ADSK_XREC_LAYER_RECONCILED
360
312A
  0
DICTIONARY
  5
312B
330
2E5C
100
AcDbDictionary
280
     1
281
     1
  3
ADSK_XREC_LAYER_RECONCILED
360
312C
  0
DICTIONARY
  5
23E3
330
1F
100
AcDbDictionary
280
     1
281
     1
  3
ACAD_INDEX
360
312D
  3
ACAD_SORTENTS
360
23E4
  0
DICTIONARY
  5
6B
102
{ACAD_REACTORS
330
C
102
}
330
C
100
AcDbDictionary
281
     1
  0
DICTIONARY
  5
D
102
{ACAD_REACTORS
330
C
102
}
330
C
100
AcDbDictionary
281
     1
  0
DICTIONARY
  5
1A
102
{ACAD_REACTORS
330
C
102
}
330
C
100
AcDbDictionary
281
     1
  3
Layout1
350
D3
  3
Layout2
350
D7
  3
Model
350
22
  0
DICTIONARY
  5
6A
102
{ACAD_REACTORS
330
C
102
}
330
C
100
AcDbDictionary
281
     1
  3
ByBlock
350
2B97
  3
ByLayer
350
2B8F
  3
Global
350
2B9F
  0
DICTIONARY
  5
2BCA
102
{ACAD_REACTORS
330
C
102
}
330
C
100
AcDbDictionary
281
     1
  3
Standard
350
2BCB
  0
DICTIONARY
  5
17
102
{ACAD_REACTORS
330
C
102
}
330
C
100
AcDbDictionary
281
     1
  3
Standard
350
18
  0
DICTIONARY
  5
19
102
{ACAD_REACTORS
330
C
102
}
330
C
100
AcDbDictionary
281
     1
  0
ACDBDICTIONARYWDFLT
  5
E
102
{ACAD_REACTORS
330
C
102
}
330
C
100
AcDbDictionary
281
     1
  3
Normal
350
F
100
AcDbDictionaryWithDefault
340
F
  0
DICTIONARY
  5
2BB8
102
{ACAD_REACTORS
330
C
102
}
330
C
100
AcDbDictionary
281
     1
  3
A0
350
2BB9
  3
A1
350
2BBA
  3
A2
350
2BBB
  3
A3
350
2BBC
  3
A4
350
2BBD
  3
A5
350
2BBE
  3
A6
350
2BBF
  3
A7
350
2BC0
  3
A8
350
2BC1
  3
A9
350
2BC2
  3
B0
350
2BC3
  3
B1
350
2BC4
  3
B2
350
2BC5
  3
B3
350
2BC6
  3
B4
350
2BC7
  3
B5
350
2BC8
  3
B6
350
2BC9
  0
DICTIONARY
  5
7E
102
{ACAD_REACTORS
330
C
102
}
330
C
100
AcDbDictionary
281
     1
  3
Standard
350
7F
  0
DICTIONARY
  5
2BA7
102
{ACAD_REACTORS
330
C
102
}
330
C
100
AcDbDictionary
281
     1
  3
2dWireframe
350
2BAD
  3
3D Hidden
350
2BAF
  3
3dWireframe
350
2BAE
  3
Basic
350
2BAC
  3
Brighten
350
2BB3
  3
ColorChange
350
2BB7
  3
Conceptual
350
2BB0
  3
Dim
350
2BB2
  3
Facepattern
350
2BB6
  3
Flat
350
2BA8
  3
FlatWithEdges
350
2BA9
  3
Gouraud
350
2BAA
  3
GouraudWithEdges
350
2BAB
  3
Linepattern
350
2BB5
  3
Realistic
350
2BB1
  3
Thicken
350
2BB4
  0
XRECORD
  5
3139
102
{ACAD_REACTORS
330
C
102
}
330
C
100
AcDbXrecord
280
     1
 90
        1
330
7F
  0
DICTIONARY
  5
5E
102
{ACAD_REACTORS
330
C
102
}
330
C
100
AcDbDictionary
281
     1
  3
CANNOSCALE
350
3134
  3
CMLEADERSTYLE
350
3133
  3
CTABLESTYLE
350
84
  3
DIMASSOC
350
5F
  3
HIDETEXT
350
63
  3
INDEXCTL
350
3136
  3
PROJECTNAME
350
23D8
  3
SORTENTS
350
3135
  0
DICTIONARY
  5
2C6F
102
{ACAD_REACTORS
330
C
102
}
330
C
100
AcDbDictionary
281
     1
  3
AcmStdDictionary
350
2C70
  0
DICTIONARY
  5
2F68
102
{ACAD_REACTORS
330
C
102
}
330
C
100
AcDbDictionary
281
     1
  0
DICTIONARY
  5
2BCE
102
{ACAD_REACTORS
330
C
102
}
330
C
100
AcDbDictionary
281
     1
  3
AcMgSettings
350
2BCF
  0
DICTIONARY
  5
2CFE
102
{ACAD_REACTORS
330
C
102
}
330
C
100
AcDbDictionary
281
     1
  3
DIMENSION
350
2CFF
  3
FEA
350
2D00
  3
HATCH
350
2D01
  3
SYMBOLS
350
2D02
  0
DICTIONARY
  5
23D6
102
{ACAD_REACTORS
330
C
102
}
330
C
100
AcDbDictionary
281
     1
  3
ASEBlockHierarchyIndexRecord
350
23D7
1001
DCO15
1040
1651816191.265
  0
XRECORD
  5
313A
102
{ACAD_REACTORS
330
C
102
}
330
C
100
AcDbXrecord
280
     1
  1
DWGPROPS COOKIE
  2

  3

  4

  6

  7

  8
se-jenboh
  9

300
AmdtFileType=84
301
=
302
=
303
=
304
=
305
=
306
=
307
=
308
=
309
=
 40
0.035028275462963
 41
2454921.404451678
 42
2456316.654983137
  1

 90
        1
  0
DICTIONARY
  5
2F5D
102
{ACAD_REACTORS
330
2F5C
102
}
330
2F5C
100
AcDbDictionary
281
     1
  0
XRECORD
  5
3128
102
{ACAD_REACTORS
330
3127
102
}
330
3127
100
AcDbXrecord
280
     1
290
     1
  0
XRECORD
  5
312A
102
{ACAD_REACTORS
330
3129
102
}
330
3129
100
AcDbXrecord
280
     1
290
     1
  0
XRECORD
  5
312C
102
{ACAD_REACTORS
330
312B
102
}
330
312B
100
AcDbXrecord
280
     1
290
     1
  0
DICTIONARY
  5
312D
102
{ACAD_REACTORS
330
23E3
102
}
330
23E3
100
AcDbDictionary
281
     1
  3
*A1
350
312E
  0
SORTENTSTABLE
  5
23E4
102
{ACAD_REACTORS
330
23E3
102
}
330
23E3
100
AcDbSortentsTable
330
1F
  0
LAYOUT
  5
D3
102
{ACAD_XDICTIONARY
360
313E
102
}
102
{ACAD_REACTORS
330
1A
102
}
330
1A
100
AcDbPlotSettings
  1

  2
C:\Documents and Settings\basas\Application Data\Autodesk\AutoCAD 2005\R16.1\enu\plotters\Default Windows System Printer.pc3
  4

  6

 40
0.0
 41
0.0
 42
0.0
 43
0.0
 44
0.0
 45
0.0
 46
0.0
 47
0.0
 48
0.0
 49
0.0
140
0.0
141
0.0
142
1.0
143
1.0
 70
   688
 72
     0
 73
     0
 74
     5
  7

 75
    16
147
1.0
148
0.0
149
0.0
100
AcDbLayout
  1
Layout1
 70
     1
 71
     1
 10
0.0
 20
0.0
 11
12.0
 21
9.0
 12
0.0
 22
0.0
 32
0.0
 14
0.0
 24
0.0
 34
0.0
 15
0.0
 25
0.0
 35
0.0
146
0.0
 13
0.0
 23
0.0
 33
0.0
 16
1.0
 26
0.0
 36
0.0
 17
0.0
 27
1.0
 37
0.0
 76
     0
330
D2
  0
LAYOUT
  5
D7
102
{ACAD_XDICTIONARY
360
3140
102
}
102
{ACAD_REACTORS
330
1A
102
}
330
1A
100
AcDbPlotSettings
  1

  2
C:\Documents and Settings\basas\Application Data\Autodesk\AutoCAD 2005\R16.1\enu\plotters\Default Windows System Printer.pc3
  4

  6

 40
0.0
 41
0.0
 42
0.0
 43
0.0
 44
0.0
 45
0.0
 46
0.0
 47
0.0
 48
0.0
 49
0.0
140
0.0
141
0.0
142
1.0
143
1.0
 70
   688
 72
     0
 73
     0
 74
     5
  7

 75
    16
147
1.0
148
0.0
149
0.0
100
AcDbLayout
  1
Layout2
 70
     1
 71
     2
 10
0.0
 20
0.0
 11
12.0
 21
9.0
 12
0.0
 22
0.0
 32
0.0
 14
0.0
 24
0.0
 34
0.0
 15
0.0
 25
0.0
 35
0.0
146
0.0
 13
0.0
 23
0.0
 33
0.0
 16
1.0
 26
0.0
 36
0.0
 17
0.0
 27
1.0
 37
0.0
 76
     0
330
D6
  0
LAYOUT
  5
22
102
{ACAD_XDICTIONARY
360
313B
102
}
102
{ACAD_REACTORS
330
1A
102
}
330
1A
100
AcDbPlotSettings
  1

  2
none_device
  4
ISO_A4_(210.00_x_297.00_MM)
  6

 40
7.5
 41
20.0
 42
7.5
 43
20.0
 44
210.0
 45
297.0
 46
11.54999923706054
 47
-13.65000009536743
 48
0.0
 49
0.0
140
0.0
141
0.0
142
1.0
143
8.704084754739808
 70
 11952
 72
     1
 73
     0
 74
     0
  7

 75
     0
147
0.1148885871608098
148
0.0
149
0.0
100
AcDbLayout
  1
Model
 70
     1
 71
     0
 10
0.0
 20
0.0
 11
12.0
 21
9.0
 12
0.0
 22
0.0
 32
0.0
 14
0.0
 24
0.0
 34
0.0
 15
0.0
 25
0.0
 35
0.0
146
0.0
 13
0.0
 23
0.0
 33
0.0
 16
1.0
 26
0.0
 36
0.0
 17
0.0
 27
1.0
 37
0.0
 76
     0
330
1F
331
2B83
1001
ACAD_PSEXT
1000
None
1000
None
1000
Not applicable
1000
The layout will not be plotted unless a new plotter configuration name is selected.
1070
     0
  0
MATERIAL
  5
2B97
102
{ACAD_XDICTIONARY
360
2B98
102
}
102
{ACAD_REACTORS
330
6A
102
}
330
6A
100
AcDbMaterial
  1
ByBlock
 72
     0
 43
0.0008202099737533
 43
0.0
 43
0.0
 43
0.0
 43
0.0
 43
0.0008202099737533
 43
0.0
 43
0.0
 43
0.0
 43
0.0
 43
1.0
 43
0.0
 43
0.0
 43
0.0
 43
0.0
 43
1.0
 77
     0
 47
0.0008202099737533
 47
0.0
 47
0.0
 47
0.0
 47
0.0
 47
0.0008202099737533
 47
0.0
 47
0.0
 47
0.0
 47
0.0
 47
1.0
 47
0.0
 47
0.0
 47
0.0
 47
0.0
 47
1.0
171
     0
 49
0.0008202099737533
 49
0.0
 49
0.0
 49
0.0
 49
0.0
 49
0.0008202099737533
 49
0.0
 49
0.0
 49
0.0
 49
0.0
 49
1.0
 49
0.0
 49
0.0
 49
0.0
 49
0.0
 49
1.0
175
     0
142
0.0008202099737533
142
0.0
142
0.0
142
0.0
142
0.0
142
0.0008202099737533
142
0.0
142
0.0
142
0.0
142
0.0
142
1.0
142
0.0
142
0.0
142
0.0
142
0.0
142
1.0
179
     0
144
0.0008202099737533
144
0.0
144
0.0
144
0.0
144
0.0
144
0.0008202099737533
144
0.0
144
0.0
144
0.0
144
0.0
144
1.0
144
0.0
144
0.0
144
0.0
144
0.0
144
1.0
147
0.0008202099737533
147
0.0
147
0.0
147
0.0
147
0.0
147
0.0008202099737533
147
0.0
147
0.0
147
0.0
147
0.0
147
1.0
147
0.0
147
0.0
147
0.0
147
0.0
147
1.0
  0
MATERIAL
  5
2B8F
102
{ACAD_XDICTIONARY
360
2B90
102
}
102
{ACAD_REACTORS
330
6A
102
}
330
6A
100
AcDbMaterial
  1
ByLayer
 72
     0
 43
0.0008202099737533
 43
0.0
 43
0.0
 43
0.0
 43
0.0
 43
0.0008202099737533
 43
0.0
 43
0.0
 43
0.0
 43
0.0
 43
1.0
 43
0.0
 43
0.0
 43
0.0
 43
0.0
 43
1.0
 77
     0
 47
0.0008202099737533
 47
0.0
 47
0.0
 47
0.0
 47
0.0
 47
0.0008202099737533
 47
0.0
 47
0.0
 47
0.0
 47
0.0
 47
1.0
 47
0.0
 47
0.0
 47
0.0
 47
0.0
 47
1.0
171
     0
 49
0.0008202099737533
 49
0.0
 49
0.0
 49
0.0
 49
0.0
 49
0.0008202099737533
 49
0.0
 49
0.0
 49
0.0
 49
0.0
 49
1.0
 49
0.0
 49
0.0
 49
0.0
 49
0.0
 49
1.0
175
     0
142
0.0008202099737533
142
0.0
142
0.0
142
0.0
142
0.0
142
0.0008202099737533
142
0.0
142
0.0
142
0.0
142
0.0
142
1.0
142
0.0
142
0.0
142
0.0
142
0.0
142
1.0
179
     0
144
0.0008202099737533
144
0.0
144
0.0
144
0.0
144
0.0
144
0.0008202099737533
144
0.0
144
0.0
144
0.0
144
0.0
144
1.0
144
0.0
144
0.0
144
0.0
144
0.0
144
1.0
147
0.0008202099737533
147
0.0
147
0.0
147
0.0
147
0.0
147
0.0008202099737533
147
0.0
147
0.0
147
0.0
147
0.0
147
1.0
147
0.0
147
0.0
147
0.0
147
0.0
147
1.0
  0
MATERIAL
  5
2B9F
102
{ACAD_XDICTIONARY
360
2BA0
102
}
102
{ACAD_REACTORS
330
6A
102
}
330
6A
100
AcDbMaterial
  1
Global
 72
     0
 43
0.0008202099737533
 43
0.0
 43
0.0
 43
0.0
 43
0.0
 43
0.0008202099737533
 43
0.0
 43
0.0
 43
0.0
 43
0.0
 43
1.0
 43
0.0
 43
0.0
 43
0.0
 43
0.0
 43
1.0
 77
     0
 47
0.0008202099737533
 47
0.0
 47
0.0
 47
0.0
 47
0.0
 47
0.0008202099737533
 47
0.0
 47
0.0
 47
0.0
 47
0.0
 47
1.0
 47
0.0
 47
0.0
 47
0.0
 47
0.0
 47
1.0
171
     0
 49
0.0008202099737533
 49
0.0
 49
0.0
 49
0.0
 49
0.0
 49
0.0008202099737533
 49
0.0
 49
0.0
 49
0.0
 49
0.0
 49
1.0
 49
0.0
 49
0.0
 49
0.0
 49
0.0
 49
1.0
175
     0
142
0.0008202099737533
142
0.0
142
0.0
142
0.0
142
0.0
142
0.0008202099737533
142
0.0
142
0.0
142
0.0
142
0.0
142
1.0
142
0.0
142
0.0
142
0.0
142
0.0
142
1.0
179
     0
144
0.0008202099737533
144
0.0
144
0.0
144
0.0
144
0.0
144
0.0008202099737533
144
0.0
144
0.0
144
0.0
144
0.0
144
1.0
144
0.0
144
0.0
144
0.0
144
0.0
144
1.0
147
0.0008202099737533
147
0.0
147
0.0
147
0.0
147
0.0
147
0.0008202099737533
147
0.0
147
0.0
147
0.0
147
0.0
147
1.0
147
0.0
147
0.0
147
0.0
147
0.0
147
1.0
  0
MLEADERSTYLE
  5
2BCB
102
{ACAD_REACTORS
330
2BCA
102
}
330
2BCA
100
AcDbMLeaderStyle
170
     2
171
     1
172
     0
 90
        2
 40
0.0
 41
0.0
173
     1
 91
-1056964608
340
14
 92
       -2
290
     1
 42
2.0
291
     1
 43
0.36
  3
Standard
 44
4.0
300

342
11
174
     1
178
     6
175
     1
176
     0
 93
-1056964608
 45
4.0
292
     0
297
     0
 46
4.0
 94
-1056964608
 47
1.0
 49
1.0
140
1.0
293
     1
141
0.0
294
     1
177
     0
142
1.0
295
     0
296
     0
143
0.125
1001
ACAD_MLEADERVER
1070
     2
  0
MLINESTYLE
  5
18
102
{ACAD_REACTORS
330
17
102
}
330
17
100
AcDbMlineStyle
  2
STANDARD
 70
     0
  3

 62
   256
 51
90.0
 52
90.0
 71
     2
 49
0.5
 62
   256
  6
BYLAYER
 49
-0.5
 62
   256
  6
BYLAYER
  0
ACDBPLACEHOLDER
  5
F
102
{ACAD_REACTORS
330
E
102
}
330
E
  0
SCALE
  5
2BB9
102
{ACAD_REACTORS
330
2BB8
102
}
330
2BB8
100
AcDbScale
 70
     0
300
1:1
140
1.0
141
1.0
290
     1
  0
SCALE
  5
2BBA
102
{ACAD_REACTORS
330
2BB8
102
}
330
2BB8
100
AcDbScale
 70
     0
300
1:2
140
1.0
141
2.0
290
     0
  0
SCALE
  5
2BBB
102
{ACAD_REACTORS
330
2BB8
102
}
330
2BB8
100
AcDbScale
 70
     0
300
1:4
140
1.0
141
4.0
290
     0
  0
SCALE
  5
2BBC
102
{ACAD_REACTORS
330
2BB8
102
}
330
2BB8
100
AcDbScale
 70
     0
300
1:5
140
1.0
141
5.0
290
     0
  0
SCALE
  5
2BBD
102
{ACAD_REACTORS
330
2BB8
102
}
330
2BB8
100
AcDbScale
 70
     0
300
1:8
140
1.0
141
8.0
290
     0
  0
SCALE
  5
2BBE
102
{ACAD_REACTORS
330
2BB8
102
}
330
2BB8
100
AcDbScale
 70
     0
300
1:10
140
1.0
141
10.0
290
     0
  0
SCALE
  5
2BBF
102
{ACAD_REACTORS
330
2BB8
102
}
330
2BB8
100
AcDbScale
 70
     0
300
1:16
140
1.0
141
16.0
290
     0
  0
SCALE
  5
2BC0
102
{ACAD_REACTORS
330
2BB8
102
}
330
2BB8
100
AcDbScale
 70
     0
300
1:20
140
1.0
141
20.0
290
     0
  0
SCALE
  5
2BC1
102
{ACAD_REACTORS
330
2BB8
102
}
330
2BB8
100
AcDbScale
 70
     0
300
1:30
140
1.0
141
30.0
290
     0
  0
SCALE
  5
2BC2
102
{ACAD_REACTORS
330
2BB8
102
}
330
2BB8
100
AcDbScale
 70
     0
300
1:40
140
1.0
141
40.0
290
     0
  0
SCALE
  5
2BC3
102
{ACAD_REACTORS
330
2BB8
102
}
330
2BB8
100
AcDbScale
 70
     0
300
1:50
140
1.0
141
50.0
290
     0
  0
SCALE
  5
2BC4
102
{ACAD_REACTORS
330
2BB8
102
}
330
2BB8
100
AcDbScale
 70
     0
300
1:100
140
1.0
141
100.0
290
     0
  0
SCALE
  5
2BC5
102
{ACAD_REACTORS
330
2BB8
102
}
330
2BB8
100
AcDbScale
 70
     0
300
2:1
140
2.0
141
1.0
290
     0
  0
SCALE
  5
2BC6
102
{ACAD_REACTORS
330
2BB8
102
}
330
2BB8
100
AcDbScale
 70
     0
300
4:1
140
4.0
141
1.0
290
     0
  0
SCALE
  5
2BC7
102
{ACAD_REACTORS
330
2BB8
102
}
330
2BB8
100
AcDbScale
 70
     0
300
8:1
140
8.0
141
1.0
290
     0
  0
SCALE
  5
2BC8
102
{ACAD_REACTORS
330
2BB8
102
}
330
2BB8
100
AcDbScale
 70
     0
300
10:1
140
10.0
141
1.0
290
     0
  0
SCALE
  5
2BC9
102
{ACAD_REACTORS
330
2BB8
102
}
330
2BB8
100
AcDbScale
 70
     0
300
100:1
140
100.0
141
1.0
290
     0
  0
TABLESTYLE
  5
7F
102
{ACAD_XDICTIONARY
360
3137
102
}
102
{ACAD_REACTORS
330
7E
102
}
330
7E
100
AcDbTableStyle
  3
Standard
 70
     0
 71
     0
 40
1.5
 41
1.5
280
     0
281
     0
  7
Standard
140
4.5
170
     2
 62
     0
 63
     7
283
     0
274
    -2
284
     1
 64
     0
275
    -2
285
     1
 65
     0
276
    -2
286
     1
 66
     0
277
    -2
287
     1
 67
     0
278
    -2
288
     1
 68
     0
279
    -2
289
     1
 69
     0
  7
Standard
140
6.0
170
     5
 62
     0
 63
     7
283
     0
274
    -2
284
     1
 64
     0
275
    -2
285
     1
 65
     0
276
    -2
286
     1
 66
     0
277
    -2
287
     1
 67
     0
278
    -2
288
     1
 68
     0
279
    -2
289
     1
 69
     0
  7
Standard
140
4.5
170
     5
 62
     0
 63
     7
283
     0
274
    -2
284
     1
 64
     0
275
    -2
285
     1
 65
     0
276
    -2
286
     1
 66
     0
277
    -2
287
     1
 67
     0
278
    -2
288
     1
 68
     0
279
    -2
289
     1
 69
     0
  0
VISUALSTYLE
  5
2BAD
102
{ACAD_REACTORS
330
2BA7
102
}
330
2BA7
100
AcDbVisualStyle
  2
2dWireframe
 70
     4
 71
     0
 72
     2
 73
     0
 90
        0
 40
-0.6
 41
-30.0
 62
     5
 63
     7
 74
     1
 91
        4
 64
     7
 65
   257
 75
     1
175
     1
 42
1.0
 92
        0
 66
   257
 43
1.0
 76
     1
 77
     6
 78
     2
 67
     7
 79
     5
170
     0
171
     0
290
     0
174
     0
 93
        1
 44
0.0
173
     0
291
     0
 45
0.0
1001
ACAD
1000
AcDbSavedByObjectVersion
1070
     0
  0
VISUALSTYLE
  5
2BAF
102
{ACAD_REACTORS
330
2BA7
102
}
330
2BA7
100
AcDbVisualStyle
  2
3D Hidden
 70
     6
 71
     1
 72
     2
 73
     2
 90
        0
 40
-0.6
 41
-30.0
 62
     5
 63
     7
 74
     2
 91
        2
 64
     7
 65
   257
 75
     2
175
     1
 42
40.0
 92
        0
 66
   257
 43
1.0
 76
     1
 77
     6
 78
     2
 67
     7
 79
     3
170
     0
171
     0
290
     0
174
     0
 93
        1
 44
0.0
173
     0
291
     0
 45
0.0
1001
ACAD
1000
AcDbSavedByObjectVersion
1070
     0
  0
VISUALSTYLE
  5
2BAE
102
{ACAD_REACTORS
330
2BA7
102
}
330
2BA7
100
AcDbVisualStyle
  2
3dWireframe
 70
     5
 71
     0
 72
     2
 73
     0
 90
        0
 40
-0.6
 41
-30.0
 62
     5
 63
     7
 74
     1
 91
        4
 64
     7
 65
   257
 75
     1
175
     1
 42
1.0
 92
        0
 66
   257
 43
1.0
 76
     1
 77
     6
 78
     2
 67
     7
 79
     5
170
     0
171
     0
290
     0
174
     0
 93
        1
 44
0.0
173
     0
291
     0
 45
0.0
1001
ACAD
1000
AcDbSavedByObjectVersion
1070
     0
  0
VISUALSTYLE
  5
2BAC
102
{ACAD_REACTORS
330
2BA7
102
}
330
2BA7
100
AcDbVisualStyle
  2
Basic
 70
     7
 71
     1
 72
     0
 73
     1
 90
        0
 40
-0.6
 41
-30.0
 62
     5
 63
     7
 74
     0
 91
        4
 64
     7
 65
   257
 75
     1
175
     1
 42
1.0
 92
        8
 66
     7
 43
1.0
 76
     1
 77
     6
 78
     2
 67
     7
 79
     5
170
     0
171
     0
290
     0
174
     0
 93
        1
 44
0.0
173
     0
291
     1
 45
0.0
1001
ACAD
1000
AcDbSavedByObjectVersion
1070
     0
  0
VISUALSTYLE
  5
2BB3
102
{ACAD_REACTORS
330
2BA7
102
}
330
2BA7
100
AcDbVisualStyle
  2
Brighten
 70
    12
 71
     2
 72
     2
 73
     0
 90
        0
 40
-0.6
 41
-30.0
 62
     5
 63
     7
 74
     1
 91
        4
 64
     7
 65
   257
 75
     1
175
     1
 42
1.0
 92
        8
 66
     7
 43
1.0
 76
     1
 77
     6
 78
     2
 67
     7
 79
     5
170
     0
171
     0
290
     0
174
     0
 93
        1
 44
50.0
173
     0
291
     1
 45
0.0
1001
ACAD
1000
AcDbSavedByObjectVersion
1070
     0
  0
VISUALSTYLE
  5
2BB7
102
{ACAD_REACTORS
330
2BA7
102
}
330
2BA7
100
AcDbVisualStyle
  2
ColorChange
 70
    16
 71
     2
 72
     2
 73
     3
 90
        0
 40
-0.6
 41
-30.0
 62
     5
 63
     8
 74
     1
 91
        4
 64
     7
 65
   257
 75
     1
175
     1
 42
1.0
 92
        8
 66
     8
 43
1.0
 76
     1
 77
     6
 78
     2
 67
     7
 79
     5
170
     0
171
     0
290
     0
174
     0
 93
        1
 44
0.0
173
     0
291
     1
 45
0.0
1001
ACAD
1000
AcDbSavedByObjectVersion
1070
     0
  0
VISUALSTYLE
  5
2BB0
102
{ACAD_REACTORS
330
2BA7
102
}
330
2BA7
100
AcDbVisualStyle
  2
Conceptual
 70
     9
 71
     3
 72
     2
 73
     0
 90
        0
 40
-0.6
 41
-30.0
 62
     5
 63
     7
 74
     2
 91
        2
 64
     7
 65
   257
 75
     1
175
     1
 42
40.0
 92
        8
 66
     7
 43
1.0
 76
     1
 77
     6
 78
     2
 67
     7
 79
     3
170
     0
171
     0
290
     0
174
     0
 93
        1
 44
0.0
173
     0
291
     0
 45
0.0
1001
ACAD
1000
AcDbSavedByObjectVersion
1070
     0
  0
VISUALSTYLE
  5
2BB2
102
{ACAD_REACTORS
330
2BA7
102
}
330
2BA7
100
AcDbVisualStyle
  2
Dim
 70
    11
 71
     2
 72
     2
 73
     0
 90
        0
 40
-0.6
 41
-30.0
 62
     5
 63
     7
 74
     1
 91
        4
 64
     7
 65
   257
 75
     1
175
     1
 42
1.0
 92
        8
 66
     7
 43
1.0
 76
     1
 77
     6
 78
     2
 67
     7
 79
     5
170
     0
171
     0
290
     0
174
     0
 93
        1
 44
-50.0
173
     0
291
     1
 45
0.0
1001
ACAD
1000
AcDbSavedByObjectVersion
1070
     0
  0
VISUALSTYLE
  5
2BB6
102
{ACAD_REACTORS
330
2BA7
102
}
330
2BA7
100
AcDbVisualStyle
  2
Facepattern
 70
    15
 71
     2
 72
     2
 73
     0
 90
        0
 40
-0.6
 41
-30.0
 62
     5
 63
     7
 74
     1
 91
        4
 64
     7
 65
   257
 75
     1
175
     1
 42
1.0
 92
        8
 66
     7
 43
1.0
 76
     1
 77
     6
 78
     2
 67
     7
 79
     5
170
     0
171
     0
290
     0
174
     0
 93
        1
 44
0.0
173
     0
291
     1
 45
0.0
1001
ACAD
1000
AcDbSavedByObjectVersion
1070
     0
  0
VISUALSTYLE
  5
2BA8
102
{ACAD_REACTORS
330
2BA7
102
}
330
2BA7
100
AcDbVisualStyle
  2
Flat
 70
     0
 71
     2
 72
     1
 73
     1
 90
        2
 40
-0.6
 41
30.0
 62
     5
 63
     7
 74
     0
 91
        4
 64
     7
 65
   257
 75
     1
175
     1
 42
1.0
 92
        8
 66
     7
 43
1.0
 76
     1
 77
     6
 78
     2
 67
     7
 79
     5
170
     0
171
     0
290
     0
174
     0
 93
       13
 44
0.0
173
     0
291
     1
 45
0.0
1001
ACAD
1000
AcDbSavedByObjectVersion
1070
     0
  0
VISUALSTYLE
  5
2BA9
102
{ACAD_REACTORS
330
2BA7
102
}
330
2BA7
100
AcDbVisualStyle
  2
FlatWithEdges
 70
     1
 71
     2
 72
     1
 73
     1
 90
        2
 40
-0.6
 41
30.0
 62
     5
 63
     7
 74
     1
 91
        4
 64
     7
 65
   257
 75
     1
175
     1
 42
1.0
 92
        0
 66
   257
 43
1.0
 76
     1
 77
     6
 78
     2
 67
     7
 79
     5
170
     0
171
     0
290
     0
174
     0
 93
       13
 44
0.0
173
     0
291
     1
 45
0.0
1001
ACAD
1000
AcDbSavedByObjectVersion
1070
     0
  0
VISUALSTYLE
  5
2BAA
102
{ACAD_REACTORS
330
2BA7
102
}
330
2BA7
100
AcDbVisualStyle
  2
Gouraud
 70
     2
 71
     2
 72
     2
 73
     1
 90
        2
 40
-0.6
 41
30.0
 62
     5
 63
     7
 74
     0
 91
        4
 64
     7
 65
   257
 75
     1
175
     1
 42
1.0
 92
        0
 66
     7
 43
1.0
 76
     1
 77
     6
 78
     2
 67
     7
 79
     5
170
     0
171
     0
290
     0
174
     0
 93
       13
 44
0.0
173
     0
291
     1
 45
0.0
1001
ACAD
1000
AcDbSavedByObjectVersion
1070
     0
  0
VISUALSTYLE
  5
2BAB
102
{ACAD_REACTORS
330
2BA7
102
}
330
2BA7
100
AcDbVisualStyle
  2
GouraudWithEdges
 70
     3
 71
     2
 72
     2
 73
     1
 90
        2
 40
-0.6
 41
30.0
 62
     5
 63
     7
 74
     1
 91
        4
 64
     7
 65
   257
 75
     1
175
     1
 42
1.0
 92
        0
 66
   257
 43
1.0
 76
     1
 77
     6
 78
     2
 67
     7
 79
     5
170
     0
171
     0
290
     0
174
     0
 93
       13
 44
0.0
173
     0
291
     1
 45
0.0
1001
ACAD
1000
AcDbSavedByObjectVersion
1070
     0
  0
VISUALSTYLE
  5
2BB5
102
{ACAD_REACTORS
330
2BA7
102
}
330
2BA7
100
AcDbVisualStyle
  2
Linepattern
 70
    14
 71
     2
 72
     2
 73
     0
 90
        0
 40
-0.6
 41
-30.0
 62
     5
 63
     7
 74
     1
 91
        4
 64
     7
 65
   257
 75
     7
175
     7
 42
1.0
 92
        8
 66
     7
 43
1.0
 76
     1
 77
     6
 78
     2
 67
     7
 79
     5
170
     0
171
     0
290
     0
174
     0
 93
        1
 44
0.0
173
     0
291
     1
 45
0.0
1001
ACAD
1000
AcDbSavedByObjectVersion
1070
     0
  0
VISUALSTYLE
  5
2BB1
102
{ACAD_REACTORS
330
2BA7
102
}
330
2BA7
100
AcDbVisualStyle
  2
Realistic
 70
     8
 71
     2
 72
     2
 73
     0
 90
        0
 40
-0.6
 41
-30.0
 62
     5
 63
     7
 74
     1
 91
        0
 64
     7
 65
   257
 75
     1
175
     1
 42
1.0
 92
        8
 66
     8
 43
1.0
 76
     1
 77
     6
 78
     2
 67
     7
 79
     5
170
     0
171
     0
290
     0
174
     0
 93
       13
 44
0.0
173
     0
291
     0
 45
0.0
1001
ACAD
1000
AcDbSavedByObjectVersion
1070
     0
  0
VISUALSTYLE
  5
2BB4
102
{ACAD_REACTORS
330
2BA7
102
}
330
2BA7
100
AcDbVisualStyle
  2
Thicken
 70
    13
 71
     2
 72
     2
 73
     0
 90
        0
 40
-0.6
 41
-30.0
 62
     5
 63
     7
 74
     1
 91
        4
 64
     7
 65
   257
 75
     1
175
     1
 42
1.0
 92
       12
 66
     7
 43
1.0
 76
     1
 77
     6
 78
     2
 67
     7
 79
     5
170
     0
171
     0
290
     0
174
     0
 93
        1
 44
0.0
173
     0
291
     1
 45
0.0
1001
ACAD
1000
AcDbSavedByObjectVersion
1070
     0
  0
DICTIONARYVAR
  5
3134
102
{ACAD_REACTORS
330
5E
102
}
330
5E
100
DictionaryVariables
280
     0
  1
1:1
  0
DICTIONARYVAR
  5
3133
102
{ACAD_REACTORS
330
5E
102
}
330
5E
100
DictionaryVariables
280
     0
  1
STANDARD
  0
DICTIONARYVAR
  5
84
102
{ACAD_REACTORS
330
5E
102
}
330
5E
100
DictionaryVariables
280
     0
  1
STANDARD
  0
DICTIONARYVAR
  5
5F
102
{ACAD_REACTORS
330
5E
102
}
330
5E
100
DictionaryVariables
280
     0
  1
2
  0
DICTIONARYVAR
  5
63
102
{ACAD_REACTORS
330
5E
102
}
330
5E
100
DictionaryVariables
280
     0
  1
1
  0
DICTIONARYVAR
  5
3136
102
{ACAD_REACTORS
330
5E
102
}
330
5E
100
DictionaryVariables
280
     0
  1
1
  0
DICTIONARYVAR
  5
23D8
102
{ACAD_REACTORS
330
5E
102
}
330
5E
100
DictionaryVariables
280
     0
  1

  0
DICTIONARYVAR
  5
3135
102
{ACAD_REACTORS
330
5E
102
}
330
5E
100
DictionaryVariables
280
     0
  1
127
  0
DICTIONARY
  5
2C70
102
{ACAD_REACTORS
330
2C6F
102
}
330
2C6F
100
AcDbDictionary
281
     1
  0
DICTIONARY
  5
2BCF
102
{ACAD_REACTORS
330
2BCE
102
}
330
2BCE
100
AcDbDictionary
281
     1
  3
DWGSETTINGS
350
2BDD
  3
TRANSSETTINGS
350
2BE9
  0
ACAMGFILTERDAT
  5
2CFF
102
{ACAD_REACTORS
330
2CFE
102
}
330
2CFE
100
AcAmgFilterDat
 70
    15
  1
DIMENSION,AMDT_*_DIM
  2
*
  3
*
  4
*
  5
*
290
     1
  0
ACAMGFILTERDAT
  5
2D00
102
{ACAD_REACTORS
330
2CFE
102
}
330
2CFE
100
AcAmgFilterDat
 70
    15
  1
*
  2
AM_FEA-AM_*
  3
*
  4
*
  5
*
290
     1
  0
ACAMGFILTERDAT
  5
2D01
102
{ACAD_REACTORS
330
2CFE
102
}
330
2CFE
100
AcAmgFilterDat
 70
    15
  1
HATCH
  2
*
  3
*
  4
*
  5
*
290
     1
  0
ACAMGFILTERDAT
  5
2D02
102
{ACAD_REACTORS
330
2CFE
102
}
330
2CFE
100
AcAmgFilterDat
 70
    15
  1
ACMFCFRAME,ACMDATUMTARGET,ACMDATUMID,ACMWELDSYM,ACMSURFSYM,ACMFEATID,ACMPARTREF,ACMBALLOON
  2
*
  3
*
  4
*
  5
*
290
     1
  0
XRECORD
  5
23D7
102
{ACAD_REACTORS
330
23D6
102
}
330
23D6
100
AcDbXrecord
280
     1
  0
LAYER_INDEX
  5
312E
102
{ACAD_REACTORS
330
312D
102
}
330
312D
100
AcDbIndex
 40
2456316.654983137
100
AcDbLayerIndex
  8
0
360
312F
 90
        0
  8
AM0
360
3130
 90
        1
  8
AM_5
360
3131
 90
        0
  8
Defpoints
360
3132
 90
        0
  0
DICTIONARY
  5
313E
330
D3
100
AcDbDictionary
280
     1
281
     1
  3
ACAD_XREC_ROUNDTRIP
360
313F
  0
DICTIONARY
  5
3140
330
D7
100
AcDbDictionary
280
     1
281
     1
  3
ACAD_XREC_ROUNDTRIP
360
3141
  0
DICTIONARY
  5
313B
330
22
100
AcDbDictionary
280
     1
281
     1
  3
ACAD_XREC_ROUNDTRIP
360
313C
  0
DICTIONARY
  5
2B98
330
2B97
100
AcDbDictionary
280
     1
281
     1
  3
ACAD_XREC_ROUNDTRIP
360
3143
  3
BUMPTILE
360
2B9A
  3
DIFFUSETILE
360
2B99
  3
OPACITYTILE
360
2B9D
  3
REFLECTIONTILE
360
2B9C
  3
REFRACTIONTILE
360
2B9E
  3
SPECULARTILE
360
2B9B
  0
DICTIONARY
  5
2B90
330
2B8F
100
AcDbDictionary
280
     1
281
     1
  3
ACAD_XREC_ROUNDTRIP
360
3142
  3
BUMPTILE
360
2B92
  3
DIFFUSETILE
360
2B91
  3
OPACITYTILE
360
2B95
  3
REFLECTIONTILE
360
2B94
  3
REFRACTIONTILE
360
2B96
  3
SPECULARTILE
360
2B93
  0
DICTIONARY
  5
2BA0
330
2B9F
100
AcDbDictionary
280
     1
281
     1
  3
ACAD_XREC_ROUNDTRIP
360
3144
  3
BUMPTILE
360
2BA2
  3
DIFFUSETILE
360
2BA1
  3
OPACITYTILE
360
2BA5
  3
REFLECTIONTILE
360
2BA4
  3
REFRACTIONTILE
360
2BA6
  3
SPECULARTILE
360
2BA3
  0
DICTIONARY
  5
3137
330
7F
100
AcDbDictionary
280
     1
281
     1
  3
ACAD_ROUNDTRIP_2008_TABLESTYLE_CELLSTYLEMAP
360
3138
  3
ACAD_XREC_ROUNDTRIP
360
313D
  0
IDBUFFER
  5
312F
330
0
100
AcDbIdBuffer
  0
IDBUFFER
  5
3130
330
0
100
AcDbIdBuffer
330
3126
  0
IDBUFFER
  5
3131
330
0
100
AcDbIdBuffer
  0
IDBUFFER
  5
3132
330
0
100
AcDbIdBuffer
  0
XRECORD
  5
313F
102
{ACAD_REACTORS
330
313E
102
}
330
313E
100
AcDbXrecord
280
     1
102
SHADEPLOT
 70
     0
102
SHADEPLOTRESLEVEL
 70
     2
102
SHADEPLOTCUSTOMDPI
 70
   300
  0
XRECORD
  5
3141
102
{ACAD_REACTORS
330
3140
102
}
330
3140
100
AcDbXrecord
280
     1
102
SHADEPLOT
 70
     0
102
SHADEPLOTRESLEVEL
 70
     2
102
SHADEPLOTCUSTOMDPI
 70
   300
  0
XRECORD
  5
313C
102
{ACAD_REACTORS
330
313B
102
}
330
313B
100
AcDbXrecord
280
     1
102
SHADEPLOT
 70
     0
102
SHADEPLOTRESLEVEL
 70
     2
102
SHADEPLOTCUSTOMDPI
 70
   300
  0
XRECORD
  5
3143
102
{ACAD_REACTORS
330
2B98
102
}
330
2B98
100
AcDbXrecord
280
     1
102
MATERIAL
148
0.0
149
0.0
149
0.0
 93
        0
 94
      127
282
     0
 72
     0
 77
     0
171
     0
175
     0
179
     0
273
     0
  0
XRECORD
  5
2B9A
102
{ACAD_REACTORS
330
2B98
102
}
330
2B98
100
AcDbXrecord
280
     1
270
     1
271
     1
  0
XRECORD
  5
2B99
102
{ACAD_REACTORS
330
2B98
102
}
330
2B98
100
AcDbXrecord
280
     1
270
     1
271
     1
  0
XRECORD
  5
2B9D
102
{ACAD_REACTORS
330
2B98
102
}
330
2B98
100
AcDbXrecord
280
     1
270
     1
271
     1
  0
XRECORD
  5
2B9C
102
{ACAD_REACTORS
330
2B98
102
}
330
2B98
100
AcDbXrecord
280
     1
270
     1
271
     1
  0
XRECORD
  5
2B9E
102
{ACAD_REACTORS
330
2B98
102
}
330
2B98
100
AcDbXrecord
280
     1
270
     1
271
     1
  0
XRECORD
  5
2B9B
102
{ACAD_REACTORS
330
2B98
102
}
330
2B98
100
AcDbXrecord
280
     1
270
     1
271
     1
  0
XRECORD
  5
3142
102
{ACAD_REACTORS
330
2B90
102
}
330
2B90
100
AcDbXrecord
280
     1
102
MATERIAL
148
0.0
149
0.0
149
0.0
 93
        0
 94
      127
282
     0
 72
     0
 77
     0
171
     0
175
     0
179
     0
273
     0
  0
XRECORD
  5
2B92
102
{ACAD_REACTORS
330
2B90
102
}
330
2B90
100
AcDbXrecord
280
     1
270
     1
271
     1
  0
XRECORD
  5
2B91
102
{ACAD_REACTORS
330
2B90
102
}
330
2B90
100
AcDbXrecord
280
     1
270
     1
271
     1
  0
XRECORD
  5
2B95
102
{ACAD_REACTORS
330
2B90
102
}
330
2B90
100
AcDbXrecord
280
     1
270
     1
271
     1
  0
XRECORD
  5
2B94
102
{ACAD_REACTORS
330
2B90
102
}
330
2B90
100
AcDbXrecord
280
     1
270
     1
271
     1
  0
XRECORD
  5
2B96
102
{ACAD_REACTORS
330
2B90
102
}
330
2B90
100
AcDbXrecord
280
     1
270
     1
271
     1
  0
XRECORD
  5
2B93
102
{ACAD_REACTORS
330
2B90
102
}
330
2B90
100
AcDbXrecord
280
     1
270
     1
271
     1
  0
XRECORD
  5
3144
102
{ACAD_REACTORS
330
2BA0
102
}
330
2BA0
100
AcDbXrecord
280
     1
102
MATERIAL
148
0.0
149
0.0
149
0.0
 93
        0
 94
      127
282
     0
 72
     0
 77
     0
171
     0
175
     0
179
     0
273
     0
  0
XRECORD
  5
2BA2
102
{ACAD_REACTORS
330
2BA0
102
}
330
2BA0
100
AcDbXrecord
280
     1
270
     1
271
     1
  0
XRECORD
  5
2BA1
102
{ACAD_REACTORS
330
2BA0
102
}
330
2BA0
100
AcDbXrecord
280
     1
270
     1
271
     1
  0
XRECORD
  5
2BA5
102
{ACAD_REACTORS
330
2BA0
102
}
330
2BA0
100
AcDbXrecord
280
     1
270
     1
271
     1
  0
XRECORD
  5
2BA4
102
{ACAD_REACTORS
330
2BA0
102
}
330
2BA0
100
AcDbXrecord
280
     1
270
     1
271
     1
  0
XRECORD
  5
2BA6
102
{ACAD_REACTORS
330
2BA0
102
}
330
2BA0
100
AcDbXrecord
280
     1
270
     1
271
     1
  0
XRECORD
  5
2BA3
102
{ACAD_REACTORS
330
2BA0
102
}
330
2BA0
100
AcDbXrecord
280
     1
270
     1
271
     1
  0
CELLSTYLEMAP
  5
3138
102
{ACAD_REACTORS
330
3137
102
}
330
3137
100
AcDbCellStyleMap
 90
        3
300
CELLSTYLE
  1
TABLEFORMAT_BEGIN
 90
        5
170
     1
 91
        0
 92
    32768
 62
   257
 93
        1
300
CONTENTFORMAT
  1
CONTENTFORMAT_BEGIN
 90
        0
 91
        0
 92
        4
 93
        0
300

 40
0.0
140
1.0
 94
        5
 62
     0
340
11
144
6.0
309
CONTENTFORMAT_END
171
     1
301
MARGIN
  1
CELLMARGIN_BEGIN
 40
1.5
 40
1.5
 40
1.5
 40
1.5
 40
0.18
 40
0.18
309
CELLMARGIN_END
 94
        6
 95
        1
302
GRIDFORMAT
  1
GRIDFORMAT_BEGIN
 90
        0
 91
        1
 62
     0
 92
       -2
340
0
 93
        0
 40
0.045
309
GRIDFORMAT_END
 95
        2
302
GRIDFORMAT
  1
GRIDFORMAT_BEGIN
 90
        0
 91
        1
 62
     0
 92
       -2
340
0
 93
        0
 40
0.045
309
GRIDFORMAT_END
 95
        4
302
GRIDFORMAT
  1
GRIDFORMAT_BEGIN
 90
        0
 91
        1
 62
     0
 92
       -2
340
0
 93
        0
 40
0.045
309
GRIDFORMAT_END
 95
        8
302
GRIDFORMAT
  1
GRIDFORMAT_BEGIN
 90
        0
 91
        1
 62
     0
 92
       -2
340
0
 93
        0
 40
0.045
309
GRIDFORMAT_END
 95
       16
302
GRIDFORMAT
  1
GRIDFORMAT_BEGIN
 90
        0
 91
        1
 62
     0
 92
       -2
340
0
 93
        0
 40
0.045
309
GRIDFORMAT_END
 95
       32
302
GRIDFORMAT
  1
GRIDFORMAT_BEGIN
 90
        0
 91
        1
 62
     0
 92
       -2
340
0
 93
        0
 40
0.045
309
GRIDFORMAT_END
309
TABLEFORMAT_END
  1
CELLSTYLE_BEGIN
 90
        1
 91
        1
300
_TITLE
309
CELLSTYLE_END
300
CELLSTYLE
  1
TABLEFORMAT_BEGIN
 90
        5
170
     1
 91
        0
 92
        0
 62
   257
 93
        1
300
CONTENTFORMAT
  1
CONTENTFORMAT_BEGIN
 90
        0
 91
        0
 92
        4
 93
        0
300

 40
0.0
140
1.0
 94
        5
 62
     0
340
11
144
4.5
309
CONTENTFORMAT_END
171
     1
301
MARGIN
  1
CELLMARGIN_BEGIN
 40
1.5
 40
1.5
 40
1.5
 40
1.5
 40
0.18
 40
0.18
309
CELLMARGIN_END
 94
        6
 95
        1
302
GRIDFORMAT
  1
GRIDFORMAT_BEGIN
 90
        0
 91
        1
 62
     0
 92
       -2
340
0
 93
        0
 40
0.045
309
GRIDFORMAT_END
 95
        2
302
GRIDFORMAT
  1
GRIDFORMAT_BEGIN
 90
        0
 91
        1
 62
     0
 92
       -2
340
0
 93
        0
 40
0.045
309
GRIDFORMAT_END
 95
        4
302
GRIDFORMAT
  1
GRIDFORMAT_BEGIN
 90
        0
 91
        1
 62
     0
 92
       -2
340
0
 93
        0
 40
0.045
309
GRIDFORMAT_END
 95
        8
302
GRIDFORMAT
  1
GRIDFORMAT_BEGIN
 90
        0
 91
        1
 62
     0
 92
       -2
340
0
 93
        0
 40
0.045
309
GRIDFORMAT_END
 95
       16
302
GRIDFORMAT
  1
GRIDFORMAT_BEGIN
 90
        0
 91
        1
 62
     0
 92
       -2
340
0
 93
        0
 40
0.045
309
GRIDFORMAT_END
 95
       32
302
GRIDFORMAT
  1
GRIDFORMAT_BEGIN
 90
        0
 91
        1
 62
     0
 92
       -2
340
0
 93
        0
 40
0.045
309
GRIDFORMAT_END
309
TABLEFORMAT_END
  1
CELLSTYLE_BEGIN
 90
        2
 91
        1
300
_HEADER
309
CELLSTYLE_END
300
CELLSTYLE
  1
TABLEFORMAT_BEGIN
 90
        5
170
     1
 91
        0
 92
        0
 62
   257
 93
        1
300
CONTENTFORMAT
  1
CONTENTFORMAT_BEGIN
 90
        0
 91
        0
 92
        4
 93
        0
300

 40
0.0
140
1.0
 94
        2
 62
     0
340
11
144
4.5
309
CONTENTFORMAT_END
171
     1
301
MARGIN
  1
CELLMARGIN_BEGIN
 40
1.5
 40
1.5
 40
1.5
 40
1.5
 40
0.18
 40
0.18
309
CELLMARGIN_END
 94
        6
 95
        1
302
GRIDFORMAT
  1
GRIDFORMAT_BEGIN
 90
        0
 91
        1
 62
     0
 92
       -2
340
0
 93
        0
 40
0.045
309
GRIDFORMAT_END
 95
        2
302
GRIDFORMAT
  1
GRIDFORMAT_BEGIN
 90
        0
 91
        1
 62
     0
 92
       -2
340
0
 93
        0
 40
0.045
309
GRIDFORMAT_END
 95
        4
302
GRIDFORMAT
  1
GRIDFORMAT_BEGIN
 90
        0
 91
        1
 62
     0
 92
       -2
340
0
 93
        0
 40
0.045
309
GRIDFORMAT_END
 95
        8
302
GRIDFORMAT
  1
GRIDFORMAT_BEGIN
 90
        0
 91
        1
 62
     0
 92
       -2
340
0
 93
        0
 40
0.045
309
GRIDFORMAT_END
 95
       16
302
GRIDFORMAT
  1
GRIDFORMAT_BEGIN
 90
        0
 91
        1
 62
     0
 92
       -2
340
0
 93
        0
 40
0.045
309
GRIDFORMAT_END
 95
       32
302
GRIDFORMAT
  1
GRIDFORMAT_BEGIN
 90
        0
 91
        1
 62
     0
 92
       -2
340
0
 93
        0
 40
0.045
309
GRIDFORMAT_END
309
TABLEFORMAT_END
  1
CELLSTYLE_BEGIN
 90
        3
 91
        2
300
_DATA
309
CELLSTYLE_END
  0
XRECORD
  5
313D
102
{ACAD_REACTORS
330
3137
102
}
330
3137
100
AcDbXrecord
280
     1
102
ACAD_ROUNDTRIP_PRE2007_TABLESTYLE
 90
        4
 91
        0
  1

 92
        4
 93
        0
  2

 94
        4
 95
        0
  3

  0
ENDSEC
  0
EOF
