  0
SECTION
  2
HEADER
  9
$ACADVER
  1
AC1015
  9
$ACADMAINTVER
 70
    20
  9
$DWGCODEPAGE
  3
ANSI_1252
  9
$INSBASE
 10
0.0
 20
0.0
 30
0.0
  9
$EXTMIN
 10
1364.797735049189
 20
1245.641267513019
 30
0.0
  9
$EXTMAX
 10
1759.717046224977
 20
1600.687260169454
 30
0.0
  9
$LIMMIN
 10
0.0
 20
0.0
  9
$LIMMAX
 10
420.0
 20
297.0
  9
$ORTHOMODE
 70
     1
  9
$REGENMODE
 70
     1
  9
$FILLMODE
 70
     1
  9
$QTEXTMODE
 70
     0
  9
$MIRRTEXT
 70
     0
  9
$LTSCALE
 40
1.0
  9
$ATTMODE
 70
     1
  9
$TEXTSIZE
 40
2.5
  9
$TRACEWID
 40
1.0
  9
$TEXTSTYLE
  7
Standard
  9
$CLAYER
  8
AM0
  9
$CELTYPE
  6
ByLayer
  9
$CECOLOR
 62
   256
  9
$CELTSCALE
 40
1.0
  9
$DISPSILH
 70
     0
  9
$DIMSCALE
 40
3.0
  9
$DIMASZ
 40
2.5
  9
$DIMEXO
 40
1.0
  9
$DIMDLI
 40
10.0
  9
$DIMRND
 40
0.0
  9
$DIMDLE
 40
0.0
  9
$DIMEXE
 40
1.0
  9
$DIMTP
 40
0.1
  9
$DIMTM
 40
0.1
  9
$DIMTXT
 40
3.5
  9
$DIMCEN
 40
0.0
  9
$DIMTSZ
 40
0.0
  9
$DIMTOL
 70
     0
  9
$DIMLIM
 70
     0
  9
$DIMTIH
 70
     0
  9
$DIMTOH
 70
     0
  9
$DIMSE1
 70
     0
  9
$DIMSE2
 70
     0
  9
$DIMTAD
 70
     1
  9
$DIMZIN
 70
     8
  9
$DIMBLK
  1

  9
$DIMASO
 70
     1
  9
$DIMSHO
 70
     1
  9
$DIMPOST
  1

  9
$DIMAPOST
  1
"
  9
$DIMALT
 70
     0
  9
$DIMALTD
 70
     3
  9
$DIMALTF
 40
0.0393701
  9
$DIMLFAC
 40
1.0
  9
$DIMTOFL
 70
     1
  9
$DIMTVP
 40
0.0
  9
$DIMTIX
 70
     0
  9
$DIMSOXD
 70
     0
  9
$DIMSAH
 70
     0
  9
$DIMBLK1
  1

  9
$DIMBLK2
  1

  9
$DIMSTYLE
  2
AM_ISO
  9
$DIMCLRD
 70
   256
  9
$DIMCLRE
 70
   256
  9
$DIMCLRT
 70
     2
  9
$DIMTFAC
 40
0.71
  9
$DIMGAP
 40
1.5
  9
$DIMJUST
 70
     0
  9
$DIMSD1
 70
     0
  9
$DIMSD2
 70
     0
  9
$DIMTOLJ
 70
     0
  9
$DIMTZIN
 70
     8
  9
$DIMALTZ
 70
     0
  9
$DIMALTTZ
 70
     0
  9
$DIMUPT
 70
     0
  9
$DIMDEC
 70
     2
  9
$DIMTDEC
 70
     2
  9
$DIMALTU
 70
     2
  9
$DIMALTTD
 70
     3
  9
$DIMTXSTY
  7
Standard
  9
$DIMAUNIT
 70
     0
  9
$DIMADEC
 70
     0
  9
$DIMALTRND
 40
0.0
  9
$DIMAZIN
 70
     2
  9
$DIMDSEP
 70
    46
  9
$DIMATFIT
 70
     3
  9
$DIMFRAC
 70
     0
  9
$DIMLDRBLK
  1

  9
$DIMLUNIT
 70
     2
  9
$DIMLWD
 70
    -1
  9
$DIMLWE
 70
    -1
  9
$DIMTMOVE
 70
     0
  9
$LUNITS
 70
     2
  9
$LUPREC
 70
     4
  9
$SKETCHINC
 40
1.0
  9
$FILLETRAD
 40
0.0
  9
$AUNITS
 70
     0
  9
$AUPREC
 70
     0
  9
$MENU
  1
.
  9
$ELEVATION
 40
0.0
  9
$PELEVATION
 40
0.0
  9
$THICKNESS
 40
0.0
  9
$LIMCHECK
 70
     0
  9
$CHAMFERA
 40
0.0
  9
$CHAMFERB
 40
0.0
  9
$CHAMFERC
 40
0.0
  9
$CHAMFERD
 40
0.0
  9
$SKPOLY
 70
     0
  9
$TDCREATE
 40
2454921.404451678
  9
$TDUCREATE
 40
2454921.362785011
  9
$TDUPDATE
 40
2456350.716605648
  9
$TDUUPDATE
 40
2456350.674938982
  9
$TDINDWG
 40
0.0569050463
  9
$TDUSRTIMER
 40
0.0569043519
  9
$USRTIMER
 70
     1
  9
$ANGBASE
 50
0.0
  9
$ANGDIR
 70
     0
  9
$PDMODE
 70
     0
  9
$PDSIZE
 40
0.0
  9
$PLINEWID
 40
0.0
  9
$SPLFRAME
 70
     0
  9
$SPLINETYPE
 70
     6
  9
$SPLINESEGS
 70
     8
  9
$HANDSEED
  5
3160
  9
$SURFTAB1
 70
     6
  9
$SURFTAB2
 70
     6
  9
$SURFTYPE
 70
     6
  9
$SURFU
 70
     6
  9
$SURFV
 70
     6
  9
$UCSBASE
  2

  9
$UCSNAME
  2

  9
$UCSORG
 10
0.0
 20
0.0
 30
0.0
  9
$UCSXDIR
 10
1.0
 20
0.0
 30
0.0
  9
$UCSYDIR
 10
0.0
 20
1.0
 30
0.0
  9
$UCSORTHOREF
  2

  9
$UCSORTHOVIEW
 70
     0
  9
$UCSORGTOP
 10
0.0
 20
0.0
 30
0.0
  9
$UCSORGBOTTOM
 10
0.0
 20
0.0
 30
0.0
  9
$UCSORGLEFT
 10
0.0
 20
0.0
 30
0.0
  9
$UCSORGRIGHT
 10
0.0
 20
0.0
 30
0.0
  9
$UCSORGFRONT
 10
0.0
 20
0.0
 30
0.0
  9
$UCSORGBACK
 10
0.0
 20
0.0
 30
0.0
  9
$PUCSBASE
  2

  9
$PUCSNAME
  2

  9
$PUCSORG
 10
0.0
 20
0.0
 30
0.0
  9
$PUCSXDIR
 10
1.0
 20
0.0
 30
0.0
  9
$PUCSYDIR
 10
0.0
 20
1.0
 30
0.0
  9
$PUCSORTHOREF
  2

  9
$PUCSORTHOVIEW
 70
     0
  9
$PUCSORGTOP
 10
0.0
 20
0.0
 30
0.0
  9
$PUCSORGBOTTOM
 10
0.0
 20
0.0
 30
0.0
  9
$PUCSORGLEFT
 10
0.0
 20
0.0
 30
0.0
  9
$PUCSORGRIGHT
 10
0.0
 20
0.0
 30
0.0
  9
$PUCSORGFRONT
 10
0.0
 20
0.0
 30
0.0
  9
$PUCSORGBACK
 10
0.0
 20
0.0
 30
0.0
  9
$USERI1
 70
     0
  9
$USERI2
 70
     0
  9
$USERI3
 70
     0
  9
$USERI4
 70
     0
  9
$USERI5
 70
     0
  9
$USERR1
 40
0.0
  9
$USERR2
 40
0.0
  9
$USERR3
 40
0.0
  9
$USERR4
 40
0.0
  9
$USERR5
 40
0.0
  9
$WORLDVIEW
 70
     1
  9
$SHADEDGE
 70
     3
  9
$SHADEDIF
 70
    70
  9
$TILEMODE
 70
     1
  9
$MAXACTVP
 70
    64
  9
$PINSBASE
 10
0.0
 20
0.0
 30
0.0
  9
$PLIMCHECK
 70
     0
  9
$PEXTMIN
 10
0.0
 20
0.0
 30
0.0
  9
$PEXTMAX
 10
0.0
 20
0.0
 30
0.0
  9
$PLIMMIN
 10
0.0
 20
0.0
  9
$PLIMMAX
 10
12.0
 20
9.0
  9
$UNITMODE
 70
     0
  9
$VISRETAIN
 70
     1
  9
$PLINEGEN
 70
     0
  9
$PSLTSCALE
 70
     1
  9
$TREEDEPTH
 70
  3020
  9
$CMLSTYLE
  2
Standard
  9
$CMLJUST
 70
     0
  9
$CMLSCALE
 40
20.0
  9
$PROXYGRAPHICS
 70
     1
  9
$MEASUREMENT
 70
     1
  9
$CELWEIGHT
370
    -1
  9
$ENDCAPS
280
     0
  9
$JOINSTYLE
280
     0
  9
$LWDISPLAY
290
     0
  9
$INSUNITS
 70
     4
  9
$HYPERLINKBASE
  1

  9
$STYLESHEET
  1

  9
$XEDIT
290
     1
  9
$CEPSNTYPE
380
     0
  9
$PSTYLEMODE
290
     1
  9
$FINGERPRINTGUID
  2
{E4499B6C-1080-4C38-8193-60CD157A31AB}
  9
$VERSIONGUID
  2
{6B63D5AA-0EE4-4773-805D-F57F377639EC}
  9
$EXTNAMES
290
     1
  9
$PSVPSCALE
 40
0.0
  9
$OLESTARTUP
290
     0
  0
ENDSEC
  0
SECTION
  2
CLASSES
  0
CLASS
  1
ACDBDICTIONARYWDFLT
  2
AcDbDictionaryWithDefault
  3
ObjectDBX Classes
 90
        0
280
     0
281
     0
  0
CLASS
  1
ACDBPLACEHOLDER
  2
AcDbPlaceHolder
  3
ObjectDBX Classes
 90
        0
280
     0
281
     0
  0
CLASS
  1
LAYOUT
  2
AcDbLayout
  3
ObjectDBX Classes
 90
        0
280
     0
281
     0
  0
CLASS
  1
DICTIONARYVAR
  2
AcDbDictionaryVar
  3
ObjectDBX Classes
 90
        0
280
     0
281
     0
  0
CLASS
  1
TABLESTYLE
  2
AcDbTableStyle
  3
ObjectDBX Classes
 90
     4095
280
     0
281
     0
  0
CLASS
  1
SORTENTSTABLE
  2
AcDbSortentsTable
  3
ObjectDBX Classes
 90
        0
280
     0
281
     0
  0
CLASS
  1
MATERIAL
  2
AcDbMaterial
  3
ObjectDBX Classes
 90
     1153
280
     0
281
     0
  0
CLASS
  1
VISUALSTYLE
  2
AcDbVisualStyle
  3
ObjectDBX Classes
 90
     4095
280
     0
281
     0
  0
CLASS
  1
SCALE
  2
AcDbScale
  3
ObjectDBX Classes
 90
     1153
280
     0
281
     0
  0
CLASS
  1
MLEADERSTYLE
  2
AcDbMLeaderStyle
  3
ACDB_MLEADERSTYLE_CLASS
 90
     4095
280
     0
281
     0
  0
CLASS
  1
AMGSETTINGSOBJ
  2
AmgSettingsObj
  3
"AcadM|Product Description: AutoCAD Mechanical|Company: Autodesk, Inc."
 90
     1024
280
     0
281
     0
  0
CLASS
  1
AMGOBJPROPCFG
  2
AmgObjPropCfg
  3
"AmgLay|Product Description: AutoCAD Mechanical|Company: Autodesk, Inc."
 90
     1025
280
     0
281
     0
  0
CLASS
  1
ACMESCOPE
  2
AcMeScope
  3
AcMeServices
 90
     1024
280
     0
281
     0
  0
CLASS
  1
ACGREFMASTER
  2
AcGrefMaster
  3
AcAttribServices
 90
     1024
280
     0
281
     0
  0
CLASS
  1
ACME_DOCUMENT
  2
AcMeDbDoc
  3
AcMeServices
 90
     1024
280
     0
281
     0
  0
CLASS
  1
ACMECOMMANDHISTORY
  2
AcMeCommandHistory
  3
AcMeServices
 90
     1024
280
     0
281
     0
  0
CLASS
  1
ACIMSYSVARMAN
  2
AcImSysVarManager
  3
AcMeServices
 90
     1024
280
     0
281
     0
  0
CLASS
  1
ACIMREALSYSVAR
  2
AcImRealSysVar
  3
AcMeServices
 90
     1024
280
     0
281
     0
  0
CLASS
  1
ACIMINTSYSVAR
  2
AcImIntSysVar
  3
AcMeServices
 90
     1024
280
     0
281
     0
  0
CLASS
  1
ACMEDRAWINGMAN
  2
AcMeDrawingMan
  3
AcMeServices
 90
     1024
280
     0
281
     0
  0
CLASS
  1
ACMEVIEW
  2
AcMeView
  3
AcMeServices
 90
     1024
280
     0
281
     0
  0
CLASS
  1
ACDBENTITYCACHE
  2
AcMeEntityCache
  3
AcMeServices
 90
     1024
280
     0
281
     0
  0
CLASS
  1
GSMANAGER
  2
AcMeGSManager
  3
AcMeServices
 90
     1024
280
     0
281
     0
  0
CLASS
  1
AMDTINTERNALREACTOR
  2
AmdtInternalReactor
  3
AcMeServices
 90
     1024
280
     0
281
     0
  0
CLASS
  1
ACMESTATEMGR
  2
AcMeStateMgr
  3
AcMeServices
 90
     1024
280
     0
281
     0
  0
CLASS
  1
AM_DRAWING_MGR
  2
AcDmDwgMgr
  3
AcMechDwgViewMgmt
 90
     1024
280
     0
281
     0
  0
CLASS
  1
AM_DWG_DOCUMENT
  2
AcDmDwgDocument
  3
AcMechDwgViewMgmt
 90
     1024
280
     0
281
     0
  0
CLASS
  1
AM_DWG_SHEET
  2
AcDmSheet
  3
AcMechDwgViewMgmt
 90
     1024
280
     0
281
     0
  0
CLASS
  1
AM_VIEWDIMPARMAP
  2
AcDmViewDimParMap
  3
AcMechDwgViewMgmt
 90
     1024
280
     0
281
     0
  0
CLASS
  1
AM_DWGMGR_NAME
  2
AcDmDwgMgrName
  3
AcMechDwgViewMgmt
 90
     1024
280
     0
281
     0
  0
CLASS
  1
ACME_DATABASE
  2
AcMeDbDatabase
  3
AcMeServices
 90
     1024
280
     0
281
     0
  0
CLASS
  1
ACRFINSADJUSTERMGR
  2
AcRfInsAdjusterMgr
  3
AcMeServices
 90
     1024
280
     0
281
     0
  0
CLASS
  1
ACGREFACADMASTER
  2
AcGrefacadMaster
  3
AcGrefServices
 90
     1024
280
     0
281
     0
  0
CLASS
  1
AMDTMENUSTATEMGR
  2
AmdtMenuStateMgr
  3
McadcomServices
 90
     1024
280
     0
281
     0
  0
CLASS
  1
AMDTMCOMMENUSTATE
  2
AmdtMcomMenuState
  3
McadcomServices
 90
     1024
280
     0
281
     0
  0
CLASS
  1
AMIMASTER
  2
AmiMaster
  3
AmiServices
 90
     1024
280
     0
281
     0
  0
CLASS
  1
ASAPP
  2
AcAsAppObject
  3
AutoSurfServices
 90
     1024
280
     0
281
     0
  0
CLASS
  1
IM_STATIC_MAN
  2
AcImStaticVarManager
  3
AcMeServices
 90
     1024
280
     0
281
     0
  0
CLASS
  1
ACIMSTRSYSVAR
  2
AcImStrSysVar
  3
AcMeServices
 90
     1024
280
     0
281
     0
  0
CLASS
  1
ACIMDBLSTATICVAR
  2
AcImDblStaticVar
  3
AcMeServices
 90
     1024
280
     0
281
     0
  0
CLASS
  1
ACIMSTRSTATICVAR
  2
AcImStrStaticVar
  3
AcMeServices
 90
     1024
280
     0
281
     0
  0
CLASS
  1
ACIMINTSTATICVAR
  2
AcImIntStaticVar
  3
AcMeServices
 90
     1024
280
     0
281
     0
  0
CLASS
  1
ACASGREFMASTER
  2
AcAsGrefMaster
  3
AutoSurfResolverServices
 90
     1024
280
     0
281
     0
  0
CLASS
  1
ACADGREFMODULE
  2
AcAdGrefModule
  3
AdGrefServices
 90
     1024
280
     0
281
     0
  0
CLASS
  1
AMDTMAPISURFMOUDULE
  2
AmdtMApiSurfModule
  3
MApiSurfServices
 90
    33792
280
     0
281
     0
  0
CLASS
  1
MAPIAMMOUDLE
  2
MApiAmModule
  3
MApiAmServices
 90
     1024
280
     0
281
     0
  0
CLASS
  1
ACMSTANDARDANSI
  2
AcmStandardANSI
  3
"Amdt_StdImp|Product Description: AutoCAD Mechanical|Company: Autodesk, Inc."
 90
     1024
280
     0
281
     0
  0
CLASS
  1
ACMSURFSTANDARDANSI
  2
AcmSurfTextStdANSI
  3
"Amdt_StdImp|Product Description: AutoCAD Mechanical|Company: Autodesk, Inc."
 90
     1024
280
     0
281
     0
  0
CLASS
  1
ACMFCFSTANDARDANSI
  2
AcmFCFStdANSI
  3
"Amdt_StdImp|Product Description: AutoCAD Mechanical|Company: Autodesk, Inc."
 90
     1024
280
     0
281
     0
  0
CLASS
  1
ACMWELDSTANDARDANSI
  2
AcmWeldingStdANSI
  3
"Amdt_StdImp|Product Description: AutoCAD Mechanical|Company: Autodesk, Inc."
 90
     1024
280
     0
281
     0
  0
CLASS
  1
ACMIDSTANDARDANSI
  2
AcmIdStdANSI
  3
"Amdt_StdImp|Product Description: AutoCAD Mechanical|Company: Autodesk, Inc."
 90
     1024
280
     0
281
     0
  0
CLASS
  1
ACMDATUMSTANDARDANSI
  2
AcmDatumStdANSI
  3
"Amdt_StdImp|Product Description: AutoCAD Mechanical|Company: Autodesk, Inc."
 90
     1024
280
     0
281
     0
  0
CLASS
  1
ACMBOMSTANDARDANSI
  2
AcmBOMStdANSI
  3
"Amdt_StdImp|Product Description: AutoCAD Mechanical|Company: Autodesk, Inc."
 90
     1024
280
     0
281
     0
  0
CLASS
  1
ACMDETAILSTANDARDANSI
  2
AmdtDetailSymStdANSI
  3
"Amdt_StdImp|Product Description: AutoCAD Mechanical|Company: Autodesk, Inc."
 90
     1024
280
     0
281
     0
  0
CLASS
  1
ACMSECTIONSTANDARDANSI
  2
AmdtSectionSymStdANSI
  3
"Amdt_StdImp|Product Description: AutoCAD Mechanical|Company: Autodesk, Inc."
 90
     1024
280
     0
281
     0
  0
CLASS
  1
ACMCENTERLINESTANDARDANSI
  2
AmdtCenterLineStdANSI
  3
"Amdt_StdImp|Product Description: AutoCAD Mechanical|Company: Autodesk, Inc."
 90
     1024
280
     0
281
     0
  0
CLASS
  1
ACMTHREADLINESTANDARDANSI
  2
AmdtThreadLineStdANSI
  3
"Amdt_StdImp|Product Description: AutoCAD Mechanical|Company: Autodesk, Inc."
 90
     1024
280
     0
281
     0
  0
CLASS
  1
ACMNOTESTANDARDANSI
  2
AmdtNoteStdANSI
  3
"Amdt_StdImp|Product Description: AutoCAD Mechanical|Company: Autodesk, Inc."
 90
     1024
280
     0
281
     0
  0
CLASS
  1
AMDTNOTETEMPLATEDB
  2
AmdtNoteTemplateDB
  3
AcmSymBB|Product Description: AutoCAD Mechanical|Company: Autodesk, Inc.
 90
     1024
280
     0
281
     0
  0
CLASS
  1
ACAMGLAYSTD
  2
AcAmgLayStd
  3
"AmgLay|Product Description: AutoCAD Mechanical|Company: Autodesk, Inc."
 90
     1024
280
     0
281
     0
  0
CLASS
  1
ACAMGDIMSTD
  2
AcAmgDimStd
  3
"AmgDim|Product Description: AutoCAD Mechanical|Company: Autodesk, Inc."
 90
     1024
280
     0
281
     0
  0
CLASS
  1
ACAMGHOLECHARTSTDANSI
  2
AcAmgHoleChartStdANSI
  3
AmgDim|Product Description: AutoCAD Mechanical|Company: Autodesk, Inc.
 90
     1024
280
     0
281
     0
  0
CLASS
  1
ACAMGTITLESTD
  2
AcAmgTitleStd
  3
"AmgTitle|Product Description: AutoCAD Mechanical|Company: Autodesk, Inc."
 90
     4095
280
     0
281
     0
  0
CLASS
  1
ACMTAPERSTANDARDANSI
  2
AcmTaperStdANSI
  3
"Amdt_StdImp|Product Description: AutoCAD Mechanical|Company: Autodesk, Inc."
 90
     1024
280
     0
281
     0
  0
CLASS
  1
ACMANOOTATIONVIEWSTANDARDANSI
  2
AmdtAnViewStdANSI
  3
"Amdt_StdImp|Product Description: AutoCAD Mechanical|Company: Autodesk, Inc."
 90
     1024
280
     0
281
     0
  0
CLASS
  1
ACMSTANDARDISO
  2
AcmStandardISO
  3
"Amdt_StdImp|Product Description: AutoCAD Mechanical|Company: Autodesk, Inc."
 90
     1024
280
     0
281
     0
  0
CLASS
  1
AMDTEDGESTANDARDISO
  2
AmdtEdgeStdISO
  3
"Amdt_StdImp|Product Description: AutoCAD Mechanical|Company: Autodesk, Inc."
 90
     1024
280
     0
281
     0
  0
CLASS
  1
ACMSURFSTANDARDISO
  2
AcmSurfTextStdISO
  3
"Amdt_StdImp|Product Description: AutoCAD Mechanical|Company: Autodesk, Inc."
 90
     1024
280
     0
281
     0
  0
CLASS
  1
ACMFCFSTANDARDISO
  2
AcmFCFStdISO
  3
"Amdt_StdImp|Product Description: AutoCAD Mechanical|Company: Autodesk, Inc."
 90
     1024
280
     0
281
     0
  0
CLASS
  1
ACMWELDSTANDARDISO
  2
AcmWeldingStdISO
  3
"Amdt_StdImp|Product Description: AutoCAD Mechanical|Company: Autodesk, Inc."
 90
     1024
280
     0
281
     0
  0
CLASS
  1
ACMIDSTANDARDISO
  2
AcmIdStdISO
  3
"Amdt_StdImp|Product Description: AutoCAD Mechanical|Company: Autodesk, Inc."
 90
     1024
280
     0
281
     0
  0
CLASS
  1
ACMDATUMSTANDARDISO
  2
AcmDatumStdISO
  3
"Amdt_StdImp|Product Description: AutoCAD Mechanical|Company: Autodesk, Inc."
 90
     1024
280
     0
281
     0
  0
CLASS
  1
ACMBOMSTANDARDISO
  2
AcmBOMStdISO
  3
"Amdt_StdImp|Product Description: AutoCAD Mechanical|Company: Autodesk, Inc."
 90
     1024
280
     0
281
     0
  0
CLASS
  1
ACMDETAILSTANDARDISO
  2
AmdtDetailSymStdISO
  3
"Amdt_StdImp|Product Description: AutoCAD Mechanical|Company: Autodesk, Inc."
 90
     1024
280
     0
281
     0
  0
CLASS
  1
ACMSECTIONSTANDARDISO
  2
AmdtSectionSymStdISO
  3
"Amdt_StdImp|Product Description: AutoCAD Mechanical|Company: Autodesk, Inc."
 90
     1024
280
     0
281
     0
  0
CLASS
  1
ACMCENTERLINESTANDARDISO
  2
AmdtCenterLineStdISO
  3
"Amdt_StdImp|Product Description: AutoCAD Mechanical|Company: Autodesk, Inc."
 90
     1024
280
     0
281
     0
  0
CLASS
  1
ACMTHREADLINESTANDARDISO
  2
AmdtThreadLineStdISO
  3
"Amdt_StdImp|Product Description: AutoCAD Mechanical|Company: Autodesk, Inc."
 90
     1024
280
     0
281
     0
  0
CLASS
  1
ACMNOTESTANDARDISO
  2
AmdtNoteStdISO
  3
"Amdt_StdImp|Product Description: AutoCAD Mechanical|Company: Autodesk, Inc."
 90
     1024
280
     0
281
     0
  0
CLASS
  1
ACAMGHOLECHARTSTDISO
  2
AcAmgHoleChartStdISO
  3
AmgDim|Product Description: AutoCAD Mechanical|Company: Autodesk, Inc.
 90
     1024
280
     0
281
     0
  0
CLASS
  1
ACMTAPERSTANDARDISO
  2
AcmTaperStdISO
  3
"Amdt_StdImp|Product Description: AutoCAD Mechanical|Company: Autodesk, Inc."
 90
     1024
280
     0
281
     0
  0
CLASS
  1
ACMANOOTATIONVIEWSTANDARDISO
  2
AmdtAnViewStdISO
  3
"Amdt_StdImp|Product Description: AutoCAD Mechanical|Company: Autodesk, Inc."
 90
     1024
280
     0
281
     0
  0
CLASS
  1
AMDTADMENUSTATE
  2
AmdtAdMenuState
  3
DesignerServices
 90
     1024
280
     0
281
     0
  0
CLASS
  1
ADAPPL
  2
AcAdAppl
  3
DesignerServices
 90
     1024
280
     0
281
     0
  0
CLASS
  1
DEPMGR
  2
AcAdDepMgr
  3
DesignerServices
 90
     1024
280
     0
281
     0
  0
CLASS
  1
PARAMMGR
  2
AcAdParamMgr
  3
DesignerServices
 90
     1024
280
     0
281
     0
  0
CLASS
  1
PARAMSCOPE
  2
AcAdParamScope
  3
DesignerServices
 90
     1024
280
     0
281
     0
  0
CLASS
  1
NAMEDAPPL
  2
AcAdNamedAppl
  3
DesignerServices
 90
     1024
280
     0
281
     0
  0
CLASS
  1
AMDTDMMENUSTATE
  2
AmdtDmMenuState
  3
AcMechDwgViewMgmt
 90
     1024
280
     0
281
     0
  0
CLASS
  1
MAPIADMODULE
  2
MApiAdModule
  3
MApiAdServices
 90
     1024
280
     0
281
     0
  0
CLASS
  1
AMDTAMMENUSTATE
  2
AmdtAmMenuState
  3
DesignerAssemblies
 90
     1024
280
     0
281
     0
  0
CLASS
  1
ACAMPROJECT
  2
AcAmProject
  3
DesignerAssemblies
 90
     1024
280
     0
281
     0
  0
CLASS
  1
ACAMGRCOMPDEF
  2
AcAmGrCompDef
  3
DesignerAssemblies
 90
     1024
280
     0
281
     0
  0
CLASS
  1
ACCMCONTEXT
  2
AcCmContext
  3
DesignerAssemblies
 90
     1024
280
     0
281
     0
  0
CLASS
  1
ACAMCOMPDEF
  2
AcAmCompDef
  3
DesignerAssemblies
 90
     1024
280
     0
281
     0
  0
CLASS
  1
ACAMCOMPDEFMGR
  2
AcAmCompDefMgr
  3
DesignerAssemblies
 90
     1024
280
     0
281
     0
  0
CLASS
  1
AMCONTEXTMGR
  2
AcAmContextMgr
  3
DesignerAssemblies
 90
     1024
280
     0
281
     0
  0
CLASS
  1
ACAMCONTEXTMODELER
  2
AcAmContextModeler
  3
DesignerAssemblies
 90
     1024
280
     0
281
     0
  0
CLASS
  1
ACMDATADICTIONARY
  2
AcmDataDictionary
  3
"AcmSymBB|Product Description: AutoCAD Mechanical|Company: Autodesk, Inc."
 90
     1024
280
     0
281
     0
  0
CLASS
  1
ACMDATAENTRYBLOCK
  2
AcmDataEntryBlock
  3
AcmSymBB|Product Description: AutoCAD Mechanical|Company: Autodesk, Inc.
 90
     1024
280
     0
281
     0
  0
CLASS
  1
ACRFATTGENMGR
  2
AcRfAttGeneralMgr
  3
AcAttribServices
 90
     1024
280
     0
281
     0
  0
CLASS
  1
ACRFOBJATTMGR
  2
AcRfObjAttGroupMgr
  3
AcAttribServices
 90
     1024
280
     0
281
     0
  0
CLASS
  1
ACRFMCADAPIATTHOLDER
  2
AcRfMCADAPIAttHolder
  3
AcAttribServices
 90
     1024
280
     0
281
     0
  0
CLASS
  1
AMDTSYSATTR
  2
AmdtSystemAttribute
  3
AcAttribServices
 90
     1024
280
     0
281
     0
  0
CLASS
  1
CATALOGSTATE
  2
AcAmCatalogState
  3
DesignerAssemblies
 90
     1024
280
     0
281
     0
  0
CLASS
  1
ACAMGRCOMPDEFSET
  2
AcAmGrCompDefSet
  3
DesignerAssemblies
 90
     1024
280
     0
281
     0
  0
CLASS
  1
AMDTBROWSERDBTAB
  2
AmdtBrowserDbTab
  3
McadcomServices
 90
     1024
280
     0
281
     0
  0
CLASS
  1
CBROWSERAPPOBJECT
  2
CBrowserAppObject
  3
McadcomServices
 90
     1024
280
     0
281
     0
  0
CLASS
  1
DM_PLACEHOLDER
  2
AcDmSelsetPlaceholder
  3
AcMechDwgViewMgmt
 90
     1024
280
     0
281
     0
  0
CLASS
  1
ACAMGFILTERDAT
  2
AcAmgFilterDat
  3
"AcadM|Product Description: AutoCAD Mechanical|Company: Autodesk, Inc."
 90
     1024
280
     0
281
     0
  0
CLASS
  1
AEC_REFEDIT_STATUS_TRACKER
  2
AecDbRefEditStatusTracker
  3
AecArchBase50|Product Desc: Autodesk Architectural Desktop 2007 |Company: Autodesk,Inc. |WEB Address: www.autodesk.com
 90
      129
280
     0
281
     0
  0
CLASS
  1
NPOCOLLECTION
  2
AcDbImpNonPersistentObjectsCollection
  3
ObjectDBX Classes
 90
     1153
280
     0
281
     0
  0
CLASS
  1
DIMASSOC
  2
AcDbDimAssoc
  3
"AcDbDimAssoc|Product Desc:     AcDim ARX App For Dimension|Company:          Autodesk, Inc.|WEB Address:      www.autodesk.com"
 90
    32768
280
     0
281
     0
  0
CLASS
  1
LAYER_INDEX
  2
AcDbLayerIndex
  3
ObjectDBX Classes
 90
        0
280
     0
281
     0
  0
CLASS
  1
IDBUFFER
  2
AcDbIdBuffer
  3
ObjectDBX Classes
 90
        0
280
     0
281
     0
  0
CLASS
  1
CELLSTYLEMAP
  2
AcDbCellStyleMap
  3
ObjectDBX Classes
 90
     1152
280
     0
281
     0
  0
ENDSEC
  0
SECTION
  2
TABLES
  0
TABLE
  2
VPORT
  5
8
330
0
100
AcDbSymbolTable
 70
     1
  0
VPORT
  5
2A62
330
8
100
AcDbSymbolTableRecord
100
AcDbViewportTableRecord
  2
*Active
 70
     0
 10
0.0
 20
0.0
 11
1.0
 21
1.0
 12
-145.0474205195116
 22
54.47133634078659
 13
0.0
 23
0.0
 14
10.0
 24
10.0
 15
10.0
 25
10.0
 16
0.0
 26
0.0
 36
1.0
 17
1868.989461231214
 27
1477.311872570889
 37
0.0
 40
630.1808657312649
 41
1.795361527967257
 42
50.0
 43
0.0
 44
0.0
 50
0.0
 51
0.0
 71
     0
 72
  1000
 73
     1
 74
     3
 75
     0
 76
     0
 77
     0
 78
     0
281
     0
 65
     0
110
0.0
120
0.0
130
0.0
111
1.0
121
0.0
131
0.0
112
0.0
122
1.0
132
0.0
 79
     0
146
0.0
  0
ENDTAB
  0
TABLE
  2
LTYPE
  5
5
330
0
100
AcDbSymbolTable
 70
    22
  0
LTYPE
  5
14
330
5
100
AcDbSymbolTableRecord
100
AcDbLinetypeTableRecord
  2
ByBlock
 70
     0
  3

 72
    65
 73
     0
 40
0.0
  0
LTYPE
  5
15
330
5
100
AcDbSymbolTableRecord
100
AcDbLinetypeTableRecord
  2
ByLayer
 70
     0
  3

 72
    65
 73
     0
 40
0.0
  0
LTYPE
  5
16
330
5
100
AcDbSymbolTableRecord
100
AcDbLinetypeTableRecord
  2
Continuous
 70
     0
  3
Solid line
 72
    65
 73
     0
 40
0.0
  0
LTYPE
  5
E5
330
5
100
AcDbSymbolTableRecord
100
AcDbLinetypeTableRecord
  2
ACAD_ISO02W100
 70
     0
  3
ISO dash __ __ __ __ __ __ __ __ __ __ __ __ __
 72
    65
 73
     2
 40
15.0
 49
12.0
 74
     0
 49
-3.0
 74
     0
  0
LTYPE
  5
2ABF
330
5
100
AcDbSymbolTableRecord
100
AcDbLinetypeTableRecord
  2
AM_ISO02W050
 70
     0
  3
__ __ __ __ __ __ __ __ __ __ __ __ __ __ __
 72
    65
 73
     2
 40
7.5
 49
6.0
 74
     0
 49
-1.5
 74
     0
  0
LTYPE
  5
2AC0
330
5
100
AcDbSymbolTableRecord
100
AcDbLinetypeTableRecord
  2
AM_ISO08W050
 70
     0
  3
____ . ____ . ____ . ____ . ____ . ____ . ____
 72
    65
 73
     4
 40
18.0
 49
12.0
 74
     0
 49
-1.5
 74
     0
 49
3.0
 74
     0
 49
-1.5
 74
     0
  0
LTYPE
  5
2AC1
330
5
100
AcDbSymbolTableRecord
100
AcDbLinetypeTableRecord
  2
AM_ISO09W050
 70
     0
  3
_____ . . _____ . . _____ . . ____ .. ____
 72
    65
 73
     6
 40
22.5
 49
12.0
 74
     0
 49
-1.5
 74
     0
 49
3.0
 74
     0
 49
-1.5
 74
     0
 49
3.0
 74
     0
 49
-1.5
 74
     0
  0
LTYPE
  5
2AC2
330
5
100
AcDbSymbolTableRecord
100
AcDbLinetypeTableRecord
  2
Amconstr
 70
     0
  3
_______________________
 72
    65
 73
     2
 40
9999.0
 49
9999.0
 74
     0
 49
0.0
 74
     0
  0
LTYPE
  5
2AC3
330
5
100
AcDbSymbolTableRecord
100
AcDbLinetypeTableRecord
  2
AM_ISO08W050x2
 70
     0
  3
__ . __ . __ . __ . __ . __
 72
    65
 73
     4
 40
9.0
 49
6.0
 74
     0
 49
-0.75
 74
     0
 49
1.5
 74
     0
 49
-0.75
 74
     0
  0
LTYPE
  5
2AC4
330
5
100
AcDbSymbolTableRecord
100
AcDbLinetypeTableRecord
  2
AM_ISO02W050x2
 70
     0
  3
 _ _ _ _ _ _ _ _ _ _ _ _
 72
    65
 73
     2
 40
3.75
 49
3.0
 74
     0
 49
-0.75
 74
     0
  0
LTYPE
  5
2AC5
330
5
100
AcDbSymbolTableRecord
100
AcDbLinetypeTableRecord
  2
Amzigzag
 70
     0
  3
/\/-/\/-/\/-/\/-/\/-/\/
 72
    65
 73
     2
 40
11.0001
 49
0.0001
 74
     4
 75
   135
340
2AC6
 46
0.04
 50
0.0
 44
0.0
 45
0.0
 49
-11.0
 74
     0
  0
LTYPE
  5
2AF8
330
5
100
AcDbSymbolTableRecord
100
AcDbLinetypeTableRecord
  2
HIDDEN
 70
     0
  3
__ __ __ __ __ __ __ __ __ __ __ __ __ __ __ __
 72
    65
 73
     2
 40
0.375
 49
0.25
 74
     0
 49
-0.125
 74
     0
  0
LTYPE
  5
2AF9
330
5
100
AcDbSymbolTableRecord
100
AcDbLinetypeTableRecord
  2
PHANTOM2
 70
     0
  3
___ _ _ ___ _ _ ___ _ _ ___ _ _ ___ _ _ ___ _ _
 72
    65
 73
     6
 40
1.25
 49
0.625
 74
     0
 49
-0.125
 74
     0
 49
0.125
 74
     0
 49
-0.125
 74
     0
 49
0.125
 74
     0
 49
-0.125
 74
     0
  0
LTYPE
  5
2AFA
330
5
100
AcDbSymbolTableRecord
100
AcDbLinetypeTableRecord
  2
CENTER
 70
     0
  3
____ _ ____ _ ____ _ ____ _ ____ _ ____ _ ____ 
 72
    65
 73
     4
 40
2.0
 49
1.25
 74
     0
 49
-0.25
 74
     0
 49
0.25
 74
     0
 49
-0.25
 74
     0
  0
LTYPE
  5
2B58
330
5
100
AcDbSymbolTableRecord
100
AcDbLinetypeTableRecord
  2
ACANSTGB
 70
     0
  3
__ . . __ . .
 72
    65
 73
     6
 40
0.35433070866
 49
0.15748031496
 74
     0
 49
-0.03937007874
 74
     0
 49
0.03937007874
 74
     0
 49
-0.03937007874
 74
     0
 49
0.03937007874
 74
     0
 49
-0.03937007874
 74
     0
  0
LTYPE
  5
2B59
330
5
100
AcDbSymbolTableRecord
100
AcDbLinetypeTableRecord
  2
ACANSTGL
 70
     0
  3
_ _ _ _ _
 72
    65
 73
     2
 40
0.11811023622
 49
0.07874015748
 74
     0
 49
-0.03937007874
 74
     0
  0
LTYPE
  5
2B70
330
5
100
AcDbSymbolTableRecord
100
AcDbLinetypeTableRecord
  2
CENTER2
 70
     0
  3
Center (.5x) ___ _ ___ _ ___ _ ___ _ ___ _ ___
 72
    65
 73
     4
 40
1.125
 49
0.75
 74
     0
 49
-0.125
 74
     0
 49
0.125
 74
     0
 49
-0.125
 74
     0
  0
LTYPE
  5
2B71
330
5
100
AcDbSymbolTableRecord
100
AcDbLinetypeTableRecord
  2
HIDDEN2
 70
     0
  3
Hidden (.5x) _ _ _ _ _ _ _ _ _ _ _ _ _ _ _ _ _
 72
    65
 73
     2
 40
0.1875
 49
0.125
 74
     0
 49
-0.0625
 74
     0
  0
LTYPE
  5
2B72
330
5
100
AcDbSymbolTableRecord
100
AcDbLinetypeTableRecord
  2
Amzigzag2
 70
     0
  3
/\/-/\/-/\/-/\/-/\/-/\/
 72
    65
 73
     2
 40
0.4401
 49
0.0001
 74
     4
 75
   135
340
2AC6
 46
0.0016
 50
0.0
 44
0.0
 45
0.0
 49
-0.4400000000000001
 74
     0
  0
LTYPE
  5
2B89
330
5
100
AcDbSymbolTableRecord
100
AcDbLinetypeTableRecord
  2
ACISOWELD
 70
     0
  3
_ _ _ _ _
 72
    65
 73
     2
 40
2.0
 49
2.0
 74
     0
 49
-1.0
 74
     0
  0
LTYPE
  5
2B8C
330
5
100
AcDbSymbolTableRecord
100
AcDbLinetypeTableRecord
  2
ACISOTGB
 70
     0
  3
__ . . __ . .
 72
    65
 73
     6
 40
9.0
 49
4.0
 74
     0
 49
-1.0
 74
     0
 49
1.0
 74
     0
 49
-1.0
 74
     0
 49
1.0
 74
     0
 49
-1.0
 74
     0
  0
LTYPE
  5
2B8D
330
5
100
AcDbSymbolTableRecord
100
AcDbLinetypeTableRecord
  2
ACISOTGL
 70
     0
  3
_ _ _ _ _
 72
    65
 73
     2
 40
3.0
 49
2.0
 74
     0
 49
-1.0
 74
     0
  0
LTYPE
  5
2F39
330
5
100
AcDbSymbolTableRecord
100
AcDbLinetypeTableRecord
  2
ASULTYPE
 70
     0
  3
Solid line
 72
    65
 73
     2
 40
3.0
 49
2.5
 74
     0
 49
0.5
 74
     0
  0
LTYPE
  5
2F3A
330
5
100
AcDbSymbolTableRecord
100
AcDbLinetypeTableRecord
  2
ASVLTYPE
 70
     0
  3
__ __ __ __ __ __ __ __ __ __ __ __ __ __ __ __ __ __ __ __ __
 72
    65
 73
     2
 40
0.75
 49
0.5
 74
     0
 49
-0.25
 74
     0
  0
ENDTAB
  0
TABLE
  2
LAYER
  5
2
102
{ACAD_XDICTIONARY
360
2BEA
102
}
330
0
100
AcDbSymbolTable
 70
     4
  0
LAYER
  5
10
102
{ACAD_XDICTIONARY
360
2E92
102
}
330
2
100
AcDbSymbolTableRecord
100
AcDbLayerTableRecord
  2
0
 70
     0
 62
     7
  6
Continuous
370
    -3
390
F
  0
LAYER
  5
E7
102
{ACAD_XDICTIONARY
360
2E94
102
}
330
2
100
AcDbSymbolTableRecord
100
AcDbLayerTableRecord
  2
AM0
 70
     0
 62
     7
  6
Continuous
370
    -3
390
F
1001
AcAecLayerStandard
1000

1000

  0
LAYER
  5
2C06
102
{ACAD_XDICTIONARY
360
2E96
102
}
330
2
100
AcDbSymbolTableRecord
100
AcDbLayerTableRecord
  2
AM_5
 70
     0
 62
     3
  6
Continuous
370
    25
390
F
1001
AcAecLayerStandard
1000

1000

  0
LAYER
  5
2C09
330
2
100
AcDbSymbolTableRecord
100
AcDbLayerTableRecord
  2
Defpoints
 70
     0
 62
     7
  6
Continuous
290
     0
370
    -3
390
F
  0
ENDTAB
  0
TABLE
  2
STYLE
  5
3
330
0
100
AcDbSymbolTable
 70
     6
  0
STYLE
  5
11
330
3
100
AcDbSymbolTableRecord
100
AcDbTextStyleTableRecord
  2
Standard
 70
     0
 40
0.0
 41
1.0
 50
0.0
 71
     0
 42
2.5
  3
txt
  4

  0
STYLE
  5
2AC6
330
3
100
AcDbSymbolTableRecord
100
AcDbTextStyleTableRecord
  2

 70
     1
 40
0.0
 41
1.0
 50
0.0
 71
     0
 42
3.5
  3
ltypeshp.shx
  4

  0
STYLE
  5
2B51
330
3
100
AcDbSymbolTableRecord
100
AcDbTextStyleTableRecord
  2
ACANSTS
 70
     0
 40
1.0
 41
1.0
 50
0.0
 71
     0
 42
3.5
  3
romans.shx
  4

  0
STYLE
  5
2B54
330
3
100
AcDbSymbolTableRecord
100
AcDbTextStyleTableRecord
  2
ACANSGDT
 70
     0
 40
0.0
 41
1.0
 50
0.0
 71
     0
 42
3.5
  3
amgdt.shx
  4

  0
STYLE
  5
2B83
330
3
100
AcDbSymbolTableRecord
100
AcDbTextStyleTableRecord
  2
ACISOTS
 70
     0
 40
1.0
 41
1.0
 50
0.0
 71
     0
 42
2.5
  3
isocp.shx
  4

  0
STYLE
  5
2B87
330
3
100
AcDbSymbolTableRecord
100
AcDbTextStyleTableRecord
  2
ACISOGDT
 70
     0
 40
0.0
 41
1.0
 50
0.0
 71
     0
 42
2.5
  3
amgdt.shx
  4

  0
ENDTAB
  0
TABLE
  2
VIEW
  5
6
330
0
100
AcDbSymbolTable
 70
     0
  0
ENDTAB
  0
TABLE
  2
UCS
  5
7
330
0
100
AcDbSymbolTable
 70
     0
  0
ENDTAB
  0
TABLE
  2
APPID
  5
9
330
0
100
AcDbSymbolTable
 70
    20
  0
APPID
  5
12
330
9
100
AcDbSymbolTableRecord
100
AcDbRegAppTableRecord
  2
ACAD
 70
     0
  0
APPID
  5
9E
330
9
100
AcDbSymbolTableRecord
100
AcDbRegAppTableRecord
  2
ACAD_PSEXT
 70
     0
  0
APPID
  5
E8
330
9
100
AcDbSymbolTableRecord
100
AcDbRegAppTableRecord
  2
AcAecLayerStandard
 70
     0
  0
APPID
  5
E9
330
9
100
AcDbSymbolTableRecord
100
AcDbRegAppTableRecord
  2
DCO15
 70
     0
  0
APPID
  5
2AAB
330
9
100
AcDbSymbolTableRecord
100
AcDbRegAppTableRecord
  2
ACAD_MLEADERVER
 70
     0
  0
APPID
  5
2AAF
330
9
100
AcDbSymbolTableRecord
100
AcDbRegAppTableRecord
  2
AD_DRAW
 70
     0
  0
APPID
  5
2AB0
330
9
100
AcDbSymbolTableRecord
100
AcDbRegAppTableRecord
  2
DESIGNERASSEMBLIES
 70
     0
  0
APPID
  5
2AB1
330
9
100
AcDbSymbolTableRecord
100
AcDbRegAppTableRecord
  2
MCAD_NO_VIS
 70
     0
  0
APPID
  5
2AB2
330
9
100
AcDbSymbolTableRecord
100
AcDbRegAppTableRecord
  2
ASURF_PCURVE_APPNAME
 70
     0
  0
APPID
  5
2AB3
330
9
100
AcDbSymbolTableRecord
100
AcDbRegAppTableRecord
  2
ACAD_TEMP_GRAPHIC
 70
     0
  0
APPID
  5
2AB4
330
9
100
AcDbSymbolTableRecord
100
AcDbRegAppTableRecord
  2
ACATTRIBSERVICES
 70
     0
  0
APPID
  5
2AB5
330
9
100
AcDbSymbolTableRecord
100
AcDbRegAppTableRecord
  2
ACADM_DIM_EDIT
 70
     0
  0
APPID
  5
2AB6
330
9
100
AcDbSymbolTableRecord
100
AcDbRegAppTableRecord
  2
GENIUS_GENDIM_13
 70
     0
  0
APPID
  5
2AB7
330
9
100
AcDbSymbolTableRecord
100
AcDbRegAppTableRecord
  2
GENIUS_GENDTOL_13
 70
     0
  0
APPID
  5
2AB8
330
9
100
AcDbSymbolTableRecord
100
AcDbRegAppTableRecord
  2
GENIUS_GE3DTOL_13
 70
     0
  0
APPID
  5
2AB9
330
9
100
AcDbSymbolTableRecord
100
AcDbRegAppTableRecord
  2
AMG_3D2D_5.0
 70
     0
  0
APPID
  5
2ABA
330
9
100
AcDbSymbolTableRecord
100
AcDbRegAppTableRecord
  2
AMDT_DM_ADJ
 70
     0
  0
APPID
  5
2ABB
330
9
100
AcDbSymbolTableRecord
100
AcDbRegAppTableRecord
  2
ACAD_DSTYLE_DIMTEXT_FILL
 70
     0
  0
APPID
  5
2C21
330
9
100
AcDbSymbolTableRecord
100
AcDbRegAppTableRecord
  2
ACAD_DSTYLE_DIMINSPECT
 70
     0
  0
APPID
  5
2EB0
330
9
100
AcDbSymbolTableRecord
100
AcDbRegAppTableRecord
  2
AcDbAttr
 70
     0
  0
ENDTAB
  0
TABLE
  2
DIMSTYLE
  5
A
330
0
100
AcDbSymbolTable
 70
    14
100
AcDbDimStyleTable
 71
     1
340
2B96
  0
DIMSTYLE
105
2B74
330
A
100
AcDbSymbolTableRecord
100
AcDbDimStyleTableRecord
  2
AM_ANSI
 70
     0
  4
mm
 41
0.1
 42
0.05
 43
0.5
 44
0.1
 47
0.1
 48
0.1
 78
     7
 79
     2
140
0.12
141
0.0
146
0.71
147
0.06
176
   256
177
   256
178
     2
274
     4
284
     7
340
11
371
    -1
372
    -1
  0
DIMSTYLE
105
2B75
330
A
100
AcDbSymbolTableRecord
100
AcDbDimStyleTableRecord
  2
AM_ANSI$3
 70
     0
  4
mm
 41
0.1
 42
0.05
 43
0.5
 44
0.1
 47
0.1
 48
0.1
 78
     7
 79
     2
140
0.12
141
0.0
146
0.71
147
0.06
176
   256
177
   256
178
     2
274
     4
284
     7
288
     1
289
     0
340
11
371
    -1
372
    -1
  0
DIMSTYLE
105
2B76
330
A
100
AcDbSymbolTableRecord
100
AcDbDimStyleTableRecord
  2
AM_ANSI$4
 70
     0
  4
mm
 41
0.1
 42
0.05
 43
0.5
 44
0.1
 47
0.1
 48
0.1
 78
     7
 79
     2
140
0.12
141
0.0
146
0.71
147
0.06
176
   256
177
   256
178
     2
274
     4
284
     7
288
     1
289
     0
340
11
371
    -1
372
    -1
  0
DIMSTYLE
105
2B77
330
A
100
AcDbSymbolTableRecord
100
AcDbDimStyleTableRecord
  2
AM_ANSI$7
 70
     0
  4
mm
 41
0.1
 42
0.05
 43
0.5
 44
0.1
 47
0.1
 48
0.1
 78
     7
 79
     2
140
0.24
141
0.0
146
0.71
147
0.06
176
   256
177
   256
178
     2
274
     4
284
     7
340
11
371
    -1
372
    -1
  0
DIMSTYLE
105
2B78
330
A
100
AcDbSymbolTableRecord
100
AcDbDimStyleTableRecord
  2
AM_ANSI$SF
 70
     0
  4
mm
 41
0.1
 42
0.05
 43
0.5
 44
0.1
 47
0.1
 48
0.1
 75
     1
 76
     1
 78
     7
 79
     2
140
0.12
141
0.0
146
0.71
147
0.06
176
   256
177
   256
178
     2
274
     4
284
     7
340
11
371
    -1
372
    -1
  0
DIMSTYLE
105
2B79
330
A
100
AcDbSymbolTableRecord
100
AcDbDimStyleTableRecord
  2
AM_ANSI$SH
 70
     0
  4
mm
 41
0.1
 42
0.05
 43
0.5
 44
0.1
 47
0.1
 48
0.1
 75
     1
 76
     1
 78
     7
 79
     2
140
0.12
141
0.0
146
0.71
147
0.06
173
     1
176
   256
177
   256
178
     2
274
     4
284
     7
340
11
343
2B7A
371
    -1
372
    -1
  0
DIMSTYLE
105
2B96
330
A
100
AcDbSymbolTableRecord
100
AcDbDimStyleTableRecord
  2
AM_ISO
 70
     0
  4
"
 41
2.5
 42
1.0
 43
10.0
 44
1.0
 47
0.1
 48
0.1
 73
     0
 74
     0
 77
     1
 78
     8
 79
     2
140
3.5
141
0.0
143
0.0393701
146
0.71
147
1.5
171
     3
172
     1
176
   256
177
   256
178
     2
271
     2
272
     2
274
     3
283
     0
284
     8
340
11
371
    -1
372
    -1
  0
DIMSTYLE
105
2B97
330
A
100
AcDbSymbolTableRecord
100
AcDbDimStyleTableRecord
  2
AM_ISO$3
 70
     0
  4
"
 41
2.5
 42
1.0
 43
10.0
 44
1.0
 47
0.1
 48
0.1
 73
     0
 77
     1
 78
     8
 79
     2
140
3.5
141
0.0
143
0.0393701
146
0.71
147
1.5
176
   256
177
   256
178
     2
271
     2
272
     3
274
     4
283
     0
284
     8
288
     1
289
     0
340
11
371
    -1
372
    -1
  0
DIMSTYLE
105
2B98
330
A
100
AcDbSymbolTableRecord
100
AcDbDimStyleTableRecord
  2
AM_ISO$4
 70
     0
  4
"
 41
2.5
 42
1.0
 43
10.0
 44
1.0
 47
0.1
 48
0.1
 73
     0
 77
     1
 78
     8
 79
     2
140
3.5
141
0.0
143
0.0393701
146
0.71
147
1.5
176
   256
177
   256
178
     2
271
     2
272
     3
274
     4
283
     0
284
     8
288
     1
289
     0
340
11
371
    -1
372
    -1
  0
DIMSTYLE
105
2B99
330
A
100
AcDbSymbolTableRecord
100
AcDbDimStyleTableRecord
  2
AM_ISO$6
 70
     0
  4
"
 41
2.5
 42
1.0
 43
10.0
 44
1.0
 47
0.1
 48
0.1
 73
     0
 74
     0
 78
     8
 79
     2
140
3.5
141
0.0
143
0.0393701
146
0.71
147
1.5
172
     1
176
   256
177
   256
178
     2
271
     2
272
     3
274
     4
283
     0
284
     8
340
11
371
    -1
372
    -1
  0
DIMSTYLE
105
2B9A
330
A
100
AcDbSymbolTableRecord
100
AcDbDimStyleTableRecord
  2
AM_ISO$7
 70
     0
  4
"
 41
2.5
 42
1.0
 43
10.0
 44
1.0
 47
0.1
 48
0.1
 73
     0
 74
     0
 77
     1
 78
     8
 79
     2
140
5.0
141
0.0
143
0.0393701
146
0.71
147
1.5
172
     1
176
   256
177
   256
178
     2
271
     2
272
     3
274
     4
283
     0
284
     8
340
11
371
    -1
372
    -1
  0
DIMSTYLE
105
2B9B
330
A
100
AcDbSymbolTableRecord
100
AcDbDimStyleTableRecord
  2
AM_ISO$SF
 70
     0
  4
"
 41
2.5
 42
1.0
 43
10.0
 44
1.0
 47
0.1
 48
0.1
 73
     0
 74
     0
 75
     1
 76
     1
 77
     1
 78
     8
 79
     2
140
3.5
141
0.0
143
0.0393701
146
0.71
147
1.5
172
     1
176
   256
177
   256
178
     2
271
     2
272
     3
274
     4
283
     0
284
     8
340
11
371
    -1
372
    -1
  0
DIMSTYLE
105
2B9C
330
A
100
AcDbSymbolTableRecord
100
AcDbDimStyleTableRecord
  2
AM_ISO$SH
 70
     0
  4
"
 41
2.5
 42
1.0
 43
10.0
 44
1.0
 47
0.1
 48
0.1
 73
     0
 74
     0
 75
     1
 76
     1
 77
     1
 78
     8
 79
     2
140
3.5
141
0.0
143
0.0393701
144
2.0
146
0.71
147
1.5
172
     1
173
     1
176
   256
177
   256
178
     2
271
     2
272
     3
274
     4
283
     0
284
     8
340
11
343
2B7A
371
    -1
372
    -1
  0
DIMSTYLE
105
2BE9
330
A
100
AcDbSymbolTableRecord
100
AcDbDimStyleTableRecord
  2
AM_ISO$0
 70
     0
  4
"
 41
2.5
 42
1.0
 43
10.0
 44
1.0
 47
0.1
 48
0.1
 73
     0
 74
     0
 77
     1
 78
     8
 79
     2
140
3.5
141
0.0
143
0.0393701
146
0.71
147
1.5
171
     3
172
     1
176
   256
177
   256
178
     2
271
     2
272
     2
274
     3
283
     0
284
     8
340
11
371
    -1
372
    -1
  0
ENDTAB
  0
TABLE
  2
BLOCK_RECORD
  5
1
330
0
100
AcDbSymbolTable
 70
     5
  0
BLOCK_RECORD
  5
1F
102
{ACAD_XDICTIONARY
360
23E3
102
}
330
1
100
AcDbSymbolTableRecord
100
AcDbBlockTableRecord
  2
*Model_Space
340
22
  0
BLOCK_RECORD
  5
D2
330
1
100
AcDbSymbolTableRecord
100
AcDbBlockTableRecord
  2
*Paper_Space
340
D3
  0
BLOCK_RECORD
  5
D6
330
1
100
AcDbSymbolTableRecord
100
AcDbBlockTableRecord
  2
*Paper_Space0
340
D7
  0
BLOCK_RECORD
  5
2B7A
330
1
100
AcDbSymbolTableRecord
100
AcDbBlockTableRecord
  2
GENAXEH
340
0
  0
BLOCK_RECORD
  5
2BE3
330
1
100
AcDbSymbolTableRecord
100
AcDbBlockTableRecord
  2
info
340
0
310
2800000020000000200000000100080000000000000400000000000000000000000000000000000000000000000080000080000000808000800000008000800080800000C0C0C000C0DCC000F0CAA6000020400000206000002080000020A0000020C0000020E00000400000004020000040400000406000004080000040A0
310
000040C0000040E00000600000006020000060400000606000006080000060A0000060C0000060E00000800000008020000080400000806000008080000080A0000080C0000080E00000A0000000A0200000A0400000A0600000A0800000A0A00000A0C00000A0E00000C0000000C0200000C0400000C0600000C0800000C0
310
A00000C0C00000C0E00000E0000000E0200000E0400000E0600000E0800000E0A00000E0C00000E0E00040000000400020004000400040006000400080004000A0004000C0004000E00040200000402020004020400040206000402080004020A0004020C0004020E000404000004040200040404000404060004040800040
310
40A0004040C0004040E00040600000406020004060400040606000406080004060A0004060C0004060E00040800000408020004080400040806000408080004080A0004080C0004080E00040A0000040A0200040A0400040A0600040A0800040A0A00040A0C00040A0E00040C0000040C0200040C0400040C0600040C08000
310
40C0A00040C0C00040C0E00040E0000040E0200040E0400040E0600040E0800040E0A00040E0C00040E0E00080000000800020008000400080006000800080008000A0008000C0008000E00080200000802020008020400080206000802080008020A0008020C0008020E00080400000804020008040400080406000804080
310
008040A0008040C0008040E00080600000806020008060400080606000806080008060A0008060C0008060E00080800000808020008080400080806000808080008080A0008080C0008080E00080A0000080A0200080A0400080A0600080A0800080A0A00080A0C00080A0E00080C0000080C0200080C0400080C0600080C0
310
800080C0A00080C0C00080C0E00080E0000080E0200080E0400080E0600080E0800080E0A00080E0C00080E0E000C0000000C0002000C0004000C0006000C0008000C000A000C000C000C000E000C0200000C0202000C0204000C0206000C0208000C020A000C020C000C020E000C0400000C0402000C0404000C0406000C0
310
408000C040A000C040C000C040E000C0600000C0602000C0604000C0606000C0608000C060A000C060C000C060E000C0800000C0802000C0804000C0806000C0808000C080A000C080C000C080E000C0A00000C0A02000C0A04000C0A06000C0A08000C0A0A000C0A0C000C0A0E000C0C00000C0C02000C0C04000C0C06000
310
C0C08000C0C0A000F0FBFF00A4A0A000808080000000FF0000FF000000FFFF00FF000000FF00FF00FFFF0000FFFFFF00FFFFFFFFFFFFFFFFFFFFFFFFFFFFFFFFFFFFFFFFFFFFFFFFFFFFFFFFFFFFFFFFFFFFFFFFFFFFFFFFFFFFFFFFFFFFFFFFFFFFFFFFFFFFFFFFFFFFFFFFFFFFFFFFFFFFFFFFFFFFFFFFFFFFFFFFFFFFFF
310
FFFFFFFFFFFFFFFFFFFFFFFFFFFFFFFFFFFFFFFFFFFFFFFFFFFFFFFFFFFFFFFFFFFFFFFFFFFFFFFFFFFFFFFFFFFFFFFFFFFFFFFFFFFFFFFFFFFFFFFF00FFFFFFFFFFFFFFFFFFFFFFFFFFFFFFFFFFFFFFFFFFFFFFFFFFFFFFFFFFFF00FFFFFFFFFFFFFFFFFFFFFFFFFFFFFFFFFFFFFFFFFFFFFFFFFFFFFFFFFFFF00FFFFFFFF
310
FFFFFFFFFFFFFFFFFFFFFFFFFFFFFFFFFFFF0000000000FFFFFF00FFFFFFFF00FFFFFF00FFFF000000FFFF0000000000FFFFFFFFFFFFFF000000FFFFFFFFFF00FFFFFF00FF00FFFFFF00FFFFFF00FFFF00FFFFFFFFFFFFFF0000FFFFFFFFFF00FFFFFF00FFFFFFFFFF00FFFFFF00FFFF00FFFFFFFFFFFF00FF00FFFFFFFFFF
310
0000000000FFFFFFFFFF00FFFFFF00FFFF00FFFFFFFFFF00FFFFFF00FFFFFFFF00FFFFFF00FFFFFFFFFF00FFFFFF00FFFF00FFFFFFFF00FFFFFFFF00FFFFFFFF00FFFFFF00FFFFFFFFFF00FFFFFF00FFFF00FF00FF00FFFFFFFFFF00FFFFFFFF00FFFFFF00FFFFFFFFFF00FF0000000000FFFFFF00FFFFFFFFFFFFFF00FFFF
310
FFFFFFFFFFFFFFFFFFFFFFFFFFFFFFFFFFFFFFFF00FF00FFFFFFFFFF00FFFFFFFFFFFFFFFFFFFFFFFFFFFFFFFFFFFFFFFFFFFFFFFFFFFF00FFFFFFFF00FFFFFFFFFFFFFFFFFFFFFFFFFFFFFFFFFFFFFFFFFFFFFFFFFFFFFF00FFFFFF00FFFFFFFFFFFFFFFFFFFFFFFFFFFFFFFFFFFFFFFFFFFFFFFFFFFFFFFF00FF00FFFFFF
310
FFFF00000000FFFF00FFFFFF00FF0000000000FFFFFFFFFFFFFFFF0000FFFFFFFFFFFF00FFFF00FF00FFFF00FFFFFFFF00FFFF00FFFFFFFFFFFF000000FFFFFFFFFFFF00FFFF00FF00FF00FFFFFFFFFF00FFFF00FF0000000000FFFFFF00FFFFFFFFFF000000FFFF00000000FFFFFFFF00FFFF00FFFFFFFFFFFFFFFFFFFF00
310
FFFFFFFF00FFFF00FF00FFFFFF00FFFFFF00FFFF00FFFFFFFFFFFFFFFFFFFFFF00FFFFFF00FFFF00FF00FFFFFF00FFFFFF00FFFF00FFFFFFFFFFFFFFFFFFFFFFFF00FF00000000FFFF00000000FFFF0000000000FFFFFFFFFFFFFFFFFFFFFFFFFFFFFFFFFFFFFFFFFFFFFFFFFFFFFFFFFFFFFFFFFFFFFFFFFFFFFFFFFFFFFF
310
FFFFFFFFFFFFFFFFFFFFFFFFFFFFFFFFFFFFFFFFFFFFFFFFFFFFFFFFFFFFFFFFFFFFFFFFFFFFFFFFFFFFFFFFFFFFFFFFFFFFFFFFFFFFFFFFFFFFFFFFFFFFFFFFFFFFFFFFFFFFFFFFFFFFFFFFFFFFFFFFFFFFFFFFFFFFFFFFFFFFFFFFFFFFFFFFFFFFFFFFFFFFFFFFFFFFFFFFFFFFFFFFFFFFFFFFFFFFFFFFFFFFFFFFFFFFFF
310
FFFFFFFFFFFFFFFFFFFFFFFFFFFFFFFFFFFFFFFFFFFFFFFFFFFFFFFFFFFFFFFFFFFFFFFFFFFFFFFFFFFFFFFFFFFFFFFFFFFFFFFFFFFFFFFF
102
{BLKREFS
331
3133
331
3137
102
}
1001
ACAD
1000
DesignCenter Data
1002
{
1070
     1
1070
     4
1002
}
  0
BLOCK_RECORD
  5
2DCA
330
1
100
AcDbSymbolTableRecord
100
AcDbBlockTableRecord
  2
B6X2
340
0
310
2800000020000000200000000100080000000000000400000000000000000000000000000000000000000000000080000080000000808000800000008000800080800000C0C0C000C0DCC000F0CAA6000020400000206000002080000020A0000020C0000020E00000400000004020000040400000406000004080000040A0
310
000040C0000040E00000600000006020000060400000606000006080000060A0000060C0000060E00000800000008020000080400000806000008080000080A0000080C0000080E00000A0000000A0200000A0400000A0600000A0800000A0A00000A0C00000A0E00000C0000000C0200000C0400000C0600000C0800000C0
310
A00000C0C00000C0E00000E0000000E0200000E0400000E0600000E0800000E0A00000E0C00000E0E00040000000400020004000400040006000400080004000A0004000C0004000E00040200000402020004020400040206000402080004020A0004020C0004020E000404000004040200040404000404060004040800040
310
40A0004040C0004040E00040600000406020004060400040606000406080004060A0004060C0004060E00040800000408020004080400040806000408080004080A0004080C0004080E00040A0000040A0200040A0400040A0600040A0800040A0A00040A0C00040A0E00040C0000040C0200040C0400040C0600040C08000
310
40C0A00040C0C00040C0E00040E0000040E0200040E0400040E0600040E0800040E0A00040E0C00040E0E00080000000800020008000400080006000800080008000A0008000C0008000E00080200000802020008020400080206000802080008020A0008020C0008020E00080400000804020008040400080406000804080
310
008040A0008040C0008040E00080600000806020008060400080606000806080008060A0008060C0008060E00080800000808020008080400080806000808080008080A0008080C0008080E00080A0000080A0200080A0400080A0600080A0800080A0A00080A0C00080A0E00080C0000080C0200080C0400080C0600080C0
310
800080C0A00080C0C00080C0E00080E0000080E0200080E0400080E0600080E0800080E0A00080E0C00080E0E000C0000000C0002000C0004000C0006000C0008000C000A000C000C000C000E000C0200000C0202000C0204000C0206000C0208000C020A000C020C000C020E000C0400000C0402000C0404000C0406000C0
310
408000C040A000C040C000C040E000C0600000C0602000C0604000C0606000C0608000C060A000C060C000C060E000C0800000C0802000C0804000C0806000C0808000C080A000C080C000C080E000C0A00000C0A02000C0A04000C0A06000C0A08000C0A0A000C0A0C000C0A0E000C0C00000C0C02000C0C04000C0C06000
310
C0C08000C0C0A000F0FBFF00A4A0A000808080000000FF0000FF000000FFFF00FF000000FF00FF00FFFF0000FFFFFF0000000000000000000000000000000000000000000000000000000000000000000000000000000000000000000000000000000000000000000000000000000000000000000000000000000000000000
310
000000000000000000000000000000000000000000FAFAFAFAFAFAFAFAFAFAFAFBFBFBFBFBFAFAFAFAFAFAFAFAFAFAFA0000000000FA0000FAFAFAFAFAFAFAFAFAFAFAFAFAFBFBFBFBFBFAFAFA0000FA000000FAFAFAFFFFFAFFFFFFFFFFFFFFFFFAFFFFFFFBFBFBFBFBFFFFFFFFFFFA000000FA00FFFFFFFFFF0000FFFF00
310
0000FFFFFF0000FFFF000000FFFFFFFFFF000000FA00FFFFFFFFFFFF0000FF000000FFFFFFFF0000FF0000FFFFFF00FFFF000000FAFAFAFAFAFAFFFFFFFFFFFFFFFFFFFFFFFFFFFFFFFFFFFFFFFF0000FF000000FAFAFF0000FF0000000000000000FFFF0000000000000000FFFF0000FF000000FAFAFF0000FF0000000000
310
000000FFFF0000000000000000FFFF0000FF000000FAFAFF0000FF0000000000000000FFFF0000000000000000FFFF0000FF000000FAFAFF0000FF0000000000000000FFFF0000000000000000FFFF0000FF000000FAFAFF0000FF0000000000000000FFFF0000000000000000FFFF0000FF000000FAFAFF0000FF00000000
310
00000000FFFF0000000000000000FFFF0000FF0000FBFBFBFF0000FF0000000000000000FFFF0000000000000000FFFF0000FF0000FBFBFBFF0000FF0000000000000000FFFF0000000000000000FFFF0000FF0000FBFBFBFF0000FF0000000000000000FFFF0000000000000000FFFF0000FF0000FBFBFBFF0000FF000000
310
0000000000FFFF0000000000000000FFFF0000FF0000FBFBFBFF0000FF0000000000000000FFFF0000000000000000FFFF0000FF000000FAFAFF0000FF0000000000000000FFFF0000000000000000FFFF0000FF000000FAFAFF0000FF0000000000000000FFFF0000000000000000FFFF0000FF000000FAFAFF0000FF0000
310
000000000000FFFF0000000000000000FFFF0000FF000000FAFAFF0000FF0000000000000000FFFF0000000000000000FFFF0000FF000000FAFAFF0000FF0000000000000000FFFF0000000000000000FFFF0000FF000000FAFAFAFAFAFAFFFFFFFFFFFFFFFFFFFFFFFFFFFFFFFFFFFFFFFF0000FF000000FA00FF00FFFFFF
310
FFFFFFFFFFFFFFFFFFFFFFFFFFFFFFFFFFFFFF0000FF000000FA00FFFFFFFFFFFF0000FF000000FFFFFFFF0000FF0000FFFFFF00FFFF000000FAFAFAFFFFFFFFFFFFFFFFFFFFFFFFFFFFFFFFFFFFFFFFFFFFFFFFFFFF0000000000000000000000000000000000000000000000000000000000000000000000000000000000
310
0000000000000000000000000000000000000000000000000000000000000000000000000000000000000000000000000000000000000000
102
{BLKREFS
331
3154
102
}
1001
ACAD
1000
DesignCenter Data
1002
{
1070
     1
1070
     4
1002
}
  0
ENDTAB
  0
ENDSEC
  0
SECTION
  2
BLOCKS
  0
BLOCK
  5
20
330
1F
100
AcDbEntity
  8
0
100
AcDbBlockBegin
  2
*Model_Space
 70
     0
 10
0.0
 20
0.0
 30
0.0
  3
*Model_Space
  1

  0
ENDBLK
  5
21
330
1F
100
AcDbEntity
  8
0
100
AcDbBlockEnd
  0
BLOCK
  5
D4
330
D2
100
AcDbEntity
 67
     1
  8
0
100
AcDbBlockBegin
  2
*Paper_Space
 70
     0
 10
0.0
 20
0.0
 30
0.0
  3
*Paper_Space
  1

  0
ENDBLK
  5
D5
330
D2
100
AcDbEntity
 67
     1
  8
0
100
AcDbBlockEnd
  0
BLOCK
  5
D8
330
D6
100
AcDbEntity
 67
     1
  8
0
100
AcDbBlockBegin
  2
*Paper_Space0
 70
     0
 10
0.0
 20
0.0
 30
0.0
  3
*Paper_Space0
  1

  0
ENDBLK
  5
D9
330
D6
100
AcDbEntity
 67
     1
  8
0
100
AcDbBlockEnd
  0
BLOCK
  5
2F6A
330
2B7A
100
AcDbEntity
  8
0
100
AcDbBlockBegin
  2
GENAXEH
 70
     0
 10
0.0
 20
0.0
 30
0.0
  3
GENAXEH
  1

  0
LINE
  5
2F6B
330
2B7A
100
AcDbEntity
  8
0
100
AcDbLine
 10
-1.0
 20
0.0
 30
0.0
 11
1.0
 21
0.0
 31
0.0
  0
ENDBLK
  5
2F6C
330
2B7A
100
AcDbEntity
  8
0
100
AcDbBlockEnd
  0
BLOCK
  5
2BE4
330
2BE3
100
AcDbEntity
  8
0
100
AcDbBlockBegin
  2
info
 70
     2
 10
0.0
 20
0.0
 30
0.0
  3
info
  1

  0
POINT
  5
2BE5
330
2BE3
100
AcDbEntity
  8
0
100
AcDbPoint
 10
0.0
 20
0.0
 30
0.0
  0
ATTDEF
  5
2BE6
330
2BE3
100
AcDbEntity
  8
0
100
AcDbText
 10
9.467092950319427
 20
2.891095235479383
 30
0.00000001
 40
5.0
  1

100
AcDbAttributeDefinition
  3
bredd
  2
BRD
 70
     1
1001
AcDbAttr
1070
     0
1070
     1
  0
ATTDEF
  5
2BE7
330
2BE3
100
AcDbEntity
  8
0
100
AcDbText
 10
9.467092950319427
 20
-5.442238097853946
 30
0.00000001
 40
5.0
  1

100
AcDbAttributeDefinition
  3
Höjd
  2
HJD
 70
     1
1001
AcDbAttr
1070
     0
1070
     1
  0
ENDBLK
  5
2BE8
330
2BE3
100
AcDbEntity
  8
0
100
AcDbBlockEnd
  0
BLOCK
  5
2DCB
330
2DCA
100
AcDbEntity
  8
0
100
AcDbBlockBegin
  2
B6X2
 70
     0
 10
0.0
 20
0.0
 30
0.0
  3
B6X2
  1

  0
CIRCLE
  5
3090
330
2DCA
100
AcDbEntity
  8
AM0
100
AcDbCircle
 10
-152.5
 20
137.0000000000009
 30
0.0
 40
4.5
  0
CIRCLE
  5
3091
330
2DCA
100
AcDbEntity
  8
AM0
100
AcDbCircle
 10
-152.5
 20
-137.0
 30
0.0
 40
4.5
  0
LINE
  5
3092
330
2DCA
100
AcDbEntity
  8
AM0
100
AcDbLine
 10
-129.5
 20
-149.0
 30
0.0
 11
-129.5
 21
149.0
 31
0.0
  0
LINE
  5
3093
330
2DCA
100
AcDbEntity
  8
AM0
100
AcDbLine
 10
-4.0
 20
114.0
 30
0.0
 11
-124.5
 21
114.0
 31
0.0
  0
LINE
  5
3094
330
2DCA
100
AcDbEntity
  8
AM0
100
AcDbLine
 10
164.5
 20
-149.0
 30
0.0
 11
-164.5
 21
-149.0
 31
0.0
  0
LINE
  5
3095
330
2DCA
100
AcDbEntity
  8
AM0
100
AcDbLine
 10
164.5
 20
149.0
 30
0.0
 11
-164.5
 21
149.0
 31
0.0
  0
LINE
  5
3096
330
2DCA
100
AcDbEntity
  8
AM0
100
AcDbLine
 10
-164.5
 20
-149.0
 30
0.0
 11
-164.5
 21
149.0
 31
0.0
  0
LINE
  5
3097
330
2DCA
100
AcDbEntity
  8
AM0
100
AcDbLine
 10
129.4999999999988
 20
-149.0
 30
0.0
 11
129.4999999999988
 21
149.0
 31
0.0
  0
LINE
  5
3098
330
2DCA
100
AcDbEntity
  8
AM0
100
AcDbLine
 10
164.5
 20
-149.0
 30
0.0
 11
164.5
 21
149.0
 31
0.0
  0
CIRCLE
  5
3099
330
2DCA
100
AcDbEntity
  8
AM0
100
AcDbCircle
 10
152.4999999999988
 20
137.0000000000009
 30
0.0
 40
4.5
  0
CIRCLE
  5
309A
330
2DCA
100
AcDbEntity
  8
AM0
100
AcDbCircle
 10
152.4999999999988
 20
-137.0
 30
0.0
 40
4.5
  0
LINE
  5
309B
330
2DCA
100
AcDbEntity
  8
AM0
100
AcDbLine
 10
-124.5
 20
149.0
 30
0.0
 11
-124.5
 21
-149.0
 31
0.0
  0
LINE
  5
309C
330
2DCA
100
AcDbEntity
  8
AM0
100
AcDbLine
 10
-4.0
 20
-114.0
 30
0.0
 11
-124.5
 21
-114.0
 31
0.0
  0
CIRCLE
  5
309D
330
2DCA
100
AcDbEntity
  8
AM0
100
AcDbCircle
 10
-64.25
 20
137.0000000000009
 30
0.0
 40
4.5
  0
CIRCLE
  5
309E
330
2DCA
100
AcDbEntity
  8
AM0
100
AcDbCircle
 10
-64.25
 20
-137.0
 30
0.0
 40
4.5
  0
LINE
  5
309F
330
2DCA
100
AcDbEntity
  8
AM0
  6
Continuous
100
AcDbLine
 10
99.49999999999887
 20
123.0
 30
0.0
 11
99.49999999999887
 21
131.0000000000009
 31
0.0
  0
LINE
  5
30A0
330
2DCA
100
AcDbEntity
  8
AM0
  6
Continuous
100
AcDbLine
 10
113.0999999999988
 20
122.9585481156739
 30
0.0
 11
113.0999999999988
 21
118.9170962313458
 31
0.0
  0
LINE
  5
30A1
330
2DCA
100
AcDbEntity
  8
AM0
  6
Continuous
100
AcDbLine
 10
119.4999999999988
 20
118.9170962313458
 30
0.0
 11
113.0999999999988
 21
118.9170962313458
 31
0.0
  0
LINE
  5
30A2
330
2DCA
100
AcDbEntity
  8
AM0
  6
Continuous
100
AcDbLine
 10
113.0999999999988
 20
118.9170962313458
 30
0.0
 11
113.0999999999988
 21
122.9585481156739
 31
0.0
  0
LINE
  5
30A3
330
2DCA
100
AcDbEntity
  8
AM0
  6
Continuous
100
AcDbLine
 10
119.4999999999988
 20
135.0829037686551
 30
0.0
 11
113.0999999999988
 21
135.0829037686551
 31
0.0
  0
LINE
  5
30A4
330
2DCA
100
AcDbEntity
  8
AM0
  6
Continuous
100
AcDbLine
 10
113.0999999999988
 20
135.0829037686551
 30
0.0
 11
113.0999999999988
 21
131.0414518843281
 31
0.0
  0
LINE
  5
30A5
330
2DCA
100
AcDbEntity
  8
AM0
  6
Continuous
100
AcDbLine
 10
113.0999999999988
 20
131.0414518843281
 30
0.0
 11
113.0999999999988
 21
122.9585481156739
 31
0.0
  0
LINE
  5
30A6
330
2DCA
100
AcDbEntity
  8
AM0
  6
Continuous
100
AcDbLine
 10
129.4999999999988
 20
135.0829037686551
 30
0.0
 11
135.0999999999999
 21
135.0829037686551
 31
0.0
  0
LINE
  5
30A7
330
2DCA
100
AcDbEntity
  8
AM0
  6
Continuous
100
AcDbLine
 10
129.4999999999988
 20
118.9170962313458
 30
0.0
 11
135.0999999999999
 21
118.9170962313458
 31
0.0
  0
LINE
  5
30A8
330
2DCA
100
AcDbEntity
  8
AM0
  6
Continuous
100
AcDbLine
 10
113.0999999999988
 20
123.0
 30
0.0
 11
99.49999999999887
 21
123.0
 31
0.0
  0
LINE
  5
30A9
330
2DCA
100
AcDbEntity
  8
AM0
  6
Continuous
100
AcDbLine
 10
99.49999999999887
 20
131.0000000000009
 30
0.0
 11
113.0999999999988
 21
131.0000000000009
 31
0.0
  0
LINE
  5
30AA
330
2DCA
100
AcDbEntity
  8
AM0
  6
Continuous
100
AcDbLine
 10
124.5
 20
114.0
 30
0.0
 11
124.5
 21
139.0
 31
0.0
  0
LINE
  5
30AB
330
2DCA
100
AcDbEntity
  8
AM0
  6
Continuous
100
AcDbLine
 10
124.5
 20
139.0
 30
0.0
 11
119.4999999999988
 21
139.0
 31
0.0
  0
LINE
  5
30AC
330
2DCA
100
AcDbEntity
  8
AM0
  6
Continuous
100
AcDbLine
 10
124.5
 20
114.0
 30
0.0
 11
119.4999999999988
 21
114.0
 31
0.0
  0
LINE
  5
30AD
330
2DCA
100
AcDbEntity
  8
AM0
100
AcDbLine
 10
119.4999999999988
 20
139.0
 30
0.0
 11
119.4999999999988
 21
114.0
 31
0.0
  0
LINE
  5
30AE
330
2DCA
100
AcDbEntity
  8
AM0
100
AcDbLine
 10
119.4999999999988
 20
135.0829037686551
 30
0.0
 11
119.4999999999988
 21
118.9170962313458
 31
0.0
  0
LINE
  5
30AF
330
2DCA
100
AcDbEntity
  8
AM0
  6
ACAD_ISO02W100
100
AcDbLine
 10
113.0999999999988
 20
131.0000000000009
 30
0.0
 11
129.4999999999988
 21
131.0000000000009
 31
0.0
  0
LINE
  5
30B0
330
2DCA
100
AcDbEntity
  8
AM0
  6
ACAD_ISO02W100
100
AcDbLine
 10
113.0999999999988
 20
123.0
 30
0.0
 11
129.4999999999988
 21
123.0
 31
0.0
  0
LINE
  5
30B1
330
2DCA
100
AcDbEntity
  8
AM0
100
AcDbLine
 10
135.0999999999999
 20
135.0829037686551
 30
0.0
 11
135.0999999999999
 21
118.9170962313458
 31
0.0
  0
LINE
  5
30B2
330
2DCA
100
AcDbEntity
  8
AM0
100
AcDbLine
 10
129.4999999999988
 20
131.0000000000009
 30
0.0
 11
135.0999999999999
 21
131.0000000000009
 31
0.0
  0
LINE
  5
30B3
330
2DCA
100
AcDbEntity
  8
AM0
100
AcDbLine
 10
129.4999999999988
 20
123.0
 30
0.0
 11
135.0999999999999
 21
123.0
 31
0.0
  0
LINE
  5
30B4
330
2DCA
100
AcDbEntity
  8
AM0
100
AcDbLine
 10
124.5
 20
149.0
 30
0.0
 11
124.5
 21
-149.0
 31
0.0
  0
LINE
  5
30B5
330
2DCA
100
AcDbEntity
  8
AM0
  6
Continuous
100
AcDbLine
 10
-99.50000000000001
 20
123.0
 30
0.0
 11
-99.50000000000001
 21
131.0000000000009
 31
0.0
  0
LINE
  5
30B6
330
2DCA
100
AcDbEntity
  8
AM0
  6
Continuous
100
AcDbLine
 10
-113.1000000000001
 20
122.9585481156739
 30
0.0
 11
-113.1000000000001
 21
118.9170962313458
 31
0.0
  0
LINE
  5
30B7
330
2DCA
100
AcDbEntity
  8
AM0
  6
Continuous
100
AcDbLine
 10
-119.5
 20
118.9170962313458
 30
0.0
 11
-113.1000000000001
 21
118.9170962313458
 31
0.0
  0
LINE
  5
30B8
330
2DCA
100
AcDbEntity
  8
AM0
  6
Continuous
100
AcDbLine
 10
-113.1000000000001
 20
118.9170962313458
 30
0.0
 11
-113.1000000000001
 21
122.9585481156739
 31
0.0
  0
LINE
  5
30B9
330
2DCA
100
AcDbEntity
  8
AM0
  6
Continuous
100
AcDbLine
 10
-119.5
 20
135.0829037686551
 30
0.0
 11
-113.1000000000001
 21
135.0829037686551
 31
0.0
  0
LINE
  5
30BA
330
2DCA
100
AcDbEntity
  8
AM0
  6
Continuous
100
AcDbLine
 10
-113.1000000000001
 20
135.0829037686551
 30
0.0
 11
-113.1000000000001
 21
131.0414518843281
 31
0.0
  0
LINE
  5
30BB
330
2DCA
100
AcDbEntity
  8
AM0
  6
Continuous
100
AcDbLine
 10
-113.1000000000001
 20
131.0414518843281
 30
0.0
 11
-113.1000000000001
 21
122.9585481156739
 31
0.0
  0
LINE
  5
30BC
330
2DCA
100
AcDbEntity
  8
AM0
  6
Continuous
100
AcDbLine
 10
-129.5
 20
135.0829037686551
 30
0.0
 11
-135.1000000000001
 21
135.0829037686551
 31
0.0
  0
LINE
  5
30BD
330
2DCA
100
AcDbEntity
  8
AM0
  6
Continuous
100
AcDbLine
 10
-129.5
 20
118.9170962313458
 30
0.0
 11
-135.1000000000001
 21
118.9170962313458
 31
0.0
  0
LINE
  5
30BE
330
2DCA
100
AcDbEntity
  8
AM0
  6
Continuous
100
AcDbLine
 10
-113.1000000000001
 20
123.0
 30
0.0
 11
-99.50000000000001
 21
123.0
 31
0.0
  0
LINE
  5
30BF
330
2DCA
100
AcDbEntity
  8
AM0
  6
Continuous
100
AcDbLine
 10
-99.50000000000001
 20
131.0000000000009
 30
0.0
 11
-113.1000000000001
 21
131.0000000000009
 31
0.0
  0
LINE
  5
30C0
330
2DCA
100
AcDbEntity
  8
AM0
  6
Continuous
100
AcDbLine
 10
-124.5
 20
114.0
 30
0.0
 11
-124.5
 21
139.0
 31
0.0
  0
LINE
  5
30C1
330
2DCA
100
AcDbEntity
  8
AM0
  6
Continuous
100
AcDbLine
 10
-124.5
 20
139.0
 30
0.0
 11
-119.5
 21
139.0
 31
0.0
  0
LINE
  5
30C2
330
2DCA
100
AcDbEntity
  8
AM0
  6
Continuous
100
AcDbLine
 10
-124.5
 20
114.0
 30
0.0
 11
-119.5
 21
114.0
 31
0.0
  0
LINE
  5
30C3
330
2DCA
100
AcDbEntity
  8
AM0
100
AcDbLine
 10
-119.5
 20
139.0
 30
0.0
 11
-119.5
 21
114.0
 31
0.0
  0
LINE
  5
30C4
330
2DCA
100
AcDbEntity
  8
AM0
100
AcDbLine
 10
-119.5
 20
135.0829037686551
 30
0.0
 11
-119.5
 21
118.9170962313458
 31
0.0
  0
LINE
  5
30C5
330
2DCA
100
AcDbEntity
  8
AM0
  6
ACAD_ISO02W100
100
AcDbLine
 10
-113.1000000000001
 20
131.0000000000009
 30
0.0
 11
-129.5
 21
131.0000000000009
 31
0.0
  0
LINE
  5
30C6
330
2DCA
100
AcDbEntity
  8
AM0
  6
ACAD_ISO02W100
100
AcDbLine
 10
-113.1000000000001
 20
123.0
 30
0.0
 11
-129.5
 21
123.0
 31
0.0
  0
LINE
  5
30C7
330
2DCA
100
AcDbEntity
  8
AM0
100
AcDbLine
 10
-135.1000000000001
 20
135.0829037686551
 30
0.0
 11
-135.1000000000001
 21
118.9170962313458
 31
0.0
  0
LINE
  5
30C8
330
2DCA
100
AcDbEntity
  8
AM0
100
AcDbLine
 10
-129.5
 20
131.0000000000009
 30
0.0
 11
-135.1000000000001
 21
131.0000000000009
 31
0.0
  0
LINE
  5
30C9
330
2DCA
100
AcDbEntity
  8
AM0
100
AcDbLine
 10
-129.5
 20
123.0
 30
0.0
 11
-135.1000000000001
 21
123.0
 31
0.0
  0
LINE
  5
30CA
330
2DCA
100
AcDbEntity
  8
AM0
  6
Continuous
100
AcDbLine
 10
-99.50000000000001
 20
-123.0
 30
0.0
 11
-99.50000000000001
 21
-131.0
 31
0.0
  0
LINE
  5
30CB
330
2DCA
100
AcDbEntity
  8
AM0
  6
Continuous
100
AcDbLine
 10
-113.1000000000001
 20
-122.9585481156719
 30
0.0
 11
-113.1000000000001
 21
-118.9170962313451
 31
0.0
  0
LINE
  5
30CC
330
2DCA
100
AcDbEntity
  8
AM0
  6
Continuous
100
AcDbLine
 10
-119.5
 20
-118.9170962313451
 30
0.0
 11
-113.1000000000001
 21
-118.9170962313451
 31
0.0
  0
LINE
  5
30CD
330
2DCA
100
AcDbEntity
  8
AM0
  6
Continuous
100
AcDbLine
 10
-113.1000000000001
 20
-118.9170962313451
 30
0.0
 11
-113.1000000000001
 21
-122.9585481156719
 31
0.0
  0
LINE
  5
30CE
330
2DCA
100
AcDbEntity
  8
AM0
  6
Continuous
100
AcDbLine
 10
-119.5
 20
-135.0829037686539
 30
0.0
 11
-113.1000000000001
 21
-135.0829037686539
 31
0.0
  0
LINE
  5
30CF
330
2DCA
100
AcDbEntity
  8
AM0
  6
Continuous
100
AcDbLine
 10
-113.1000000000001
 20
-135.0829037686539
 30
0.0
 11
-113.1000000000001
 21
-131.041451884327
 31
0.0
  0
LINE
  5
30D0
330
2DCA
100
AcDbEntity
  8
AM0
  6
Continuous
100
AcDbLine
 10
-113.1000000000001
 20
-131.041451884327
 30
0.0
 11
-113.1000000000001
 21
-122.9585481156719
 31
0.0
  0
LINE
  5
30D1
330
2DCA
100
AcDbEntity
  8
AM0
  6
Continuous
100
AcDbLine
 10
-129.5
 20
-135.0829037686539
 30
0.0
 11
-135.1000000000001
 21
-135.0829037686539
 31
0.0
  0
LINE
  5
30D2
330
2DCA
100
AcDbEntity
  8
AM0
  6
Continuous
100
AcDbLine
 10
-129.5
 20
-118.9170962313451
 30
0.0
 11
-135.1000000000001
 21
-118.9170962313451
 31
0.0
  0
LINE
  5
30D3
330
2DCA
100
AcDbEntity
  8
AM0
  6
Continuous
100
AcDbLine
 10
-113.1000000000001
 20
-123.0
 30
0.0
 11
-99.50000000000001
 21
-123.0
 31
0.0
  0
LINE
  5
30D4
330
2DCA
100
AcDbEntity
  8
AM0
  6
Continuous
100
AcDbLine
 10
-99.50000000000001
 20
-131.0
 30
0.0
 11
-113.1000000000001
 21
-131.0
 31
0.0
  0
LINE
  5
30D5
330
2DCA
100
AcDbEntity
  8
AM0
  6
Continuous
100
AcDbLine
 10
-124.5
 20
-114.0
 30
0.0
 11
-124.5
 21
-139.0
 31
0.0
  0
LINE
  5
30D6
330
2DCA
100
AcDbEntity
  8
AM0
  6
Continuous
100
AcDbLine
 10
-124.5
 20
-139.0
 30
0.0
 11
-119.5
 21
-139.0
 31
0.0
  0
LINE
  5
30D7
330
2DCA
100
AcDbEntity
  8
AM0
  6
Continuous
100
AcDbLine
 10
-124.5
 20
-114.0
 30
0.0
 11
-119.5
 21
-114.0
 31
0.0
  0
LINE
  5
30D8
330
2DCA
100
AcDbEntity
  8
AM0
100
AcDbLine
 10
-119.5
 20
-139.0
 30
0.0
 11
-119.5
 21
-114.0
 31
0.0
  0
LINE
  5
30D9
330
2DCA
100
AcDbEntity
  8
AM0
100
AcDbLine
 10
-119.5
 20
-135.0829037686539
 30
0.0
 11
-119.5
 21
-118.9170962313451
 31
0.0
  0
LINE
  5
30DA
330
2DCA
100
AcDbEntity
  8
AM0
  6
ACAD_ISO02W100
100
AcDbLine
 10
-113.1000000000001
 20
-131.0
 30
0.0
 11
-129.5
 21
-131.0
 31
0.0
  0
LINE
  5
30DB
330
2DCA
100
AcDbEntity
  8
AM0
  6
ACAD_ISO02W100
100
AcDbLine
 10
-113.1000000000001
 20
-123.0
 30
0.0
 11
-129.5
 21
-123.0
 31
0.0
  0
LINE
  5
30DC
330
2DCA
100
AcDbEntity
  8
AM0
100
AcDbLine
 10
-135.1000000000001
 20
-135.0829037686539
 30
0.0
 11
-135.1000000000001
 21
-118.9170962313451
 31
0.0
  0
LINE
  5
30DD
330
2DCA
100
AcDbEntity
  8
AM0
100
AcDbLine
 10
-129.5
 20
-131.0
 30
0.0
 11
-135.1000000000001
 21
-131.0
 31
0.0
  0
LINE
  5
30DE
330
2DCA
100
AcDbEntity
  8
AM0
100
AcDbLine
 10
-129.5
 20
-123.0
 30
0.0
 11
-135.1000000000001
 21
-123.0
 31
0.0
  0
LINE
  5
30DF
330
2DCA
100
AcDbEntity
  8
AM0
  6
Continuous
100
AcDbLine
 10
99.49999999999887
 20
-123.0
 30
0.0
 11
99.49999999999887
 21
-131.0
 31
0.0
  0
LINE
  5
30E0
330
2DCA
100
AcDbEntity
  8
AM0
  6
Continuous
100
AcDbLine
 10
113.0999999999988
 20
-122.9585481156719
 30
0.0
 11
113.0999999999988
 21
-118.9170962313451
 31
0.0
  0
LINE
  5
30E1
330
2DCA
100
AcDbEntity
  8
AM0
  6
Continuous
100
AcDbLine
 10
119.4999999999988
 20
-118.9170962313451
 30
0.0
 11
113.0999999999988
 21
-118.9170962313451
 31
0.0
  0
LINE
  5
30E2
330
2DCA
100
AcDbEntity
  8
AM0
  6
Continuous
100
AcDbLine
 10
113.0999999999988
 20
-118.9170962313451
 30
0.0
 11
113.0999999999988
 21
-122.9585481156719
 31
0.0
  0
LINE
  5
30E3
330
2DCA
100
AcDbEntity
  8
AM0
  6
Continuous
100
AcDbLine
 10
119.4999999999988
 20
-135.0829037686539
 30
0.0
 11
113.0999999999988
 21
-135.0829037686539
 31
0.0
  0
LINE
  5
30E4
330
2DCA
100
AcDbEntity
  8
AM0
  6
Continuous
100
AcDbLine
 10
113.0999999999988
 20
-135.0829037686539
 30
0.0
 11
113.0999999999988
 21
-131.041451884327
 31
0.0
  0
LINE
  5
30E5
330
2DCA
100
AcDbEntity
  8
AM0
  6
Continuous
100
AcDbLine
 10
113.0999999999988
 20
-131.041451884327
 30
0.0
 11
113.0999999999988
 21
-122.9585481156719
 31
0.0
  0
LINE
  5
30E6
330
2DCA
100
AcDbEntity
  8
AM0
  6
Continuous
100
AcDbLine
 10
129.4999999999988
 20
-135.0829037686539
 30
0.0
 11
135.0999999999999
 21
-135.0829037686539
 31
0.0
  0
LINE
  5
30E7
330
2DCA
100
AcDbEntity
  8
AM0
  6
Continuous
100
AcDbLine
 10
129.4999999999988
 20
-118.9170962313451
 30
0.0
 11
135.0999999999999
 21
-118.9170962313451
 31
0.0
  0
LINE
  5
30E8
330
2DCA
100
AcDbEntity
  8
AM0
  6
Continuous
100
AcDbLine
 10
113.0999999999988
 20
-123.0
 30
0.0
 11
99.49999999999887
 21
-123.0
 31
0.0
  0
LINE
  5
30E9
330
2DCA
100
AcDbEntity
  8
AM0
  6
Continuous
100
AcDbLine
 10
99.49999999999887
 20
-131.0
 30
0.0
 11
113.0999999999988
 21
-131.0
 31
0.0
  0
LINE
  5
30EA
330
2DCA
100
AcDbEntity
  8
AM0
  6
Continuous
100
AcDbLine
 10
124.5
 20
-114.0
 30
0.0
 11
124.5
 21
-139.0
 31
0.0
  0
LINE
  5
30EB
330
2DCA
100
AcDbEntity
  8
AM0
  6
Continuous
100
AcDbLine
 10
124.5
 20
-139.0
 30
0.0
 11
119.4999999999988
 21
-139.0
 31
0.0
  0
LINE
  5
30EC
330
2DCA
100
AcDbEntity
  8
AM0
  6
Continuous
100
AcDbLine
 10
124.5
 20
-114.0
 30
0.0
 11
119.4999999999988
 21
-114.0
 31
0.0
  0
LINE
  5
30ED
330
2DCA
100
AcDbEntity
  8
AM0
100
AcDbLine
 10
119.4999999999988
 20
-139.0
 30
0.0
 11
119.4999999999988
 21
-114.0
 31
0.0
  0
LINE
  5
30EE
330
2DCA
100
AcDbEntity
  8
AM0
100
AcDbLine
 10
119.4999999999988
 20
-135.0829037686539
 30
0.0
 11
119.4999999999988
 21
-118.9170962313451
 31
0.0
  0
LINE
  5
30EF
330
2DCA
100
AcDbEntity
  8
AM0
  6
ACAD_ISO02W100
100
AcDbLine
 10
113.0999999999988
 20
-131.0
 30
0.0
 11
129.4999999999988
 21
-131.0
 31
0.0
  0
LINE
  5
30F0
330
2DCA
100
AcDbEntity
  8
AM0
  6
ACAD_ISO02W100
100
AcDbLine
 10
113.0999999999988
 20
-123.0
 30
0.0
 11
129.4999999999988
 21
-123.0
 31
0.0
  0
LINE
  5
30F1
330
2DCA
100
AcDbEntity
  8
AM0
100
AcDbLine
 10
135.0999999999999
 20
-135.0829037686539
 30
0.0
 11
135.0999999999999
 21
-118.9170962313451
 31
0.0
  0
LINE
  5
30F2
330
2DCA
100
AcDbEntity
  8
AM0
100
AcDbLine
 10
129.4999999999988
 20
-131.0
 30
0.0
 11
135.0999999999999
 21
-131.0
 31
0.0
  0
LINE
  5
30F3
330
2DCA
100
AcDbEntity
  8
AM0
100
AcDbLine
 10
129.4999999999988
 20
-123.0
 30
0.0
 11
135.0999999999999
 21
-123.0
 31
0.0
  0
LINE
  5
30F4
330
2DCA
100
AcDbEntity
  8
AM0
100
AcDbLine
 10
-4.0
 20
109.0000000000009
 30
0.0
 11
-4.0
 21
149.0
 31
0.0
  0
LINE
  5
30F5
330
2DCA
100
AcDbEntity
  8
AM0
100
AcDbLine
 10
-4.0
 20
-109.0
 30
0.0
 11
-4.0
 21
-149.0
 31
0.0
  0
LINE
  5
30F6
330
2DCA
100
AcDbEntity
  8
AM0
100
AcDbLine
 10
4.0
 20
109.0000000000009
 30
0.0
 11
4.0
 21
149.0
 31
0.0
  0
LINE
  5
30F7
330
2DCA
100
AcDbEntity
  8
AM0
100
AcDbLine
 10
124.5000000000009
 20
114.0
 30
0.0
 11
4.0
 21
114.0
 31
0.0
  0
LINE
  5
30F8
330
2DCA
100
AcDbEntity
  8
AM0
100
AcDbLine
 10
4.0
 20
-109.0
 30
0.0
 11
4.0
 21
-149.0
 31
0.0
  0
LINE
  5
30F9
330
2DCA
100
AcDbEntity
  8
AM0
100
AcDbLine
 10
124.5000000000009
 20
-114.0
 30
0.0
 11
4.0
 21
-114.0
 31
0.0
  0
CIRCLE
  5
30FA
330
2DCA
100
AcDbEntity
  8
AM0
100
AcDbCircle
 10
64.25000000000091
 20
137.0000000000009
 30
0.0
 40
4.5
  0
CIRCLE
  5
30FB
330
2DCA
100
AcDbEntity
  8
AM0
100
AcDbCircle
 10
64.25000000000091
 20
-137.0
 30
0.0
 40
4.5
  0
LINE
  5
30FC
330
2DCA
100
AcDbEntity
  8
AM0
100
AcDbLine
 10
-4.0
 20
-109.0
 30
0.0
 11
-4.0
 21
-149.0
 31
0.0
  0
LINE
  5
30FD
330
2DCA
100
AcDbEntity
  8
AM0
  6
Continuous
100
AcDbLine
 10
23.0
 20
131.0000000000009
 30
0.0
 11
23.0
 21
123.0
 31
0.0
  0
LINE
  5
30FE
330
2DCA
100
AcDbEntity
  8
AM0
  6
ACAD_ISO02W100
100
AcDbLine
 10
-8.999999999998181
 20
131.0414518843299
 30
0.0
 11
15.400000000001
 21
131.0000000000009
 31
0.0
  0
LINE
  5
30FF
330
2DCA
100
AcDbEntity
  8
AM0
  6
Continuous
100
AcDbLine
 10
9.000000000001818
 20
135.082903768656
 30
0.0
 11
15.400000000001
 21
135.082903768656
 31
0.0
  0
LINE
  5
3100
330
2DCA
100
AcDbEntity
  8
AM0
  6
Continuous
100
AcDbLine
 10
9.000000000001818
 20
118.9170962313471
 30
0.0
 11
15.400000000001
 21
118.9170962313471
 31
0.0
  0
LINE
  5
3101
330
2DCA
100
AcDbEntity
  8
AM0
  6
Continuous
100
AcDbLine
 10
-14.60000000000013
 20
122.958548115675
 30
0.0
 11
-14.60000000000013
 21
118.9170962313471
 31
0.0
  0
LINE
  5
3102
330
2DCA
100
AcDbEntity
  8
AM0
  6
Continuous
100
AcDbLine
 10
-8.999999999998181
 20
118.9170962313471
 30
0.0
 11
-14.60000000000013
 21
118.9170962313471
 31
0.0
  0
LINE
  5
3103
330
2DCA
100
AcDbEntity
  8
AM0
  6
Continuous
100
AcDbLine
 10
-14.60000000000013
 20
118.9170962313471
 30
0.0
 11
-14.60000000000013
 21
122.958548115675
 31
0.0
  0
LINE
  5
3104
330
2DCA
100
AcDbEntity
  8
AM0
  6
Continuous
100
AcDbLine
 10
-8.999999999998181
 20
135.082903768656
 30
0.0
 11
-14.60000000000013
 21
135.082903768656
 31
0.0
  0
LINE
  5
3105
330
2DCA
100
AcDbEntity
  8
AM0
  6
Continuous
100
AcDbLine
 10
-14.60000000000013
 20
135.082903768656
 30
0.0
 11
-14.60000000000013
 21
131.0414518843299
 31
0.0
  0
LINE
  5
3106
330
2DCA
100
AcDbEntity
  8
AM0
  6
Continuous
100
AcDbLine
 10
-8.999999999998181
 20
131.0414518843299
 30
0.0
 11
-14.60000000000013
 21
131.0414518843299
 31
0.0
  0
LINE
  5
3107
330
2DCA
100
AcDbEntity
  8
AM0
  6
Continuous
100
AcDbLine
 10
-14.60000000000013
 20
131.0414518843299
 30
0.0
 11
-14.60000000000013
 21
122.958548115675
 31
0.0
  0
LINE
  5
3108
330
2DCA
100
AcDbEntity
  8
AM0
  6
Continuous
100
AcDbLine
 10
-8.999999999998181
 20
114.0
 30
0.0
 11
-8.999999999998181
 21
139.0
 31
0.0
  0
LINE
  5
3109
330
2DCA
100
AcDbEntity
  8
AM0
  6
Continuous
100
AcDbLine
 10
-8.999999999998181
 20
139.0
 30
0.0
 11
-4.0
 21
139.0
 31
0.0
  0
LINE
  5
310A
330
2DCA
100
AcDbEntity
  8
AM0
  6
Continuous
100
AcDbLine
 10
4.0
 20
139.0
 30
0.0
 11
9.000000000001818
 21
139.0
 31
0.0
  0
LINE
  5
310B
330
2DCA
100
AcDbEntity
  8
AM0
  6
Continuous
100
AcDbLine
 10
9.000000000001818
 20
139.0
 30
0.0
 11
9.000000000001818
 21
114.0
 31
0.0
  0
LINE
  5
310C
330
2DCA
100
AcDbEntity
  8
AM0
  6
Continuous
100
AcDbLine
 10
4.0
 20
139.0
 30
0.0
 11
4.0
 21
114.0
 31
0.0
  0
LINE
  5
310D
330
2DCA
100
AcDbEntity
  8
AM0
  6
Continuous
100
AcDbLine
 10
-4.0
 20
114.0
 30
0.0
 11
-4.0
 21
139.0
 31
0.0
  0
LINE
  5
310E
330
2DCA
100
AcDbEntity
  8
AM0
  6
Continuous
100
AcDbLine
 10
23.0
 20
131.0000000000009
 30
0.0
 11
15.400000000001
 21
131.0000000000009
 31
0.0
  0
LINE
  5
310F
330
2DCA
100
AcDbEntity
  8
AM0
  6
Continuous
100
AcDbLine
 10
15.400000000001
 20
123.0
 30
0.0
 11
23.0
 21
123.0
 31
0.0
  0
LINE
  5
3110
330
2DCA
100
AcDbEntity
  8
AM0
100
AcDbLine
 10
15.400000000001
 20
135.082903768656
 30
0.0
 11
15.400000000001
 21
118.9170962313471
 31
0.0
  0
LINE
  5
3111
330
2DCA
100
AcDbEntity
  8
AM0
100
AcDbLine
 10
-8.999999999998181
 20
123.0
 30
0.0
 11
-14.60000000000013
 21
123.0
 31
0.0
  0
LINE
  5
3112
330
2DCA
100
AcDbEntity
  8
AM0
  6
ACAD_ISO02W100
100
AcDbLine
 10
-8.999999999998181
 20
123.0
 30
0.0
 11
15.400000000001
 21
123.0
 31
0.0
  0
LINE
  5
3113
330
2DCA
100
AcDbEntity
  8
AM0
100
AcDbLine
 10
-8.999999999998181
 20
114.0
 30
0.0
 11
-4.0
 21
114.0
 31
0.0
  0
LINE
  5
3114
330
2DCA
100
AcDbEntity
  8
AM0
100
AcDbLine
 10
4.0
 20
114.0
 30
0.0
 11
9.000000000001818
 21
114.0
 31
0.0
  0
LINE
  5
3115
330
2DCA
100
AcDbEntity
  8
AM0
100
AcDbLine
 10
4.0
 20
-109.0
 30
0.0
 11
4.0
 21
-149.0
 31
0.0
  0
LINE
  5
3116
330
2DCA
100
AcDbEntity
  8
AM0
100
AcDbLine
 10
-4.0
 20
149.0
 30
0.0
 11
-4.0
 21
-149.0
 31
0.0
  0
LINE
  5
3117
330
2DCA
100
AcDbEntity
  8
AM0
  6
Continuous
100
AcDbLine
 10
23.0
 20
-131.0
 30
0.0
 11
23.0
 21
-123.0
 31
0.0
  0
LINE
  5
3118
330
2DCA
100
AcDbEntity
  8
AM0
  6
ACAD_ISO02W100
100
AcDbLine
 10
-8.999999999998181
 20
-131.041451884329
 30
0.0
 11
15.400000000001
 21
-131.0
 31
0.0
  0
LINE
  5
3119
330
2DCA
100
AcDbEntity
  8
AM0
  6
Continuous
100
AcDbLine
 10
9.000000000001818
 20
-135.082903768656
 30
0.0
 11
15.400000000001
 21
-135.082903768656
 31
0.0
  0
LINE
  5
311A
330
2DCA
100
AcDbEntity
  8
AM0
  6
Continuous
100
AcDbLine
 10
9.000000000001818
 20
-118.9170962313469
 30
0.0
 11
15.400000000001
 21
-118.9170962313469
 31
0.0
  0
LINE
  5
311B
330
2DCA
100
AcDbEntity
  8
AM0
  6
Continuous
100
AcDbLine
 10
-14.60000000000013
 20
-122.9585481156739
 30
0.0
 11
-14.60000000000013
 21
-118.9170962313469
 31
0.0
  0
LINE
  5
311C
330
2DCA
100
AcDbEntity
  8
AM0
  6
Continuous
100
AcDbLine
 10
-8.999999999998181
 20
-118.9170962313469
 30
0.0
 11
-14.60000000000013
 21
-118.9170962313469
 31
0.0
  0
LINE
  5
311D
330
2DCA
100
AcDbEntity
  8
AM0
  6
Continuous
100
AcDbLine
 10
-14.60000000000013
 20
-118.9170962313469
 30
0.0
 11
-14.60000000000013
 21
-122.9585481156739
 31
0.0
  0
LINE
  5
311E
330
2DCA
100
AcDbEntity
  8
AM0
  6
Continuous
100
AcDbLine
 10
-8.999999999998181
 20
-135.082903768656
 30
0.0
 11
-14.60000000000013
 21
-135.082903768656
 31
0.0
  0
LINE
  5
311F
330
2DCA
100
AcDbEntity
  8
AM0
  6
Continuous
100
AcDbLine
 10
-14.60000000000013
 20
-135.082903768656
 30
0.0
 11
-14.60000000000013
 21
-131.041451884329
 31
0.0
  0
LINE
  5
3120
330
2DCA
100
AcDbEntity
  8
AM0
  6
Continuous
100
AcDbLine
 10
-8.999999999998181
 20
-131.041451884329
 30
0.0
 11
-14.60000000000013
 21
-131.041451884329
 31
0.0
  0
LINE
  5
3121
330
2DCA
100
AcDbEntity
  8
AM0
  6
Continuous
100
AcDbLine
 10
-14.60000000000013
 20
-131.041451884329
 30
0.0
 11
-14.60000000000013
 21
-122.9585481156739
 31
0.0
  0
LINE
  5
3122
330
2DCA
100
AcDbEntity
  8
AM0
  6
Continuous
100
AcDbLine
 10
-8.999999999998181
 20
-114.0
 30
0.0
 11
-8.999999999998181
 21
-139.0
 31
0.0
  0
LINE
  5
3123
330
2DCA
100
AcDbEntity
  8
AM0
  6
Continuous
100
AcDbLine
 10
-8.999999999998181
 20
-139.0
 30
0.0
 11
-4.0
 21
-139.0
 31
0.0
  0
LINE
  5
3124
330
2DCA
100
AcDbEntity
  8
AM0
  6
Continuous
100
AcDbLine
 10
4.0
 20
-139.0
 30
0.0
 11
9.000000000001818
 21
-139.0
 31
0.0
  0
LINE
  5
3125
330
2DCA
100
AcDbEntity
  8
AM0
  6
Continuous
100
AcDbLine
 10
9.000000000001818
 20
-139.0
 30
0.0
 11
9.000000000001818
 21
-114.0
 31
0.0
  0
LINE
  5
3126
330
2DCA
100
AcDbEntity
  8
AM0
  6
Continuous
100
AcDbLine
 10
4.0
 20
-139.0
 30
0.0
 11
4.0
 21
-114.0
 31
0.0
  0
LINE
  5
3127
330
2DCA
100
AcDbEntity
  8
AM0
  6
Continuous
100
AcDbLine
 10
-4.0
 20
-114.0
 30
0.0
 11
-4.0
 21
-139.0
 31
0.0
  0
LINE
  5
3128
330
2DCA
100
AcDbEntity
  8
AM0
  6
Continuous
100
AcDbLine
 10
23.0
 20
-131.0
 30
0.0
 11
15.400000000001
 21
-131.0
 31
0.0
  0
LINE
  5
3129
330
2DCA
100
AcDbEntity
  8
AM0
  6
Continuous
100
AcDbLine
 10
15.400000000001
 20
-123.0
 30
0.0
 11
23.0
 21
-123.0
 31
0.0
  0
LINE
  5
312A
330
2DCA
100
AcDbEntity
  8
AM0
100
AcDbLine
 10
15.400000000001
 20
-135.082903768656
 30
0.0
 11
15.400000000001
 21
-118.9170962313469
 31
0.0
  0
LINE
  5
312B
330
2DCA
100
AcDbEntity
  8
AM0
100
AcDbLine
 10
-8.999999999998181
 20
-123.0
 30
0.0
 11
-14.60000000000013
 21
-123.0
 31
0.0
  0
LINE
  5
312C
330
2DCA
100
AcDbEntity
  8
AM0
  6
ACAD_ISO02W100
100
AcDbLine
 10
-8.999999999998181
 20
-123.0
 30
0.0
 11
15.400000000001
 21
-123.0
 31
0.0
  0
LINE
  5
312D
330
2DCA
100
AcDbEntity
  8
AM0
100
AcDbLine
 10
-8.999999999998181
 20
-114.0
 30
0.0
 11
-4.0
 21
-114.0
 31
0.0
  0
LINE
  5
312E
330
2DCA
100
AcDbEntity
  8
AM0
100
AcDbLine
 10
4.0
 20
-114.0
 30
0.0
 11
9.000000000001818
 21
-114.0
 31
0.0
  0
LINE
  5
312F
330
2DCA
100
AcDbEntity
  8
AM0
100
AcDbLine
 10
4.0
 20
149.0
 30
0.0
 11
4.0
 21
-149.0
 31
0.0
  0
LWPOLYLINE
  5
3130
330
2DCA
100
AcDbEntity
  8
AM0
100
AcDbPolyline
 90
        4
 70
     1
 43
0.0
 10
-124.5
 20
-109.0
 10
-4.0
 20
-109.0
 10
-4.0
 20
109.0000000000009
 10
-124.5
 20
109.0000000000009
  0
LWPOLYLINE
  5
3131
330
2DCA
100
AcDbEntity
  8
AM0
100
AcDbPolyline
 90
        4
 70
     1
 43
0.0
 10
4.000000000000909
 20
-109.0
 10
124.5000000000009
 20
-109.0
 10
124.5000000000009
 20
109.0000000000009
 10
4.000000000000909
 20
109.0000000000009
  0
LINE
  5
3132
330
2DCA
100
AcDbEntity
  8
AM0
100
AcDbLine
 10
64.25000000000091
 20
-137.0
 30
0.0
 11
64.25000000000091
 21
-137.0
 31
0.0
  0
INSERT
  5
3133
330
2DCA
100
AcDbEntity
  8
0
100
AcDbBlockReference
 66
     1
  2
info
 10
-124.2500023598177
 20
-109.0000011472775
 30
0.0
 50
270.0
  0
ATTRIB
  5
3134
330
3133
100
AcDbEntity
  8
0
100
AcDbText
 10
-121.3589071243382
 20
-118.467094097597
 30
0.00000001
 40
5.0
  1
120,5
 50
270.0
100
AcDbAttribute
  2
BRD
 70
     1
1001
AcDbAttr
1070
     0
1070
     1
  0
ATTRIB
  5
3135
330
3133
100
AcDbEntity
  8
0
100
AcDbText
 10
-129.6922404576717
 20
-118.467094097597
 30
0.00000001
 40
5.0
  1
218
 50
270.0
100
AcDbAttribute
  2
HJD
 70
     1
1001
AcDbAttr
1070
     0
1070
     1
  0
SEQEND
  5
3136
330
3133
100
AcDbEntity
  8
0
  0
INSERT
  5
3137
330
2DCA
100
AcDbEntity
  8
0
100
AcDbBlockReference
 66
     1
  2
info
 10
4.24999764018321
 20
-109.0000011472775
 30
0.0
 50
270.0
  0
ATTRIB
  5
3138
330
3137
100
AcDbEntity
  8
0
100
AcDbText
 10
7.141092875662707
 20
-118.467094097597
 30
0.00000001
 40
5.0
  1
120,5
 50
270.0
100
AcDbAttribute
  2
BRD
 70
     1
1001
AcDbAttr
1070
     0
1070
     1
  0
ATTRIB
  5
3139
330
3137
100
AcDbEntity
  8
0
100
AcDbText
 10
-1.192240457670777
 20
-118.467094097597
 30
0.00000001
 40
5.0
  1
218
 50
270.0
100
AcDbAttribute
  2
HJD
 70
     1
1001
AcDbAttr
1070
     0
1070
     1
  0
SEQEND
  5
313A
330
3137
100
AcDbEntity
  8
0
  0
LINE
  5
313B
330
2DCA
100
AcDbEntity
  8
AM_5
100
AcDbLine
 10
-124.5
 20
-152.0
 30
0.0
 11
-124.5
 21
-168.4216045825167
 31
0.0
  0
LINE
  5
313C
330
2DCA
100
AcDbEntity
  8
AM_5
100
AcDbLine
 10
-4.0
 20
-152.0
 30
0.0
 11
-4.0
 21
-168.4216045825167
 31
0.0
  0
LINE
  5
313D
330
2DCA
100
AcDbEntity
  8
AM_5
100
AcDbLine
 10
-117.0
 20
-165.4216045825167
 30
0.0
 11
-11.5
 21
-165.4216045825167
 31
0.0
  0
LINE
  5
313E
330
2DCA
100
AcDbEntity
  8
AM_5
100
AcDbLine
 10
-4.0
 20
-165.4216045825167
 30
0.0
 11
126.25
 21
-165.4216045825167
 31
0.0
  0
SOLID
  5
313F
330
2DCA
100
AcDbEntity
  8
AM_5
100
AcDbTrace
 10
-117.0
 20
-164.1716045825167
 30
0.0
 11
-117.0
 21
-166.6716045825167
 31
0.0
 12
-124.5
 22
-165.4216045825167
 32
0.0
 13
-124.5
 23
-165.4216045825167
 33
0.0
  0
SOLID
  5
3140
330
2DCA
100
AcDbEntity
  8
AM_5
100
AcDbTrace
 10
-11.5
 20
-164.1716045825167
 30
0.0
 11
-11.5
 21
-166.6716045825167
 31
0.0
 12
-4.0
 22
-165.4216045825167
 32
0.0
 13
-4.0
 23
-165.4216045825167
 33
0.0
  0
MTEXT
  5
3141
330
2DCA
100
AcDbEntity
  8
AM_5
 62
     2
100
AcDbMText
 10
64.875
 20
-159.5454265667047
 30
0.0
 40
5.25
 41
0.0
 71
     5
 72
     1
  1
120.5 [4.744"]
 73
     1
 44
1.0
1001
ACAD
1000
MTEXTBEGIN
1070
    73
1070
     1
1070
    44
1040
1.0
1070
    74
1070
     0
1000
MTEXTEND
  0
LINE
  5
3142
330
2DCA
100
AcDbEntity
  8
AM_5
100
AcDbLine
 10
-164.5
 20
-152.0
 30
0.0
 11
-164.5
 21
-184.7399692611597
 31
0.0
  0
LINE
  5
3143
330
2DCA
100
AcDbEntity
  8
AM_5
100
AcDbLine
 10
164.5000000000002
 20
-152.0
 30
0.0
 11
164.5000000000002
 21
-184.7399692611597
 31
0.0
  0
LINE
  5
3144
330
2DCA
100
AcDbEntity
  8
AM_5
100
AcDbLine
 10
-157.0
 20
-181.7399692611598
 30
0.0
 11
157.0000000000002
 21
-181.7399692611598
 31
0.0
  0
SOLID
  5
3145
330
2DCA
100
AcDbEntity
  8
AM_5
100
AcDbTrace
 10
-157.0
 20
-180.4899692611598
 30
0.0
 11
-157.0
 21
-182.9899692611597
 31
0.0
 12
-164.5
 22
-181.7399692611598
 32
0.0
 13
-164.5
 23
-181.7399692611598
 33
0.0
  0
SOLID
  5
3146
330
2DCA
100
AcDbEntity
  8
AM_5
100
AcDbTrace
 10
157.0000000000002
 20
-180.4899692611598
 30
0.0
 11
157.0000000000002
 21
-182.9899692611597
 31
0.0
 12
164.5000000000002
 22
-181.7399692611598
 32
0.0
 13
164.5000000000002
 23
-181.7399692611598
 33
0.0
  0
MTEXT
  5
3147
330
2DCA
100
AcDbEntity
  8
AM_5
 62
     2
100
AcDbMText
 10
0.0000000000002274
 20
-175.8637929001745
 30
0.0
 40
5.25
 41
0.0
 71
     5
 72
     1
  1
329 [12.953"]
 73
     1
 44
1.0
1001
ACAD
1000
MTEXTBEGIN
1070
    73
1070
     1
1070
    44
1040
1.0
1070
    74
1070
     0
1000
MTEXTEND
  0
LINE
  5
3148
330
2DCA
100
AcDbEntity
  8
AM_5
100
AcDbLine
 10
-127.5
 20
-109.0
 30
0.0
 11
-177.1677814663223
 21
-109.0
 31
0.0
  0
LINE
  5
3149
330
2DCA
100
AcDbEntity
  8
AM_5
100
AcDbLine
 10
-127.5
 20
109.0000000000009
 30
0.0
 11
-177.1677814663221
 21
109.0000000000009
 31
0.0
  0
LINE
  5
314A
330
2DCA
100
AcDbEntity
  8
AM_5
100
AcDbLine
 10
-174.1677814663223
 20
-101.5
 30
0.0
 11
-174.1677814663221
 21
101.5000000000009
 31
0.0
  0
SOLID
  5
314B
330
2DCA
100
AcDbEntity
  8
AM_5
100
AcDbTrace
 10
-175.4177814663223
 20
-101.5
 30
0.0
 11
-172.9177814663223
 21
-101.5
 31
0.0
 12
-174.1677814663223
 22
-109.0
 32
0.0
 13
-174.1677814663223
 23
-109.0
 33
0.0
  0
SOLID
  5
314C
330
2DCA
100
AcDbEntity
  8
AM_5
100
AcDbTrace
 10
-175.4177814663221
 20
101.5000000000009
 30
0.0
 11
-172.9177814663221
 21
101.5000000000009
 31
0.0
 12
-174.1677814663221
 22
109.0000000000009
 32
0.0
 13
-174.1677814663221
 23
109.0000000000009
 33
0.0
  0
MTEXT
  5
314D
330
2DCA
100
AcDbEntity
  8
AM_5
 62
     2
100
AcDbMText
 10
-180.0416223339775
 20
0.0000000000006821
 30
0.0
 40
5.25
 41
0.0
 71
     5
 72
     1
  1
218 [8.583"]
 11
0.0000000000000001
 21
1.0
 31
0.0
 73
     1
 44
1.0
1001
ACAD
1000
MTEXTBEGIN
1070
    73
1070
     1
1070
    44
1040
1.0
1070
    74
1070
     0
1000
MTEXTEND
  0
LINE
  5
314E
330
2DCA
100
AcDbEntity
  8
AM_5
100
AcDbLine
 10
-167.5
 20
149.0
 30
0.0
 11
-193.2242639437913
 21
149.0
 31
0.0
  0
LINE
  5
314F
330
2DCA
100
AcDbEntity
  8
AM_5
100
AcDbLine
 10
-167.5
 20
-149.0
 30
0.0
 11
-193.2242639437916
 21
-149.0
 31
0.0
  0
LINE
  5
3150
330
2DCA
100
AcDbEntity
  8
AM_5
100
AcDbLine
 10
-190.2242639437913
 20
141.5
 30
0.0
 11
-190.2242639437916
 21
-141.5
 31
0.0
  0
SOLID
  5
3151
330
2DCA
100
AcDbEntity
  8
AM_5
100
AcDbTrace
 10
-191.4742639437913
 20
141.5
 30
0.0
 11
-188.9742639437913
 21
141.5
 31
0.0
 12
-190.2242639437913
 22
149.0
 32
0.0
 13
-190.2242639437913
 23
149.0
 33
0.0
  0
SOLID
  5
3152
330
2DCA
100
AcDbEntity
  8
AM_5
100
AcDbTrace
 10
-191.4742639437916
 20
-141.5
 30
0.0
 11
-188.9742639437916
 21
-141.5
 31
0.0
 12
-190.2242639437916
 22
-149.0
 32
0.0
 13
-190.2242639437916
 23
-149.0
 33
0.0
  0
MTEXT
  5
3153
330
2DCA
100
AcDbEntity
  8
AM_5
 62
     2
100
AcDbMText
 10
-195.1290604313058
 20
0.0000000000002274
 30
0.0
 40
5.25
 41
0.0
 71
     5
 72
     1
  1
298 [11.732"]
 11
0.0000000000000001
 21
1.0
 31
0.0
 73
     1
 44
1.0
1001
ACAD
1000
MTEXTBEGIN
1070
    73
1070
     1
1070
    44
1040
1.0
1070
    74
1070
     0
1000
MTEXTEND
  0
ENDBLK
  5
2DCC
330
2DCA
100
AcDbEntity
  8
0
100
AcDbBlockEnd
  0
ENDSEC
  0
SECTION
  2
ENTITIES
  0
INSERT
  5
3154
330
1F
100
AcDbEntity
  8
AM0
100
AcDbBlockReference
  2
B6X2
 10
1595.217046224977
 20
1451.687260169454
 30
0.0
  0
ENDSEC
  0
SECTION
  2
OBJECTS
  0
DICTIONARY
  5
C
330
0
100
AcDbDictionary
281
     1
  3
ACAD_COLOR
350
6B
  3
ACAD_GROUP
350
D
  3
ACAD_LAYOUT
350
1A
  3
ACAD_MATERIAL
350
6A
  3
ACAD_MLEADERSTYLE
350
2AA9
  3
ACAD_MLINESTYLE
350
17
  3
ACAD_PLOTSETTINGS
350
19
  3
ACAD_PLOTSTYLENAME
350
E
  3
ACAD_SCALELIST
350
2A97
  3
ACAD_TABLESTYLE
350
7E
  3
ACAD_VISUALSTYLE
350
2A86
  3
ACDB_RECOMPOSE_DATA
350
2EA4
  3
AcDbVariableDictionary
350
5E
  3
AcmDictionary
350
2B4E
  3
AEC_PROPERTY_SET_DEFS
350
2BF6
  3
AMG
350
2AAD
  3
AMGSNAPSETTINGS
350
2BDD
  3
ASE_INDEX_DICTIONARY
350
23D6
  3
DWGPROPS
350
3158
  0
DICTIONARY
  5
2BEA
330
2
100
AcDbDictionary
280
     1
281
     1
  3
ACAD_LAYERSTATES
360
2BEB
  0
DICTIONARY
  5
2E92
330
10
100
AcDbDictionary
280
     1
281
     1
  3
ADSK_XREC_LAYER_RECONCILED
360
2E93
  0
DICTIONARY
  5
2E94
330
E7
100
AcDbDictionary
280
     1
281
     1
  3
ADSK_XREC_LAYER_RECONCILED
360
2E95
  0
DICTIONARY
  5
2E96
330
2C06
100
AcDbDictionary
280
     1
281
     1
  3
ADSK_XREC_LAYER_RECONCILED
360
2E97
  0
DICTIONARY
  5
23E3
330
1F
100
AcDbDictionary
280
     1
281
     1
  3
ACAD_INDEX
360
2E98
  3
ACAD_SORTENTS
360
23E4
  0
DICTIONARY
  5
6B
102
{ACAD_REACTORS
330
C
102
}
330
C
100
AcDbDictionary
281
     1
  0
DICTIONARY
  5
D
102
{ACAD_REACTORS
330
C
102
}
330
C
100
AcDbDictionary
281
     1
  0
DICTIONARY
  5
1A
102
{ACAD_REACTORS
330
C
102
}
330
C
100
AcDbDictionary
281
     1
  3
Layout1
350
D3
  3
Layout2
350
D7
  3
Model
350
22
  0
DICTIONARY
  5
6A
102
{ACAD_REACTORS
330
C
102
}
330
C
100
AcDbDictionary
281
     1
  3
ByBlock
350
2A76
  3
ByLayer
350
2A6E
  3
Global
350
2A7E
  0
DICTIONARY
  5
2AA9
102
{ACAD_REACTORS
330
C
102
}
330
C
100
AcDbDictionary
281
     1
  3
Standard
350
2AAA
  0
DICTIONARY
  5
17
102
{ACAD_REACTORS
330
C
102
}
330
C
100
AcDbDictionary
281
     1
  3
Standard
350
18
  0
DICTIONARY
  5
19
102
{ACAD_REACTORS
330
C
102
}
330
C
100
AcDbDictionary
281
     1
  0
ACDBDICTIONARYWDFLT
  5
E
102
{ACAD_REACTORS
330
C
102
}
330
C
100
AcDbDictionary
281
     1
  3
Normal
350
F
100
AcDbDictionaryWithDefault
340
F
  0
DICTIONARY
  5
2A97
102
{ACAD_REACTORS
330
C
102
}
330
C
100
AcDbDictionary
281
     1
  3
A0
350
2A98
  3
A1
350
2A99
  3
A2
350
2A9A
  3
A3
350
2A9B
  3
A4
350
2A9C
  3
A5
350
2A9D
  3
A6
350
2A9E
  3
A7
350
2A9F
  3
A8
350
2AA0
  3
A9
350
2AA1
  3
B0
350
2AA2
  3
B1
350
2AA3
  3
B2
350
2AA4
  3
B3
350
2AA5
  3
B4
350
2AA6
  3
B5
350
2AA7
  3
B6
350
2AA8
  0
DICTIONARY
  5
7E
102
{ACAD_REACTORS
330
C
102
}
330
C
100
AcDbDictionary
281
     1
  3
Standard
350
7F
  0
DICTIONARY
  5
2A86
102
{ACAD_REACTORS
330
C
102
}
330
C
100
AcDbDictionary
281
     1
  3
2dWireframe
350
2A8C
  3
3D Hidden
350
2A8E
  3
3dWireframe
350
2A8D
  3
Basic
350
2A8B
  3
Brighten
350
2A92
  3
ColorChange
350
2A96
  3
Conceptual
350
2A8F
  3
Dim
350
2A91
  3
Facepattern
350
2A95
  3
Flat
350
2A87
  3
FlatWithEdges
350
2A88
  3
Gouraud
350
2A89
  3
GouraudWithEdges
350
2A8A
  3
Linepattern
350
2A94
  3
Realistic
350
2A90
  3
Thicken
350
2A93
  0
XRECORD
  5
2EA4
102
{ACAD_REACTORS
330
C
102
}
330
C
100
AcDbXrecord
280
     1
 90
        1
330
7F
  0
DICTIONARY
  5
5E
102
{ACAD_REACTORS
330
C
102
}
330
C
100
AcDbDictionary
281
     1
  3
CANNOSCALE
350
2E9F
  3
CMLEADERSTYLE
350
2E9E
  3
CTABLESTYLE
350
84
  3
DIMASSOC
350
5F
  3
HIDETEXT
350
63
  3
INDEXCTL
350
2EA1
  3
PROJECTNAME
350
23D8
  3
SORTENTS
350
2EA0
  0
DICTIONARY
  5
2B4E
102
{ACAD_REACTORS
330
C
102
}
330
C
100
AcDbDictionary
281
     1
  3
AcmStdDictionary
350
2B4F
  0
DICTIONARY
  5
2BF6
102
{ACAD_REACTORS
330
C
102
}
330
C
100
AcDbDictionary
281
     1
  0
DICTIONARY
  5
2AAD
102
{ACAD_REACTORS
330
C
102
}
330
C
100
AcDbDictionary
281
     1
  3
AcMgSettings
350
2AAE
  0
DICTIONARY
  5
2BDD
102
{ACAD_REACTORS
330
C
102
}
330
C
100
AcDbDictionary
281
     1
  3
DIMENSION
350
2BDE
  3
FEA
350
2BDF
  3
HATCH
350
2BE0
  3
SYMBOLS
350
2BE1
  0
DICTIONARY
  5
23D6
102
{ACAD_REACTORS
330
C
102
}
330
C
100
AcDbDictionary
281
     1
  3
ASEBlockHierarchyIndexRecord
350
23D7
1001
DCO15
1040
1651816191.265
  0
XRECORD
  5
3158
102
{ACAD_REACTORS
330
C
102
}
330
C
100
AcDbXrecord
280
     1
  1
DWGPROPS COOKIE
  2

  3

  4

  6

  7

  8
se-jenboh
  9

300
AmdtFileType=84
301
=
302
=
303
=
304
=
305
=
306
=
307
=
308
=
309
=
 40
0.0569049884259259
 41
2454921.404451678
 42
2456350.716605648
  1

 90
        1
  0
DICTIONARY
  5
2BEB
102
{ACAD_REACTORS
330
2BEA
102
}
330
2BEA
100
AcDbDictionary
281
     1
  0
XRECORD
  5
2E93
102
{ACAD_REACTORS
330
2E92
102
}
330
2E92
100
AcDbXrecord
280
     1
290
     1
  0
XRECORD
  5
2E95
102
{ACAD_REACTORS
330
2E94
102
}
330
2E94
100
AcDbXrecord
280
     1
290
     1
  0
XRECORD
  5
2E97
102
{ACAD_REACTORS
330
2E96
102
}
330
2E96
100
AcDbXrecord
280
     1
290
     1
  0
DICTIONARY
  5
2E98
102
{ACAD_REACTORS
330
23E3
102
}
330
23E3
100
AcDbDictionary
281
     1
  3
*A1
350
2E99
  0
SORTENTSTABLE
  5
23E4
102
{ACAD_REACTORS
330
23E3
102
}
330
23E3
100
AcDbSortentsTable
330
1F
  0
LAYOUT
  5
D3
102
{ACAD_XDICTIONARY
360
315C
102
}
102
{ACAD_REACTORS
330
1A
102
}
330
1A
100
AcDbPlotSettings
  1

  2
C:\Documents and Settings\basas\Application Data\Autodesk\AutoCAD 2005\R16.1\enu\plotters\Default Windows System Printer.pc3
  4

  6

 40
0.0
 41
0.0
 42
0.0
 43
0.0
 44
0.0
 45
0.0
 46
0.0
 47
0.0
 48
0.0
 49
0.0
140
0.0
141
0.0
142
1.0
143
1.0
 70
   688
 72
     0
 73
     0
 74
     5
  7

 75
    16
147
1.0
148
0.0
149
0.0
100
AcDbLayout
  1
Layout1
 70
     1
 71
     1
 10
0.0
 20
0.0
 11
12.0
 21
9.0
 12
0.0
 22
0.0
 32
0.0
 14
0.0
 24
0.0
 34
0.0
 15
0.0
 25
0.0
 35
0.0
146
0.0
 13
0.0
 23
0.0
 33
0.0
 16
1.0
 26
0.0
 36
0.0
 17
0.0
 27
1.0
 37
0.0
 76
     0
330
D2
  0
LAYOUT
  5
D7
102
{ACAD_XDICTIONARY
360
315E
102
}
102
{ACAD_REACTORS
330
1A
102
}
330
1A
100
AcDbPlotSettings
  1

  2
C:\Documents and Settings\basas\Application Data\Autodesk\AutoCAD 2005\R16.1\enu\plotters\Default Windows System Printer.pc3
  4

  6

 40
0.0
 41
0.0
 42
0.0
 43
0.0
 44
0.0
 45
0.0
 46
0.0
 47
0.0
 48
0.0
 49
0.0
140
0.0
141
0.0
142
1.0
143
1.0
 70
   688
 72
     0
 73
     0
 74
     5
  7

 75
    16
147
1.0
148
0.0
149
0.0
100
AcDbLayout
  1
Layout2
 70
     1
 71
     2
 10
0.0
 20
0.0
 11
12.0
 21
9.0
 12
0.0
 22
0.0
 32
0.0
 14
0.0
 24
0.0
 34
0.0
 15
0.0
 25
0.0
 35
0.0
146
0.0
 13
0.0
 23
0.0
 33
0.0
 16
1.0
 26
0.0
 36
0.0
 17
0.0
 27
1.0
 37
0.0
 76
     0
330
D6
  0
LAYOUT
  5
22
102
{ACAD_XDICTIONARY
360
3159
102
}
102
{ACAD_REACTORS
330
1A
102
}
330
1A
100
AcDbPlotSettings
  1

  2
none_device
  4
ISO_A4_(210.00_x_297.00_MM)
  6

 40
7.5
 41
20.0
 42
7.5
 43
20.0
 44
210.0
 45
297.0
 46
11.54999923706054
 47
-13.65000009536743
 48
0.0
 49
0.0
140
0.0
141
0.0
142
1.0
143
8.704084754739808
 70
 11952
 72
     1
 73
     0
 74
     0
  7

 75
     0
147
0.1148885871608098
148
0.0
149
0.0
100
AcDbLayout
  1
Model
 70
     1
 71
     0
 10
0.0
 20
0.0
 11
12.0
 21
9.0
 12
0.0
 22
0.0
 32
0.0
 14
0.0
 24
0.0
 34
0.0
 15
0.0
 25
0.0
 35
0.0
146
0.0
 13
0.0
 23
0.0
 33
0.0
 16
1.0
 26
0.0
 36
0.0
 17
0.0
 27
1.0
 37
0.0
 76
     0
330
1F
331
2A62
1001
ACAD_PSEXT
1000
None
1000
None
1000
Not applicable
1000
The layout will not be plotted unless a new plotter configuration name is selected.
1070
     0
  0
MATERIAL
  5
2A76
102
{ACAD_XDICTIONARY
360
2A77
102
}
102
{ACAD_REACTORS
330
6A
102
}
330
6A
100
AcDbMaterial
  1
ByBlock
 72
     0
 43
0.0008202099737533
 43
0.0
 43
0.0
 43
0.0
 43
0.0
 43
0.0008202099737533
 43
0.0
 43
0.0
 43
0.0
 43
0.0
 43
1.0
 43
0.0
 43
0.0
 43
0.0
 43
0.0
 43
1.0
 77
     0
 47
0.0008202099737533
 47
0.0
 47
0.0
 47
0.0
 47
0.0
 47
0.0008202099737533
 47
0.0
 47
0.0
 47
0.0
 47
0.0
 47
1.0
 47
0.0
 47
0.0
 47
0.0
 47
0.0
 47
1.0
171
     0
 49
0.0008202099737533
 49
0.0
 49
0.0
 49
0.0
 49
0.0
 49
0.0008202099737533
 49
0.0
 49
0.0
 49
0.0
 49
0.0
 49
1.0
 49
0.0
 49
0.0
 49
0.0
 49
0.0
 49
1.0
175
     0
142
0.0008202099737533
142
0.0
142
0.0
142
0.0
142
0.0
142
0.0008202099737533
142
0.0
142
0.0
142
0.0
142
0.0
142
1.0
142
0.0
142
0.0
142
0.0
142
0.0
142
1.0
179
     0
144
0.0008202099737533
144
0.0
144
0.0
144
0.0
144
0.0
144
0.0008202099737533
144
0.0
144
0.0
144
0.0
144
0.0
144
1.0
144
0.0
144
0.0
144
0.0
144
0.0
144
1.0
147
0.0008202099737533
147
0.0
147
0.0
147
0.0
147
0.0
147
0.0008202099737533
147
0.0
147
0.0
147
0.0
147
0.0
147
1.0
147
0.0
147
0.0
147
0.0
147
0.0
147
1.0
  0
MATERIAL
  5
2A6E
102
{ACAD_XDICTIONARY
360
2A6F
102
}
102
{ACAD_REACTORS
330
6A
102
}
330
6A
100
AcDbMaterial
  1
ByLayer
 72
     0
 43
0.0008202099737533
 43
0.0
 43
0.0
 43
0.0
 43
0.0
 43
0.0008202099737533
 43
0.0
 43
0.0
 43
0.0
 43
0.0
 43
1.0
 43
0.0
 43
0.0
 43
0.0
 43
0.0
 43
1.0
 77
     0
 47
0.0008202099737533
 47
0.0
 47
0.0
 47
0.0
 47
0.0
 47
0.0008202099737533
 47
0.0
 47
0.0
 47
0.0
 47
0.0
 47
1.0
 47
0.0
 47
0.0
 47
0.0
 47
0.0
 47
1.0
171
     0
 49
0.0008202099737533
 49
0.0
 49
0.0
 49
0.0
 49
0.0
 49
0.0008202099737533
 49
0.0
 49
0.0
 49
0.0
 49
0.0
 49
1.0
 49
0.0
 49
0.0
 49
0.0
 49
0.0
 49
1.0
175
     0
142
0.0008202099737533
142
0.0
142
0.0
142
0.0
142
0.0
142
0.0008202099737533
142
0.0
142
0.0
142
0.0
142
0.0
142
1.0
142
0.0
142
0.0
142
0.0
142
0.0
142
1.0
179
     0
144
0.0008202099737533
144
0.0
144
0.0
144
0.0
144
0.0
144
0.0008202099737533
144
0.0
144
0.0
144
0.0
144
0.0
144
1.0
144
0.0
144
0.0
144
0.0
144
0.0
144
1.0
147
0.0008202099737533
147
0.0
147
0.0
147
0.0
147
0.0
147
0.0008202099737533
147
0.0
147
0.0
147
0.0
147
0.0
147
1.0
147
0.0
147
0.0
147
0.0
147
0.0
147
1.0
  0
MATERIAL
  5
2A7E
102
{ACAD_XDICTIONARY
360
2A7F
102
}
102
{ACAD_REACTORS
330
6A
102
}
330
6A
100
AcDbMaterial
  1
Global
 72
     0
 43
0.0008202099737533
 43
0.0
 43
0.0
 43
0.0
 43
0.0
 43
0.0008202099737533
 43
0.0
 43
0.0
 43
0.0
 43
0.0
 43
1.0
 43
0.0
 43
0.0
 43
0.0
 43
0.0
 43
1.0
 77
     0
 47
0.0008202099737533
 47
0.0
 47
0.0
 47
0.0
 47
0.0
 47
0.0008202099737533
 47
0.0
 47
0.0
 47
0.0
 47
0.0
 47
1.0
 47
0.0
 47
0.0
 47
0.0
 47
0.0
 47
1.0
171
     0
 49
0.0008202099737533
 49
0.0
 49
0.0
 49
0.0
 49
0.0
 49
0.0008202099737533
 49
0.0
 49
0.0
 49
0.0
 49
0.0
 49
1.0
 49
0.0
 49
0.0
 49
0.0
 49
0.0
 49
1.0
175
     0
142
0.0008202099737533
142
0.0
142
0.0
142
0.0
142
0.0
142
0.0008202099737533
142
0.0
142
0.0
142
0.0
142
0.0
142
1.0
142
0.0
142
0.0
142
0.0
142
0.0
142
1.0
179
     0
144
0.0008202099737533
144
0.0
144
0.0
144
0.0
144
0.0
144
0.0008202099737533
144
0.0
144
0.0
144
0.0
144
0.0
144
1.0
144
0.0
144
0.0
144
0.0
144
0.0
144
1.0
147
0.0008202099737533
147
0.0
147
0.0
147
0.0
147
0.0
147
0.0008202099737533
147
0.0
147
0.0
147
0.0
147
0.0
147
1.0
147
0.0
147
0.0
147
0.0
147
0.0
147
1.0
  0
MLEADERSTYLE
  5
2AAA
102
{ACAD_REACTORS
330
2AA9
102
}
330
2AA9
100
AcDbMLeaderStyle
170
     2
171
     1
172
     0
 90
        2
 40
0.0
 41
0.0
173
     1
 91
-1056964608
340
14
 92
       -2
290
     1
 42
2.0
291
     1
 43
0.36
  3
Standard
 44
4.0
300

342
11
174
     1
178
     6
175
     1
176
     0
 93
-1056964608
 45
4.0
292
     0
297
     0
 46
4.0
 94
-1056964608
 47
1.0
 49
1.0
140
1.0
293
     1
141
0.0
294
     1
177
     0
142
1.0
295
     0
296
     0
143
0.125
1001
ACAD_MLEADERVER
1070
     2
  0
MLINESTYLE
  5
18
102
{ACAD_REACTORS
330
17
102
}
330
17
100
AcDbMlineStyle
  2
STANDARD
 70
     0
  3

 62
   256
 51
90.0
 52
90.0
 71
     2
 49
0.5
 62
   256
  6
BYLAYER
 49
-0.5
 62
   256
  6
BYLAYER
  0
ACDBPLACEHOLDER
  5
F
102
{ACAD_REACTORS
330
E
102
}
330
E
  0
SCALE
  5
2A98
102
{ACAD_REACTORS
330
2A97
102
}
330
2A97
100
AcDbScale
 70
     0
300
1:1
140
1.0
141
1.0
290
     1
  0
SCALE
  5
2A99
102
{ACAD_REACTORS
330
2A97
102
}
330
2A97
100
AcDbScale
 70
     0
300
1:2
140
1.0
141
2.0
290
     0
  0
SCALE
  5
2A9A
102
{ACAD_REACTORS
330
2A97
102
}
330
2A97
100
AcDbScale
 70
     0
300
1:4
140
1.0
141
4.0
290
     0
  0
SCALE
  5
2A9B
102
{ACAD_REACTORS
330
2A97
102
}
330
2A97
100
AcDbScale
 70
     0
300
1:5
140
1.0
141
5.0
290
     0
  0
SCALE
  5
2A9C
102
{ACAD_REACTORS
330
2A97
102
}
330
2A97
100
AcDbScale
 70
     0
300
1:8
140
1.0
141
8.0
290
     0
  0
SCALE
  5
2A9D
102
{ACAD_REACTORS
330
2A97
102
}
330
2A97
100
AcDbScale
 70
     0
300
1:10
140
1.0
141
10.0
290
     0
  0
SCALE
  5
2A9E
102
{ACAD_REACTORS
330
2A97
102
}
330
2A97
100
AcDbScale
 70
     0
300
1:16
140
1.0
141
16.0
290
     0
  0
SCALE
  5
2A9F
102
{ACAD_REACTORS
330
2A97
102
}
330
2A97
100
AcDbScale
 70
     0
300
1:20
140
1.0
141
20.0
290
     0
  0
SCALE
  5
2AA0
102
{ACAD_REACTORS
330
2A97
102
}
330
2A97
100
AcDbScale
 70
     0
300
1:30
140
1.0
141
30.0
290
     0
  0
SCALE
  5
2AA1
102
{ACAD_REACTORS
330
2A97
102
}
330
2A97
100
AcDbScale
 70
     0
300
1:40
140
1.0
141
40.0
290
     0
  0
SCALE
  5
2AA2
102
{ACAD_REACTORS
330
2A97
102
}
330
2A97
100
AcDbScale
 70
     0
300
1:50
140
1.0
141
50.0
290
     0
  0
SCALE
  5
2AA3
102
{ACAD_REACTORS
330
2A97
102
}
330
2A97
100
AcDbScale
 70
     0
300
1:100
140
1.0
141
100.0
290
     0
  0
SCALE
  5
2AA4
102
{ACAD_REACTORS
330
2A97
102
}
330
2A97
100
AcDbScale
 70
     0
300
2:1
140
2.0
141
1.0
290
     0
  0
SCALE
  5
2AA5
102
{ACAD_REACTORS
330
2A97
102
}
330
2A97
100
AcDbScale
 70
     0
300
4:1
140
4.0
141
1.0
290
     0
  0
SCALE
  5
2AA6
102
{ACAD_REACTORS
330
2A97
102
}
330
2A97
100
AcDbScale
 70
     0
300
8:1
140
8.0
141
1.0
290
     0
  0
SCALE
  5
2AA7
102
{ACAD_REACTORS
330
2A97
102
}
330
2A97
100
AcDbScale
 70
     0
300
10:1
140
10.0
141
1.0
290
     0
  0
SCALE
  5
2AA8
102
{ACAD_REACTORS
330
2A97
102
}
330
2A97
100
AcDbScale
 70
     0
300
100:1
140
100.0
141
1.0
290
     0
  0
TABLESTYLE
  5
7F
102
{ACAD_XDICTIONARY
360
2EA2
102
}
102
{ACAD_REACTORS
330
7E
102
}
330
7E
100
AcDbTableStyle
  3
Standard
 70
     0
 71
     0
 40
1.5
 41
1.5
280
     0
281
     0
  7
Standard
140
4.5
170
     2
 62
     0
 63
     7
283
     0
274
    -2
284
     1
 64
     0
275
    -2
285
     1
 65
     0
276
    -2
286
     1
 66
     0
277
    -2
287
     1
 67
     0
278
    -2
288
     1
 68
     0
279
    -2
289
     1
 69
     0
  7
Standard
140
6.0
170
     5
 62
     0
 63
     7
283
     0
274
    -2
284
     1
 64
     0
275
    -2
285
     1
 65
     0
276
    -2
286
     1
 66
     0
277
    -2
287
     1
 67
     0
278
    -2
288
     1
 68
     0
279
    -2
289
     1
 69
     0
  7
Standard
140
4.5
170
     5
 62
     0
 63
     7
283
     0
274
    -2
284
     1
 64
     0
275
    -2
285
     1
 65
     0
276
    -2
286
     1
 66
     0
277
    -2
287
     1
 67
     0
278
    -2
288
     1
 68
     0
279
    -2
289
     1
 69
     0
  0
VISUALSTYLE
  5
2A8C
102
{ACAD_REACTORS
330
2A86
102
}
330
2A86
100
AcDbVisualStyle
  2
2dWireframe
 70
     4
 71
     0
 72
     2
 73
     0
 90
        0
 40
-0.6
 41
-30.0
 62
     5
 63
     7
 74
     1
 91
        4
 64
     7
 65
   257
 75
     1
175
     1
 42
1.0
 92
        0
 66
   257
 43
1.0
 76
     1
 77
     6
 78
     2
 67
     7
 79
     5
170
     0
171
     0
290
     0
174
     0
 93
        1
 44
0.0
173
     0
291
     0
 45
0.0
1001
ACAD
1000
AcDbSavedByObjectVersion
1070
     0
1000
AcDbSavedByObjectVersion
1070
     0
  0
VISUALSTYLE
  5
2A8E
102
{ACAD_REACTORS
330
2A86
102
}
330
2A86
100
AcDbVisualStyle
  2
3D Hidden
 70
     6
 71
     1
 72
     2
 73
     2
 90
        0
 40
-0.6
 41
-30.0
 62
     5
 63
     7
 74
     2
 91
        2
 64
     7
 65
   257
 75
     2
175
     1
 42
40.0
 92
        0
 66
   257
 43
1.0
 76
     1
 77
     6
 78
     2
 67
     7
 79
     3
170
     0
171
     0
290
     0
174
     0
 93
        1
 44
0.0
173
     0
291
     0
 45
0.0
1001
ACAD
1000
AcDbSavedByObjectVersion
1070
     0
1000
AcDbSavedByObjectVersion
1070
     0
  0
VISUALSTYLE
  5
2A8D
102
{ACAD_REACTORS
330
2A86
102
}
330
2A86
100
AcDbVisualStyle
  2
3dWireframe
 70
     5
 71
     0
 72
     2
 73
     0
 90
        0
 40
-0.6
 41
-30.0
 62
     5
 63
     7
 74
     1
 91
        4
 64
     7
 65
   257
 75
     1
175
     1
 42
1.0
 92
        0
 66
   257
 43
1.0
 76
     1
 77
     6
 78
     2
 67
     7
 79
     5
170
     0
171
     0
290
     0
174
     0
 93
        1
 44
0.0
173
     0
291
     0
 45
0.0
1001
ACAD
1000
AcDbSavedByObjectVersion
1070
     0
1000
AcDbSavedByObjectVersion
1070
     0
  0
VISUALSTYLE
  5
2A8B
102
{ACAD_REACTORS
330
2A86
102
}
330
2A86
100
AcDbVisualStyle
  2
Basic
 70
     7
 71
     1
 72
     0
 73
     1
 90
        0
 40
-0.6
 41
-30.0
 62
     5
 63
     7
 74
     0
 91
        4
 64
     7
 65
   257
 75
     1
175
     1
 42
1.0
 92
        8
 66
     7
 43
1.0
 76
     1
 77
     6
 78
     2
 67
     7
 79
     5
170
     0
171
     0
290
     0
174
     0
 93
        1
 44
0.0
173
     0
291
     1
 45
0.0
1001
ACAD
1000
AcDbSavedByObjectVersion
1070
     0
1000
AcDbSavedByObjectVersion
1070
     0
  0
VISUALSTYLE
  5
2A92
102
{ACAD_REACTORS
330
2A86
102
}
330
2A86
100
AcDbVisualStyle
  2
Brighten
 70
    12
 71
     2
 72
     2
 73
     0
 90
        0
 40
-0.6
 41
-30.0
 62
     5
 63
     7
 74
     1
 91
        4
 64
     7
 65
   257
 75
     1
175
     1
 42
1.0
 92
        8
 66
     7
 43
1.0
 76
     1
 77
     6
 78
     2
 67
     7
 79
     5
170
     0
171
     0
290
     0
174
     0
 93
        1
 44
50.0
173
     0
291
     1
 45
0.0
1001
ACAD
1000
AcDbSavedByObjectVersion
1070
     0
1000
AcDbSavedByObjectVersion
1070
     0
  0
VISUALSTYLE
  5
2A96
102
{ACAD_REACTORS
330
2A86
102
}
330
2A86
100
AcDbVisualStyle
  2
ColorChange
 70
    16
 71
     2
 72
     2
 73
     3
 90
        0
 40
-0.6
 41
-30.0
 62
     5
 63
     8
 74
     1
 91
        4
 64
     7
 65
   257
 75
     1
175
     1
 42
1.0
 92
        8
 66
     8
 43
1.0
 76
     1
 77
     6
 78
     2
 67
     7
 79
     5
170
     0
171
     0
290
     0
174
     0
 93
        1
 44
0.0
173
     0
291
     1
 45
0.0
1001
ACAD
1000
AcDbSavedByObjectVersion
1070
     0
1000
AcDbSavedByObjectVersion
1070
     0
  0
VISUALSTYLE
  5
2A8F
102
{ACAD_REACTORS
330
2A86
102
}
330
2A86
100
AcDbVisualStyle
  2
Conceptual
 70
     9
 71
     3
 72
     2
 73
     0
 90
        0
 40
-0.6
 41
-30.0
 62
     5
 63
     7
 74
     2
 91
        2
 64
     7
 65
   257
 75
     1
175
     1
 42
40.0
 92
        8
 66
     7
 43
1.0
 76
     1
 77
     6
 78
     2
 67
     7
 79
     3
170
     0
171
     0
290
     0
174
     0
 93
        1
 44
0.0
173
     0
291
     0
 45
0.0
1001
ACAD
1000
AcDbSavedByObjectVersion
1070
     0
1000
AcDbSavedByObjectVersion
1070
     0
  0
VISUALSTYLE
  5
2A91
102
{ACAD_REACTORS
330
2A86
102
}
330
2A86
100
AcDbVisualStyle
  2
Dim
 70
    11
 71
     2
 72
     2
 73
     0
 90
        0
 40
-0.6
 41
-30.0
 62
     5
 63
     7
 74
     1
 91
        4
 64
     7
 65
   257
 75
     1
175
     1
 42
1.0
 92
        8
 66
     7
 43
1.0
 76
     1
 77
     6
 78
     2
 67
     7
 79
     5
170
     0
171
     0
290
     0
174
     0
 93
        1
 44
-50.0
173
     0
291
     1
 45
0.0
1001
ACAD
1000
AcDbSavedByObjectVersion
1070
     0
1000
AcDbSavedByObjectVersion
1070
     0
  0
VISUALSTYLE
  5
2A95
102
{ACAD_REACTORS
330
2A86
102
}
330
2A86
100
AcDbVisualStyle
  2
Facepattern
 70
    15
 71
     2
 72
     2
 73
     0
 90
        0
 40
-0.6
 41
-30.0
 62
     5
 63
     7
 74
     1
 91
        4
 64
     7
 65
   257
 75
     1
175
     1
 42
1.0
 92
        8
 66
     7
 43
1.0
 76
     1
 77
     6
 78
     2
 67
     7
 79
     5
170
     0
171
     0
290
     0
174
     0
 93
        1
 44
0.0
173
     0
291
     1
 45
0.0
1001
ACAD
1000
AcDbSavedByObjectVersion
1070
     0
1000
AcDbSavedByObjectVersion
1070
     0
  0
VISUALSTYLE
  5
2A87
102
{ACAD_REACTORS
330
2A86
102
}
330
2A86
100
AcDbVisualStyle
  2
Flat
 70
     0
 71
     2
 72
     1
 73
     1
 90
        2
 40
-0.6
 41
30.0
 62
     5
 63
     7
 74
     0
 91
        4
 64
     7
 65
   257
 75
     1
175
     1
 42
1.0
 92
        8
 66
     7
 43
1.0
 76
     1
 77
     6
 78
     2
 67
     7
 79
     5
170
     0
171
     0
290
     0
174
     0
 93
       13
 44
0.0
173
     0
291
     1
 45
0.0
1001
ACAD
1000
AcDbSavedByObjectVersion
1070
     0
1000
AcDbSavedByObjectVersion
1070
     0
  0
VISUALSTYLE
  5
2A88
102
{ACAD_REACTORS
330
2A86
102
}
330
2A86
100
AcDbVisualStyle
  2
FlatWithEdges
 70
     1
 71
     2
 72
     1
 73
     1
 90
        2
 40
-0.6
 41
30.0
 62
     5
 63
     7
 74
     1
 91
        4
 64
     7
 65
   257
 75
     1
175
     1
 42
1.0
 92
        0
 66
   257
 43
1.0
 76
     1
 77
     6
 78
     2
 67
     7
 79
     5
170
     0
171
     0
290
     0
174
     0
 93
       13
 44
0.0
173
     0
291
     1
 45
0.0
1001
ACAD
1000
AcDbSavedByObjectVersion
1070
     0
1000
AcDbSavedByObjectVersion
1070
     0
  0
VISUALSTYLE
  5
2A89
102
{ACAD_REACTORS
330
2A86
102
}
330
2A86
100
AcDbVisualStyle
  2
Gouraud
 70
     2
 71
     2
 72
     2
 73
     1
 90
        2
 40
-0.6
 41
30.0
 62
     5
 63
     7
 74
     0
 91
        4
 64
     7
 65
   257
 75
     1
175
     1
 42
1.0
 92
        0
 66
     7
 43
1.0
 76
     1
 77
     6
 78
     2
 67
     7
 79
     5
170
     0
171
     0
290
     0
174
     0
 93
       13
 44
0.0
173
     0
291
     1
 45
0.0
1001
ACAD
1000
AcDbSavedByObjectVersion
1070
     0
1000
AcDbSavedByObjectVersion
1070
     0
  0
VISUALSTYLE
  5
2A8A
102
{ACAD_REACTORS
330
2A86
102
}
330
2A86
100
AcDbVisualStyle
  2
GouraudWithEdges
 70
     3
 71
     2
 72
     2
 73
     1
 90
        2
 40
-0.6
 41
30.0
 62
     5
 63
     7
 74
     1
 91
        4
 64
     7
 65
   257
 75
     1
175
     1
 42
1.0
 92
        0
 66
   257
 43
1.0
 76
     1
 77
     6
 78
     2
 67
     7
 79
     5
170
     0
171
     0
290
     0
174
     0
 93
       13
 44
0.0
173
     0
291
     1
 45
0.0
1001
ACAD
1000
AcDbSavedByObjectVersion
1070
     0
1000
AcDbSavedByObjectVersion
1070
     0
  0
VISUALSTYLE
  5
2A94
102
{ACAD_REACTORS
330
2A86
102
}
330
2A86
100
AcDbVisualStyle
  2
Linepattern
 70
    14
 71
     2
 72
     2
 73
     0
 90
        0
 40
-0.6
 41
-30.0
 62
     5
 63
     7
 74
     1
 91
        4
 64
     7
 65
   257
 75
     7
175
     7
 42
1.0
 92
        8
 66
     7
 43
1.0
 76
     1
 77
     6
 78
     2
 67
     7
 79
     5
170
     0
171
     0
290
     0
174
     0
 93
        1
 44
0.0
173
     0
291
     1
 45
0.0
1001
ACAD
1000
AcDbSavedByObjectVersion
1070
     0
1000
AcDbSavedByObjectVersion
1070
     0
  0
VISUALSTYLE
  5
2A90
102
{ACAD_REACTORS
330
2A86
102
}
330
2A86
100
AcDbVisualStyle
  2
Realistic
 70
     8
 71
     2
 72
     2
 73
     0
 90
        0
 40
-0.6
 41
-30.0
 62
     5
 63
     7
 74
     1
 91
        0
 64
     7
 65
   257
 75
     1
175
     1
 42
1.0
 92
        8
 66
     8
 43
1.0
 76
     1
 77
     6
 78
     2
 67
     7
 79
     5
170
     0
171
     0
290
     0
174
     0
 93
       13
 44
0.0
173
     0
291
     0
 45
0.0
1001
ACAD
1000
AcDbSavedByObjectVersion
1070
     0
1000
AcDbSavedByObjectVersion
1070
     0
  0
VISUALSTYLE
  5
2A93
102
{ACAD_REACTORS
330
2A86
102
}
330
2A86
100
AcDbVisualStyle
  2
Thicken
 70
    13
 71
     2
 72
     2
 73
     0
 90
        0
 40
-0.6
 41
-30.0
 62
     5
 63
     7
 74
     1
 91
        4
 64
     7
 65
   257
 75
     1
175
     1
 42
1.0
 92
       12
 66
     7
 43
1.0
 76
     1
 77
     6
 78
     2
 67
     7
 79
     5
170
     0
171
     0
290
     0
174
     0
 93
        1
 44
0.0
173
     0
291
     1
 45
0.0
1001
ACAD
1000
AcDbSavedByObjectVersion
1070
     0
1000
AcDbSavedByObjectVersion
1070
     0
  0
DICTIONARYVAR
  5
2E9F
102
{ACAD_REACTORS
330
5E
102
}
330
5E
100
DictionaryVariables
280
     0
  1
1:1
  0
DICTIONARYVAR
  5
2E9E
102
{ACAD_REACTORS
330
5E
102
}
330
5E
100
DictionaryVariables
280
     0
  1
STANDARD
  0
DICTIONARYVAR
  5
84
102
{ACAD_REACTORS
330
5E
102
}
330
5E
100
DictionaryVariables
280
     0
  1
STANDARD
  0
DICTIONARYVAR
  5
5F
102
{ACAD_REACTORS
330
5E
102
}
330
5E
100
DictionaryVariables
280
     0
  1
2
  0
DICTIONARYVAR
  5
63
102
{ACAD_REACTORS
330
5E
102
}
330
5E
100
DictionaryVariables
280
     0
  1
1
  0
DICTIONARYVAR
  5
2EA1
102
{ACAD_REACTORS
330
5E
102
}
330
5E
100
DictionaryVariables
280
     0
  1
1
  0
DICTIONARYVAR
  5
23D8
102
{ACAD_REACTORS
330
5E
102
}
330
5E
100
DictionaryVariables
280
     0
  1

  0
DICTIONARYVAR
  5
2EA0
102
{ACAD_REACTORS
330
5E
102
}
330
5E
100
DictionaryVariables
280
     0
  1
127
  0
DICTIONARY
  5
2B4F
102
{ACAD_REACTORS
330
2B4E
102
}
330
2B4E
100
AcDbDictionary
281
     1
  0
DICTIONARY
  5
2AAE
102
{ACAD_REACTORS
330
2AAD
102
}
330
2AAD
100
AcDbDictionary
281
     1
  3
DWGSETTINGS
350
2EB9
  3
TRANSSETTINGS
350
2EBD
  0
ACAMGFILTERDAT
  5
2BDE
102
{ACAD_REACTORS
330
2BDD
102
}
330
2BDD
100
AcAmgFilterDat
 70
    15
  1
DIMENSION,AMDT_*_DIM
  2
*
  3
*
  4
*
  5
*
290
     1
  0
ACAMGFILTERDAT
  5
2BDF
102
{ACAD_REACTORS
330
2BDD
102
}
330
2BDD
100
AcAmgFilterDat
 70
    15
  1
*
  2
AM_FEA-AM_*
  3
*
  4
*
  5
*
290
     1
  0
ACAMGFILTERDAT
  5
2BE0
102
{ACAD_REACTORS
330
2BDD
102
}
330
2BDD
100
AcAmgFilterDat
 70
    15
  1
HATCH
  2
*
  3
*
  4
*
  5
*
290
     1
  0
ACAMGFILTERDAT
  5
2BE1
102
{ACAD_REACTORS
330
2BDD
102
}
330
2BDD
100
AcAmgFilterDat
 70
    15
  1
ACMFCFRAME,ACMDATUMTARGET,ACMDATUMID,ACMWELDSYM,ACMSURFSYM,ACMFEATID,ACMPARTREF,ACMBALLOON
  2
*
  3
*
  4
*
  5
*
290
     1
  0
XRECORD
  5
23D7
102
{ACAD_REACTORS
330
23D6
102
}
330
23D6
100
AcDbXrecord
280
     1
  0
LAYER_INDEX
  5
2E99
102
{ACAD_REACTORS
330
2E98
102
}
330
2E98
100
AcDbIndex
 40
2456350.716605648
100
AcDbLayerIndex
  8
0
360
2E9A
 90
        0
  8
AM0
360
2E9B
 90
        1
  8
AM_5
360
2E9C
 90
        0
  8
Defpoints
360
2E9D
 90
        0
  0
DICTIONARY
  5
315C
330
D3
100
AcDbDictionary
280
     1
281
     1
  3
ACAD_XREC_ROUNDTRIP
360
315D
  0
DICTIONARY
  5
315E
330
D7
100
AcDbDictionary
280
     1
281
     1
  3
ACAD_XREC_ROUNDTRIP
360
315F
  0
DICTIONARY
  5
3159
330
22
100
AcDbDictionary
280
     1
281
     1
  3
ACAD_XREC_ROUNDTRIP
360
315A
  0
DICTIONARY
  5
2A77
330
2A76
100
AcDbDictionary
280
     1
281
     1
  3
ACAD_XREC_ROUNDTRIP
360
2EAE
  3
BUMPTILE
360
2A79
  3
DIFFUSETILE
360
2A78
  3
OPACITYTILE
360
2A7C
  3
REFLECTIONTILE
360
2A7B
  3
REFRACTIONTILE
360
2A7D
  3
SPECULARTILE
360
2A7A
  0
DICTIONARY
  5
2A6F
330
2A6E
100
AcDbDictionary
280
     1
281
     1
  3
ACAD_XREC_ROUNDTRIP
360
2EAD
  3
BUMPTILE
360
2A71
  3
DIFFUSETILE
360
2A70
  3
OPACITYTILE
360
2A74
  3
REFLECTIONTILE
360
2A73
  3
REFRACTIONTILE
360
2A75
  3
SPECULARTILE
360
2A72
  0
DICTIONARY
  5
2A7F
330
2A7E
100
AcDbDictionary
280
     1
281
     1
  3
ACAD_XREC_ROUNDTRIP
360
2EAF
  3
BUMPTILE
360
2A81
  3
DIFFUSETILE
360
2A80
  3
OPACITYTILE
360
2A84
  3
REFLECTIONTILE
360
2A83
  3
REFRACTIONTILE
360
2A85
  3
SPECULARTILE
360
2A82
  0
DICTIONARY
  5
2EA2
330
7F
100
AcDbDictionary
280
     1
281
     1
  3
ACAD_ROUNDTRIP_2008_TABLESTYLE_CELLSTYLEMAP
360
3157
  3
ACAD_XREC_ROUNDTRIP
360
315B
  0
IDBUFFER
  5
2E9A
330
0
100
AcDbIdBuffer
  0
IDBUFFER
  5
2E9B
330
0
100
AcDbIdBuffer
330
3154
  0
IDBUFFER
  5
2E9C
330
0
100
AcDbIdBuffer
  0
IDBUFFER
  5
2E9D
330
0
100
AcDbIdBuffer
  0
XRECORD
  5
315D
102
{ACAD_REACTORS
330
315C
102
}
330
315C
100
AcDbXrecord
280
     1
102
SHADEPLOT
 70
     0
102
SHADEPLOTRESLEVEL
 70
     2
102
SHADEPLOTCUSTOMDPI
 70
   300
  0
XRECORD
  5
315F
102
{ACAD_REACTORS
330
315E
102
}
330
315E
100
AcDbXrecord
280
     1
102
SHADEPLOT
 70
     0
102
SHADEPLOTRESLEVEL
 70
     2
102
SHADEPLOTCUSTOMDPI
 70
   300
  0
XRECORD
  5
315A
102
{ACAD_REACTORS
330
3159
102
}
330
3159
100
AcDbXrecord
280
     1
102
SHADEPLOT
 70
     0
102
SHADEPLOTRESLEVEL
 70
     2
102
SHADEPLOTCUSTOMDPI
 70
   300
  0
XRECORD
  5
2EAE
102
{ACAD_REACTORS
330
2A77
102
}
330
2A77
100
AcDbXrecord
280
     1
102
MATERIAL
148
0.0
149
0.0
149
0.0
 93
        0
 94
      127
282
     0
 72
     0
 77
     0
171
     0
175
     0
179
     0
273
     0
  0
XRECORD
  5
2A79
102
{ACAD_REACTORS
330
2A77
102
}
330
2A77
100
AcDbXrecord
280
     1
270
     1
271
     1
  0
XRECORD
  5
2A78
102
{ACAD_REACTORS
330
2A77
102
}
330
2A77
100
AcDbXrecord
280
     1
270
     1
271
     1
  0
XRECORD
  5
2A7C
102
{ACAD_REACTORS
330
2A77
102
}
330
2A77
100
AcDbXrecord
280
     1
270
     1
271
     1
  0
XRECORD
  5
2A7B
102
{ACAD_REACTORS
330
2A77
102
}
330
2A77
100
AcDbXrecord
280
     1
270
     1
271
     1
  0
XRECORD
  5
2A7D
102
{ACAD_REACTORS
330
2A77
102
}
330
2A77
100
AcDbXrecord
280
     1
270
     1
271
     1
  0
XRECORD
  5
2A7A
102
{ACAD_REACTORS
330
2A77
102
}
330
2A77
100
AcDbXrecord
280
     1
270
     1
271
     1
  0
XRECORD
  5
2EAD
102
{ACAD_REACTORS
330
2A6F
102
}
330
2A6F
100
AcDbXrecord
280
     1
102
MATERIAL
148
0.0
149
0.0
149
0.0
 93
        0
 94
      127
282
     0
 72
     0
 77
     0
171
     0
175
     0
179
     0
273
     0
  0
XRECORD
  5
2A71
102
{ACAD_REACTORS
330
2A6F
102
}
330
2A6F
100
AcDbXrecord
280
     1
270
     1
271
     1
  0
XRECORD
  5
2A70
102
{ACAD_REACTORS
330
2A6F
102
}
330
2A6F
100
AcDbXrecord
280
     1
270
     1
271
     1
  0
XRECORD
  5
2A74
102
{ACAD_REACTORS
330
2A6F
102
}
330
2A6F
100
AcDbXrecord
280
     1
270
     1
271
     1
  0
XRECORD
  5
2A73
102
{ACAD_REACTORS
330
2A6F
102
}
330
2A6F
100
AcDbXrecord
280
     1
270
     1
271
     1
  0
XRECORD
  5
2A75
102
{ACAD_REACTORS
330
2A6F
102
}
330
2A6F
100
AcDbXrecord
280
     1
270
     1
271
     1
  0
XRECORD
  5
2A72
102
{ACAD_REACTORS
330
2A6F
102
}
330
2A6F
100
AcDbXrecord
280
     1
270
     1
271
     1
  0
XRECORD
  5
2EAF
102
{ACAD_REACTORS
330
2A7F
102
}
330
2A7F
100
AcDbXrecord
280
     1
102
MATERIAL
148
0.0
149
0.0
149
0.0
 93
        0
 94
      127
282
     0
 72
     0
 77
     0
171
     0
175
     0
179
     0
273
     0
  0
XRECORD
  5
2A81
102
{ACAD_REACTORS
330
2A7F
102
}
330
2A7F
100
AcDbXrecord
280
     1
270
     1
271
     1
  0
XRECORD
  5
2A80
102
{ACAD_REACTORS
330
2A7F
102
}
330
2A7F
100
AcDbXrecord
280
     1
270
     1
271
     1
  0
XRECORD
  5
2A84
102
{ACAD_REACTORS
330
2A7F
102
}
330
2A7F
100
AcDbXrecord
280
     1
270
     1
271
     1
  0
XRECORD
  5
2A83
102
{ACAD_REACTORS
330
2A7F
102
}
330
2A7F
100
AcDbXrecord
280
     1
270
     1
271
     1
  0
XRECORD
  5
2A85
102
{ACAD_REACTORS
330
2A7F
102
}
330
2A7F
100
AcDbXrecord
280
     1
270
     1
271
     1
  0
XRECORD
  5
2A82
102
{ACAD_REACTORS
330
2A7F
102
}
330
2A7F
100
AcDbXrecord
280
     1
270
     1
271
     1
  0
CELLSTYLEMAP
  5
3157
102
{ACAD_REACTORS
330
2EA2
102
}
330
2EA2
100
AcDbCellStyleMap
 90
        3
300
CELLSTYLE
  1
TABLEFORMAT_BEGIN
 90
        5
170
     1
 91
        0
 92
    32768
 62
   257
 93
        1
300
CONTENTFORMAT
  1
CONTENTFORMAT_BEGIN
 90
        0
 91
        0
 92
        4
 93
        0
300

 40
0.0
140
1.0
 94
        5
 62
     0
340
11
144
6.0
309
CONTENTFORMAT_END
171
     1
301
MARGIN
  1
CELLMARGIN_BEGIN
 40
1.5
 40
1.5
 40
1.5
 40
1.5
 40
0.18
 40
0.18
309
CELLMARGIN_END
 94
        6
 95
        1
302
GRIDFORMAT
  1
GRIDFORMAT_BEGIN
 90
        0
 91
        1
 62
     0
 92
       -2
340
0
 93
        0
 40
0.045
309
GRIDFORMAT_END
 95
        2
302
GRIDFORMAT
  1
GRIDFORMAT_BEGIN
 90
        0
 91
        1
 62
     0
 92
       -2
340
0
 93
        0
 40
0.045
309
GRIDFORMAT_END
 95
        4
302
GRIDFORMAT
  1
GRIDFORMAT_BEGIN
 90
        0
 91
        1
 62
     0
 92
       -2
340
0
 93
        0
 40
0.045
309
GRIDFORMAT_END
 95
        8
302
GRIDFORMAT
  1
GRIDFORMAT_BEGIN
 90
        0
 91
        1
 62
     0
 92
       -2
340
0
 93
        0
 40
0.045
309
GRIDFORMAT_END
 95
       16
302
GRIDFORMAT
  1
GRIDFORMAT_BEGIN
 90
        0
 91
        1
 62
     0
 92
       -2
340
0
 93
        0
 40
0.045
309
GRIDFORMAT_END
 95
       32
302
GRIDFORMAT
  1
GRIDFORMAT_BEGIN
 90
        0
 91
        1
 62
     0
 92
       -2
340
0
 93
        0
 40
0.045
309
GRIDFORMAT_END
309
TABLEFORMAT_END
  1
CELLSTYLE_BEGIN
 90
        1
 91
        1
300
_TITLE
309
CELLSTYLE_END
300
CELLSTYLE
  1
TABLEFORMAT_BEGIN
 90
        5
170
     1
 91
        0
 92
        0
 62
   257
 93
        1
300
CONTENTFORMAT
  1
CONTENTFORMAT_BEGIN
 90
        0
 91
        0
 92
        4
 93
        0
300

 40
0.0
140
1.0
 94
        5
 62
     0
340
11
144
4.5
309
CONTENTFORMAT_END
171
     1
301
MARGIN
  1
CELLMARGIN_BEGIN
 40
1.5
 40
1.5
 40
1.5
 40
1.5
 40
0.18
 40
0.18
309
CELLMARGIN_END
 94
        6
 95
        1
302
GRIDFORMAT
  1
GRIDFORMAT_BEGIN
 90
        0
 91
        1
 62
     0
 92
       -2
340
0
 93
        0
 40
0.045
309
GRIDFORMAT_END
 95
        2
302
GRIDFORMAT
  1
GRIDFORMAT_BEGIN
 90
        0
 91
        1
 62
     0
 92
       -2
340
0
 93
        0
 40
0.045
309
GRIDFORMAT_END
 95
        4
302
GRIDFORMAT
  1
GRIDFORMAT_BEGIN
 90
        0
 91
        1
 62
     0
 92
       -2
340
0
 93
        0
 40
0.045
309
GRIDFORMAT_END
 95
        8
302
GRIDFORMAT
  1
GRIDFORMAT_BEGIN
 90
        0
 91
        1
 62
     0
 92
       -2
340
0
 93
        0
 40
0.045
309
GRIDFORMAT_END
 95
       16
302
GRIDFORMAT
  1
GRIDFORMAT_BEGIN
 90
        0
 91
        1
 62
     0
 92
       -2
340
0
 93
        0
 40
0.045
309
GRIDFORMAT_END
 95
       32
302
GRIDFORMAT
  1
GRIDFORMAT_BEGIN
 90
        0
 91
        1
 62
     0
 92
       -2
340
0
 93
        0
 40
0.045
309
GRIDFORMAT_END
309
TABLEFORMAT_END
  1
CELLSTYLE_BEGIN
 90
        2
 91
        1
300
_HEADER
309
CELLSTYLE_END
300
CELLSTYLE
  1
TABLEFORMAT_BEGIN
 90
        5
170
     1
 91
        0
 92
        0
 62
   257
 93
        1
300
CONTENTFORMAT
  1
CONTENTFORMAT_BEGIN
 90
        0
 91
        0
 92
        4
 93
        0
300

 40
0.0
140
1.0
 94
        2
 62
     0
340
11
144
4.5
309
CONTENTFORMAT_END
171
     1
301
MARGIN
  1
CELLMARGIN_BEGIN
 40
1.5
 40
1.5
 40
1.5
 40
1.5
 40
0.18
 40
0.18
309
CELLMARGIN_END
 94
        6
 95
        1
302
GRIDFORMAT
  1
GRIDFORMAT_BEGIN
 90
        0
 91
        1
 62
     0
 92
       -2
340
0
 93
        0
 40
0.045
309
GRIDFORMAT_END
 95
        2
302
GRIDFORMAT
  1
GRIDFORMAT_BEGIN
 90
        0
 91
        1
 62
     0
 92
       -2
340
0
 93
        0
 40
0.045
309
GRIDFORMAT_END
 95
        4
302
GRIDFORMAT
  1
GRIDFORMAT_BEGIN
 90
        0
 91
        1
 62
     0
 92
       -2
340
0
 93
        0
 40
0.045
309
GRIDFORMAT_END
 95
        8
302
GRIDFORMAT
  1
GRIDFORMAT_BEGIN
 90
        0
 91
        1
 62
     0
 92
       -2
340
0
 93
        0
 40
0.045
309
GRIDFORMAT_END
 95
       16
302
GRIDFORMAT
  1
GRIDFORMAT_BEGIN
 90
        0
 91
        1
 62
     0
 92
       -2
340
0
 93
        0
 40
0.045
309
GRIDFORMAT_END
 95
       32
302
GRIDFORMAT
  1
GRIDFORMAT_BEGIN
 90
        0
 91
        1
 62
     0
 92
       -2
340
0
 93
        0
 40
0.045
309
GRIDFORMAT_END
309
TABLEFORMAT_END
  1
CELLSTYLE_BEGIN
 90
        3
 91
        2
300
_DATA
309
CELLSTYLE_END
  0
XRECORD
  5
315B
102
{ACAD_REACTORS
330
2EA2
102
}
330
2EA2
100
AcDbXrecord
280
     1
102
ACAD_ROUNDTRIP_PRE2007_TABLESTYLE
 90
        4
 91
        0
  1

 92
        4
 93
        0
  2

 94
        4
 95
        0
  3

  0
ENDSEC
  0
EOF
