  0
SECTION
  2
HEADER
  9
$ACADVER
  1
AC1015
  9
$ACADMAINTVER
 70
    20
  9
$DWGCODEPAGE
  3
ANSI_1252
  9
$INSBASE
 10
0.0
 20
0.0
 30
0.0
  9
$EXTMIN
 10
1254.615901162027
 20
1262.967067693548
 30
0.0
  9
$EXTMAX
 10
1758.441912269326
 20
1481.138767510049
 30
0.0
  9
$LIMMIN
 10
0.0
 20
0.0
  9
$LIMMAX
 10
420.0
 20
297.0
  9
$ORTHOMODE
 70
     1
  9
$REGENMODE
 70
     1
  9
$FILLMODE
 70
     1
  9
$QTEXTMODE
 70
     0
  9
$MIRRTEXT
 70
     0
  9
$LTSCALE
 40
1.0
  9
$ATTMODE
 70
     1
  9
$TEXTSIZE
 40
2.5
  9
$TRACEWID
 40
1.0
  9
$TEXTSTYLE
  7
Standard
  9
$CLAYER
  8
AM0
  9
$CELTYPE
  6
ByLayer
  9
$CECOLOR
 62
   256
  9
$CELTSCALE
 40
1.0
  9
$DISPSILH
 70
     0
  9
$DIMSCALE
 40
2.0
  9
$DIMASZ
 40
2.5
  9
$DIMEXO
 40
1.0
  9
$DIMDLI
 40
10.0
  9
$DIMRND
 40
0.0
  9
$DIMDLE
 40
0.0
  9
$DIMEXE
 40
1.0
  9
$DIMTP
 40
0.1
  9
$DIMTM
 40
0.1
  9
$DIMTXT
 40
3.5
  9
$DIMCEN
 40
0.0
  9
$DIMTSZ
 40
0.0
  9
$DIMTOL
 70
     0
  9
$DIMLIM
 70
     0
  9
$DIMTIH
 70
     0
  9
$DIMTOH
 70
     0
  9
$DIMSE1
 70
     0
  9
$DIMSE2
 70
     0
  9
$DIMTAD
 70
     1
  9
$DIMZIN
 70
     8
  9
$DIMBLK
  1

  9
$DIMASO
 70
     1
  9
$DIMSHO
 70
     1
  9
$DIMPOST
  1

  9
$DIMAPOST
  1
"
  9
$DIMALT
 70
     0
  9
$DIMALTD
 70
     3
  9
$DIMALTF
 40
0.0393701
  9
$DIMLFAC
 40
1.0
  9
$DIMTOFL
 70
     1
  9
$DIMTVP
 40
0.0
  9
$DIMTIX
 70
     0
  9
$DIMSOXD
 70
     0
  9
$DIMSAH
 70
     0
  9
$DIMBLK1
  1

  9
$DIMBLK2
  1

  9
$DIMSTYLE
  2
AM_ISO
  9
$DIMCLRD
 70
   256
  9
$DIMCLRE
 70
   256
  9
$DIMCLRT
 70
     2
  9
$DIMTFAC
 40
0.71
  9
$DIMGAP
 40
1.5
  9
$DIMJUST
 70
     0
  9
$DIMSD1
 70
     0
  9
$DIMSD2
 70
     0
  9
$DIMTOLJ
 70
     0
  9
$DIMTZIN
 70
     8
  9
$DIMALTZ
 70
     0
  9
$DIMALTTZ
 70
     0
  9
$DIMUPT
 70
     0
  9
$DIMDEC
 70
     2
  9
$DIMTDEC
 70
     2
  9
$DIMALTU
 70
     2
  9
$DIMALTTD
 70
     3
  9
$DIMTXSTY
  7
Standard
  9
$DIMAUNIT
 70
     0
  9
$DIMADEC
 70
     0
  9
$DIMALTRND
 40
0.0
  9
$DIMAZIN
 70
     2
  9
$DIMDSEP
 70
    46
  9
$DIMATFIT
 70
     3
  9
$DIMFRAC
 70
     0
  9
$DIMLDRBLK
  1

  9
$DIMLUNIT
 70
     2
  9
$DIMLWD
 70
    -1
  9
$DIMLWE
 70
    -1
  9
$DIMTMOVE
 70
     0
  9
$LUNITS
 70
     2
  9
$LUPREC
 70
     4
  9
$SKETCHINC
 40
1.0
  9
$FILLETRAD
 40
0.0
  9
$AUNITS
 70
     0
  9
$AUPREC
 70
     0
  9
$MENU
  1
.
  9
$ELEVATION
 40
0.0
  9
$PELEVATION
 40
0.0
  9
$THICKNESS
 40
0.0
  9
$LIMCHECK
 70
     0
  9
$CHAMFERA
 40
0.0
  9
$CHAMFERB
 40
0.0
  9
$CHAMFERC
 40
0.0
  9
$CHAMFERD
 40
0.0
  9
$SKPOLY
 70
     0
  9
$TDCREATE
 40
2454921.421324144
  9
$TDUCREATE
 40
2454921.379657477
  9
$TDUPDATE
 40
2456316.629242720
  9
$TDUUPDATE
 40
2456316.587576053
  9
$TDINDWG
 40
0.1081833681
  9
$TDUSRTIMER
 40
0.1081831134
  9
$USRTIMER
 70
     1
  9
$ANGBASE
 50
0.0
  9
$ANGDIR
 70
     0
  9
$PDMODE
 70
     0
  9
$PDSIZE
 40
0.0
  9
$PLINEWID
 40
0.0
  9
$SPLFRAME
 70
     0
  9
$SPLINETYPE
 70
     6
  9
$SPLINESEGS
 70
     8
  9
$HANDSEED
  5
34AB
  9
$SURFTAB1
 70
     6
  9
$SURFTAB2
 70
     6
  9
$SURFTYPE
 70
     6
  9
$SURFU
 70
     6
  9
$SURFV
 70
     6
  9
$UCSBASE
  2

  9
$UCSNAME
  2

  9
$UCSORG
 10
0.0
 20
0.0
 30
0.0
  9
$UCSXDIR
 10
1.0
 20
0.0
 30
0.0
  9
$UCSYDIR
 10
0.0
 20
1.0
 30
0.0
  9
$UCSORTHOREF
  2

  9
$UCSORTHOVIEW
 70
     0
  9
$UCSORGTOP
 10
0.0
 20
0.0
 30
0.0
  9
$UCSORGBOTTOM
 10
0.0
 20
0.0
 30
0.0
  9
$UCSORGLEFT
 10
0.0
 20
0.0
 30
0.0
  9
$UCSORGRIGHT
 10
0.0
 20
0.0
 30
0.0
  9
$UCSORGFRONT
 10
0.0
 20
0.0
 30
0.0
  9
$UCSORGBACK
 10
0.0
 20
0.0
 30
0.0
  9
$PUCSBASE
  2

  9
$PUCSNAME
  2

  9
$PUCSORG
 10
0.0
 20
0.0
 30
0.0
  9
$PUCSXDIR
 10
1.0
 20
0.0
 30
0.0
  9
$PUCSYDIR
 10
0.0
 20
1.0
 30
0.0
  9
$PUCSORTHOREF
  2

  9
$PUCSORTHOVIEW
 70
     0
  9
$PUCSORGTOP
 10
0.0
 20
0.0
 30
0.0
  9
$PUCSORGBOTTOM
 10
0.0
 20
0.0
 30
0.0
  9
$PUCSORGLEFT
 10
0.0
 20
0.0
 30
0.0
  9
$PUCSORGRIGHT
 10
0.0
 20
0.0
 30
0.0
  9
$PUCSORGFRONT
 10
0.0
 20
0.0
 30
0.0
  9
$PUCSORGBACK
 10
0.0
 20
0.0
 30
0.0
  9
$USERI1
 70
     0
  9
$USERI2
 70
     0
  9
$USERI3
 70
     0
  9
$USERI4
 70
     0
  9
$USERI5
 70
     0
  9
$USERR1
 40
0.0
  9
$USERR2
 40
0.0
  9
$USERR3
 40
0.0
  9
$USERR4
 40
0.0
  9
$USERR5
 40
0.0
  9
$WORLDVIEW
 70
     1
  9
$SHADEDGE
 70
     3
  9
$SHADEDIF
 70
    70
  9
$TILEMODE
 70
     1
  9
$MAXACTVP
 70
    64
  9
$PINSBASE
 10
0.0
 20
0.0
 30
0.0
  9
$PLIMCHECK
 70
     0
  9
$PEXTMIN
 10
0.0
 20
0.0
 30
0.0
  9
$PEXTMAX
 10
0.0
 20
0.0
 30
0.0
  9
$PLIMMIN
 10
0.0
 20
0.0
  9
$PLIMMAX
 10
12.0
 20
9.0
  9
$UNITMODE
 70
     0
  9
$VISRETAIN
 70
     1
  9
$PLINEGEN
 70
     0
  9
$PSLTSCALE
 70
     1
  9
$TREEDEPTH
 70
  3020
  9
$CMLSTYLE
  2
Standard
  9
$CMLJUST
 70
     0
  9
$CMLSCALE
 40
20.0
  9
$PROXYGRAPHICS
 70
     1
  9
$MEASUREMENT
 70
     1
  9
$CELWEIGHT
370
    -1
  9
$ENDCAPS
280
     0
  9
$JOINSTYLE
280
     0
  9
$LWDISPLAY
290
     0
  9
$INSUNITS
 70
     4
  9
$HYPERLINKBASE
  1

  9
$STYLESHEET
  1

  9
$XEDIT
290
     1
  9
$CEPSNTYPE
380
     0
  9
$PSTYLEMODE
290
     1
  9
$FINGERPRINTGUID
  2
{0F8470B7-3567-4E93-AC18-8866F0967211}
  9
$VERSIONGUID
  2
{1172E8B3-CA8E-4566-B614-025788B478BA}
  9
$EXTNAMES
290
     1
  9
$PSVPSCALE
 40
0.0
  9
$OLESTARTUP
290
     0
  0
ENDSEC
  0
SECTION
  2
CLASSES
  0
CLASS
  1
ACDBDICTIONARYWDFLT
  2
AcDbDictionaryWithDefault
  3
ObjectDBX Classes
 90
        0
280
     0
281
     0
  0
CLASS
  1
ACDBPLACEHOLDER
  2
AcDbPlaceHolder
  3
ObjectDBX Classes
 90
        0
280
     0
281
     0
  0
CLASS
  1
LAYOUT
  2
AcDbLayout
  3
ObjectDBX Classes
 90
        0
280
     0
281
     0
  0
CLASS
  1
DICTIONARYVAR
  2
AcDbDictionaryVar
  3
ObjectDBX Classes
 90
        0
280
     0
281
     0
  0
CLASS
  1
TABLESTYLE
  2
AcDbTableStyle
  3
ObjectDBX Classes
 90
     4095
280
     0
281
     0
  0
CLASS
  1
SORTENTSTABLE
  2
AcDbSortentsTable
  3
ObjectDBX Classes
 90
        0
280
     0
281
     0
  0
CLASS
  1
MATERIAL
  2
AcDbMaterial
  3
ObjectDBX Classes
 90
     1153
280
     0
281
     0
  0
CLASS
  1
VISUALSTYLE
  2
AcDbVisualStyle
  3
ObjectDBX Classes
 90
     4095
280
     0
281
     0
  0
CLASS
  1
SCALE
  2
AcDbScale
  3
ObjectDBX Classes
 90
     1153
280
     0
281
     0
  0
CLASS
  1
MLEADERSTYLE
  2
AcDbMLeaderStyle
  3
ACDB_MLEADERSTYLE_CLASS
 90
     4095
280
     0
281
     0
  0
CLASS
  1
AMGSETTINGSOBJ
  2
AmgSettingsObj
  3
"AcadM|Product Description: AutoCAD Mechanical|Company: Autodesk, Inc."
 90
     1024
280
     0
281
     0
  0
CLASS
  1
AMGOBJPROPCFG
  2
AmgObjPropCfg
  3
"AmgLay|Product Description: AutoCAD Mechanical|Company: Autodesk, Inc."
 90
     1025
280
     0
281
     0
  0
CLASS
  1
ACMESCOPE
  2
AcMeScope
  3
AcMeServices
 90
     1024
280
     0
281
     0
  0
CLASS
  1
ACGREFMASTER
  2
AcGrefMaster
  3
AcAttribServices
 90
     1024
280
     0
281
     0
  0
CLASS
  1
ACME_DOCUMENT
  2
AcMeDbDoc
  3
AcMeServices
 90
     1024
280
     0
281
     0
  0
CLASS
  1
ACMECOMMANDHISTORY
  2
AcMeCommandHistory
  3
AcMeServices
 90
     1024
280
     0
281
     0
  0
CLASS
  1
ACIMSYSVARMAN
  2
AcImSysVarManager
  3
AcMeServices
 90
     1024
280
     0
281
     0
  0
CLASS
  1
ACIMREALSYSVAR
  2
AcImRealSysVar
  3
AcMeServices
 90
     1024
280
     0
281
     0
  0
CLASS
  1
ACIMINTSYSVAR
  2
AcImIntSysVar
  3
AcMeServices
 90
     1024
280
     0
281
     0
  0
CLASS
  1
ACMEDRAWINGMAN
  2
AcMeDrawingMan
  3
AcMeServices
 90
     1024
280
     0
281
     0
  0
CLASS
  1
ACMEVIEW
  2
AcMeView
  3
AcMeServices
 90
     1024
280
     0
281
     0
  0
CLASS
  1
ACDBENTITYCACHE
  2
AcMeEntityCache
  3
AcMeServices
 90
     1024
280
     0
281
     0
  0
CLASS
  1
GSMANAGER
  2
AcMeGSManager
  3
AcMeServices
 90
     1024
280
     0
281
     0
  0
CLASS
  1
AMDTINTERNALREACTOR
  2
AmdtInternalReactor
  3
AcMeServices
 90
     1024
280
     0
281
     0
  0
CLASS
  1
ACMESTATEMGR
  2
AcMeStateMgr
  3
AcMeServices
 90
     1024
280
     0
281
     0
  0
CLASS
  1
AM_DRAWING_MGR
  2
AcDmDwgMgr
  3
AcMechDwgViewMgmt
 90
     1024
280
     0
281
     0
  0
CLASS
  1
AM_DWG_DOCUMENT
  2
AcDmDwgDocument
  3
AcMechDwgViewMgmt
 90
     1024
280
     0
281
     0
  0
CLASS
  1
AM_DWG_SHEET
  2
AcDmSheet
  3
AcMechDwgViewMgmt
 90
     1024
280
     0
281
     0
  0
CLASS
  1
AM_VIEWDIMPARMAP
  2
AcDmViewDimParMap
  3
AcMechDwgViewMgmt
 90
     1024
280
     0
281
     0
  0
CLASS
  1
AM_DWGMGR_NAME
  2
AcDmDwgMgrName
  3
AcMechDwgViewMgmt
 90
     1024
280
     0
281
     0
  0
CLASS
  1
ACME_DATABASE
  2
AcMeDbDatabase
  3
AcMeServices
 90
     1024
280
     0
281
     0
  0
CLASS
  1
ACRFINSADJUSTERMGR
  2
AcRfInsAdjusterMgr
  3
AcMeServices
 90
     1024
280
     0
281
     0
  0
CLASS
  1
ACGREFACADMASTER
  2
AcGrefacadMaster
  3
AcGrefServices
 90
     1024
280
     0
281
     0
  0
CLASS
  1
AMDTMENUSTATEMGR
  2
AmdtMenuStateMgr
  3
McadcomServices
 90
     1024
280
     0
281
     0
  0
CLASS
  1
AMDTMCOMMENUSTATE
  2
AmdtMcomMenuState
  3
McadcomServices
 90
     1024
280
     0
281
     0
  0
CLASS
  1
AMIMASTER
  2
AmiMaster
  3
AmiServices
 90
     1024
280
     0
281
     0
  0
CLASS
  1
ASAPP
  2
AcAsAppObject
  3
AutoSurfServices
 90
     1024
280
     0
281
     0
  0
CLASS
  1
IM_STATIC_MAN
  2
AcImStaticVarManager
  3
AcMeServices
 90
     1024
280
     0
281
     0
  0
CLASS
  1
ACIMSTRSYSVAR
  2
AcImStrSysVar
  3
AcMeServices
 90
     1024
280
     0
281
     0
  0
CLASS
  1
ACIMDBLSTATICVAR
  2
AcImDblStaticVar
  3
AcMeServices
 90
     1024
280
     0
281
     0
  0
CLASS
  1
ACIMSTRSTATICVAR
  2
AcImStrStaticVar
  3
AcMeServices
 90
     1024
280
     0
281
     0
  0
CLASS
  1
ACIMINTSTATICVAR
  2
AcImIntStaticVar
  3
AcMeServices
 90
     1024
280
     0
281
     0
  0
CLASS
  1
ACASGREFMASTER
  2
AcAsGrefMaster
  3
AutoSurfResolverServices
 90
     1024
280
     0
281
     0
  0
CLASS
  1
ACADGREFMODULE
  2
AcAdGrefModule
  3
AdGrefServices
 90
     1024
280
     0
281
     0
  0
CLASS
  1
AMDTMAPISURFMOUDULE
  2
AmdtMApiSurfModule
  3
MApiSurfServices
 90
    33792
280
     0
281
     0
  0
CLASS
  1
MAPIAMMOUDLE
  2
MApiAmModule
  3
MApiAmServices
 90
     1024
280
     0
281
     0
  0
CLASS
  1
ACMSTANDARDANSI
  2
AcmStandardANSI
  3
"Amdt_StdImp|Product Description: AutoCAD Mechanical|Company: Autodesk, Inc."
 90
     1024
280
     0
281
     0
  0
CLASS
  1
ACMSURFSTANDARDANSI
  2
AcmSurfTextStdANSI
  3
"Amdt_StdImp|Product Description: AutoCAD Mechanical|Company: Autodesk, Inc."
 90
     1024
280
     0
281
     0
  0
CLASS
  1
ACMFCFSTANDARDANSI
  2
AcmFCFStdANSI
  3
"Amdt_StdImp|Product Description: AutoCAD Mechanical|Company: Autodesk, Inc."
 90
     1024
280
     0
281
     0
  0
CLASS
  1
ACMWELDSTANDARDANSI
  2
AcmWeldingStdANSI
  3
"Amdt_StdImp|Product Description: AutoCAD Mechanical|Company: Autodesk, Inc."
 90
     1024
280
     0
281
     0
  0
CLASS
  1
ACMIDSTANDARDANSI
  2
AcmIdStdANSI
  3
"Amdt_StdImp|Product Description: AutoCAD Mechanical|Company: Autodesk, Inc."
 90
     1024
280
     0
281
     0
  0
CLASS
  1
ACMDATUMSTANDARDANSI
  2
AcmDatumStdANSI
  3
"Amdt_StdImp|Product Description: AutoCAD Mechanical|Company: Autodesk, Inc."
 90
     1024
280
     0
281
     0
  0
CLASS
  1
ACMBOMSTANDARDANSI
  2
AcmBOMStdANSI
  3
"Amdt_StdImp|Product Description: AutoCAD Mechanical|Company: Autodesk, Inc."
 90
     1024
280
     0
281
     0
  0
CLASS
  1
ACMDETAILSTANDARDANSI
  2
AmdtDetailSymStdANSI
  3
"Amdt_StdImp|Product Description: AutoCAD Mechanical|Company: Autodesk, Inc."
 90
     1024
280
     0
281
     0
  0
CLASS
  1
ACMSECTIONSTANDARDANSI
  2
AmdtSectionSymStdANSI
  3
"Amdt_StdImp|Product Description: AutoCAD Mechanical|Company: Autodesk, Inc."
 90
     1024
280
     0
281
     0
  0
CLASS
  1
ACMCENTERLINESTANDARDANSI
  2
AmdtCenterLineStdANSI
  3
"Amdt_StdImp|Product Description: AutoCAD Mechanical|Company: Autodesk, Inc."
 90
     1024
280
     0
281
     0
  0
CLASS
  1
ACMTHREADLINESTANDARDANSI
  2
AmdtThreadLineStdANSI
  3
"Amdt_StdImp|Product Description: AutoCAD Mechanical|Company: Autodesk, Inc."
 90
     1024
280
     0
281
     0
  0
CLASS
  1
ACMNOTESTANDARDANSI
  2
AmdtNoteStdANSI
  3
"Amdt_StdImp|Product Description: AutoCAD Mechanical|Company: Autodesk, Inc."
 90
     1024
280
     0
281
     0
  0
CLASS
  1
AMDTNOTETEMPLATEDB
  2
AmdtNoteTemplateDB
  3
AcmSymBB|Product Description: AutoCAD Mechanical|Company: Autodesk, Inc.
 90
     1024
280
     0
281
     0
  0
CLASS
  1
ACAMGLAYSTD
  2
AcAmgLayStd
  3
"AmgLay|Product Description: AutoCAD Mechanical|Company: Autodesk, Inc."
 90
     1024
280
     0
281
     0
  0
CLASS
  1
ACAMGDIMSTD
  2
AcAmgDimStd
  3
"AmgDim|Product Description: AutoCAD Mechanical|Company: Autodesk, Inc."
 90
     1024
280
     0
281
     0
  0
CLASS
  1
ACAMGHOLECHARTSTDANSI
  2
AcAmgHoleChartStdANSI
  3
AmgDim|Product Description: AutoCAD Mechanical|Company: Autodesk, Inc.
 90
     1024
280
     0
281
     0
  0
CLASS
  1
ACAMGTITLESTD
  2
AcAmgTitleStd
  3
"AmgTitle|Product Description: AutoCAD Mechanical|Company: Autodesk, Inc."
 90
     4095
280
     0
281
     0
  0
CLASS
  1
ACMTAPERSTANDARDANSI
  2
AcmTaperStdANSI
  3
"Amdt_StdImp|Product Description: AutoCAD Mechanical|Company: Autodesk, Inc."
 90
     1024
280
     0
281
     0
  0
CLASS
  1
ACMANOOTATIONVIEWSTANDARDANSI
  2
AmdtAnViewStdANSI
  3
"Amdt_StdImp|Product Description: AutoCAD Mechanical|Company: Autodesk, Inc."
 90
     1024
280
     0
281
     0
  0
CLASS
  1
ACMSTANDARDISO
  2
AcmStandardISO
  3
"Amdt_StdImp|Product Description: AutoCAD Mechanical|Company: Autodesk, Inc."
 90
     1024
280
     0
281
     0
  0
CLASS
  1
AMDTEDGESTANDARDISO
  2
AmdtEdgeStdISO
  3
"Amdt_StdImp|Product Description: AutoCAD Mechanical|Company: Autodesk, Inc."
 90
     1024
280
     0
281
     0
  0
CLASS
  1
ACMSURFSTANDARDISO
  2
AcmSurfTextStdISO
  3
"Amdt_StdImp|Product Description: AutoCAD Mechanical|Company: Autodesk, Inc."
 90
     1024
280
     0
281
     0
  0
CLASS
  1
ACMFCFSTANDARDISO
  2
AcmFCFStdISO
  3
"Amdt_StdImp|Product Description: AutoCAD Mechanical|Company: Autodesk, Inc."
 90
     1024
280
     0
281
     0
  0
CLASS
  1
ACMWELDSTANDARDISO
  2
AcmWeldingStdISO
  3
"Amdt_StdImp|Product Description: AutoCAD Mechanical|Company: Autodesk, Inc."
 90
     1024
280
     0
281
     0
  0
CLASS
  1
ACMIDSTANDARDISO
  2
AcmIdStdISO
  3
"Amdt_StdImp|Product Description: AutoCAD Mechanical|Company: Autodesk, Inc."
 90
     1024
280
     0
281
     0
  0
CLASS
  1
ACMDATUMSTANDARDISO
  2
AcmDatumStdISO
  3
"Amdt_StdImp|Product Description: AutoCAD Mechanical|Company: Autodesk, Inc."
 90
     1024
280
     0
281
     0
  0
CLASS
  1
ACMBOMSTANDARDISO
  2
AcmBOMStdISO
  3
"Amdt_StdImp|Product Description: AutoCAD Mechanical|Company: Autodesk, Inc."
 90
     1024
280
     0
281
     0
  0
CLASS
  1
ACMDETAILSTANDARDISO
  2
AmdtDetailSymStdISO
  3
"Amdt_StdImp|Product Description: AutoCAD Mechanical|Company: Autodesk, Inc."
 90
     1024
280
     0
281
     0
  0
CLASS
  1
ACMSECTIONSTANDARDISO
  2
AmdtSectionSymStdISO
  3
"Amdt_StdImp|Product Description: AutoCAD Mechanical|Company: Autodesk, Inc."
 90
     1024
280
     0
281
     0
  0
CLASS
  1
ACMCENTERLINESTANDARDISO
  2
AmdtCenterLineStdISO
  3
"Amdt_StdImp|Product Description: AutoCAD Mechanical|Company: Autodesk, Inc."
 90
     1024
280
     0
281
     0
  0
CLASS
  1
ACMTHREADLINESTANDARDISO
  2
AmdtThreadLineStdISO
  3
"Amdt_StdImp|Product Description: AutoCAD Mechanical|Company: Autodesk, Inc."
 90
     1024
280
     0
281
     0
  0
CLASS
  1
ACMNOTESTANDARDISO
  2
AmdtNoteStdISO
  3
"Amdt_StdImp|Product Description: AutoCAD Mechanical|Company: Autodesk, Inc."
 90
     1024
280
     0
281
     0
  0
CLASS
  1
ACAMGHOLECHARTSTDISO
  2
AcAmgHoleChartStdISO
  3
AmgDim|Product Description: AutoCAD Mechanical|Company: Autodesk, Inc.
 90
     1024
280
     0
281
     0
  0
CLASS
  1
ACMTAPERSTANDARDISO
  2
AcmTaperStdISO
  3
"Amdt_StdImp|Product Description: AutoCAD Mechanical|Company: Autodesk, Inc."
 90
     1024
280
     0
281
     0
  0
CLASS
  1
ACMANOOTATIONVIEWSTANDARDISO
  2
AmdtAnViewStdISO
  3
"Amdt_StdImp|Product Description: AutoCAD Mechanical|Company: Autodesk, Inc."
 90
     1024
280
     0
281
     0
  0
CLASS
  1
AMDTADMENUSTATE
  2
AmdtAdMenuState
  3
DesignerServices
 90
     1024
280
     0
281
     0
  0
CLASS
  1
ADAPPL
  2
AcAdAppl
  3
DesignerServices
 90
     1024
280
     0
281
     0
  0
CLASS
  1
DEPMGR
  2
AcAdDepMgr
  3
DesignerServices
 90
     1024
280
     0
281
     0
  0
CLASS
  1
PARAMMGR
  2
AcAdParamMgr
  3
DesignerServices
 90
     1024
280
     0
281
     0
  0
CLASS
  1
PARAMSCOPE
  2
AcAdParamScope
  3
DesignerServices
 90
     1024
280
     0
281
     0
  0
CLASS
  1
NAMEDAPPL
  2
AcAdNamedAppl
  3
DesignerServices
 90
     1024
280
     0
281
     0
  0
CLASS
  1
AMDTDMMENUSTATE
  2
AmdtDmMenuState
  3
AcMechDwgViewMgmt
 90
     1024
280
     0
281
     0
  0
CLASS
  1
MAPIADMODULE
  2
MApiAdModule
  3
MApiAdServices
 90
     1024
280
     0
281
     0
  0
CLASS
  1
AMDTAMMENUSTATE
  2
AmdtAmMenuState
  3
DesignerAssemblies
 90
     1024
280
     0
281
     0
  0
CLASS
  1
ACAMPROJECT
  2
AcAmProject
  3
DesignerAssemblies
 90
     1024
280
     0
281
     0
  0
CLASS
  1
ACAMGRCOMPDEF
  2
AcAmGrCompDef
  3
DesignerAssemblies
 90
     1024
280
     0
281
     0
  0
CLASS
  1
ACCMCONTEXT
  2
AcCmContext
  3
DesignerAssemblies
 90
     1024
280
     0
281
     0
  0
CLASS
  1
ACAMCOMPDEF
  2
AcAmCompDef
  3
DesignerAssemblies
 90
     1024
280
     0
281
     0
  0
CLASS
  1
ACAMCOMPDEFMGR
  2
AcAmCompDefMgr
  3
DesignerAssemblies
 90
     1024
280
     0
281
     0
  0
CLASS
  1
AMCONTEXTMGR
  2
AcAmContextMgr
  3
DesignerAssemblies
 90
     1024
280
     0
281
     0
  0
CLASS
  1
ACAMCONTEXTMODELER
  2
AcAmContextModeler
  3
DesignerAssemblies
 90
     1024
280
     0
281
     0
  0
CLASS
  1
ACMDATADICTIONARY
  2
AcmDataDictionary
  3
"AcmSymBB|Product Description: AutoCAD Mechanical|Company: Autodesk, Inc."
 90
     1024
280
     0
281
     0
  0
CLASS
  1
ACMDATAENTRYBLOCK
  2
AcmDataEntryBlock
  3
AcmSymBB|Product Description: AutoCAD Mechanical|Company: Autodesk, Inc.
 90
     1024
280
     0
281
     0
  0
CLASS
  1
ACRFATTGENMGR
  2
AcRfAttGeneralMgr
  3
AcAttribServices
 90
     1024
280
     0
281
     0
  0
CLASS
  1
ACRFOBJATTMGR
  2
AcRfObjAttGroupMgr
  3
AcAttribServices
 90
     1024
280
     0
281
     0
  0
CLASS
  1
ACRFMCADAPIATTHOLDER
  2
AcRfMCADAPIAttHolder
  3
AcAttribServices
 90
     1024
280
     0
281
     0
  0
CLASS
  1
AMDTSYSATTR
  2
AmdtSystemAttribute
  3
AcAttribServices
 90
     1024
280
     0
281
     0
  0
CLASS
  1
CATALOGSTATE
  2
AcAmCatalogState
  3
DesignerAssemblies
 90
     1024
280
     0
281
     0
  0
CLASS
  1
ACAMGRCOMPDEFSET
  2
AcAmGrCompDefSet
  3
DesignerAssemblies
 90
     1024
280
     0
281
     0
  0
CLASS
  1
AMDTBROWSERDBTAB
  2
AmdtBrowserDbTab
  3
McadcomServices
 90
     1024
280
     0
281
     0
  0
CLASS
  1
CBROWSERAPPOBJECT
  2
CBrowserAppObject
  3
McadcomServices
 90
     1024
280
     0
281
     0
  0
CLASS
  1
DM_PLACEHOLDER
  2
AcDmSelsetPlaceholder
  3
AcMechDwgViewMgmt
 90
     1024
280
     0
281
     0
  0
CLASS
  1
ACAMGFILTERDAT
  2
AcAmgFilterDat
  3
"AcadM|Product Description: AutoCAD Mechanical|Company: Autodesk, Inc."
 90
     1024
280
     0
281
     0
  0
CLASS
  1
LAYER_INDEX
  2
AcDbLayerIndex
  3
ObjectDBX Classes
 90
        0
280
     0
281
     0
  0
CLASS
  1
IDBUFFER
  2
AcDbIdBuffer
  3
ObjectDBX Classes
 90
        0
280
     0
281
     0
  0
CLASS
  1
CELLSTYLEMAP
  2
AcDbCellStyleMap
  3
ObjectDBX Classes
 90
     1152
280
     0
281
     0
  0
CLASS
  1
DIMASSOC
  2
AcDbDimAssoc
  3
"AcDbDimAssoc|Product Desc:     AcDim ARX App For Dimension|Company:          Autodesk, Inc.|WEB Address:      www.autodesk.com"
 90
    32768
280
     0
281
     0
  0
CLASS
  1
AEC_REFEDIT_STATUS_TRACKER
  2
AecDbRefEditStatusTracker
  3
AecArchBase50|Product Desc: Autodesk Architectural Desktop 2007 |Company: Autodesk,Inc. |WEB Address: www.autodesk.com
 90
      129
280
     0
281
     0
  0
CLASS
  1
NPOCOLLECTION
  2
AcDbImpNonPersistentObjectsCollection
  3
ObjectDBX Classes
 90
     1153
280
     0
281
     0
  0
ENDSEC
  0
SECTION
  2
TABLES
  0
TABLE
  2
VPORT
  5
8
330
0
100
AcDbSymbolTable
 70
     1
  0
VPORT
  5
2A7E
330
8
100
AcDbSymbolTableRecord
100
AcDbViewportTableRecord
  2
*Active
 70
     0
 10
0.0
 20
0.0
 11
1.0
 21
1.0
 12
0.0
 22
0.0
 13
0.0
 23
0.0
 14
10.0
 24
10.0
 15
10.0
 25
10.0
 16
0.0
 26
0.0
 36
1.0
 17
1591.3969622359
 27
1371.659992244679
 37
0.0
 40
366.0546324199544
 41
1.98223350253807
 42
50.0
 43
0.0
 44
0.0
 50
0.0
 51
0.0
 71
     0
 72
  1000
 73
     1
 74
     3
 75
     0
 76
     0
 77
     0
 78
     0
281
     0
 65
     0
110
0.0
120
0.0
130
0.0
111
1.0
121
0.0
131
0.0
112
0.0
122
1.0
132
0.0
 79
     0
146
0.0
  0
ENDTAB
  0
TABLE
  2
LTYPE
  5
5
330
0
100
AcDbSymbolTable
 70
    22
  0
LTYPE
  5
14
330
5
100
AcDbSymbolTableRecord
100
AcDbLinetypeTableRecord
  2
ByBlock
 70
     0
  3

 72
    65
 73
     0
 40
0.0
  0
LTYPE
  5
15
330
5
100
AcDbSymbolTableRecord
100
AcDbLinetypeTableRecord
  2
ByLayer
 70
     0
  3

 72
    65
 73
     0
 40
0.0
  0
LTYPE
  5
16
330
5
100
AcDbSymbolTableRecord
100
AcDbLinetypeTableRecord
  2
Continuous
 70
     0
  3
Solid line
 72
    65
 73
     0
 40
0.0
  0
LTYPE
  5
E5
330
5
100
AcDbSymbolTableRecord
100
AcDbLinetypeTableRecord
  2
ACAD_ISO02W100
 70
     0
  3
ISO dash __ __ __ __ __ __ __ __ __ __ __ __ __
 72
    65
 73
     2
 40
15.0
 49
12.0
 74
     0
 49
-3.0
 74
     0
  0
LTYPE
  5
2ADB
330
5
100
AcDbSymbolTableRecord
100
AcDbLinetypeTableRecord
  2
AM_ISO02W050
 70
     0
  3
__ __ __ __ __ __ __ __ __ __ __ __ __ __ __
 72
    65
 73
     2
 40
7.5
 49
6.0
 74
     0
 49
-1.5
 74
     0
  0
LTYPE
  5
2ADC
330
5
100
AcDbSymbolTableRecord
100
AcDbLinetypeTableRecord
  2
AM_ISO08W050
 70
     0
  3
____ . ____ . ____ . ____ . ____ . ____ . ____
 72
    65
 73
     4
 40
18.0
 49
12.0
 74
     0
 49
-1.5
 74
     0
 49
3.0
 74
     0
 49
-1.5
 74
     0
  0
LTYPE
  5
2ADD
330
5
100
AcDbSymbolTableRecord
100
AcDbLinetypeTableRecord
  2
AM_ISO09W050
 70
     0
  3
_____ . . _____ . . _____ . . ____ .. ____
 72
    65
 73
     6
 40
22.5
 49
12.0
 74
     0
 49
-1.5
 74
     0
 49
3.0
 74
     0
 49
-1.5
 74
     0
 49
3.0
 74
     0
 49
-1.5
 74
     0
  0
LTYPE
  5
2ADE
330
5
100
AcDbSymbolTableRecord
100
AcDbLinetypeTableRecord
  2
Amconstr
 70
     0
  3
_______________________
 72
    65
 73
     2
 40
9999.0
 49
9999.0
 74
     0
 49
0.0
 74
     0
  0
LTYPE
  5
2ADF
330
5
100
AcDbSymbolTableRecord
100
AcDbLinetypeTableRecord
  2
AM_ISO08W050x2
 70
     0
  3
__ . __ . __ . __ . __ . __
 72
    65
 73
     4
 40
9.0
 49
6.0
 74
     0
 49
-0.75
 74
     0
 49
1.5
 74
     0
 49
-0.75
 74
     0
  0
LTYPE
  5
2AE0
330
5
100
AcDbSymbolTableRecord
100
AcDbLinetypeTableRecord
  2
AM_ISO02W050x2
 70
     0
  3
 _ _ _ _ _ _ _ _ _ _ _ _
 72
    65
 73
     2
 40
3.75
 49
3.0
 74
     0
 49
-0.75
 74
     0
  0
LTYPE
  5
2AE1
330
5
100
AcDbSymbolTableRecord
100
AcDbLinetypeTableRecord
  2
Amzigzag
 70
     0
  3
/\/-/\/-/\/-/\/-/\/-/\/
 72
    65
 73
     2
 40
11.0001
 49
0.0001
 74
     4
 75
   135
340
2AE2
 46
0.04
 50
0.0
 44
0.0
 45
0.0
 49
-11.0
 74
     0
  0
LTYPE
  5
2B14
330
5
100
AcDbSymbolTableRecord
100
AcDbLinetypeTableRecord
  2
HIDDEN
 70
     0
  3
__ __ __ __ __ __ __ __ __ __ __ __ __ __ __ __
 72
    65
 73
     2
 40
0.375
 49
0.25
 74
     0
 49
-0.125
 74
     0
  0
LTYPE
  5
2B15
330
5
100
AcDbSymbolTableRecord
100
AcDbLinetypeTableRecord
  2
PHANTOM2
 70
     0
  3
___ _ _ ___ _ _ ___ _ _ ___ _ _ ___ _ _ ___ _ _
 72
    65
 73
     6
 40
1.25
 49
0.625
 74
     0
 49
-0.125
 74
     0
 49
0.125
 74
     0
 49
-0.125
 74
     0
 49
0.125
 74
     0
 49
-0.125
 74
     0
  0
LTYPE
  5
2B16
330
5
100
AcDbSymbolTableRecord
100
AcDbLinetypeTableRecord
  2
CENTER
 70
     0
  3
____ _ ____ _ ____ _ ____ _ ____ _ ____ _ ____ 
 72
    65
 73
     4
 40
2.0
 49
1.25
 74
     0
 49
-0.25
 74
     0
 49
0.25
 74
     0
 49
-0.25
 74
     0
  0
LTYPE
  5
2B74
330
5
100
AcDbSymbolTableRecord
100
AcDbLinetypeTableRecord
  2
ACANSTGB
 70
     0
  3
__ . . __ . .
 72
    65
 73
     6
 40
0.35433070866
 49
0.15748031496
 74
     0
 49
-0.03937007874
 74
     0
 49
0.03937007874
 74
     0
 49
-0.03937007874
 74
     0
 49
0.03937007874
 74
     0
 49
-0.03937007874
 74
     0
  0
LTYPE
  5
2B75
330
5
100
AcDbSymbolTableRecord
100
AcDbLinetypeTableRecord
  2
ACANSTGL
 70
     0
  3
_ _ _ _ _
 72
    65
 73
     2
 40
0.11811023622
 49
0.07874015748
 74
     0
 49
-0.03937007874
 74
     0
  0
LTYPE
  5
2B8C
330
5
100
AcDbSymbolTableRecord
100
AcDbLinetypeTableRecord
  2
CENTER2
 70
     0
  3
Center (.5x) ___ _ ___ _ ___ _ ___ _ ___ _ ___
 72
    65
 73
     4
 40
1.125
 49
0.75
 74
     0
 49
-0.125
 74
     0
 49
0.125
 74
     0
 49
-0.125
 74
     0
  0
LTYPE
  5
2B8D
330
5
100
AcDbSymbolTableRecord
100
AcDbLinetypeTableRecord
  2
HIDDEN2
 70
     0
  3
Hidden (.5x) _ _ _ _ _ _ _ _ _ _ _ _ _ _ _ _ _
 72
    65
 73
     2
 40
0.1875
 49
0.125
 74
     0
 49
-0.0625
 74
     0
  0
LTYPE
  5
2B8E
330
5
100
AcDbSymbolTableRecord
100
AcDbLinetypeTableRecord
  2
Amzigzag2
 70
     0
  3
/\/-/\/-/\/-/\/-/\/-/\/
 72
    65
 73
     2
 40
0.4401
 49
0.0001
 74
     4
 75
   135
340
2AE2
 46
0.0016
 50
0.0
 44
0.0
 45
0.0
 49
-0.4400000000000001
 74
     0
  0
LTYPE
  5
2BA5
330
5
100
AcDbSymbolTableRecord
100
AcDbLinetypeTableRecord
  2
ACISOWELD
 70
     0
  3
_ _ _ _ _
 72
    65
 73
     2
 40
2.0
 49
2.0
 74
     0
 49
-1.0
 74
     0
  0
LTYPE
  5
2BA8
330
5
100
AcDbSymbolTableRecord
100
AcDbLinetypeTableRecord
  2
ACISOTGB
 70
     0
  3
__ . . __ . .
 72
    65
 73
     6
 40
9.0
 49
4.0
 74
     0
 49
-1.0
 74
     0
 49
1.0
 74
     0
 49
-1.0
 74
     0
 49
1.0
 74
     0
 49
-1.0
 74
     0
  0
LTYPE
  5
2BA9
330
5
100
AcDbSymbolTableRecord
100
AcDbLinetypeTableRecord
  2
ACISOTGL
 70
     0
  3
_ _ _ _ _
 72
    65
 73
     2
 40
3.0
 49
2.0
 74
     0
 49
-1.0
 74
     0
  0
ENDTAB
  0
TABLE
  2
LAYER
  5
2
102
{ACAD_XDICTIONARY
360
2CE4
102
}
330
0
100
AcDbSymbolTable
 70
     4
  0
LAYER
  5
10
102
{ACAD_XDICTIONARY
360
3160
102
}
330
2
100
AcDbSymbolTableRecord
100
AcDbLayerTableRecord
  2
0
 70
     0
 62
     7
  6
Continuous
370
    -3
390
F
  0
LAYER
  5
E7
102
{ACAD_XDICTIONARY
360
3162
102
}
330
2
100
AcDbSymbolTableRecord
100
AcDbLayerTableRecord
  2
AM0
 70
     0
 62
     7
  6
Continuous
370
    -3
390
F
1001
AcAecLayerStandard
1000

1000

  0
LAYER
  5
2EE8
102
{ACAD_XDICTIONARY
360
3164
102
}
330
2
100
AcDbSymbolTableRecord
100
AcDbLayerTableRecord
  2
AM_5
 70
     0
 62
     3
  6
Continuous
370
    25
390
F
1001
AcAecLayerStandard
1000

1000

  0
LAYER
  5
2EEC
330
2
100
AcDbSymbolTableRecord
100
AcDbLayerTableRecord
  2
Defpoints
 70
     0
 62
     7
  6
Continuous
290
     0
370
    -3
390
F
  0
ENDTAB
  0
TABLE
  2
STYLE
  5
3
330
0
100
AcDbSymbolTable
 70
     6
  0
STYLE
  5
11
330
3
100
AcDbSymbolTableRecord
100
AcDbTextStyleTableRecord
  2
Standard
 70
     0
 40
0.0
 41
1.0
 50
0.0
 71
     0
 42
2.5
  3
txt
  4

  0
STYLE
  5
2AE2
330
3
100
AcDbSymbolTableRecord
100
AcDbTextStyleTableRecord
  2

 70
     1
 40
0.0
 41
1.0
 50
0.0
 71
     0
 42
3.5
  3
ltypeshp.shx
  4

  0
STYLE
  5
2B6D
330
3
100
AcDbSymbolTableRecord
100
AcDbTextStyleTableRecord
  2
ACANSTS
 70
     0
 40
1.0
 41
1.0
 50
0.0
 71
     0
 42
3.5
  3
romans.shx
  4

  0
STYLE
  5
2B70
330
3
100
AcDbSymbolTableRecord
100
AcDbTextStyleTableRecord
  2
ACANSGDT
 70
     0
 40
0.0
 41
1.0
 50
0.0
 71
     0
 42
3.5
  3
amgdt.shx
  4

  0
STYLE
  5
2B9F
330
3
100
AcDbSymbolTableRecord
100
AcDbTextStyleTableRecord
  2
ACISOTS
 70
     0
 40
1.0
 41
1.0
 50
0.0
 71
     0
 42
2.5
  3
isocp.shx
  4

  0
STYLE
  5
2BA3
330
3
100
AcDbSymbolTableRecord
100
AcDbTextStyleTableRecord
  2
ACISOGDT
 70
     0
 40
0.0
 41
1.0
 50
0.0
 71
     0
 42
2.5
  3
amgdt.shx
  4

  0
ENDTAB
  0
TABLE
  2
VIEW
  5
6
330
0
100
AcDbSymbolTable
 70
     0
  0
ENDTAB
  0
TABLE
  2
UCS
  5
7
330
0
100
AcDbSymbolTable
 70
     0
  0
ENDTAB
  0
TABLE
  2
APPID
  5
9
330
0
100
AcDbSymbolTable
 70
    20
  0
APPID
  5
12
330
9
100
AcDbSymbolTableRecord
100
AcDbRegAppTableRecord
  2
ACAD
 70
     0
  0
APPID
  5
9E
330
9
100
AcDbSymbolTableRecord
100
AcDbRegAppTableRecord
  2
ACAD_PSEXT
 70
     0
  0
APPID
  5
E8
330
9
100
AcDbSymbolTableRecord
100
AcDbRegAppTableRecord
  2
AcAecLayerStandard
 70
     0
  0
APPID
  5
E9
330
9
100
AcDbSymbolTableRecord
100
AcDbRegAppTableRecord
  2
DCO15
 70
     0
  0
APPID
  5
2AC7
330
9
100
AcDbSymbolTableRecord
100
AcDbRegAppTableRecord
  2
ACAD_MLEADERVER
 70
     0
  0
APPID
  5
2ACB
330
9
100
AcDbSymbolTableRecord
100
AcDbRegAppTableRecord
  2
AD_DRAW
 70
     0
  0
APPID
  5
2ACC
330
9
100
AcDbSymbolTableRecord
100
AcDbRegAppTableRecord
  2
DESIGNERASSEMBLIES
 70
     0
  0
APPID
  5
2ACD
330
9
100
AcDbSymbolTableRecord
100
AcDbRegAppTableRecord
  2
MCAD_NO_VIS
 70
     0
  0
APPID
  5
2ACE
330
9
100
AcDbSymbolTableRecord
100
AcDbRegAppTableRecord
  2
ASURF_PCURVE_APPNAME
 70
     0
  0
APPID
  5
2ACF
330
9
100
AcDbSymbolTableRecord
100
AcDbRegAppTableRecord
  2
ACAD_TEMP_GRAPHIC
 70
     0
  0
APPID
  5
2AD0
330
9
100
AcDbSymbolTableRecord
100
AcDbRegAppTableRecord
  2
ACATTRIBSERVICES
 70
     0
  0
APPID
  5
2AD1
330
9
100
AcDbSymbolTableRecord
100
AcDbRegAppTableRecord
  2
ACADM_DIM_EDIT
 70
     0
  0
APPID
  5
2AD2
330
9
100
AcDbSymbolTableRecord
100
AcDbRegAppTableRecord
  2
GENIUS_GENDIM_13
 70
     0
  0
APPID
  5
2AD3
330
9
100
AcDbSymbolTableRecord
100
AcDbRegAppTableRecord
  2
GENIUS_GENDTOL_13
 70
     0
  0
APPID
  5
2AD4
330
9
100
AcDbSymbolTableRecord
100
AcDbRegAppTableRecord
  2
GENIUS_GE3DTOL_13
 70
     0
  0
APPID
  5
2AD5
330
9
100
AcDbSymbolTableRecord
100
AcDbRegAppTableRecord
  2
AMG_3D2D_5.0
 70
     0
  0
APPID
  5
2AD6
330
9
100
AcDbSymbolTableRecord
100
AcDbRegAppTableRecord
  2
AMDT_DM_ADJ
 70
     0
  0
APPID
  5
2AD7
330
9
100
AcDbSymbolTableRecord
100
AcDbRegAppTableRecord
  2
ACAD_DSTYLE_DIMTEXT_FILL
 70
     0
  0
APPID
  5
2F04
330
9
100
AcDbSymbolTableRecord
100
AcDbRegAppTableRecord
  2
ACAD_DSTYLE_DIMINSPECT
 70
     0
  0
APPID
  5
317A
330
9
100
AcDbSymbolTableRecord
100
AcDbRegAppTableRecord
  2
AcDbAttr
 70
     0
  0
ENDTAB
  0
TABLE
  2
DIMSTYLE
  5
A
330
0
100
AcDbSymbolTable
 70
    14
100
AcDbDimStyleTable
 71
     1
340
2BB2
  0
DIMSTYLE
105
2B90
330
A
100
AcDbSymbolTableRecord
100
AcDbDimStyleTableRecord
  2
AM_ANSI
 70
     0
  4
mm
 41
0.1
 42
0.05
 43
0.5
 44
0.1
 47
0.1
 48
0.1
 78
     7
 79
     2
140
0.12
141
0.0
146
0.71
147
0.06
176
   256
177
   256
178
     2
274
     4
284
     7
340
11
371
    -1
372
    -1
  0
DIMSTYLE
105
2B91
330
A
100
AcDbSymbolTableRecord
100
AcDbDimStyleTableRecord
  2
AM_ANSI$3
 70
     0
  4
mm
 41
0.1
 42
0.05
 43
0.5
 44
0.1
 47
0.1
 48
0.1
 78
     7
 79
     2
140
0.12
141
0.0
146
0.71
147
0.06
176
   256
177
   256
178
     2
274
     4
284
     7
288
     1
289
     0
340
11
371
    -1
372
    -1
  0
DIMSTYLE
105
2B92
330
A
100
AcDbSymbolTableRecord
100
AcDbDimStyleTableRecord
  2
AM_ANSI$4
 70
     0
  4
mm
 41
0.1
 42
0.05
 43
0.5
 44
0.1
 47
0.1
 48
0.1
 78
     7
 79
     2
140
0.12
141
0.0
146
0.71
147
0.06
176
   256
177
   256
178
     2
274
     4
284
     7
288
     1
289
     0
340
11
371
    -1
372
    -1
  0
DIMSTYLE
105
2B93
330
A
100
AcDbSymbolTableRecord
100
AcDbDimStyleTableRecord
  2
AM_ANSI$7
 70
     0
  4
mm
 41
0.1
 42
0.05
 43
0.5
 44
0.1
 47
0.1
 48
0.1
 78
     7
 79
     2
140
0.24
141
0.0
146
0.71
147
0.06
176
   256
177
   256
178
     2
274
     4
284
     7
340
11
371
    -1
372
    -1
  0
DIMSTYLE
105
2B94
330
A
100
AcDbSymbolTableRecord
100
AcDbDimStyleTableRecord
  2
AM_ANSI$SF
 70
     0
  4
mm
 41
0.1
 42
0.05
 43
0.5
 44
0.1
 47
0.1
 48
0.1
 75
     1
 76
     1
 78
     7
 79
     2
140
0.12
141
0.0
146
0.71
147
0.06
176
   256
177
   256
178
     2
274
     4
284
     7
340
11
371
    -1
372
    -1
  0
DIMSTYLE
105
2B95
330
A
100
AcDbSymbolTableRecord
100
AcDbDimStyleTableRecord
  2
AM_ANSI$SH
 70
     0
  4
mm
 41
0.1
 42
0.05
 43
0.5
 44
0.1
 47
0.1
 48
0.1
 75
     1
 76
     1
 78
     7
 79
     2
140
0.12
141
0.0
146
0.71
147
0.06
173
     1
176
   256
177
   256
178
     2
274
     4
284
     7
340
11
343
2B96
371
    -1
372
    -1
  0
DIMSTYLE
105
2BB2
330
A
100
AcDbSymbolTableRecord
100
AcDbDimStyleTableRecord
  2
AM_ISO
 70
     0
  4
"
 41
2.5
 42
1.0
 43
10.0
 44
1.0
 47
0.1
 48
0.1
 73
     0
 74
     0
 77
     1
 78
     8
 79
     2
140
3.5
141
0.0
143
0.0393701
146
0.71
147
1.5
171
     3
172
     1
176
   256
177
   256
178
     2
271
     2
272
     2
274
     3
283
     0
284
     8
340
11
371
    -1
372
    -1
  0
DIMSTYLE
105
2BB3
330
A
100
AcDbSymbolTableRecord
100
AcDbDimStyleTableRecord
  2
AM_ISO$3
 70
     0
  4
"
 41
2.5
 42
1.0
 43
10.0
 44
1.0
 47
0.1
 48
0.1
 73
     0
 77
     1
 78
     8
 79
     2
140
3.5
141
0.0
143
0.0393701
146
0.71
147
1.5
176
   256
177
   256
178
     2
271
     2
272
     3
274
     4
283
     0
284
     8
288
     1
289
     0
340
11
371
    -1
372
    -1
  0
DIMSTYLE
105
2BB4
330
A
100
AcDbSymbolTableRecord
100
AcDbDimStyleTableRecord
  2
AM_ISO$4
 70
     0
  4
"
 41
2.5
 42
1.0
 43
10.0
 44
1.0
 47
0.1
 48
0.1
 73
     0
 77
     1
 78
     8
 79
     2
140
3.5
141
0.0
143
0.0393701
146
0.71
147
1.5
176
   256
177
   256
178
     2
271
     2
272
     3
274
     4
283
     0
284
     8
288
     1
289
     0
340
11
371
    -1
372
    -1
  0
DIMSTYLE
105
2BB5
330
A
100
AcDbSymbolTableRecord
100
AcDbDimStyleTableRecord
  2
AM_ISO$6
 70
     0
  4
"
 41
2.5
 42
1.0
 43
10.0
 44
1.0
 47
0.1
 48
0.1
 73
     0
 74
     0
 78
     8
 79
     2
140
3.5
141
0.0
143
0.0393701
146
0.71
147
1.5
172
     1
176
   256
177
   256
178
     2
271
     2
272
     3
274
     4
283
     0
284
     8
340
11
371
    -1
372
    -1
  0
DIMSTYLE
105
2BB6
330
A
100
AcDbSymbolTableRecord
100
AcDbDimStyleTableRecord
  2
AM_ISO$7
 70
     0
  4
"
 41
2.5
 42
1.0
 43
10.0
 44
1.0
 47
0.1
 48
0.1
 73
     0
 74
     0
 77
     1
 78
     8
 79
     2
140
5.0
141
0.0
143
0.0393701
146
0.71
147
1.5
172
     1
176
   256
177
   256
178
     2
271
     2
272
     3
274
     4
283
     0
284
     8
340
11
371
    -1
372
    -1
  0
DIMSTYLE
105
2BB7
330
A
100
AcDbSymbolTableRecord
100
AcDbDimStyleTableRecord
  2
AM_ISO$SF
 70
     0
  4
"
 41
2.5
 42
1.0
 43
10.0
 44
1.0
 47
0.1
 48
0.1
 73
     0
 74
     0
 75
     1
 76
     1
 77
     1
 78
     8
 79
     2
140
3.5
141
0.0
143
0.0393701
146
0.71
147
1.5
172
     1
176
   256
177
   256
178
     2
271
     2
272
     3
274
     4
283
     0
284
     8
340
11
371
    -1
372
    -1
  0
DIMSTYLE
105
2BB8
330
A
100
AcDbSymbolTableRecord
100
AcDbDimStyleTableRecord
  2
AM_ISO$SH
 70
     0
  4
"
 41
2.5
 42
1.0
 43
10.0
 44
1.0
 47
0.1
 48
0.1
 73
     0
 74
     0
 75
     1
 76
     1
 77
     1
 78
     8
 79
     2
140
3.5
141
0.0
143
0.0393701
144
2.0
146
0.71
147
1.5
172
     1
173
     1
176
   256
177
   256
178
     2
271
     2
272
     3
274
     4
283
     0
284
     8
340
11
343
2B96
371
    -1
372
    -1
  0
ENDTAB
  0
TABLE
  2
BLOCK_RECORD
  5
1
330
0
100
AcDbSymbolTable
 70
     6
  0
BLOCK_RECORD
  5
1F
102
{ACAD_XDICTIONARY
360
23B2
102
}
330
1
100
AcDbSymbolTableRecord
100
AcDbBlockTableRecord
  2
*Model_Space
340
22
  0
BLOCK_RECORD
  5
D2
330
1
100
AcDbSymbolTableRecord
100
AcDbBlockTableRecord
  2
*Paper_Space
340
D3
  0
BLOCK_RECORD
  5
D6
330
1
100
AcDbSymbolTableRecord
100
AcDbBlockTableRecord
  2
*Paper_Space0
340
D7
  0
BLOCK_RECORD
  5
2B96
330
1
100
AcDbSymbolTableRecord
100
AcDbBlockTableRecord
  2
GENAXEH
340
0
  0
BLOCK_RECORD
  5
2CDE
330
1
100
AcDbSymbolTableRecord
100
AcDbBlockTableRecord
  2
info
340
0
310
2800000020000000200000000100080000000000000400000000000000000000000000000000000000000000000080000080000000808000800000008000800080800000C0C0C000C0DCC000F0CAA6000020400000206000002080000020A0000020C0000020E00000400000004020000040400000406000004080000040A0
310
000040C0000040E00000600000006020000060400000606000006080000060A0000060C0000060E00000800000008020000080400000806000008080000080A0000080C0000080E00000A0000000A0200000A0400000A0600000A0800000A0A00000A0C00000A0E00000C0000000C0200000C0400000C0600000C0800000C0
310
A00000C0C00000C0E00000E0000000E0200000E0400000E0600000E0800000E0A00000E0C00000E0E00040000000400020004000400040006000400080004000A0004000C0004000E00040200000402020004020400040206000402080004020A0004020C0004020E000404000004040200040404000404060004040800040
310
40A0004040C0004040E00040600000406020004060400040606000406080004060A0004060C0004060E00040800000408020004080400040806000408080004080A0004080C0004080E00040A0000040A0200040A0400040A0600040A0800040A0A00040A0C00040A0E00040C0000040C0200040C0400040C0600040C08000
310
40C0A00040C0C00040C0E00040E0000040E0200040E0400040E0600040E0800040E0A00040E0C00040E0E00080000000800020008000400080006000800080008000A0008000C0008000E00080200000802020008020400080206000802080008020A0008020C0008020E00080400000804020008040400080406000804080
310
008040A0008040C0008040E00080600000806020008060400080606000806080008060A0008060C0008060E00080800000808020008080400080806000808080008080A0008080C0008080E00080A0000080A0200080A0400080A0600080A0800080A0A00080A0C00080A0E00080C0000080C0200080C0400080C0600080C0
310
800080C0A00080C0C00080C0E00080E0000080E0200080E0400080E0600080E0800080E0A00080E0C00080E0E000C0000000C0002000C0004000C0006000C0008000C000A000C000C000C000E000C0200000C0202000C0204000C0206000C0208000C020A000C020C000C020E000C0400000C0402000C0404000C0406000C0
310
408000C040A000C040C000C040E000C0600000C0602000C0604000C0606000C0608000C060A000C060C000C060E000C0800000C0802000C0804000C0806000C0808000C080A000C080C000C080E000C0A00000C0A02000C0A04000C0A06000C0A08000C0A0A000C0A0C000C0A0E000C0C00000C0C02000C0C04000C0C06000
310
C0C08000C0C0A000F0FBFF00A4A0A000808080000000FF0000FF000000FFFF00FF000000FF00FF00FFFF0000FFFFFF00FFFFFFFFFFFFFFFFFFFFFFFFFFFFFFFFFFFFFFFFFFFFFFFFFFFFFFFFFFFFFFFFFFFFFFFFFFFFFFFFFFFFFFFFFFFFFFFFFFFFFFFFFFFFFFFFFFFFFFFFFFFFFFFFFFFFFFFFFFFFFFFFFFFFFFFFFFFFFF
310
FFFFFFFFFFFFFFFFFFFFFFFFFFFFFFFFFFFFFFFFFFFFFFFFFFFFFFFFFFFFFFFFFFFFFFFFFFFFFFFFFFFFFFFFFFFFFFFFFFFFFFFFFFFFFFFFFFFFFFFF00FFFFFFFFFFFFFFFFFFFFFFFFFFFFFFFFFFFFFFFFFFFFFFFFFFFFFFFFFFFF00FFFFFFFFFFFFFFFFFFFFFFFFFFFFFFFFFFFFFFFFFFFFFFFFFFFFFFFFFFFF00FFFFFFFF
310
FFFFFFFFFFFFFFFFFFFFFFFFFFFFFFFFFFFF0000000000FFFFFF00FFFFFFFF00FFFFFF00FFFF000000FFFF0000000000FFFFFFFFFFFFFF000000FFFFFFFFFF00FFFFFF00FF00FFFFFF00FFFFFF00FFFF00FFFFFFFFFFFFFF0000FFFFFFFFFF00FFFFFF00FFFFFFFFFF00FFFFFF00FFFF00FFFFFFFFFFFF00FF00FFFFFFFFFF
310
0000000000FFFFFFFFFF00FFFFFF00FFFF00FFFFFFFFFF00FFFFFF00FFFFFFFF00FFFFFF00FFFFFFFFFF00FFFFFF00FFFF00FFFFFFFF00FFFFFFFF00FFFFFFFF00FFFFFF00FFFFFFFFFF00FFFFFF00FFFF00FF00FF00FFFFFFFFFF00FFFFFFFF00FFFFFF00FFFFFFFFFF00FF0000000000FFFFFF00FFFFFFFFFFFFFF00FFFF
310
FFFFFFFFFFFFFFFFFFFFFFFFFFFFFFFFFFFFFFFF00FF00FFFFFFFFFF00FFFFFFFFFFFFFFFFFFFFFFFFFFFFFFFFFFFFFFFFFFFFFFFFFFFF00FFFFFFFF00FFFFFFFFFFFFFFFFFFFFFFFFFFFFFFFFFFFFFFFFFFFFFFFFFFFFFF00FFFFFF00FFFFFFFFFFFFFFFFFFFFFFFFFFFFFFFFFFFFFFFFFFFFFFFFFFFFFFFF00FF00FFFFFF
310
FFFF00000000FFFF00FFFFFF00FF0000000000FFFFFFFFFFFFFFFF0000FFFFFFFFFFFF00FFFF00FF00FFFF00FFFFFFFF00FFFF00FFFFFFFFFFFF000000FFFFFFFFFFFF00FFFF00FF00FF00FFFFFFFFFF00FFFF00FF0000000000FFFFFF00FFFFFFFFFF000000FFFF00000000FFFFFFFF00FFFF00FFFFFFFFFFFFFFFFFFFF00
310
FFFFFFFF00FFFF00FF00FFFFFF00FFFFFF00FFFF00FFFFFFFFFFFFFFFFFFFFFF00FFFFFF00FFFF00FF00FFFFFF00FFFFFF00FFFF00FFFFFFFFFFFFFFFFFFFFFFFF00FF00000000FFFF00000000FFFF0000000000FFFFFFFFFFFFFFFFFFFFFFFFFFFFFFFFFFFFFFFFFFFFFFFFFFFFFFFFFFFFFFFFFFFFFFFFFFFFFFFFFFFFFF
310
FFFFFFFFFFFFFFFFFFFFFFFFFFFFFFFFFFFFFFFFFFFFFFFFFFFFFFFFFFFFFFFFFFFFFFFFFFFFFFFFFFFFFFFFFFFFFFFFFFFFFFFFFFFFFFFFFFFFFFFFFFFFFFFFFFFFFFFFFFFFFFFFFFFFFFFFFFFFFFFFFFFFFFFFFFFFFFFFFFFFFFFFFFFFFFFFFFFFFFFFFFFFFFFFFFFFFFFFFFFFFFFFFFFFFFFFFFFFFFFFFFFFFFFFFFFFFF
310
FFFFFFFFFFFFFFFFFFFFFFFFFFFFFFFFFFFFFFFFFFFFFFFFFFFFFFFFFFFFFFFFFFFFFFFFFFFFFFFFFFFFFFFFFFFFFFFFFFFFFFFFFFFFFFFF
102
{BLKREFS
331
313B
331
313F
331
3143
331
347B
331
347F
331
3483
102
}
1001
ACAD
1000
DesignCenter Data
1002
{
1070
     1
1070
     4
1002
}
  0
BLOCK_RECORD
  5
3399
330
1
100
AcDbSymbolTableRecord
100
AcDbBlockTableRecord
  2
B2X3
340
0
310
2800000020000000200000000100080000000000000400000000000000000000000000000000000000000000000080000080000000808000800000008000800080800000C0C0C000C0DCC000F0CAA6000020400000206000002080000020A0000020C0000020E00000400000004020000040400000406000004080000040A0
310
000040C0000040E00000600000006020000060400000606000006080000060A0000060C0000060E00000800000008020000080400000806000008080000080A0000080C0000080E00000A0000000A0200000A0400000A0600000A0800000A0A00000A0C00000A0E00000C0000000C0200000C0400000C0600000C0800000C0
310
A00000C0C00000C0E00000E0000000E0200000E0400000E0600000E0800000E0A00000E0C00000E0E00040000000400020004000400040006000400080004000A0004000C0004000E00040200000402020004020400040206000402080004020A0004020C0004020E000404000004040200040404000404060004040800040
310
40A0004040C0004040E00040600000406020004060400040606000406080004060A0004060C0004060E00040800000408020004080400040806000408080004080A0004080C0004080E00040A0000040A0200040A0400040A0600040A0800040A0A00040A0C00040A0E00040C0000040C0200040C0400040C0600040C08000
310
40C0A00040C0C00040C0E00040E0000040E0200040E0400040E0600040E0800040E0A00040E0C00040E0E00080000000800020008000400080006000800080008000A0008000C0008000E00080200000802020008020400080206000802080008020A0008020C0008020E00080400000804020008040400080406000804080
310
008040A0008040C0008040E00080600000806020008060400080606000806080008060A0008060C0008060E00080800000808020008080400080806000808080008080A0008080C0008080E00080A0000080A0200080A0400080A0600080A0800080A0A00080A0C00080A0E00080C0000080C0200080C0400080C0600080C0
310
800080C0A00080C0C00080C0E00080E0000080E0200080E0400080E0600080E0800080E0A00080E0C00080E0E000C0000000C0002000C0004000C0006000C0008000C000A000C000C000C000E000C0200000C0202000C0204000C0206000C0208000C020A000C020C000C020E000C0400000C0402000C0404000C0406000C0
310
408000C040A000C040C000C040E000C0600000C0602000C0604000C0606000C0608000C060A000C060C000C060E000C0800000C0802000C0804000C0806000C0808000C080A000C080C000C080E000C0A00000C0A02000C0A04000C0A06000C0A08000C0A0A000C0A0C000C0A0E000C0C00000C0C02000C0C04000C0C06000
310
C0C08000C0C0A000F0FBFF00A4A0A000808080000000FF0000FF000000FFFF00FF000000FF00FF00FFFF0000FFFFFF0000000000000000000000000000000000000000000000000000000000000000000000000000000000000000000000000000000000000000000000000000000000000000000000000000000000000000
310
00000000000000000000000000000000000000000000000000000000000000000000000000000000000000000000000000000000000000000000000000000000000000000000000000000000000000000000000000000000000000000000000000000000000000000000000000000000000000000000000000000000000000
310
0000000000000000000000000000000000000000000000000000000000000000000000000000000000000000000000000000000000000000000000000000000000000000000000000000000000000000000000000000FA000000000000000000000000000000000000000000000000FAFA0000000000FAFAFAFAFAFAFAFAFA
310
FAFAFBFBFBFBFBFAFAFAFAFAFAFAFAFAFAFA000000FAFAFAFFFAFBFBFBFBFBFBFAFFFFFFFFFFFFFFFFFFFFFFFFFFFFFFFFFA000000FA00FFFFFFFFFFFFFF00FFFFFF0000FF0000FFFFFF00FF00FFFFFFFFFF000000FA00FF00FFFFFFFFFFFFFFFFFFFFFFFFFFFFFFFFFFFFFFFFFFFFFF00FF000000FAFAFAFAFAFFFFFFFFFF
310
FFFFFFFFFFFFFFFFFFFFFFFFFFFFFFFFFF00FF0000FBFBFBFF00FF000000000000FF000000000000FFFF0000000000FFFF00FF0000FBFBFBFF00FF000000000000FF000000000000FFFF0000000000FFFF00FF0000FBFBFBFF00FF000000000000FF000000000000FFFF0000000000FFFF00FF0000FBFBFBFF00FF00000000
310
0000FF000000000000FFFF0000000000FFFF00FF000000FAFAFAFAFAFFFFFFFFFFFFFFFFFFFFFFFFFFFFFFFFFFFFFFFFFFFF00FF000000FA00FF00FFFFFFFFFFFFFFFFFFFFFFFFFFFFFFFFFFFFFFFFFFFFFF00FF000000FA00FFFFFFFFFFFFFF00FFFFFF0000FF0000FFFFFF00FF00FFFFFFFFFF000000FAFAFAFFFFFFFFFF
310
FFFFFFFFFFFFFFFFFFFFFFFFFFFFFFFFFFFFFFFFFF00000000000000000000000000000000000000000000000000000000000000000000000000000000000000000000000000000000000000000000000000000000000000000000000000000000000000000000000000000000000000000000000000000000000000000000
310
00000000000000000000000000000000000000000000000000000000000000000000000000000000000000000000000000000000000000000000000000000000000000000000000000000000000000000000000000000000000000000000000000000000000000000000000000000000000000000000000000000000000000
310
0000000000000000000000000000000000000000000000000000000000000000000000000000000000000000000000000000000000000000
102
{BLKREFS
331
349F
102
}
1001
ACAD
1000
DesignCenter Data
1002
{
1070
     1
1070
     4
1002
}
  0
ENDTAB
  0
ENDSEC
  0
SECTION
  2
BLOCKS
  0
BLOCK
  5
20
330
1F
100
AcDbEntity
  8
0
100
AcDbBlockBegin
  2
*Model_Space
 70
     0
 10
0.0
 20
0.0
 30
0.0
  3
*Model_Space
  1

  0
ENDBLK
  5
21
330
1F
100
AcDbEntity
  8
0
100
AcDbBlockEnd
  0
BLOCK
  5
D4
330
D2
100
AcDbEntity
 67
     1
  8
0
100
AcDbBlockBegin
  2
*Paper_Space
 70
     0
 10
0.0
 20
0.0
 30
0.0
  3
*Paper_Space
  1

  0
ENDBLK
  5
D5
330
D2
100
AcDbEntity
 67
     1
  8
0
100
AcDbBlockEnd
  0
BLOCK
  5
D8
330
D6
100
AcDbEntity
 67
     1
  8
0
100
AcDbBlockBegin
  2
*Paper_Space0
 70
     0
 10
0.0
 20
0.0
 30
0.0
  3
*Paper_Space0
  1

  0
ENDBLK
  5
D9
330
D6
100
AcDbEntity
 67
     1
  8
0
100
AcDbBlockEnd
  0
BLOCK
  5
3234
330
2B96
100
AcDbEntity
  8
0
100
AcDbBlockBegin
  2
GENAXEH
 70
     0
 10
0.0
 20
0.0
 30
0.0
  3
GENAXEH
  1

  0
LINE
  5
3235
330
2B96
100
AcDbEntity
  8
0
100
AcDbLine
 10
-1.0
 20
0.0
 30
0.0
 11
1.0
 21
0.0
 31
0.0
  0
ENDBLK
  5
3236
330
2B96
100
AcDbEntity
  8
0
100
AcDbBlockEnd
  0
BLOCK
  5
2CDF
330
2CDE
100
AcDbEntity
  8
0
100
AcDbBlockBegin
  2
info
 70
     2
 10
0.0
 20
0.0
 30
0.0
  3
info
  1

  0
POINT
  5
2CE0
330
2CDE
100
AcDbEntity
  8
0
100
AcDbPoint
 10
0.0
 20
0.0
 30
0.0
  0
ATTDEF
  5
2CE1
330
2CDE
100
AcDbEntity
  8
0
100
AcDbText
 10
9.467092950319427
 20
2.891095235479383
 30
0.00000001
 40
5.0
  1

100
AcDbAttributeDefinition
  3
bredd
  2
BRD
 70
     1
1001
AcDbAttr
1070
     0
1070
     1
  0
ATTDEF
  5
2CE2
330
2CDE
100
AcDbEntity
  8
0
100
AcDbText
 10
9.467092950319427
 20
-5.442238097853946
 30
0.00000001
 40
5.0
  1

100
AcDbAttributeDefinition
  3
Höjd
  2
HJD
 70
     1
1001
AcDbAttr
1070
     0
1070
     1
  0
ENDBLK
  5
2CE3
330
2CDE
100
AcDbEntity
  8
0
100
AcDbBlockEnd
  0
BLOCK
  5
339A
330
3399
100
AcDbEntity
  8
0
100
AcDbBlockBegin
  2
B2X3
 70
     0
 10
0.0
 20
0.0
 30
0.0
  3
B2X3
  1

  0
CIRCLE
  5
339C
330
3399
100
AcDbEntity
  8
AM0
100
AcDbCircle
 10
-216.7500000000002
 20
78.5
 30
0.0
 40
4.5
  0
CIRCLE
  5
339D
330
3399
100
AcDbEntity
  8
AM0
100
AcDbCircle
 10
-216.7500000000002
 20
-78.5
 30
0.0
 40
4.5
  0
LINE
  5
339E
330
3399
100
AcDbEntity
  8
AM0
100
AcDbLine
 10
-193.7500000000002
 20
-90.5
 30
0.0
 11
-193.7500000000002
 21
90.5
 31
0.0
  0
LINE
  5
339F
330
3399
100
AcDbEntity
  8
AM0
100
AcDbLine
 10
-68.25
 20
55.5
 30
0.0
 11
-188.7500000000002
 21
55.5
 31
0.0
  0
LINE
  5
33A0
330
3399
100
AcDbEntity
  8
AM0
100
AcDbLine
 10
228.7499999999988
 20
-90.5
 30
0.0
 11
-228.7500000000002
 21
-90.5
 31
0.0
  0
LINE
  5
33A1
330
3399
100
AcDbEntity
  8
AM0
100
AcDbLine
 10
228.7499999999988
 20
90.5
 30
0.0
 11
-228.7500000000002
 21
90.5
 31
0.0
  0
LINE
  5
33A2
330
3399
100
AcDbEntity
  8
AM0
100
AcDbLine
 10
-228.7500000000002
 20
-90.5
 30
0.0
 11
-228.7500000000002
 21
90.5
 31
0.0
  0
LINE
  5
33A3
330
3399
100
AcDbEntity
  8
AM0
100
AcDbLine
 10
193.7499999999988
 20
-90.5
 30
0.0
 11
193.7499999999988
 21
90.5
 31
0.0
  0
LINE
  5
33A4
330
3399
100
AcDbEntity
  8
AM0
100
AcDbLine
 10
228.7499999999988
 20
-90.5
 30
0.0
 11
228.7499999999988
 21
90.5
 31
0.0
  0
CIRCLE
  5
33A5
330
3399
100
AcDbEntity
  8
AM0
100
AcDbCircle
 10
216.7499999999979
 20
78.5
 30
0.0
 40
4.5
  0
CIRCLE
  5
33A6
330
3399
100
AcDbEntity
  8
AM0
100
AcDbCircle
 10
216.7499999999979
 20
-78.5
 30
0.0
 40
4.5
  0
LINE
  5
33A7
330
3399
100
AcDbEntity
  8
AM0
100
AcDbLine
 10
-188.7500000000002
 20
90.5
 30
0.0
 11
-188.7500000000002
 21
-90.5
 31
0.0
  0
LINE
  5
33A8
330
3399
100
AcDbEntity
  8
AM0
100
AcDbLine
 10
-68.25
 20
-55.5
 30
0.0
 11
-188.7500000000002
 21
-55.5
 31
0.0
  0
CIRCLE
  5
33A9
330
3399
100
AcDbEntity
  8
AM0
100
AcDbCircle
 10
-128.5
 20
78.5
 30
0.0
 40
4.5
  0
CIRCLE
  5
33AA
330
3399
100
AcDbEntity
  8
AM0
100
AcDbCircle
 10
-128.5
 20
-78.5
 30
0.0
 40
4.5
  0
LINE
  5
33AB
330
3399
100
AcDbEntity
  8
AM0
  6
Continuous
100
AcDbLine
 10
163.7499999999988
 20
64.50000000000091
 30
0.0
 11
163.7499999999988
 21
72.50000000000091
 31
0.0
  0
LINE
  5
33AC
330
3399
100
AcDbEntity
  8
AM0
  6
Continuous
100
AcDbLine
 10
177.3499999999988
 20
64.45854811567392
 30
0.0
 11
177.3499999999988
 21
60.41709623134579
 31
0.0
  0
LINE
  5
33AD
330
3399
100
AcDbEntity
  8
AM0
  6
Continuous
100
AcDbLine
 10
183.7499999999979
 20
60.41709623134579
 30
0.0
 11
177.3499999999988
 21
60.41709623134579
 31
0.0
  0
LINE
  5
33AE
330
3399
100
AcDbEntity
  8
AM0
  6
Continuous
100
AcDbLine
 10
177.3499999999988
 20
60.41709623134579
 30
0.0
 11
177.3499999999988
 21
64.45854811567392
 31
0.0
  0
LINE
  5
33AF
330
3399
100
AcDbEntity
  8
AM0
  6
Continuous
100
AcDbLine
 10
183.7499999999979
 20
76.58290376865489
 30
0.0
 11
177.3499999999988
 21
76.58290376865489
 31
0.0
  0
LINE
  5
33B0
330
3399
100
AcDbEntity
  8
AM0
  6
Continuous
100
AcDbLine
 10
177.3499999999988
 20
76.58290376865489
 30
0.0
 11
177.3499999999988
 21
72.54145188432676
 31
0.0
  0
LINE
  5
33B1
330
3399
100
AcDbEntity
  8
AM0
  6
Continuous
100
AcDbLine
 10
177.3499999999988
 20
72.54145188432676
 30
0.0
 11
177.3499999999988
 21
64.45854811567392
 31
0.0
  0
LINE
  5
33B2
330
3399
100
AcDbEntity
  8
AM0
  6
Continuous
100
AcDbLine
 10
193.7499999999988
 20
76.58290376865489
 30
0.0
 11
199.3499999999988
 21
76.58290376865489
 31
0.0
  0
LINE
  5
33B3
330
3399
100
AcDbEntity
  8
AM0
  6
Continuous
100
AcDbLine
 10
193.7499999999988
 20
60.41709623134579
 30
0.0
 11
199.3499999999988
 21
60.41709623134579
 31
0.0
  0
LINE
  5
33B4
330
3399
100
AcDbEntity
  8
AM0
  6
Continuous
100
AcDbLine
 10
177.3499999999988
 20
64.50000000000091
 30
0.0
 11
163.7499999999988
 21
64.50000000000091
 31
0.0
  0
LINE
  5
33B5
330
3399
100
AcDbEntity
  8
AM0
  6
Continuous
100
AcDbLine
 10
163.7499999999988
 20
72.50000000000091
 30
0.0
 11
177.3499999999988
 21
72.50000000000091
 31
0.0
  0
LINE
  5
33B6
330
3399
100
AcDbEntity
  8
AM0
  6
Continuous
100
AcDbLine
 10
188.7499999999988
 20
55.5
 30
0.0
 11
188.7499999999988
 21
80.5
 31
0.0
  0
LINE
  5
33B7
330
3399
100
AcDbEntity
  8
AM0
  6
Continuous
100
AcDbLine
 10
188.7499999999988
 20
80.5
 30
0.0
 11
183.7499999999979
 21
80.5
 31
0.0
  0
LINE
  5
33B8
330
3399
100
AcDbEntity
  8
AM0
  6
Continuous
100
AcDbLine
 10
188.7499999999988
 20
55.5
 30
0.0
 11
183.7499999999979
 21
55.5
 31
0.0
  0
LINE
  5
33B9
330
3399
100
AcDbEntity
  8
AM0
100
AcDbLine
 10
183.7499999999979
 20
80.5
 30
0.0
 11
183.7499999999979
 21
55.5
 31
0.0
  0
LINE
  5
33BA
330
3399
100
AcDbEntity
  8
AM0
100
AcDbLine
 10
183.7499999999979
 20
76.58290376865489
 30
0.0
 11
183.7499999999979
 21
60.41709623134579
 31
0.0
  0
LINE
  5
33BB
330
3399
100
AcDbEntity
  8
AM0
  6
ACAD_ISO02W100
100
AcDbLine
 10
177.3499999999988
 20
72.50000000000091
 30
0.0
 11
193.7499999999988
 21
72.50000000000091
 31
0.0
  0
LINE
  5
33BC
330
3399
100
AcDbEntity
  8
AM0
  6
ACAD_ISO02W100
100
AcDbLine
 10
177.3499999999988
 20
64.50000000000091
 30
0.0
 11
193.7499999999988
 21
64.50000000000091
 31
0.0
  0
LINE
  5
33BD
330
3399
100
AcDbEntity
  8
AM0
100
AcDbLine
 10
199.3499999999988
 20
76.58290376865489
 30
0.0
 11
199.3499999999988
 21
60.41709623134579
 31
0.0
  0
LINE
  5
33BE
330
3399
100
AcDbEntity
  8
AM0
100
AcDbLine
 10
193.7499999999988
 20
72.50000000000091
 30
0.0
 11
199.3499999999988
 21
72.50000000000091
 31
0.0
  0
LINE
  5
33BF
330
3399
100
AcDbEntity
  8
AM0
100
AcDbLine
 10
193.7499999999988
 20
64.50000000000091
 30
0.0
 11
199.3499999999988
 21
64.50000000000091
 31
0.0
  0
LINE
  5
33C0
330
3399
100
AcDbEntity
  8
AM0
100
AcDbLine
 10
188.7499999999988
 20
90.5
 30
0.0
 11
188.7499999999988
 21
-90.5
 31
0.0
  0
LINE
  5
33C1
330
3399
100
AcDbEntity
  8
AM0
  6
Continuous
100
AcDbLine
 10
-163.7500000000002
 20
64.50000000000091
 30
0.0
 11
-163.7500000000002
 21
72.50000000000091
 31
0.0
  0
LINE
  5
33C2
330
3399
100
AcDbEntity
  8
AM0
  6
Continuous
100
AcDbLine
 10
-177.350000000001
 20
64.45854811567392
 30
0.0
 11
-177.350000000001
 21
60.41709623134579
 31
0.0
  0
LINE
  5
33C3
330
3399
100
AcDbEntity
  8
AM0
  6
Continuous
100
AcDbLine
 10
-183.7500000000002
 20
60.41709623134579
 30
0.0
 11
-177.350000000001
 21
60.41709623134579
 31
0.0
  0
LINE
  5
33C4
330
3399
100
AcDbEntity
  8
AM0
  6
Continuous
100
AcDbLine
 10
-177.350000000001
 20
60.41709623134579
 30
0.0
 11
-177.350000000001
 21
64.45854811567392
 31
0.0
  0
LINE
  5
33C5
330
3399
100
AcDbEntity
  8
AM0
  6
Continuous
100
AcDbLine
 10
-183.7500000000002
 20
76.58290376865489
 30
0.0
 11
-177.350000000001
 21
76.58290376865489
 31
0.0
  0
LINE
  5
33C6
330
3399
100
AcDbEntity
  8
AM0
  6
Continuous
100
AcDbLine
 10
-177.350000000001
 20
76.58290376865489
 30
0.0
 11
-177.350000000001
 21
72.54145188432676
 31
0.0
  0
LINE
  5
33C7
330
3399
100
AcDbEntity
  8
AM0
  6
Continuous
100
AcDbLine
 10
-177.350000000001
 20
72.54145188432676
 30
0.0
 11
-177.350000000001
 21
64.45854811567392
 31
0.0
  0
LINE
  5
33C8
330
3399
100
AcDbEntity
  8
AM0
  6
Continuous
100
AcDbLine
 10
-193.7500000000002
 20
76.58290376865489
 30
0.0
 11
-199.350000000001
 21
76.58290376865489
 31
0.0
  0
LINE
  5
33C9
330
3399
100
AcDbEntity
  8
AM0
  6
Continuous
100
AcDbLine
 10
-193.7500000000002
 20
60.41709623134579
 30
0.0
 11
-199.350000000001
 21
60.41709623134579
 31
0.0
  0
LINE
  5
33CA
330
3399
100
AcDbEntity
  8
AM0
  6
Continuous
100
AcDbLine
 10
-177.350000000001
 20
64.50000000000091
 30
0.0
 11
-163.7500000000002
 21
64.50000000000091
 31
0.0
  0
LINE
  5
33CB
330
3399
100
AcDbEntity
  8
AM0
  6
Continuous
100
AcDbLine
 10
-163.7500000000002
 20
72.50000000000091
 30
0.0
 11
-177.350000000001
 21
72.50000000000091
 31
0.0
  0
LINE
  5
33CC
330
3399
100
AcDbEntity
  8
AM0
  6
Continuous
100
AcDbLine
 10
-188.7500000000002
 20
55.5
 30
0.0
 11
-188.7500000000002
 21
80.5
 31
0.0
  0
LINE
  5
33CD
330
3399
100
AcDbEntity
  8
AM0
  6
Continuous
100
AcDbLine
 10
-188.7500000000002
 20
80.5
 30
0.0
 11
-183.7500000000002
 21
80.5
 31
0.0
  0
LINE
  5
33CE
330
3399
100
AcDbEntity
  8
AM0
  6
Continuous
100
AcDbLine
 10
-188.7500000000002
 20
55.5
 30
0.0
 11
-183.7500000000002
 21
55.5
 31
0.0
  0
LINE
  5
33CF
330
3399
100
AcDbEntity
  8
AM0
100
AcDbLine
 10
-183.7500000000002
 20
80.5
 30
0.0
 11
-183.7500000000002
 21
55.5
 31
0.0
  0
LINE
  5
33D0
330
3399
100
AcDbEntity
  8
AM0
100
AcDbLine
 10
-183.7500000000002
 20
76.58290376865489
 30
0.0
 11
-183.7500000000002
 21
60.41709623134579
 31
0.0
  0
LINE
  5
33D1
330
3399
100
AcDbEntity
  8
AM0
  6
ACAD_ISO02W100
100
AcDbLine
 10
-177.350000000001
 20
72.50000000000091
 30
0.0
 11
-193.7500000000002
 21
72.50000000000091
 31
0.0
  0
LINE
  5
33D2
330
3399
100
AcDbEntity
  8
AM0
  6
ACAD_ISO02W100
100
AcDbLine
 10
-177.350000000001
 20
64.50000000000091
 30
0.0
 11
-193.7500000000002
 21
64.50000000000091
 31
0.0
  0
LINE
  5
33D3
330
3399
100
AcDbEntity
  8
AM0
100
AcDbLine
 10
-199.350000000001
 20
76.58290376865489
 30
0.0
 11
-199.350000000001
 21
60.41709623134579
 31
0.0
  0
LINE
  5
33D4
330
3399
100
AcDbEntity
  8
AM0
100
AcDbLine
 10
-193.7500000000002
 20
72.50000000000091
 30
0.0
 11
-199.350000000001
 21
72.50000000000091
 31
0.0
  0
LINE
  5
33D5
330
3399
100
AcDbEntity
  8
AM0
100
AcDbLine
 10
-193.7500000000002
 20
64.50000000000091
 30
0.0
 11
-199.350000000001
 21
64.50000000000091
 31
0.0
  0
LINE
  5
33D6
330
3399
100
AcDbEntity
  8
AM0
  6
Continuous
100
AcDbLine
 10
-163.7500000000002
 20
-64.5
 30
0.0
 11
-163.7500000000002
 21
-72.5
 31
0.0
  0
LINE
  5
33D7
330
3399
100
AcDbEntity
  8
AM0
  6
Continuous
100
AcDbLine
 10
-177.350000000001
 20
-64.45854811567301
 30
0.0
 11
-177.350000000001
 21
-60.41709623134511
 31
0.0
  0
LINE
  5
33D8
330
3399
100
AcDbEntity
  8
AM0
  6
Continuous
100
AcDbLine
 10
-183.7500000000002
 20
-60.41709623134511
 30
0.0
 11
-177.350000000001
 21
-60.41709623134511
 31
0.0
  0
LINE
  5
33D9
330
3399
100
AcDbEntity
  8
AM0
  6
Continuous
100
AcDbLine
 10
-177.350000000001
 20
-60.41709623134511
 30
0.0
 11
-177.350000000001
 21
-64.45854811567301
 31
0.0
  0
LINE
  5
33DA
330
3399
100
AcDbEntity
  8
AM0
  6
Continuous
100
AcDbLine
 10
-183.7500000000002
 20
-76.58290376865512
 30
0.0
 11
-177.350000000001
 21
-76.58290376865512
 31
0.0
  0
LINE
  5
33DB
330
3399
100
AcDbEntity
  8
AM0
  6
Continuous
100
AcDbLine
 10
-177.350000000001
 20
-76.58290376865512
 30
0.0
 11
-177.350000000001
 21
-72.54145188432699
 31
0.0
  0
LINE
  5
33DC
330
3399
100
AcDbEntity
  8
AM0
  6
Continuous
100
AcDbLine
 10
-177.350000000001
 20
-72.54145188432699
 30
0.0
 11
-177.350000000001
 21
-64.45854811567301
 31
0.0
  0
LINE
  5
33DD
330
3399
100
AcDbEntity
  8
AM0
  6
Continuous
100
AcDbLine
 10
-193.7500000000002
 20
-76.58290376865512
 30
0.0
 11
-199.350000000001
 21
-76.58290376865512
 31
0.0
  0
LINE
  5
33DE
330
3399
100
AcDbEntity
  8
AM0
  6
Continuous
100
AcDbLine
 10
-193.7500000000002
 20
-60.41709623134511
 30
0.0
 11
-199.350000000001
 21
-60.41709623134511
 31
0.0
  0
LINE
  5
33DF
330
3399
100
AcDbEntity
  8
AM0
  6
Continuous
100
AcDbLine
 10
-177.350000000001
 20
-64.5
 30
0.0
 11
-163.7500000000002
 21
-64.5
 31
0.0
  0
LINE
  5
33E0
330
3399
100
AcDbEntity
  8
AM0
  6
Continuous
100
AcDbLine
 10
-163.7500000000002
 20
-72.5
 30
0.0
 11
-177.350000000001
 21
-72.5
 31
0.0
  0
LINE
  5
33E1
330
3399
100
AcDbEntity
  8
AM0
  6
Continuous
100
AcDbLine
 10
-188.7500000000002
 20
-55.5
 30
0.0
 11
-188.7500000000002
 21
-80.5
 31
0.0
  0
LINE
  5
33E2
330
3399
100
AcDbEntity
  8
AM0
  6
Continuous
100
AcDbLine
 10
-188.7500000000002
 20
-80.5
 30
0.0
 11
-183.7500000000002
 21
-80.5
 31
0.0
  0
LINE
  5
33E3
330
3399
100
AcDbEntity
  8
AM0
  6
Continuous
100
AcDbLine
 10
-188.7500000000002
 20
-55.5
 30
0.0
 11
-183.7500000000002
 21
-55.5
 31
0.0
  0
LINE
  5
33E4
330
3399
100
AcDbEntity
  8
AM0
100
AcDbLine
 10
-183.7500000000002
 20
-80.5
 30
0.0
 11
-183.7500000000002
 21
-55.5
 31
0.0
  0
LINE
  5
33E5
330
3399
100
AcDbEntity
  8
AM0
100
AcDbLine
 10
-183.7500000000002
 20
-76.58290376865512
 30
0.0
 11
-183.7500000000002
 21
-60.41709623134511
 31
0.0
  0
LINE
  5
33E6
330
3399
100
AcDbEntity
  8
AM0
  6
ACAD_ISO02W100
100
AcDbLine
 10
-177.350000000001
 20
-72.5
 30
0.0
 11
-193.7500000000002
 21
-72.5
 31
0.0
  0
LINE
  5
33E7
330
3399
100
AcDbEntity
  8
AM0
  6
ACAD_ISO02W100
100
AcDbLine
 10
-177.350000000001
 20
-64.5
 30
0.0
 11
-193.7500000000002
 21
-64.5
 31
0.0
  0
LINE
  5
33E8
330
3399
100
AcDbEntity
  8
AM0
100
AcDbLine
 10
-199.350000000001
 20
-76.58290376865512
 30
0.0
 11
-199.350000000001
 21
-60.41709623134511
 31
0.0
  0
LINE
  5
33E9
330
3399
100
AcDbEntity
  8
AM0
100
AcDbLine
 10
-193.7500000000002
 20
-72.5
 30
0.0
 11
-199.350000000001
 21
-72.5
 31
0.0
  0
LINE
  5
33EA
330
3399
100
AcDbEntity
  8
AM0
100
AcDbLine
 10
-193.7500000000002
 20
-64.5
 30
0.0
 11
-199.350000000001
 21
-64.5
 31
0.0
  0
LINE
  5
33EB
330
3399
100
AcDbEntity
  8
AM0
  6
Continuous
100
AcDbLine
 10
163.7499999999988
 20
-64.5
 30
0.0
 11
163.7499999999988
 21
-72.5
 31
0.0
  0
LINE
  5
33EC
330
3399
100
AcDbEntity
  8
AM0
  6
Continuous
100
AcDbLine
 10
177.3499999999988
 20
-64.45854811567301
 30
0.0
 11
177.3499999999988
 21
-60.41709623134511
 31
0.0
  0
LINE
  5
33ED
330
3399
100
AcDbEntity
  8
AM0
  6
Continuous
100
AcDbLine
 10
183.7499999999979
 20
-60.41709623134511
 30
0.0
 11
177.3499999999988
 21
-60.41709623134511
 31
0.0
  0
LINE
  5
33EE
330
3399
100
AcDbEntity
  8
AM0
  6
Continuous
100
AcDbLine
 10
177.3499999999988
 20
-60.41709623134511
 30
0.0
 11
177.3499999999988
 21
-64.45854811567301
 31
0.0
  0
LINE
  5
33EF
330
3399
100
AcDbEntity
  8
AM0
  6
Continuous
100
AcDbLine
 10
183.7499999999979
 20
-76.58290376865512
 30
0.0
 11
177.3499999999988
 21
-76.58290376865512
 31
0.0
  0
LINE
  5
33F0
330
3399
100
AcDbEntity
  8
AM0
  6
Continuous
100
AcDbLine
 10
177.3499999999988
 20
-76.58290376865512
 30
0.0
 11
177.3499999999988
 21
-72.54145188432699
 31
0.0
  0
LINE
  5
33F1
330
3399
100
AcDbEntity
  8
AM0
  6
Continuous
100
AcDbLine
 10
177.3499999999988
 20
-72.54145188432699
 30
0.0
 11
177.3499999999988
 21
-64.45854811567301
 31
0.0
  0
LINE
  5
33F2
330
3399
100
AcDbEntity
  8
AM0
  6
Continuous
100
AcDbLine
 10
193.7499999999988
 20
-76.58290376865512
 30
0.0
 11
199.3499999999988
 21
-76.58290376865512
 31
0.0
  0
LINE
  5
33F3
330
3399
100
AcDbEntity
  8
AM0
  6
Continuous
100
AcDbLine
 10
193.7499999999988
 20
-60.41709623134511
 30
0.0
 11
199.3499999999988
 21
-60.41709623134511
 31
0.0
  0
LINE
  5
33F4
330
3399
100
AcDbEntity
  8
AM0
  6
Continuous
100
AcDbLine
 10
177.3499999999988
 20
-64.5
 30
0.0
 11
163.7499999999988
 21
-64.5
 31
0.0
  0
LINE
  5
33F5
330
3399
100
AcDbEntity
  8
AM0
  6
Continuous
100
AcDbLine
 10
163.7499999999988
 20
-72.5
 30
0.0
 11
177.3499999999988
 21
-72.5
 31
0.0
  0
LINE
  5
33F6
330
3399
100
AcDbEntity
  8
AM0
  6
Continuous
100
AcDbLine
 10
188.7499999999988
 20
-55.5
 30
0.0
 11
188.7499999999988
 21
-80.5
 31
0.0
  0
LINE
  5
33F7
330
3399
100
AcDbEntity
  8
AM0
  6
Continuous
100
AcDbLine
 10
188.7499999999988
 20
-80.5
 30
0.0
 11
183.7499999999979
 21
-80.5
 31
0.0
  0
LINE
  5
33F8
330
3399
100
AcDbEntity
  8
AM0
  6
Continuous
100
AcDbLine
 10
188.7499999999988
 20
-55.5
 30
0.0
 11
183.7499999999979
 21
-55.5
 31
0.0
  0
LINE
  5
33F9
330
3399
100
AcDbEntity
  8
AM0
100
AcDbLine
 10
183.7499999999979
 20
-80.5
 30
0.0
 11
183.7499999999979
 21
-55.5
 31
0.0
  0
LINE
  5
33FA
330
3399
100
AcDbEntity
  8
AM0
100
AcDbLine
 10
183.7499999999979
 20
-76.58290376865512
 30
0.0
 11
183.7499999999979
 21
-60.41709623134511
 31
0.0
  0
LINE
  5
33FB
330
3399
100
AcDbEntity
  8
AM0
  6
ACAD_ISO02W100
100
AcDbLine
 10
177.3499999999988
 20
-72.5
 30
0.0
 11
193.7499999999988
 21
-72.5
 31
0.0
  0
LINE
  5
33FC
330
3399
100
AcDbEntity
  8
AM0
  6
ACAD_ISO02W100
100
AcDbLine
 10
177.3499999999988
 20
-64.5
 30
0.0
 11
193.7499999999988
 21
-64.5
 31
0.0
  0
LINE
  5
33FD
330
3399
100
AcDbEntity
  8
AM0
100
AcDbLine
 10
199.3499999999988
 20
-76.58290376865512
 30
0.0
 11
199.3499999999988
 21
-60.41709623134511
 31
0.0
  0
LINE
  5
33FE
330
3399
100
AcDbEntity
  8
AM0
100
AcDbLine
 10
193.7499999999988
 20
-72.5
 30
0.0
 11
199.3499999999988
 21
-72.5
 31
0.0
  0
LINE
  5
33FF
330
3399
100
AcDbEntity
  8
AM0
100
AcDbLine
 10
193.7499999999988
 20
-64.5
 30
0.0
 11
199.3499999999988
 21
-64.5
 31
0.0
  0
LINE
  5
3400
330
3399
100
AcDbEntity
  8
AM0
100
AcDbLine
 10
-68.25
 20
50.5
 30
0.0
 11
-68.25
 21
90.5
 31
0.0
  0
LINE
  5
3401
330
3399
100
AcDbEntity
  8
AM0
100
AcDbLine
 10
-68.25
 20
-50.5
 30
0.0
 11
-68.25
 21
-90.5
 31
0.0
  0
LINE
  5
3402
330
3399
100
AcDbEntity
  8
AM0
100
AcDbLine
 10
-60.25
 20
50.5
 30
0.0
 11
-60.25
 21
90.5
 31
0.0
  0
LINE
  5
3403
330
3399
100
AcDbEntity
  8
AM0
100
AcDbLine
 10
60.25
 20
55.5
 30
0.0
 11
-60.25
 21
55.5
 31
0.0
  0
LINE
  5
3404
330
3399
100
AcDbEntity
  8
AM0
100
AcDbLine
 10
-60.25
 20
-50.5
 30
0.0
 11
-60.25
 21
-90.5
 31
0.0
  0
LINE
  5
3405
330
3399
100
AcDbEntity
  8
AM0
100
AcDbLine
 10
60.25
 20
-55.5
 30
0.0
 11
-60.25
 21
-55.5
 31
0.0
  0
CIRCLE
  5
3406
330
3399
100
AcDbEntity
  8
AM0
100
AcDbCircle
 10
0.0
 20
78.5
 30
0.0
 40
4.5
  0
CIRCLE
  5
3407
330
3399
100
AcDbEntity
  8
AM0
100
AcDbCircle
 10
0.0
 20
-78.5
 30
0.0
 40
4.5
  0
LINE
  5
3408
330
3399
100
AcDbEntity
  8
AM0
100
AcDbLine
 10
-68.25
 20
-50.5
 30
0.0
 11
-68.25
 21
-90.5
 31
0.0
  0
LINE
  5
3409
330
3399
100
AcDbEntity
  8
AM0
  6
Continuous
100
AcDbLine
 10
-41.25000000000113
 20
72.50000000000091
 30
0.0
 11
-41.25000000000113
 21
64.50000000000091
 31
0.0
  0
LINE
  5
340A
330
3399
100
AcDbEntity
  8
AM0
  6
ACAD_ISO02W100
100
AcDbLine
 10
-73.25
 20
72.54145188432904
 30
0.0
 11
-48.8499999999999
 21
72.50000000000091
 31
0.0
  0
LINE
  5
340B
330
3399
100
AcDbEntity
  8
AM0
  6
Continuous
100
AcDbLine
 10
-55.25
 20
76.58290376865602
 30
0.0
 11
-48.8499999999999
 21
76.58290376865602
 31
0.0
  0
LINE
  5
340C
330
3399
100
AcDbEntity
  8
AM0
  6
Continuous
100
AcDbLine
 10
-55.25
 20
60.4170962313467
 30
0.0
 11
-48.8499999999999
 21
60.4170962313467
 31
0.0
  0
LINE
  5
340D
330
3399
100
AcDbEntity
  8
AM0
  6
Continuous
100
AcDbLine
 10
-78.8499999999999
 20
64.45854811567483
 30
0.0
 11
-78.8499999999999
 21
60.4170962313467
 31
0.0
  0
LINE
  5
340E
330
3399
100
AcDbEntity
  8
AM0
  6
Continuous
100
AcDbLine
 10
-73.25
 20
60.4170962313467
 30
0.0
 11
-78.8499999999999
 21
60.4170962313467
 31
0.0
  0
LINE
  5
340F
330
3399
100
AcDbEntity
  8
AM0
  6
Continuous
100
AcDbLine
 10
-78.8499999999999
 20
60.4170962313467
 30
0.0
 11
-78.8499999999999
 21
64.45854811567483
 31
0.0
  0
LINE
  5
3410
330
3399
100
AcDbEntity
  8
AM0
  6
Continuous
100
AcDbLine
 10
-73.25
 20
76.58290376865602
 30
0.0
 11
-78.8499999999999
 21
76.58290376865602
 31
0.0
  0
LINE
  5
3411
330
3399
100
AcDbEntity
  8
AM0
  6
Continuous
100
AcDbLine
 10
-78.8499999999999
 20
76.58290376865602
 30
0.0
 11
-78.8499999999999
 21
72.54145188432904
 31
0.0
  0
LINE
  5
3412
330
3399
100
AcDbEntity
  8
AM0
  6
Continuous
100
AcDbLine
 10
-73.25
 20
72.54145188432904
 30
0.0
 11
-78.8499999999999
 21
72.54145188432904
 31
0.0
  0
LINE
  5
3413
330
3399
100
AcDbEntity
  8
AM0
  6
Continuous
100
AcDbLine
 10
-78.8499999999999
 20
72.54145188432904
 30
0.0
 11
-78.8499999999999
 21
64.45854811567483
 31
0.0
  0
LINE
  5
3414
330
3399
100
AcDbEntity
  8
AM0
  6
Continuous
100
AcDbLine
 10
-73.25
 20
55.5
 30
0.0
 11
-73.25
 21
80.5
 31
0.0
  0
LINE
  5
3415
330
3399
100
AcDbEntity
  8
AM0
  6
Continuous
100
AcDbLine
 10
-73.25
 20
80.5
 30
0.0
 11
-68.25
 21
80.5
 31
0.0
  0
LINE
  5
3416
330
3399
100
AcDbEntity
  8
AM0
  6
Continuous
100
AcDbLine
 10
-60.25
 20
80.5
 30
0.0
 11
-55.25
 21
80.5
 31
0.0
  0
LINE
  5
3417
330
3399
100
AcDbEntity
  8
AM0
  6
Continuous
100
AcDbLine
 10
-55.25
 20
80.5
 30
0.0
 11
-55.25
 21
55.5
 31
0.0
  0
LINE
  5
3418
330
3399
100
AcDbEntity
  8
AM0
  6
Continuous
100
AcDbLine
 10
-60.25
 20
80.5
 30
0.0
 11
-60.25
 21
55.5
 31
0.0
  0
LINE
  5
3419
330
3399
100
AcDbEntity
  8
AM0
  6
Continuous
100
AcDbLine
 10
-68.25
 20
55.5
 30
0.0
 11
-68.25
 21
80.5
 31
0.0
  0
LINE
  5
341A
330
3399
100
AcDbEntity
  8
AM0
  6
Continuous
100
AcDbLine
 10
-41.25000000000113
 20
72.50000000000091
 30
0.0
 11
-48.8499999999999
 21
72.50000000000091
 31
0.0
  0
LINE
  5
341B
330
3399
100
AcDbEntity
  8
AM0
  6
Continuous
100
AcDbLine
 10
-48.8499999999999
 20
64.50000000000091
 30
0.0
 11
-41.25000000000113
 21
64.50000000000091
 31
0.0
  0
LINE
  5
341C
330
3399
100
AcDbEntity
  8
AM0
100
AcDbLine
 10
-48.8499999999999
 20
76.58290376865602
 30
0.0
 11
-48.8499999999999
 21
60.4170962313467
 31
0.0
  0
LINE
  5
341D
330
3399
100
AcDbEntity
  8
AM0
100
AcDbLine
 10
-73.25
 20
64.50000000000091
 30
0.0
 11
-78.8499999999999
 21
64.50000000000091
 31
0.0
  0
LINE
  5
341E
330
3399
100
AcDbEntity
  8
AM0
  6
ACAD_ISO02W100
100
AcDbLine
 10
-73.25
 20
64.50000000000091
 30
0.0
 11
-48.8499999999999
 21
64.50000000000091
 31
0.0
  0
LINE
  5
341F
330
3399
100
AcDbEntity
  8
AM0
100
AcDbLine
 10
-73.25
 20
55.5
 30
0.0
 11
-68.25
 21
55.5
 31
0.0
  0
LINE
  5
3420
330
3399
100
AcDbEntity
  8
AM0
100
AcDbLine
 10
-60.25
 20
55.5
 30
0.0
 11
-55.25
 21
55.5
 31
0.0
  0
LINE
  5
3421
330
3399
100
AcDbEntity
  8
AM0
100
AcDbLine
 10
-60.25
 20
-50.5
 30
0.0
 11
-60.25
 21
-90.5
 31
0.0
  0
LINE
  5
3422
330
3399
100
AcDbEntity
  8
AM0
100
AcDbLine
 10
-68.25
 20
90.5
 30
0.0
 11
-68.25
 21
-90.5
 31
0.0
  0
LINE
  5
3423
330
3399
100
AcDbEntity
  8
AM0
  6
Continuous
100
AcDbLine
 10
-41.25000000000113
 20
-72.5
 30
0.0
 11
-41.25000000000113
 21
-64.5
 31
0.0
  0
LINE
  5
3424
330
3399
100
AcDbEntity
  8
AM0
  6
ACAD_ISO02W100
100
AcDbLine
 10
-73.25
 20
-72.54145188432926
 30
0.0
 11
-48.8499999999999
 21
-72.5
 31
0.0
  0
LINE
  5
3425
330
3399
100
AcDbEntity
  8
AM0
  6
Continuous
100
AcDbLine
 10
-55.25
 20
-76.58290376865602
 30
0.0
 11
-48.8499999999999
 21
-76.58290376865602
 31
0.0
  0
LINE
  5
3426
330
3399
100
AcDbEntity
  8
AM0
  6
Continuous
100
AcDbLine
 10
-55.25
 20
-60.41709623134716
 30
0.0
 11
-48.8499999999999
 21
-60.41709623134716
 31
0.0
  0
LINE
  5
3427
330
3399
100
AcDbEntity
  8
AM0
  6
Continuous
100
AcDbLine
 10
-78.8499999999999
 20
-64.45854811567414
 30
0.0
 11
-78.8499999999999
 21
-60.41709623134716
 31
0.0
  0
LINE
  5
3428
330
3399
100
AcDbEntity
  8
AM0
  6
Continuous
100
AcDbLine
 10
-73.25
 20
-60.41709623134716
 30
0.0
 11
-78.8499999999999
 21
-60.41709623134716
 31
0.0
  0
LINE
  5
3429
330
3399
100
AcDbEntity
  8
AM0
  6
Continuous
100
AcDbLine
 10
-78.8499999999999
 20
-60.41709623134716
 30
0.0
 11
-78.8499999999999
 21
-64.45854811567414
 31
0.0
  0
LINE
  5
342A
330
3399
100
AcDbEntity
  8
AM0
  6
Continuous
100
AcDbLine
 10
-73.25
 20
-76.58290376865602
 30
0.0
 11
-78.8499999999999
 21
-76.58290376865602
 31
0.0
  0
LINE
  5
342B
330
3399
100
AcDbEntity
  8
AM0
  6
Continuous
100
AcDbLine
 10
-78.8499999999999
 20
-76.58290376865602
 30
0.0
 11
-78.8499999999999
 21
-72.54145188432926
 31
0.0
  0
LINE
  5
342C
330
3399
100
AcDbEntity
  8
AM0
  6
Continuous
100
AcDbLine
 10
-73.25
 20
-72.54145188432926
 30
0.0
 11
-78.8499999999999
 21
-72.54145188432926
 31
0.0
  0
LINE
  5
342D
330
3399
100
AcDbEntity
  8
AM0
  6
Continuous
100
AcDbLine
 10
-78.8499999999999
 20
-72.54145188432926
 30
0.0
 11
-78.8499999999999
 21
-64.45854811567414
 31
0.0
  0
LINE
  5
342E
330
3399
100
AcDbEntity
  8
AM0
  6
Continuous
100
AcDbLine
 10
-73.25
 20
-55.5
 30
0.0
 11
-73.25
 21
-80.5
 31
0.0
  0
LINE
  5
342F
330
3399
100
AcDbEntity
  8
AM0
  6
Continuous
100
AcDbLine
 10
-73.25
 20
-80.5
 30
0.0
 11
-68.25
 21
-80.5
 31
0.0
  0
LINE
  5
3430
330
3399
100
AcDbEntity
  8
AM0
  6
Continuous
100
AcDbLine
 10
-60.25
 20
-80.5
 30
0.0
 11
-55.25
 21
-80.5
 31
0.0
  0
LINE
  5
3431
330
3399
100
AcDbEntity
  8
AM0
  6
Continuous
100
AcDbLine
 10
-55.25
 20
-80.5
 30
0.0
 11
-55.25
 21
-55.5
 31
0.0
  0
LINE
  5
3432
330
3399
100
AcDbEntity
  8
AM0
  6
Continuous
100
AcDbLine
 10
-60.25
 20
-80.5
 30
0.0
 11
-60.25
 21
-55.5
 31
0.0
  0
LINE
  5
3433
330
3399
100
AcDbEntity
  8
AM0
  6
Continuous
100
AcDbLine
 10
-68.25
 20
-55.5
 30
0.0
 11
-68.25
 21
-80.5
 31
0.0
  0
LINE
  5
3434
330
3399
100
AcDbEntity
  8
AM0
  6
Continuous
100
AcDbLine
 10
-41.25000000000113
 20
-72.5
 30
0.0
 11
-48.8499999999999
 21
-72.5
 31
0.0
  0
LINE
  5
3435
330
3399
100
AcDbEntity
  8
AM0
  6
Continuous
100
AcDbLine
 10
-48.8499999999999
 20
-64.5
 30
0.0
 11
-41.25000000000113
 21
-64.5
 31
0.0
  0
LINE
  5
3436
330
3399
100
AcDbEntity
  8
AM0
100
AcDbLine
 10
-48.8499999999999
 20
-76.58290376865602
 30
0.0
 11
-48.8499999999999
 21
-60.41709623134716
 31
0.0
  0
LINE
  5
3437
330
3399
100
AcDbEntity
  8
AM0
100
AcDbLine
 10
-73.25
 20
-64.5
 30
0.0
 11
-78.8499999999999
 21
-64.5
 31
0.0
  0
LINE
  5
3438
330
3399
100
AcDbEntity
  8
AM0
  6
ACAD_ISO02W100
100
AcDbLine
 10
-73.25
 20
-64.5
 30
0.0
 11
-48.8499999999999
 21
-64.5
 31
0.0
  0
LINE
  5
3439
330
3399
100
AcDbEntity
  8
AM0
100
AcDbLine
 10
-73.25
 20
-55.5
 30
0.0
 11
-68.25
 21
-55.5
 31
0.0
  0
LINE
  5
343A
330
3399
100
AcDbEntity
  8
AM0
100
AcDbLine
 10
-60.25
 20
-55.5
 30
0.0
 11
-55.25
 21
-55.5
 31
0.0
  0
LINE
  5
343B
330
3399
100
AcDbEntity
  8
AM0
100
AcDbLine
 10
-60.25
 20
90.5
 30
0.0
 11
-60.25
 21
-90.5
 31
0.0
  0
LINE
  5
343C
330
3399
100
AcDbEntity
  8
AM0
100
AcDbLine
 10
60.25
 20
50.5
 30
0.0
 11
60.25
 21
90.5
 31
0.0
  0
LINE
  5
343D
330
3399
100
AcDbEntity
  8
AM0
100
AcDbLine
 10
60.25
 20
-50.5
 30
0.0
 11
60.25
 21
-90.5
 31
0.0
  0
LINE
  5
343E
330
3399
100
AcDbEntity
  8
AM0
100
AcDbLine
 10
68.25
 20
50.5
 30
0.0
 11
68.25
 21
90.5
 31
0.0
  0
LINE
  5
343F
330
3399
100
AcDbEntity
  8
AM0
100
AcDbLine
 10
188.7500000000009
 20
55.5
 30
0.0
 11
68.25
 21
55.5
 31
0.0
  0
LINE
  5
3440
330
3399
100
AcDbEntity
  8
AM0
100
AcDbLine
 10
68.25
 20
-50.5
 30
0.0
 11
68.25
 21
-90.5
 31
0.0
  0
LINE
  5
3441
330
3399
100
AcDbEntity
  8
AM0
100
AcDbLine
 10
188.7500000000009
 20
-55.5
 30
0.0
 11
68.25
 21
-55.5
 31
0.0
  0
CIRCLE
  5
3442
330
3399
100
AcDbEntity
  8
AM0
100
AcDbCircle
 10
128.5000000000009
 20
78.5
 30
0.0
 40
4.5
  0
CIRCLE
  5
3443
330
3399
100
AcDbEntity
  8
AM0
100
AcDbCircle
 10
128.5000000000009
 20
-78.5
 30
0.0
 40
4.5
  0
LINE
  5
3444
330
3399
100
AcDbEntity
  8
AM0
100
AcDbLine
 10
60.25
 20
-50.5
 30
0.0
 11
60.25
 21
-90.5
 31
0.0
  0
LINE
  5
3445
330
3399
100
AcDbEntity
  8
AM0
  6
Continuous
100
AcDbLine
 10
87.24999999999999
 20
72.50000000000091
 30
0.0
 11
87.24999999999999
 21
64.50000000000091
 31
0.0
  0
LINE
  5
3446
330
3399
100
AcDbEntity
  8
AM0
  6
ACAD_ISO02W100
100
AcDbLine
 10
55.2500000000009
 20
72.54145188432904
 30
0.0
 11
79.65000000000009
 21
72.50000000000091
 31
0.0
  0
LINE
  5
3447
330
3399
100
AcDbEntity
  8
AM0
  6
Continuous
100
AcDbLine
 10
73.25000000000091
 20
76.58290376865602
 30
0.0
 11
79.65000000000009
 21
76.58290376865602
 31
0.0
  0
LINE
  5
3448
330
3399
100
AcDbEntity
  8
AM0
  6
Continuous
100
AcDbLine
 10
73.25000000000091
 20
60.4170962313467
 30
0.0
 11
79.65000000000009
 21
60.4170962313467
 31
0.0
  0
LINE
  5
3449
330
3399
100
AcDbEntity
  8
AM0
  6
Continuous
100
AcDbLine
 10
49.65000000000009
 20
64.45854811567483
 30
0.0
 11
49.65000000000009
 21
60.4170962313467
 31
0.0
  0
LINE
  5
344A
330
3399
100
AcDbEntity
  8
AM0
  6
Continuous
100
AcDbLine
 10
55.2500000000009
 20
60.4170962313467
 30
0.0
 11
49.65000000000009
 21
60.4170962313467
 31
0.0
  0
LINE
  5
344B
330
3399
100
AcDbEntity
  8
AM0
  6
Continuous
100
AcDbLine
 10
49.65000000000009
 20
60.4170962313467
 30
0.0
 11
49.65000000000009
 21
64.45854811567483
 31
0.0
  0
LINE
  5
344C
330
3399
100
AcDbEntity
  8
AM0
  6
Continuous
100
AcDbLine
 10
55.2500000000009
 20
76.58290376865602
 30
0.0
 11
49.65000000000009
 21
76.58290376865602
 31
0.0
  0
LINE
  5
344D
330
3399
100
AcDbEntity
  8
AM0
  6
Continuous
100
AcDbLine
 10
49.65000000000009
 20
76.58290376865602
 30
0.0
 11
49.65000000000009
 21
72.54145188432904
 31
0.0
  0
LINE
  5
344E
330
3399
100
AcDbEntity
  8
AM0
  6
Continuous
100
AcDbLine
 10
55.2500000000009
 20
72.54145188432904
 30
0.0
 11
49.65000000000009
 21
72.54145188432904
 31
0.0
  0
LINE
  5
344F
330
3399
100
AcDbEntity
  8
AM0
  6
Continuous
100
AcDbLine
 10
49.65000000000009
 20
72.54145188432904
 30
0.0
 11
49.65000000000009
 21
64.45854811567483
 31
0.0
  0
LINE
  5
3450
330
3399
100
AcDbEntity
  8
AM0
  6
Continuous
100
AcDbLine
 10
55.2500000000009
 20
55.5
 30
0.0
 11
55.2500000000009
 21
80.5
 31
0.0
  0
LINE
  5
3451
330
3399
100
AcDbEntity
  8
AM0
  6
Continuous
100
AcDbLine
 10
55.2500000000009
 20
80.5
 30
0.0
 11
60.25
 21
80.5
 31
0.0
  0
LINE
  5
3452
330
3399
100
AcDbEntity
  8
AM0
  6
Continuous
100
AcDbLine
 10
68.25
 20
80.5
 30
0.0
 11
73.25000000000091
 21
80.5
 31
0.0
  0
LINE
  5
3453
330
3399
100
AcDbEntity
  8
AM0
  6
Continuous
100
AcDbLine
 10
73.25000000000091
 20
80.5
 30
0.0
 11
73.25000000000091
 21
55.5
 31
0.0
  0
LINE
  5
3454
330
3399
100
AcDbEntity
  8
AM0
  6
Continuous
100
AcDbLine
 10
68.25
 20
80.5
 30
0.0
 11
68.25
 21
55.5
 31
0.0
  0
LINE
  5
3455
330
3399
100
AcDbEntity
  8
AM0
  6
Continuous
100
AcDbLine
 10
60.25
 20
55.5
 30
0.0
 11
60.25
 21
80.5
 31
0.0
  0
LINE
  5
3456
330
3399
100
AcDbEntity
  8
AM0
  6
Continuous
100
AcDbLine
 10
87.24999999999999
 20
72.50000000000091
 30
0.0
 11
79.65000000000009
 21
72.50000000000091
 31
0.0
  0
LINE
  5
3457
330
3399
100
AcDbEntity
  8
AM0
  6
Continuous
100
AcDbLine
 10
79.65000000000009
 20
64.50000000000091
 30
0.0
 11
87.24999999999999
 21
64.50000000000091
 31
0.0
  0
LINE
  5
3458
330
3399
100
AcDbEntity
  8
AM0
100
AcDbLine
 10
79.65000000000009
 20
76.58290376865602
 30
0.0
 11
79.65000000000009
 21
60.4170962313467
 31
0.0
  0
LINE
  5
3459
330
3399
100
AcDbEntity
  8
AM0
100
AcDbLine
 10
55.2500000000009
 20
64.50000000000091
 30
0.0
 11
49.65000000000009
 21
64.50000000000091
 31
0.0
  0
LINE
  5
345A
330
3399
100
AcDbEntity
  8
AM0
  6
ACAD_ISO02W100
100
AcDbLine
 10
55.2500000000009
 20
64.50000000000091
 30
0.0
 11
79.65000000000009
 21
64.50000000000091
 31
0.0
  0
LINE
  5
345B
330
3399
100
AcDbEntity
  8
AM0
100
AcDbLine
 10
55.2500000000009
 20
55.5
 30
0.0
 11
60.25
 21
55.5
 31
0.0
  0
LINE
  5
345C
330
3399
100
AcDbEntity
  8
AM0
100
AcDbLine
 10
68.25
 20
55.5
 30
0.0
 11
73.25000000000091
 21
55.5
 31
0.0
  0
LINE
  5
345D
330
3399
100
AcDbEntity
  8
AM0
100
AcDbLine
 10
68.25
 20
-50.5
 30
0.0
 11
68.25
 21
-90.5
 31
0.0
  0
LINE
  5
345E
330
3399
100
AcDbEntity
  8
AM0
100
AcDbLine
 10
60.25
 20
90.5
 30
0.0
 11
60.25
 21
-90.5
 31
0.0
  0
LINE
  5
345F
330
3399
100
AcDbEntity
  8
AM0
  6
Continuous
100
AcDbLine
 10
87.24999999999999
 20
-72.5
 30
0.0
 11
87.24999999999999
 21
-64.5
 31
0.0
  0
LINE
  5
3460
330
3399
100
AcDbEntity
  8
AM0
  6
ACAD_ISO02W100
100
AcDbLine
 10
55.2500000000009
 20
-72.54145188432926
 30
0.0
 11
79.65000000000009
 21
-72.5
 31
0.0
  0
LINE
  5
3461
330
3399
100
AcDbEntity
  8
AM0
  6
Continuous
100
AcDbLine
 10
73.25000000000091
 20
-76.58290376865602
 30
0.0
 11
79.65000000000009
 21
-76.58290376865602
 31
0.0
  0
LINE
  5
3462
330
3399
100
AcDbEntity
  8
AM0
  6
Continuous
100
AcDbLine
 10
73.25000000000091
 20
-60.41709623134716
 30
0.0
 11
79.65000000000009
 21
-60.41709623134716
 31
0.0
  0
LINE
  5
3463
330
3399
100
AcDbEntity
  8
AM0
  6
Continuous
100
AcDbLine
 10
49.65000000000009
 20
-64.45854811567414
 30
0.0
 11
49.65000000000009
 21
-60.41709623134716
 31
0.0
  0
LINE
  5
3464
330
3399
100
AcDbEntity
  8
AM0
  6
Continuous
100
AcDbLine
 10
55.2500000000009
 20
-60.41709623134716
 30
0.0
 11
49.65000000000009
 21
-60.41709623134716
 31
0.0
  0
LINE
  5
3465
330
3399
100
AcDbEntity
  8
AM0
  6
Continuous
100
AcDbLine
 10
49.65000000000009
 20
-60.41709623134716
 30
0.0
 11
49.65000000000009
 21
-64.45854811567414
 31
0.0
  0
LINE
  5
3466
330
3399
100
AcDbEntity
  8
AM0
  6
Continuous
100
AcDbLine
 10
55.2500000000009
 20
-76.58290376865602
 30
0.0
 11
49.65000000000009
 21
-76.58290376865602
 31
0.0
  0
LINE
  5
3467
330
3399
100
AcDbEntity
  8
AM0
  6
Continuous
100
AcDbLine
 10
49.65000000000009
 20
-76.58290376865602
 30
0.0
 11
49.65000000000009
 21
-72.54145188432926
 31
0.0
  0
LINE
  5
3468
330
3399
100
AcDbEntity
  8
AM0
  6
Continuous
100
AcDbLine
 10
55.2500000000009
 20
-72.54145188432926
 30
0.0
 11
49.65000000000009
 21
-72.54145188432926
 31
0.0
  0
LINE
  5
3469
330
3399
100
AcDbEntity
  8
AM0
  6
Continuous
100
AcDbLine
 10
49.65000000000009
 20
-72.54145188432926
 30
0.0
 11
49.65000000000009
 21
-64.45854811567414
 31
0.0
  0
LINE
  5
346A
330
3399
100
AcDbEntity
  8
AM0
  6
Continuous
100
AcDbLine
 10
55.2500000000009
 20
-55.5
 30
0.0
 11
55.2500000000009
 21
-80.5
 31
0.0
  0
LINE
  5
346B
330
3399
100
AcDbEntity
  8
AM0
  6
Continuous
100
AcDbLine
 10
55.2500000000009
 20
-80.5
 30
0.0
 11
60.25
 21
-80.5
 31
0.0
  0
LINE
  5
346C
330
3399
100
AcDbEntity
  8
AM0
  6
Continuous
100
AcDbLine
 10
68.25
 20
-80.5
 30
0.0
 11
73.25000000000091
 21
-80.5
 31
0.0
  0
LINE
  5
346D
330
3399
100
AcDbEntity
  8
AM0
  6
Continuous
100
AcDbLine
 10
73.25000000000091
 20
-80.5
 30
0.0
 11
73.25000000000091
 21
-55.5
 31
0.0
  0
LINE
  5
346E
330
3399
100
AcDbEntity
  8
AM0
  6
Continuous
100
AcDbLine
 10
68.25
 20
-80.5
 30
0.0
 11
68.25
 21
-55.5
 31
0.0
  0
LINE
  5
346F
330
3399
100
AcDbEntity
  8
AM0
  6
Continuous
100
AcDbLine
 10
60.25
 20
-55.5
 30
0.0
 11
60.25
 21
-80.5
 31
0.0
  0
LINE
  5
3470
330
3399
100
AcDbEntity
  8
AM0
  6
Continuous
100
AcDbLine
 10
87.24999999999999
 20
-72.5
 30
0.0
 11
79.65000000000009
 21
-72.5
 31
0.0
  0
LINE
  5
3471
330
3399
100
AcDbEntity
  8
AM0
  6
Continuous
100
AcDbLine
 10
79.65000000000009
 20
-64.5
 30
0.0
 11
87.24999999999999
 21
-64.5
 31
0.0
  0
LINE
  5
3472
330
3399
100
AcDbEntity
  8
AM0
100
AcDbLine
 10
79.65000000000009
 20
-76.58290376865602
 30
0.0
 11
79.65000000000009
 21
-60.41709623134716
 31
0.0
  0
LINE
  5
3473
330
3399
100
AcDbEntity
  8
AM0
100
AcDbLine
 10
55.2500000000009
 20
-64.5
 30
0.0
 11
49.65000000000009
 21
-64.5
 31
0.0
  0
LINE
  5
3474
330
3399
100
AcDbEntity
  8
AM0
  6
ACAD_ISO02W100
100
AcDbLine
 10
55.2500000000009
 20
-64.5
 30
0.0
 11
79.65000000000009
 21
-64.5
 31
0.0
  0
LINE
  5
3475
330
3399
100
AcDbEntity
  8
AM0
100
AcDbLine
 10
55.2500000000009
 20
-55.5
 30
0.0
 11
60.25
 21
-55.5
 31
0.0
  0
LINE
  5
3476
330
3399
100
AcDbEntity
  8
AM0
100
AcDbLine
 10
68.25
 20
-55.5
 30
0.0
 11
73.25000000000091
 21
-55.5
 31
0.0
  0
LINE
  5
3477
330
3399
100
AcDbEntity
  8
AM0
100
AcDbLine
 10
68.25
 20
90.5
 30
0.0
 11
68.25
 21
-90.5
 31
0.0
  0
LWPOLYLINE
  5
3478
330
3399
100
AcDbEntity
  8
AM0
100
AcDbPolyline
 90
        4
 70
     1
 43
0.0
 10
-188.7500000000002
 20
-50.5
 10
-68.25
 20
-50.5
 10
-68.25
 20
50.5
 10
-188.7500000000002
 20
50.5
  0
LWPOLYLINE
  5
3479
330
3399
100
AcDbEntity
  8
AM0
100
AcDbPolyline
 90
        4
 70
     1
 43
0.0
 10
-60.25
 20
-50.5
 10
60.25
 20
-50.5
 10
60.25
 20
50.5
 10
-60.25
 20
50.5
  0
LWPOLYLINE
  5
347A
330
3399
100
AcDbEntity
  8
AM0
100
AcDbPolyline
 90
        4
 70
     1
 43
0.0
 10
68.25000000000091
 20
-50.5
 10
188.7500000000009
 20
-50.5
 10
188.7500000000009
 20
50.5
 10
68.25000000000091
 20
50.5
  0
INSERT
  5
347B
330
3399
100
AcDbEntity
  8
0
100
AcDbBlockReference
 66
     1
  2
info
 10
-188.5000002712579
 20
-50.50000009265113
 30
0.0
 50
270.0
  0
ATTRIB
  5
347C
330
347B
100
AcDbEntity
  8
0
100
AcDbText
 10
-185.6089050357784
 20
-59.96709304297064
 30
0.00000001
 40
5.0
  1
120,5
 50
270.0
100
AcDbAttribute
  2
BRD
 70
     1
1001
AcDbAttr
1070
     0
1070
     1
  0
ATTRIB
  5
347D
330
347B
100
AcDbEntity
  8
0
100
AcDbText
 10
-193.9422383691116
 20
-59.96709304297064
 30
0.00000001
 40
5.0
  1
101
 50
270.0
100
AcDbAttribute
  2
HJD
 70
     1
1001
AcDbAttr
1070
     0
1070
     1
  0
SEQEND
  5
347E
330
347B
100
AcDbEntity
  8
0
  0
INSERT
  5
347F
330
3399
100
AcDbEntity
  8
0
100
AcDbBlockReference
 66
     1
  2
info
 10
-60.00000027125793
 20
-50.50000009265113
 30
0.0
 50
270.0
  0
ATTRIB
  5
3480
330
347F
100
AcDbEntity
  8
0
100
AcDbText
 10
-57.10890503577843
 20
-59.96709304297064
 30
0.00000001
 40
5.0
  1
120,5
 50
270.0
100
AcDbAttribute
  2
BRD
 70
     1
1001
AcDbAttr
1070
     0
1070
     1
  0
ATTRIB
  5
3481
330
347F
100
AcDbEntity
  8
0
100
AcDbText
 10
-65.44223836911169
 20
-59.96709304297064
 30
0.00000001
 40
5.0
  1
101
 50
270.0
100
AcDbAttribute
  2
HJD
 70
     1
1001
AcDbAttr
1070
     0
1070
     1
  0
SEQEND
  5
3482
330
347F
100
AcDbEntity
  8
0
  0
INSERT
  5
3483
330
3399
100
AcDbEntity
  8
0
100
AcDbBlockReference
 66
     1
  2
info
 10
68.49999972874297
 20
-50.50000009265113
 30
0.0
 50
270.0
  0
ATTRIB
  5
3484
330
3483
100
AcDbEntity
  8
0
100
AcDbText
 10
71.39109496422247
 20
-59.96709304297064
 30
0.00000001
 40
5.0
  1
120,5
 50
270.0
100
AcDbAttribute
  2
BRD
 70
     1
1001
AcDbAttr
1070
     0
1070
     1
  0
ATTRIB
  5
3485
330
3483
100
AcDbEntity
  8
0
100
AcDbText
 10
63.05776163088921
 20
-59.96709304297064
 30
0.00000001
 40
5.0
  1
101
 50
270.0
100
AcDbAttribute
  2
HJD
 70
     1
1001
AcDbAttr
1070
     0
1070
     1
  0
SEQEND
  5
3486
330
3483
100
AcDbEntity
  8
0
  0
LINE
  5
3487
330
3399
100
AcDbEntity
  8
AM_5
100
AcDbLine
 10
-188.7500000000002
 20
-92.5
 30
0.0
 11
-188.7500000000002
 21
-109.1164094971423
 31
0.0
  0
LINE
  5
3488
330
3399
100
AcDbEntity
  8
AM_5
100
AcDbLine
 10
-68.25
 20
-92.5
 30
0.0
 11
-68.25
 21
-109.1164094971423
 31
0.0
  0
LINE
  5
3489
330
3399
100
AcDbEntity
  8
AM_5
100
AcDbLine
 10
-183.7500000000002
 20
-107.1164094971423
 30
0.0
 11
-73.25
 21
-107.1164094971423
 31
0.0
  0
SOLID
  5
348A
330
3399
100
AcDbEntity
  8
AM_5
100
AcDbTrace
 10
-183.7500000000002
 20
-106.283076163809
 30
0.0
 11
-183.7500000000002
 21
-107.9497428304755
 31
0.0
 12
-188.7500000000002
 22
-107.1164094971423
 32
0.0
 13
-188.7500000000002
 23
-107.1164094971423
 33
0.0
  0
SOLID
  5
348B
330
3399
100
AcDbEntity
  8
AM_5
100
AcDbTrace
 10
-73.25
 20
-106.283076163809
 30
0.0
 11
-73.25
 21
-107.9497428304755
 31
0.0
 12
-68.25
 22
-107.1164094971423
 32
0.0
 13
-68.25
 23
-107.1164094971423
 33
0.0
  0
MTEXT
  5
348C
330
3399
100
AcDbEntity
  8
AM_5
 62
     2
100
AcDbMText
 10
-128.5
 20
-100.6164094971423
 30
0.0
 40
7.0
 41
0.0
 71
     5
 72
     1
  1
120.5 [4.744"]
 73
     1
 44
1.0
1001
ACAD
1000
MTEXTBEGIN
1070
    73
1070
     1
1070
    44
1040
1.0
1070
    74
1070
     0
1000
MTEXTEND
  0
LINE
  5
348D
330
3399
100
AcDbEntity
  8
AM_5
100
AcDbLine
 10
-228.7500000000002
 20
-92.5
 30
0.0
 11
-228.7500000000002
 21
-127.6716998165016
 31
0.0
  0
LINE
  5
348E
330
3399
100
AcDbEntity
  8
AM_5
100
AcDbLine
 10
228.7499999999988
 20
-92.5
 30
0.0
 11
228.7499999999988
 21
-127.6716998165016
 31
0.0
  0
LINE
  5
348F
330
3399
100
AcDbEntity
  8
AM_5
100
AcDbLine
 10
-223.7500000000002
 20
-125.6716998165016
 30
0.0
 11
223.7499999999989
 21
-125.6716998165016
 31
0.0
  0
SOLID
  5
3490
330
3399
100
AcDbEntity
  8
AM_5
100
AcDbTrace
 10
-223.7500000000002
 20
-124.8383664831683
 30
0.0
 11
-223.7500000000002
 21
-126.5050331498348
 31
0.0
 12
-228.7500000000002
 22
-125.6716998165016
 32
0.0
 13
-228.7500000000002
 23
-125.6716998165016
 33
0.0
  0
SOLID
  5
3491
330
3399
100
AcDbEntity
  8
AM_5
100
AcDbTrace
 10
223.7499999999989
 20
-124.8383664831683
 30
0.0
 11
223.7499999999989
 21
-126.5050331498348
 31
0.0
 12
228.7499999999988
 22
-125.6716998165016
 32
0.0
 13
228.7499999999988
 23
-125.6716998165016
 33
0.0
  0
MTEXT
  5
3492
330
3399
100
AcDbEntity
  8
AM_5
 62
     2
100
AcDbMText
 10
-0.0000000000006821
 20
-119.1716998165016
 30
0.0
 40
7.0
 41
0.0
 71
     5
 72
     1
  1
457.5 [18.012"]
 73
     1
 44
1.0
1001
ACAD
1000
MTEXTBEGIN
1070
    73
1070
     1
1070
    44
1040
1.0
1070
    74
1070
     0
1000
MTEXTEND
  0
LINE
  5
3493
330
3399
100
AcDbEntity
  8
AM_5
100
AcDbLine
 10
-190.5000002712579
 20
-50.50000009265113
 30
0.0
 11
-243.8662043595889
 21
-50.50000009265113
 31
0.0
  0
LINE
  5
3494
330
3399
100
AcDbEntity
  8
AM_5
100
AcDbLine
 10
-190.7500000000002
 20
50.5
 30
0.0
 11
-243.8662043595889
 21
50.5
 31
0.0
  0
LINE
  5
3495
330
3399
100
AcDbEntity
  8
AM_5
100
AcDbLine
 10
-241.8662043595889
 20
-45.50000009265113
 30
0.0
 11
-241.8662043595889
 21
45.49999999999999
 31
0.0
  0
SOLID
  5
3496
330
3399
100
AcDbEntity
  8
AM_5
100
AcDbTrace
 10
-242.6995376929221
 20
-45.50000009265113
 30
0.0
 11
-241.0328710262557
 21
-45.50000009265113
 31
0.0
 12
-241.8662043595889
 22
-50.50000009265113
 32
0.0
 13
-241.8662043595889
 23
-50.50000009265113
 33
0.0
  0
SOLID
  5
3497
330
3399
100
AcDbEntity
  8
AM_5
100
AcDbTrace
 10
-242.6995376929221
 20
45.49999999999999
 30
0.0
 11
-241.0328710262557
 21
45.49999999999999
 31
0.0
 12
-241.8662043595889
 22
50.5
 32
0.0
 13
-241.8662043595889
 23
50.5
 33
0.0
  0
MTEXT
  5
3498
330
3399
100
AcDbEntity
  8
AM_5
 62
     2
100
AcDbMText
 10
-248.3662043595891
 20
-0.00000004632534
 30
0.0
 40
7.0
 41
0.0
 71
     5
 72
     1
  1
101 [3.976"]
 11
0.0000000000000001
 21
1.0
 31
0.0
 73
     1
 44
1.0
1001
ACAD
1000
MTEXTBEGIN
1070
    73
1070
     1
1070
    44
1040
1.0
1070
    74
1070
     0
1000
MTEXTEND
  0
LINE
  5
3499
330
3399
100
AcDbEntity
  8
AM_5
100
AcDbLine
 10
-230.7500000000002
 20
90.5
 30
0.0
 11
-267.0760111072998
 21
90.5
 31
0.0
  0
LINE
  5
349A
330
3399
100
AcDbEntity
  8
AM_5
100
AcDbLine
 10
-230.7500000000002
 20
-90.5
 30
0.0
 11
-267.0760111072998
 21
-90.5
 31
0.0
  0
LINE
  5
349B
330
3399
100
AcDbEntity
  8
AM_5
100
AcDbLine
 10
-265.0760111072998
 20
85.5
 30
0.0
 11
-265.0760111072998
 21
-85.5
 31
0.0
  0
SOLID
  5
349C
330
3399
100
AcDbEntity
  8
AM_5
100
AcDbTrace
 10
-265.909344440633
 20
85.5
 30
0.0
 11
-264.2426777739665
 21
85.5
 31
0.0
 12
-265.0760111072998
 22
90.5
 32
0.0
 13
-265.0760111072998
 23
90.5
 33
0.0
  0
SOLID
  5
349D
330
3399
100
AcDbEntity
  8
AM_5
100
AcDbTrace
 10
-265.909344440633
 20
-85.5
 30
0.0
 11
-264.2426777739665
 21
-85.5
 31
0.0
 12
-265.0760111072998
 22
-90.5
 32
0.0
 13
-265.0760111072998
 23
-90.5
 33
0.0
  0
MTEXT
  5
349E
330
3399
100
AcDbEntity
  8
AM_5
 62
     2
100
AcDbMText
 10
-271.5760111073
 20
0.0000000000002274
 30
0.0
 40
7.0
 41
0.0
 71
     5
 72
     1
  1
181 [7.126"]
 11
0.0000000000000001
 21
1.0
 31
0.0
 73
     1
 44
1.0
1001
ACAD
1000
MTEXTBEGIN
1070
    73
1070
     1
1070
    44
1040
1.0
1070
    74
1070
     0
1000
MTEXTEND
  0
ENDBLK
  5
339B
330
3399
100
AcDbEntity
  8
0
100
AcDbBlockEnd
  0
ENDSEC
  0
SECTION
  2
ENTITIES
  0
INSERT
  5
349F
330
1F
100
AcDbEntity
  8
AM0
100
AcDbBlockReference
  2
B2X3
 10
1529.691912269327
 20
1390.638767510049
 30
0.0
  0
ENDSEC
  0
SECTION
  2
OBJECTS
  0
DICTIONARY
  5
C
330
0
100
AcDbDictionary
281
     1
  3
ACAD_COLOR
350
6B
  3
ACAD_GROUP
350
D
  3
ACAD_LAYOUT
350
1A
  3
ACAD_MATERIAL
350
6A
  3
ACAD_MLEADERSTYLE
350
2AC5
  3
ACAD_MLINESTYLE
350
17
  3
ACAD_PLOTSETTINGS
350
19
  3
ACAD_PLOTSTYLENAME
350
E
  3
ACAD_SCALELIST
350
2AB3
  3
ACAD_TABLESTYLE
350
7E
  3
ACAD_VISUALSTYLE
350
2AA2
  3
ACDB_RECOMPOSE_DATA
350
316E
  3
AcDbVariableDictionary
350
5E
  3
AcmDictionary
350
2B6A
  3
AMG
350
2AC9
  3
AMGSNAPSETTINGS
350
2BF9
  3
ASE_INDEX_DICTIONARY
350
23B6
  3
DWGPROPS
350
34A3
  0
DICTIONARY
  5
2CE4
330
2
100
AcDbDictionary
280
     1
281
     1
  3
ACAD_LAYERSTATES
360
2CE5
  0
DICTIONARY
  5
3160
330
10
100
AcDbDictionary
280
     1
281
     1
  3
ADSK_XREC_LAYER_RECONCILED
360
3161
  0
DICTIONARY
  5
3162
330
E7
100
AcDbDictionary
280
     1
281
     1
  3
ADSK_XREC_LAYER_RECONCILED
360
3163
  0
DICTIONARY
  5
3164
330
2EE8
100
AcDbDictionary
280
     1
281
     1
  3
ADSK_XREC_LAYER_RECONCILED
360
3165
  0
DICTIONARY
  5
23B2
330
1F
100
AcDbDictionary
280
     1
281
     1
  3
ACAD_INDEX
360
2DF0
  3
ACAD_SORTENTS
360
23B3
  0
DICTIONARY
  5
6B
102
{ACAD_REACTORS
330
C
102
}
330
C
100
AcDbDictionary
281
     1
  0
DICTIONARY
  5
D
102
{ACAD_REACTORS
330
C
102
}
330
C
100
AcDbDictionary
281
     1
  0
DICTIONARY
  5
1A
102
{ACAD_REACTORS
330
C
102
}
330
C
100
AcDbDictionary
281
     1
  3
Layout1
350
D3
  3
Layout2
350
D7
  3
Model
350
22
  0
DICTIONARY
  5
6A
102
{ACAD_REACTORS
330
C
102
}
330
C
100
AcDbDictionary
281
     1
  3
ByBlock
350
2A92
  3
ByLayer
350
2A8A
  3
Global
350
2A9A
  0
DICTIONARY
  5
2AC5
102
{ACAD_REACTORS
330
C
102
}
330
C
100
AcDbDictionary
281
     1
  3
Standard
350
2AC6
  0
DICTIONARY
  5
17
102
{ACAD_REACTORS
330
C
102
}
330
C
100
AcDbDictionary
281
     1
  3
Standard
350
18
  0
DICTIONARY
  5
19
102
{ACAD_REACTORS
330
C
102
}
330
C
100
AcDbDictionary
281
     1
  0
ACDBDICTIONARYWDFLT
  5
E
102
{ACAD_REACTORS
330
C
102
}
330
C
100
AcDbDictionary
281
     1
  3
Normal
350
F
100
AcDbDictionaryWithDefault
340
F
  0
DICTIONARY
  5
2AB3
102
{ACAD_REACTORS
330
C
102
}
330
C
100
AcDbDictionary
281
     1
  3
A0
350
2AB4
  3
A1
350
2AB5
  3
A2
350
2AB6
  3
A3
350
2AB7
  3
A4
350
2AB8
  3
A5
350
2AB9
  3
A6
350
2ABA
  3
A7
350
2ABB
  3
A8
350
2ABC
  3
A9
350
2ABD
  3
B0
350
2ABE
  3
B1
350
2ABF
  3
B2
350
2AC0
  3
B3
350
2AC1
  3
B4
350
2AC2
  3
B5
350
2AC3
  3
B6
350
2AC4
  0
DICTIONARY
  5
7E
102
{ACAD_REACTORS
330
C
102
}
330
C
100
AcDbDictionary
281
     1
  3
Standard
350
7F
  0
DICTIONARY
  5
2AA2
102
{ACAD_REACTORS
330
C
102
}
330
C
100
AcDbDictionary
281
     1
  3
2dWireframe
350
2AA8
  3
3D Hidden
350
2AAA
  3
3dWireframe
350
2AA9
  3
Basic
350
2AA7
  3
Brighten
350
2AAE
  3
ColorChange
350
2AB2
  3
Conceptual
350
2AAB
  3
Dim
350
2AAD
  3
Facepattern
350
2AB1
  3
Flat
350
2AA3
  3
FlatWithEdges
350
2AA4
  3
Gouraud
350
2AA5
  3
GouraudWithEdges
350
2AA6
  3
Linepattern
350
2AB0
  3
Realistic
350
2AAC
  3
Thicken
350
2AAF
  0
XRECORD
  5
316E
102
{ACAD_REACTORS
330
C
102
}
330
C
100
AcDbXrecord
280
     1
 90
        1
330
7F
  0
DICTIONARY
  5
5E
102
{ACAD_REACTORS
330
C
102
}
330
C
100
AcDbDictionary
281
     1
  3
CANNOSCALE
350
3169
  3
CMLEADERSTYLE
350
3168
  3
CTABLESTYLE
350
84
  3
DIMASSOC
350
5F
  3
HIDETEXT
350
63
  3
INDEXCTL
350
316B
  3
PROJECTNAME
350
23B8
  3
SORTENTS
350
316A
  0
DICTIONARY
  5
2B6A
102
{ACAD_REACTORS
330
C
102
}
330
C
100
AcDbDictionary
281
     1
  3
AcmStdDictionary
350
2B6B
  0
DICTIONARY
  5
2AC9
102
{ACAD_REACTORS
330
C
102
}
330
C
100
AcDbDictionary
281
     1
  3
AcMgSettings
350
2ACA
  0
DICTIONARY
  5
2BF9
102
{ACAD_REACTORS
330
C
102
}
330
C
100
AcDbDictionary
281
     1
  3
DIMENSION
350
2BFA
  3
FEA
350
2BFB
  3
HATCH
350
2BFC
  3
SYMBOLS
350
2BFD
  0
DICTIONARY
  5
23B6
102
{ACAD_REACTORS
330
C
102
}
330
C
100
AcDbDictionary
281
     1
  3
ASEBlockHierarchyIndexRecord
350
23B7
1001
DCO15
1040
1651817270.859
  0
XRECORD
  5
34A3
102
{ACAD_REACTORS
330
C
102
}
330
C
100
AcDbXrecord
280
     1
  1
DWGPROPS COOKIE
  2

  3

  4

  6

  7

  8
se-jenboh
  9

300
AmdtFileType=84
301
=
302
=
303
=
304
=
305
=
306
=
307
=
308
=
309
=
 40
0.108183287037037
 41
2454921.421324144
 42
2456316.62924272
  1

 90
        1
  0
DICTIONARY
  5
2CE5
102
{ACAD_REACTORS
330
2CE4
102
}
330
2CE4
100
AcDbDictionary
281
     1
  0
XRECORD
  5
3161
102
{ACAD_REACTORS
330
3160
102
}
330
3160
100
AcDbXrecord
280
     1
290
     1
  0
XRECORD
  5
3163
102
{ACAD_REACTORS
330
3162
102
}
330
3162
100
AcDbXrecord
280
     1
290
     1
  0
XRECORD
  5
3165
102
{ACAD_REACTORS
330
3164
102
}
330
3164
100
AcDbXrecord
280
     1
290
     1
  0
DICTIONARY
  5
2DF0
102
{ACAD_REACTORS
330
23B2
102
}
330
23B2
100
AcDbDictionary
281
     1
  3
*A1
350
2DF1
  0
SORTENTSTABLE
  5
23B3
102
{ACAD_REACTORS
330
23B2
102
}
330
23B2
100
AcDbSortentsTable
330
1F
  0
LAYOUT
  5
D3
102
{ACAD_XDICTIONARY
360
34A7
102
}
102
{ACAD_REACTORS
330
1A
102
}
330
1A
100
AcDbPlotSettings
  1

  2
C:\Documents and Settings\basas\Application Data\Autodesk\AutoCAD 2005\R16.1\enu\plotters\Default Windows System Printer.pc3
  4

  6

 40
0.0
 41
0.0
 42
0.0
 43
0.0
 44
0.0
 45
0.0
 46
0.0
 47
0.0
 48
0.0
 49
0.0
140
0.0
141
0.0
142
1.0
143
1.0
 70
   688
 72
     0
 73
     0
 74
     5
  7

 75
    16
147
1.0
148
0.0
149
0.0
100
AcDbLayout
  1
Layout1
 70
     1
 71
     1
 10
0.0
 20
0.0
 11
12.0
 21
9.0
 12
0.0
 22
0.0
 32
0.0
 14
0.0
 24
0.0
 34
0.0
 15
0.0
 25
0.0
 35
0.0
146
0.0
 13
0.0
 23
0.0
 33
0.0
 16
1.0
 26
0.0
 36
0.0
 17
0.0
 27
1.0
 37
0.0
 76
     0
330
D2
  0
LAYOUT
  5
D7
102
{ACAD_XDICTIONARY
360
34A9
102
}
102
{ACAD_REACTORS
330
1A
102
}
330
1A
100
AcDbPlotSettings
  1

  2
C:\Documents and Settings\basas\Application Data\Autodesk\AutoCAD 2005\R16.1\enu\plotters\Default Windows System Printer.pc3
  4

  6

 40
0.0
 41
0.0
 42
0.0
 43
0.0
 44
0.0
 45
0.0
 46
0.0
 47
0.0
 48
0.0
 49
0.0
140
0.0
141
0.0
142
1.0
143
1.0
 70
   688
 72
     0
 73
     0
 74
     5
  7

 75
    16
147
1.0
148
0.0
149
0.0
100
AcDbLayout
  1
Layout2
 70
     1
 71
     2
 10
0.0
 20
0.0
 11
12.0
 21
9.0
 12
0.0
 22
0.0
 32
0.0
 14
0.0
 24
0.0
 34
0.0
 15
0.0
 25
0.0
 35
0.0
146
0.0
 13
0.0
 23
0.0
 33
0.0
 16
1.0
 26
0.0
 36
0.0
 17
0.0
 27
1.0
 37
0.0
 76
     0
330
D6
  0
LAYOUT
  5
22
102
{ACAD_XDICTIONARY
360
34A4
102
}
102
{ACAD_REACTORS
330
1A
102
}
330
1A
100
AcDbPlotSettings
  1

  2
none_device
  4
ISO_A4_(210.00_x_297.00_MM)
  6

 40
7.5
 41
20.0
 42
7.5
 43
20.0
 44
210.0
 45
297.0
 46
11.54999923706054
 47
-13.65000009536743
 48
0.0
 49
0.0
140
0.0
141
0.0
142
1.0
143
8.704084754739808
 70
 11952
 72
     1
 73
     0
 74
     0
  7

 75
     0
147
0.1148885871608098
148
0.0
149
0.0
100
AcDbLayout
  1
Model
 70
     1
 71
     0
 10
0.0
 20
0.0
 11
12.0
 21
9.0
 12
0.0
 22
0.0
 32
0.0
 14
0.0
 24
0.0
 34
0.0
 15
0.0
 25
0.0
 35
0.0
146
0.0
 13
0.0
 23
0.0
 33
0.0
 16
1.0
 26
0.0
 36
0.0
 17
0.0
 27
1.0
 37
0.0
 76
     0
330
1F
331
2A7E
1001
ACAD_PSEXT
1000
None
1000
None
1000
Not applicable
1000
The layout will not be plotted unless a new plotter configuration name is selected.
1070
     0
  0
MATERIAL
  5
2A92
102
{ACAD_XDICTIONARY
360
2A93
102
}
102
{ACAD_REACTORS
330
6A
102
}
330
6A
100
AcDbMaterial
  1
ByBlock
 72
     0
 43
0.0008202099737533
 43
0.0
 43
0.0
 43
0.0
 43
0.0
 43
0.0008202099737533
 43
0.0
 43
0.0
 43
0.0
 43
0.0
 43
1.0
 43
0.0
 43
0.0
 43
0.0
 43
0.0
 43
1.0
 77
     0
 47
0.0008202099737533
 47
0.0
 47
0.0
 47
0.0
 47
0.0
 47
0.0008202099737533
 47
0.0
 47
0.0
 47
0.0
 47
0.0
 47
1.0
 47
0.0
 47
0.0
 47
0.0
 47
0.0
 47
1.0
171
     0
 49
0.0008202099737533
 49
0.0
 49
0.0
 49
0.0
 49
0.0
 49
0.0008202099737533
 49
0.0
 49
0.0
 49
0.0
 49
0.0
 49
1.0
 49
0.0
 49
0.0
 49
0.0
 49
0.0
 49
1.0
175
     0
142
0.0008202099737533
142
0.0
142
0.0
142
0.0
142
0.0
142
0.0008202099737533
142
0.0
142
0.0
142
0.0
142
0.0
142
1.0
142
0.0
142
0.0
142
0.0
142
0.0
142
1.0
179
     0
144
0.0008202099737533
144
0.0
144
0.0
144
0.0
144
0.0
144
0.0008202099737533
144
0.0
144
0.0
144
0.0
144
0.0
144
1.0
144
0.0
144
0.0
144
0.0
144
0.0
144
1.0
147
0.0008202099737533
147
0.0
147
0.0
147
0.0
147
0.0
147
0.0008202099737533
147
0.0
147
0.0
147
0.0
147
0.0
147
1.0
147
0.0
147
0.0
147
0.0
147
0.0
147
1.0
  0
MATERIAL
  5
2A8A
102
{ACAD_XDICTIONARY
360
2A8B
102
}
102
{ACAD_REACTORS
330
6A
102
}
330
6A
100
AcDbMaterial
  1
ByLayer
 72
     0
 43
0.0008202099737533
 43
0.0
 43
0.0
 43
0.0
 43
0.0
 43
0.0008202099737533
 43
0.0
 43
0.0
 43
0.0
 43
0.0
 43
1.0
 43
0.0
 43
0.0
 43
0.0
 43
0.0
 43
1.0
 77
     0
 47
0.0008202099737533
 47
0.0
 47
0.0
 47
0.0
 47
0.0
 47
0.0008202099737533
 47
0.0
 47
0.0
 47
0.0
 47
0.0
 47
1.0
 47
0.0
 47
0.0
 47
0.0
 47
0.0
 47
1.0
171
     0
 49
0.0008202099737533
 49
0.0
 49
0.0
 49
0.0
 49
0.0
 49
0.0008202099737533
 49
0.0
 49
0.0
 49
0.0
 49
0.0
 49
1.0
 49
0.0
 49
0.0
 49
0.0
 49
0.0
 49
1.0
175
     0
142
0.0008202099737533
142
0.0
142
0.0
142
0.0
142
0.0
142
0.0008202099737533
142
0.0
142
0.0
142
0.0
142
0.0
142
1.0
142
0.0
142
0.0
142
0.0
142
0.0
142
1.0
179
     0
144
0.0008202099737533
144
0.0
144
0.0
144
0.0
144
0.0
144
0.0008202099737533
144
0.0
144
0.0
144
0.0
144
0.0
144
1.0
144
0.0
144
0.0
144
0.0
144
0.0
144
1.0
147
0.0008202099737533
147
0.0
147
0.0
147
0.0
147
0.0
147
0.0008202099737533
147
0.0
147
0.0
147
0.0
147
0.0
147
1.0
147
0.0
147
0.0
147
0.0
147
0.0
147
1.0
  0
MATERIAL
  5
2A9A
102
{ACAD_XDICTIONARY
360
2A9B
102
}
102
{ACAD_REACTORS
330
6A
102
}
330
6A
100
AcDbMaterial
  1
Global
 72
     0
 43
0.0008202099737533
 43
0.0
 43
0.0
 43
0.0
 43
0.0
 43
0.0008202099737533
 43
0.0
 43
0.0
 43
0.0
 43
0.0
 43
1.0
 43
0.0
 43
0.0
 43
0.0
 43
0.0
 43
1.0
 77
     0
 47
0.0008202099737533
 47
0.0
 47
0.0
 47
0.0
 47
0.0
 47
0.0008202099737533
 47
0.0
 47
0.0
 47
0.0
 47
0.0
 47
1.0
 47
0.0
 47
0.0
 47
0.0
 47
0.0
 47
1.0
171
     0
 49
0.0008202099737533
 49
0.0
 49
0.0
 49
0.0
 49
0.0
 49
0.0008202099737533
 49
0.0
 49
0.0
 49
0.0
 49
0.0
 49
1.0
 49
0.0
 49
0.0
 49
0.0
 49
0.0
 49
1.0
175
     0
142
0.0008202099737533
142
0.0
142
0.0
142
0.0
142
0.0
142
0.0008202099737533
142
0.0
142
0.0
142
0.0
142
0.0
142
1.0
142
0.0
142
0.0
142
0.0
142
0.0
142
1.0
179
     0
144
0.0008202099737533
144
0.0
144
0.0
144
0.0
144
0.0
144
0.0008202099737533
144
0.0
144
0.0
144
0.0
144
0.0
144
1.0
144
0.0
144
0.0
144
0.0
144
0.0
144
1.0
147
0.0008202099737533
147
0.0
147
0.0
147
0.0
147
0.0
147
0.0008202099737533
147
0.0
147
0.0
147
0.0
147
0.0
147
1.0
147
0.0
147
0.0
147
0.0
147
0.0
147
1.0
  0
MLEADERSTYLE
  5
2AC6
102
{ACAD_REACTORS
330
2AC5
102
}
330
2AC5
100
AcDbMLeaderStyle
170
     2
171
     1
172
     0
 90
        2
 40
0.0
 41
0.0
173
     1
 91
-1056964608
340
14
 92
       -2
290
     1
 42
2.0
291
     1
 43
0.36
  3
Standard
 44
4.0
300

342
11
174
     1
178
     6
175
     1
176
     0
 93
-1056964608
 45
4.0
292
     0
297
     0
 46
4.0
 94
-1056964608
 47
1.0
 49
1.0
140
1.0
293
     1
141
0.0
294
     1
177
     0
142
1.0
295
     0
296
     0
143
0.125
1001
ACAD_MLEADERVER
1070
     2
  0
MLINESTYLE
  5
18
102
{ACAD_REACTORS
330
17
102
}
330
17
100
AcDbMlineStyle
  2
STANDARD
 70
     0
  3

 62
   256
 51
90.0
 52
90.0
 71
     2
 49
0.5
 62
   256
  6
BYLAYER
 49
-0.5
 62
   256
  6
BYLAYER
  0
ACDBPLACEHOLDER
  5
F
102
{ACAD_REACTORS
330
E
102
}
330
E
  0
SCALE
  5
2AB4
102
{ACAD_REACTORS
330
2AB3
102
}
330
2AB3
100
AcDbScale
 70
     0
300
1:1
140
1.0
141
1.0
290
     1
  0
SCALE
  5
2AB5
102
{ACAD_REACTORS
330
2AB3
102
}
330
2AB3
100
AcDbScale
 70
     0
300
1:2
140
1.0
141
2.0
290
     0
  0
SCALE
  5
2AB6
102
{ACAD_REACTORS
330
2AB3
102
}
330
2AB3
100
AcDbScale
 70
     0
300
1:4
140
1.0
141
4.0
290
     0
  0
SCALE
  5
2AB7
102
{ACAD_REACTORS
330
2AB3
102
}
330
2AB3
100
AcDbScale
 70
     0
300
1:5
140
1.0
141
5.0
290
     0
  0
SCALE
  5
2AB8
102
{ACAD_REACTORS
330
2AB3
102
}
330
2AB3
100
AcDbScale
 70
     0
300
1:8
140
1.0
141
8.0
290
     0
  0
SCALE
  5
2AB9
102
{ACAD_REACTORS
330
2AB3
102
}
330
2AB3
100
AcDbScale
 70
     0
300
1:10
140
1.0
141
10.0
290
     0
  0
SCALE
  5
2ABA
102
{ACAD_REACTORS
330
2AB3
102
}
330
2AB3
100
AcDbScale
 70
     0
300
1:16
140
1.0
141
16.0
290
     0
  0
SCALE
  5
2ABB
102
{ACAD_REACTORS
330
2AB3
102
}
330
2AB3
100
AcDbScale
 70
     0
300
1:20
140
1.0
141
20.0
290
     0
  0
SCALE
  5
2ABC
102
{ACAD_REACTORS
330
2AB3
102
}
330
2AB3
100
AcDbScale
 70
     0
300
1:30
140
1.0
141
30.0
290
     0
  0
SCALE
  5
2ABD
102
{ACAD_REACTORS
330
2AB3
102
}
330
2AB3
100
AcDbScale
 70
     0
300
1:40
140
1.0
141
40.0
290
     0
  0
SCALE
  5
2ABE
102
{ACAD_REACTORS
330
2AB3
102
}
330
2AB3
100
AcDbScale
 70
     0
300
1:50
140
1.0
141
50.0
290
     0
  0
SCALE
  5
2ABF
102
{ACAD_REACTORS
330
2AB3
102
}
330
2AB3
100
AcDbScale
 70
     0
300
1:100
140
1.0
141
100.0
290
     0
  0
SCALE
  5
2AC0
102
{ACAD_REACTORS
330
2AB3
102
}
330
2AB3
100
AcDbScale
 70
     0
300
2:1
140
2.0
141
1.0
290
     0
  0
SCALE
  5
2AC1
102
{ACAD_REACTORS
330
2AB3
102
}
330
2AB3
100
AcDbScale
 70
     0
300
4:1
140
4.0
141
1.0
290
     0
  0
SCALE
  5
2AC2
102
{ACAD_REACTORS
330
2AB3
102
}
330
2AB3
100
AcDbScale
 70
     0
300
8:1
140
8.0
141
1.0
290
     0
  0
SCALE
  5
2AC3
102
{ACAD_REACTORS
330
2AB3
102
}
330
2AB3
100
AcDbScale
 70
     0
300
10:1
140
10.0
141
1.0
290
     0
  0
SCALE
  5
2AC4
102
{ACAD_REACTORS
330
2AB3
102
}
330
2AB3
100
AcDbScale
 70
     0
300
100:1
140
100.0
141
1.0
290
     0
  0
TABLESTYLE
  5
7F
102
{ACAD_XDICTIONARY
360
316C
102
}
102
{ACAD_REACTORS
330
7E
102
}
330
7E
100
AcDbTableStyle
  3
Standard
 70
     0
 71
     0
 40
1.5
 41
1.5
280
     0
281
     0
  7
Standard
140
4.5
170
     2
 62
     0
 63
     7
283
     0
274
    -2
284
     1
 64
     0
275
    -2
285
     1
 65
     0
276
    -2
286
     1
 66
     0
277
    -2
287
     1
 67
     0
278
    -2
288
     1
 68
     0
279
    -2
289
     1
 69
     0
  7
Standard
140
6.0
170
     5
 62
     0
 63
     7
283
     0
274
    -2
284
     1
 64
     0
275
    -2
285
     1
 65
     0
276
    -2
286
     1
 66
     0
277
    -2
287
     1
 67
     0
278
    -2
288
     1
 68
     0
279
    -2
289
     1
 69
     0
  7
Standard
140
4.5
170
     5
 62
     0
 63
     7
283
     0
274
    -2
284
     1
 64
     0
275
    -2
285
     1
 65
     0
276
    -2
286
     1
 66
     0
277
    -2
287
     1
 67
     0
278
    -2
288
     1
 68
     0
279
    -2
289
     1
 69
     0
  0
VISUALSTYLE
  5
2AA8
102
{ACAD_REACTORS
330
2AA2
102
}
330
2AA2
100
AcDbVisualStyle
  2
2dWireframe
 70
     4
 71
     0
 72
     2
 73
     0
 90
        0
 40
-0.6
 41
-30.0
 62
     5
 63
     7
 74
     1
 91
        4
 64
     7
 65
   257
 75
     1
175
     1
 42
1.0
 92
        0
 66
   257
 43
1.0
 76
     1
 77
     6
 78
     2
 67
     7
 79
     5
170
     0
171
     0
290
     0
174
     0
 93
        1
 44
0.0
173
     0
291
     0
 45
0.0
1001
ACAD
1000
AcDbSavedByObjectVersion
1070
     0
1000
AcDbSavedByObjectVersion
1070
     0
  0
VISUALSTYLE
  5
2AAA
102
{ACAD_REACTORS
330
2AA2
102
}
330
2AA2
100
AcDbVisualStyle
  2
3D Hidden
 70
     6
 71
     1
 72
     2
 73
     2
 90
        0
 40
-0.6
 41
-30.0
 62
     5
 63
     7
 74
     2
 91
        2
 64
     7
 65
   257
 75
     2
175
     1
 42
40.0
 92
        0
 66
   257
 43
1.0
 76
     1
 77
     6
 78
     2
 67
     7
 79
     3
170
     0
171
     0
290
     0
174
     0
 93
        1
 44
0.0
173
     0
291
     0
 45
0.0
1001
ACAD
1000
AcDbSavedByObjectVersion
1070
     0
1000
AcDbSavedByObjectVersion
1070
     0
  0
VISUALSTYLE
  5
2AA9
102
{ACAD_REACTORS
330
2AA2
102
}
330
2AA2
100
AcDbVisualStyle
  2
3dWireframe
 70
     5
 71
     0
 72
     2
 73
     0
 90
        0
 40
-0.6
 41
-30.0
 62
     5
 63
     7
 74
     1
 91
        4
 64
     7
 65
   257
 75
     1
175
     1
 42
1.0
 92
        0
 66
   257
 43
1.0
 76
     1
 77
     6
 78
     2
 67
     7
 79
     5
170
     0
171
     0
290
     0
174
     0
 93
        1
 44
0.0
173
     0
291
     0
 45
0.0
1001
ACAD
1000
AcDbSavedByObjectVersion
1070
     0
1000
AcDbSavedByObjectVersion
1070
     0
  0
VISUALSTYLE
  5
2AA7
102
{ACAD_REACTORS
330
2AA2
102
}
330
2AA2
100
AcDbVisualStyle
  2
Basic
 70
     7
 71
     1
 72
     0
 73
     1
 90
        0
 40
-0.6
 41
-30.0
 62
     5
 63
     7
 74
     0
 91
        4
 64
     7
 65
   257
 75
     1
175
     1
 42
1.0
 92
        8
 66
     7
 43
1.0
 76
     1
 77
     6
 78
     2
 67
     7
 79
     5
170
     0
171
     0
290
     0
174
     0
 93
        1
 44
0.0
173
     0
291
     1
 45
0.0
1001
ACAD
1000
AcDbSavedByObjectVersion
1070
     0
1000
AcDbSavedByObjectVersion
1070
     0
  0
VISUALSTYLE
  5
2AAE
102
{ACAD_REACTORS
330
2AA2
102
}
330
2AA2
100
AcDbVisualStyle
  2
Brighten
 70
    12
 71
     2
 72
     2
 73
     0
 90
        0
 40
-0.6
 41
-30.0
 62
     5
 63
     7
 74
     1
 91
        4
 64
     7
 65
   257
 75
     1
175
     1
 42
1.0
 92
        8
 66
     7
 43
1.0
 76
     1
 77
     6
 78
     2
 67
     7
 79
     5
170
     0
171
     0
290
     0
174
     0
 93
        1
 44
50.0
173
     0
291
     1
 45
0.0
1001
ACAD
1000
AcDbSavedByObjectVersion
1070
     0
1000
AcDbSavedByObjectVersion
1070
     0
  0
VISUALSTYLE
  5
2AB2
102
{ACAD_REACTORS
330
2AA2
102
}
330
2AA2
100
AcDbVisualStyle
  2
ColorChange
 70
    16
 71
     2
 72
     2
 73
     3
 90
        0
 40
-0.6
 41
-30.0
 62
     5
 63
     8
 74
     1
 91
        4
 64
     7
 65
   257
 75
     1
175
     1
 42
1.0
 92
        8
 66
     8
 43
1.0
 76
     1
 77
     6
 78
     2
 67
     7
 79
     5
170
     0
171
     0
290
     0
174
     0
 93
        1
 44
0.0
173
     0
291
     1
 45
0.0
1001
ACAD
1000
AcDbSavedByObjectVersion
1070
     0
1000
AcDbSavedByObjectVersion
1070
     0
  0
VISUALSTYLE
  5
2AAB
102
{ACAD_REACTORS
330
2AA2
102
}
330
2AA2
100
AcDbVisualStyle
  2
Conceptual
 70
     9
 71
     3
 72
     2
 73
     0
 90
        0
 40
-0.6
 41
-30.0
 62
     5
 63
     7
 74
     2
 91
        2
 64
     7
 65
   257
 75
     1
175
     1
 42
40.0
 92
        8
 66
     7
 43
1.0
 76
     1
 77
     6
 78
     2
 67
     7
 79
     3
170
     0
171
     0
290
     0
174
     0
 93
        1
 44
0.0
173
     0
291
     0
 45
0.0
1001
ACAD
1000
AcDbSavedByObjectVersion
1070
     0
1000
AcDbSavedByObjectVersion
1070
     0
  0
VISUALSTYLE
  5
2AAD
102
{ACAD_REACTORS
330
2AA2
102
}
330
2AA2
100
AcDbVisualStyle
  2
Dim
 70
    11
 71
     2
 72
     2
 73
     0
 90
        0
 40
-0.6
 41
-30.0
 62
     5
 63
     7
 74
     1
 91
        4
 64
     7
 65
   257
 75
     1
175
     1
 42
1.0
 92
        8
 66
     7
 43
1.0
 76
     1
 77
     6
 78
     2
 67
     7
 79
     5
170
     0
171
     0
290
     0
174
     0
 93
        1
 44
-50.0
173
     0
291
     1
 45
0.0
1001
ACAD
1000
AcDbSavedByObjectVersion
1070
     0
1000
AcDbSavedByObjectVersion
1070
     0
  0
VISUALSTYLE
  5
2AB1
102
{ACAD_REACTORS
330
2AA2
102
}
330
2AA2
100
AcDbVisualStyle
  2
Facepattern
 70
    15
 71
     2
 72
     2
 73
     0
 90
        0
 40
-0.6
 41
-30.0
 62
     5
 63
     7
 74
     1
 91
        4
 64
     7
 65
   257
 75
     1
175
     1
 42
1.0
 92
        8
 66
     7
 43
1.0
 76
     1
 77
     6
 78
     2
 67
     7
 79
     5
170
     0
171
     0
290
     0
174
     0
 93
        1
 44
0.0
173
     0
291
     1
 45
0.0
1001
ACAD
1000
AcDbSavedByObjectVersion
1070
     0
1000
AcDbSavedByObjectVersion
1070
     0
  0
VISUALSTYLE
  5
2AA3
102
{ACAD_REACTORS
330
2AA2
102
}
330
2AA2
100
AcDbVisualStyle
  2
Flat
 70
     0
 71
     2
 72
     1
 73
     1
 90
        2
 40
-0.6
 41
30.0
 62
     5
 63
     7
 74
     0
 91
        4
 64
     7
 65
   257
 75
     1
175
     1
 42
1.0
 92
        8
 66
     7
 43
1.0
 76
     1
 77
     6
 78
     2
 67
     7
 79
     5
170
     0
171
     0
290
     0
174
     0
 93
       13
 44
0.0
173
     0
291
     1
 45
0.0
1001
ACAD
1000
AcDbSavedByObjectVersion
1070
     0
1000
AcDbSavedByObjectVersion
1070
     0
  0
VISUALSTYLE
  5
2AA4
102
{ACAD_REACTORS
330
2AA2
102
}
330
2AA2
100
AcDbVisualStyle
  2
FlatWithEdges
 70
     1
 71
     2
 72
     1
 73
     1
 90
        2
 40
-0.6
 41
30.0
 62
     5
 63
     7
 74
     1
 91
        4
 64
     7
 65
   257
 75
     1
175
     1
 42
1.0
 92
        0
 66
   257
 43
1.0
 76
     1
 77
     6
 78
     2
 67
     7
 79
     5
170
     0
171
     0
290
     0
174
     0
 93
       13
 44
0.0
173
     0
291
     1
 45
0.0
1001
ACAD
1000
AcDbSavedByObjectVersion
1070
     0
1000
AcDbSavedByObjectVersion
1070
     0
  0
VISUALSTYLE
  5
2AA5
102
{ACAD_REACTORS
330
2AA2
102
}
330
2AA2
100
AcDbVisualStyle
  2
Gouraud
 70
     2
 71
     2
 72
     2
 73
     1
 90
        2
 40
-0.6
 41
30.0
 62
     5
 63
     7
 74
     0
 91
        4
 64
     7
 65
   257
 75
     1
175
     1
 42
1.0
 92
        0
 66
     7
 43
1.0
 76
     1
 77
     6
 78
     2
 67
     7
 79
     5
170
     0
171
     0
290
     0
174
     0
 93
       13
 44
0.0
173
     0
291
     1
 45
0.0
1001
ACAD
1000
AcDbSavedByObjectVersion
1070
     0
1000
AcDbSavedByObjectVersion
1070
     0
  0
VISUALSTYLE
  5
2AA6
102
{ACAD_REACTORS
330
2AA2
102
}
330
2AA2
100
AcDbVisualStyle
  2
GouraudWithEdges
 70
     3
 71
     2
 72
     2
 73
     1
 90
        2
 40
-0.6
 41
30.0
 62
     5
 63
     7
 74
     1
 91
        4
 64
     7
 65
   257
 75
     1
175
     1
 42
1.0
 92
        0
 66
   257
 43
1.0
 76
     1
 77
     6
 78
     2
 67
     7
 79
     5
170
     0
171
     0
290
     0
174
     0
 93
       13
 44
0.0
173
     0
291
     1
 45
0.0
1001
ACAD
1000
AcDbSavedByObjectVersion
1070
     0
1000
AcDbSavedByObjectVersion
1070
     0
  0
VISUALSTYLE
  5
2AB0
102
{ACAD_REACTORS
330
2AA2
102
}
330
2AA2
100
AcDbVisualStyle
  2
Linepattern
 70
    14
 71
     2
 72
     2
 73
     0
 90
        0
 40
-0.6
 41
-30.0
 62
     5
 63
     7
 74
     1
 91
        4
 64
     7
 65
   257
 75
     7
175
     7
 42
1.0
 92
        8
 66
     7
 43
1.0
 76
     1
 77
     6
 78
     2
 67
     7
 79
     5
170
     0
171
     0
290
     0
174
     0
 93
        1
 44
0.0
173
     0
291
     1
 45
0.0
1001
ACAD
1000
AcDbSavedByObjectVersion
1070
     0
1000
AcDbSavedByObjectVersion
1070
     0
  0
VISUALSTYLE
  5
2AAC
102
{ACAD_REACTORS
330
2AA2
102
}
330
2AA2
100
AcDbVisualStyle
  2
Realistic
 70
     8
 71
     2
 72
     2
 73
     0
 90
        0
 40
-0.6
 41
-30.0
 62
     5
 63
     7
 74
     1
 91
        0
 64
     7
 65
   257
 75
     1
175
     1
 42
1.0
 92
        8
 66
     8
 43
1.0
 76
     1
 77
     6
 78
     2
 67
     7
 79
     5
170
     0
171
     0
290
     0
174
     0
 93
       13
 44
0.0
173
     0
291
     0
 45
0.0
1001
ACAD
1000
AcDbSavedByObjectVersion
1070
     0
1000
AcDbSavedByObjectVersion
1070
     0
  0
VISUALSTYLE
  5
2AAF
102
{ACAD_REACTORS
330
2AA2
102
}
330
2AA2
100
AcDbVisualStyle
  2
Thicken
 70
    13
 71
     2
 72
     2
 73
     0
 90
        0
 40
-0.6
 41
-30.0
 62
     5
 63
     7
 74
     1
 91
        4
 64
     7
 65
   257
 75
     1
175
     1
 42
1.0
 92
       12
 66
     7
 43
1.0
 76
     1
 77
     6
 78
     2
 67
     7
 79
     5
170
     0
171
     0
290
     0
174
     0
 93
        1
 44
0.0
173
     0
291
     1
 45
0.0
1001
ACAD
1000
AcDbSavedByObjectVersion
1070
     0
1000
AcDbSavedByObjectVersion
1070
     0
  0
DICTIONARYVAR
  5
3169
102
{ACAD_REACTORS
330
5E
102
}
330
5E
100
DictionaryVariables
280
     0
  1
1:1
  0
DICTIONARYVAR
  5
3168
102
{ACAD_REACTORS
330
5E
102
}
330
5E
100
DictionaryVariables
280
     0
  1
STANDARD
  0
DICTIONARYVAR
  5
84
102
{ACAD_REACTORS
330
5E
102
}
330
5E
100
DictionaryVariables
280
     0
  1
STANDARD
  0
DICTIONARYVAR
  5
5F
102
{ACAD_REACTORS
330
5E
102
}
330
5E
100
DictionaryVariables
280
     0
  1
2
  0
DICTIONARYVAR
  5
63
102
{ACAD_REACTORS
330
5E
102
}
330
5E
100
DictionaryVariables
280
     0
  1
1
  0
DICTIONARYVAR
  5
316B
102
{ACAD_REACTORS
330
5E
102
}
330
5E
100
DictionaryVariables
280
     0
  1
1
  0
DICTIONARYVAR
  5
23B8
102
{ACAD_REACTORS
330
5E
102
}
330
5E
100
DictionaryVariables
280
     0
  1

  0
DICTIONARYVAR
  5
316A
102
{ACAD_REACTORS
330
5E
102
}
330
5E
100
DictionaryVariables
280
     0
  1
127
  0
DICTIONARY
  5
2B6B
102
{ACAD_REACTORS
330
2B6A
102
}
330
2B6A
100
AcDbDictionary
281
     1
  0
DICTIONARY
  5
2ACA
102
{ACAD_REACTORS
330
2AC9
102
}
330
2AC9
100
AcDbDictionary
281
     1
  3
DWGSETTINGS
350
3183
  3
TRANSSETTINGS
350
3187
  0
ACAMGFILTERDAT
  5
2BFA
102
{ACAD_REACTORS
330
2BF9
102
}
330
2BF9
100
AcAmgFilterDat
 70
    15
  1
DIMENSION,AMDT_*_DIM
  2
*
  3
*
  4
*
  5
*
290
     1
  0
ACAMGFILTERDAT
  5
2BFB
102
{ACAD_REACTORS
330
2BF9
102
}
330
2BF9
100
AcAmgFilterDat
 70
    15
  1
*
  2
AM_FEA-AM_*
  3
*
  4
*
  5
*
290
     1
  0
ACAMGFILTERDAT
  5
2BFC
102
{ACAD_REACTORS
330
2BF9
102
}
330
2BF9
100
AcAmgFilterDat
 70
    15
  1
HATCH
  2
*
  3
*
  4
*
  5
*
290
     1
  0
ACAMGFILTERDAT
  5
2BFD
102
{ACAD_REACTORS
330
2BF9
102
}
330
2BF9
100
AcAmgFilterDat
 70
    15
  1
ACMFCFRAME,ACMDATUMTARGET,ACMDATUMID,ACMWELDSYM,ACMSURFSYM,ACMFEATID,ACMPARTREF,ACMBALLOON
  2
*
  3
*
  4
*
  5
*
290
     1
  0
XRECORD
  5
23B7
102
{ACAD_REACTORS
330
23B6
102
}
330
23B6
100
AcDbXrecord
280
     1
  0
LAYER_INDEX
  5
2DF1
102
{ACAD_REACTORS
330
2DF0
102
}
330
2DF0
100
AcDbIndex
 40
2456316.62924272
100
AcDbLayerIndex
  8
0
360
2DF2
 90
        0
  8
AM0
360
2DF3
 90
        1
  8
AM_5
360
3166
 90
        0
  8
Defpoints
360
3167
 90
        0
  0
DICTIONARY
  5
34A7
330
D3
100
AcDbDictionary
280
     1
281
     1
  3
ACAD_XREC_ROUNDTRIP
360
34A8
  0
DICTIONARY
  5
34A9
330
D7
100
AcDbDictionary
280
     1
281
     1
  3
ACAD_XREC_ROUNDTRIP
360
34AA
  0
DICTIONARY
  5
34A4
330
22
100
AcDbDictionary
280
     1
281
     1
  3
ACAD_XREC_ROUNDTRIP
360
34A5
  0
DICTIONARY
  5
2A93
330
2A92
100
AcDbDictionary
280
     1
281
     1
  3
ACAD_XREC_ROUNDTRIP
360
3178
  3
BUMPTILE
360
2A95
  3
DIFFUSETILE
360
2A94
  3
OPACITYTILE
360
2A98
  3
REFLECTIONTILE
360
2A97
  3
REFRACTIONTILE
360
2A99
  3
SPECULARTILE
360
2A96
  0
DICTIONARY
  5
2A8B
330
2A8A
100
AcDbDictionary
280
     1
281
     1
  3
ACAD_XREC_ROUNDTRIP
360
3177
  3
BUMPTILE
360
2A8D
  3
DIFFUSETILE
360
2A8C
  3
OPACITYTILE
360
2A90
  3
REFLECTIONTILE
360
2A8F
  3
REFRACTIONTILE
360
2A91
  3
SPECULARTILE
360
2A8E
  0
DICTIONARY
  5
2A9B
330
2A9A
100
AcDbDictionary
280
     1
281
     1
  3
ACAD_XREC_ROUNDTRIP
360
3179
  3
BUMPTILE
360
2A9D
  3
DIFFUSETILE
360
2A9C
  3
OPACITYTILE
360
2AA0
  3
REFLECTIONTILE
360
2A9F
  3
REFRACTIONTILE
360
2AA1
  3
SPECULARTILE
360
2A9E
  0
DICTIONARY
  5
316C
330
7F
100
AcDbDictionary
280
     1
281
     1
  3
ACAD_ROUNDTRIP_2008_TABLESTYLE_CELLSTYLEMAP
360
34A2
  3
ACAD_XREC_ROUNDTRIP
360
34A6
  0
IDBUFFER
  5
2DF2
330
0
100
AcDbIdBuffer
  0
IDBUFFER
  5
2DF3
330
0
100
AcDbIdBuffer
330
349F
  0
IDBUFFER
  5
3166
330
0
100
AcDbIdBuffer
  0
IDBUFFER
  5
3167
330
0
100
AcDbIdBuffer
  0
XRECORD
  5
34A8
102
{ACAD_REACTORS
330
34A7
102
}
330
34A7
100
AcDbXrecord
280
     1
102
SHADEPLOT
 70
     0
102
SHADEPLOTRESLEVEL
 70
     2
102
SHADEPLOTCUSTOMDPI
 70
   300
  0
XRECORD
  5
34AA
102
{ACAD_REACTORS
330
34A9
102
}
330
34A9
100
AcDbXrecord
280
     1
102
SHADEPLOT
 70
     0
102
SHADEPLOTRESLEVEL
 70
     2
102
SHADEPLOTCUSTOMDPI
 70
   300
  0
XRECORD
  5
34A5
102
{ACAD_REACTORS
330
34A4
102
}
330
34A4
100
AcDbXrecord
280
     1
102
SHADEPLOT
 70
     0
102
SHADEPLOTRESLEVEL
 70
     2
102
SHADEPLOTCUSTOMDPI
 70
   300
  0
XRECORD
  5
3178
102
{ACAD_REACTORS
330
2A93
102
}
330
2A93
100
AcDbXrecord
280
     1
102
MATERIAL
148
0.0
149
0.0
149
0.0
 93
        0
 94
      127
282
     0
 72
     0
 77
     0
171
     0
175
     0
179
     0
273
     0
  0
XRECORD
  5
2A95
102
{ACAD_REACTORS
330
2A93
102
}
330
2A93
100
AcDbXrecord
280
     1
270
     1
271
     1
  0
XRECORD
  5
2A94
102
{ACAD_REACTORS
330
2A93
102
}
330
2A93
100
AcDbXrecord
280
     1
270
     1
271
     1
  0
XRECORD
  5
2A98
102
{ACAD_REACTORS
330
2A93
102
}
330
2A93
100
AcDbXrecord
280
     1
270
     1
271
     1
  0
XRECORD
  5
2A97
102
{ACAD_REACTORS
330
2A93
102
}
330
2A93
100
AcDbXrecord
280
     1
270
     1
271
     1
  0
XRECORD
  5
2A99
102
{ACAD_REACTORS
330
2A93
102
}
330
2A93
100
AcDbXrecord
280
     1
270
     1
271
     1
  0
XRECORD
  5
2A96
102
{ACAD_REACTORS
330
2A93
102
}
330
2A93
100
AcDbXrecord
280
     1
270
     1
271
     1
  0
XRECORD
  5
3177
102
{ACAD_REACTORS
330
2A8B
102
}
330
2A8B
100
AcDbXrecord
280
     1
102
MATERIAL
148
0.0
149
0.0
149
0.0
 93
        0
 94
      127
282
     0
 72
     0
 77
     0
171
     0
175
     0
179
     0
273
     0
  0
XRECORD
  5
2A8D
102
{ACAD_REACTORS
330
2A8B
102
}
330
2A8B
100
AcDbXrecord
280
     1
270
     1
271
     1
  0
XRECORD
  5
2A8C
102
{ACAD_REACTORS
330
2A8B
102
}
330
2A8B
100
AcDbXrecord
280
     1
270
     1
271
     1
  0
XRECORD
  5
2A90
102
{ACAD_REACTORS
330
2A8B
102
}
330
2A8B
100
AcDbXrecord
280
     1
270
     1
271
     1
  0
XRECORD
  5
2A8F
102
{ACAD_REACTORS
330
2A8B
102
}
330
2A8B
100
AcDbXrecord
280
     1
270
     1
271
     1
  0
XRECORD
  5
2A91
102
{ACAD_REACTORS
330
2A8B
102
}
330
2A8B
100
AcDbXrecord
280
     1
270
     1
271
     1
  0
XRECORD
  5
2A8E
102
{ACAD_REACTORS
330
2A8B
102
}
330
2A8B
100
AcDbXrecord
280
     1
270
     1
271
     1
  0
XRECORD
  5
3179
102
{ACAD_REACTORS
330
2A9B
102
}
330
2A9B
100
AcDbXrecord
280
     1
102
MATERIAL
148
0.0
149
0.0
149
0.0
 93
        0
 94
      127
282
     0
 72
     0
 77
     0
171
     0
175
     0
179
     0
273
     0
  0
XRECORD
  5
2A9D
102
{ACAD_REACTORS
330
2A9B
102
}
330
2A9B
100
AcDbXrecord
280
     1
270
     1
271
     1
  0
XRECORD
  5
2A9C
102
{ACAD_REACTORS
330
2A9B
102
}
330
2A9B
100
AcDbXrecord
280
     1
270
     1
271
     1
  0
XRECORD
  5
2AA0
102
{ACAD_REACTORS
330
2A9B
102
}
330
2A9B
100
AcDbXrecord
280
     1
270
     1
271
     1
  0
XRECORD
  5
2A9F
102
{ACAD_REACTORS
330
2A9B
102
}
330
2A9B
100
AcDbXrecord
280
     1
270
     1
271
     1
  0
XRECORD
  5
2AA1
102
{ACAD_REACTORS
330
2A9B
102
}
330
2A9B
100
AcDbXrecord
280
     1
270
     1
271
     1
  0
XRECORD
  5
2A9E
102
{ACAD_REACTORS
330
2A9B
102
}
330
2A9B
100
AcDbXrecord
280
     1
270
     1
271
     1
  0
CELLSTYLEMAP
  5
34A2
102
{ACAD_REACTORS
330
316C
102
}
330
316C
100
AcDbCellStyleMap
 90
        3
300
CELLSTYLE
  1
TABLEFORMAT_BEGIN
 90
        5
170
     1
 91
        0
 92
    32768
 62
   257
 93
        1
300
CONTENTFORMAT
  1
CONTENTFORMAT_BEGIN
 90
        0
 91
        0
 92
        4
 93
        0
300

 40
0.0
140
1.0
 94
        5
 62
     0
340
11
144
6.0
309
CONTENTFORMAT_END
171
     1
301
MARGIN
  1
CELLMARGIN_BEGIN
 40
1.5
 40
1.5
 40
1.5
 40
1.5
 40
0.18
 40
0.18
309
CELLMARGIN_END
 94
        6
 95
        1
302
GRIDFORMAT
  1
GRIDFORMAT_BEGIN
 90
        0
 91
        1
 62
     0
 92
       -2
340
0
 93
        0
 40
0.045
309
GRIDFORMAT_END
 95
        2
302
GRIDFORMAT
  1
GRIDFORMAT_BEGIN
 90
        0
 91
        1
 62
     0
 92
       -2
340
0
 93
        0
 40
0.045
309
GRIDFORMAT_END
 95
        4
302
GRIDFORMAT
  1
GRIDFORMAT_BEGIN
 90
        0
 91
        1
 62
     0
 92
       -2
340
0
 93
        0
 40
0.045
309
GRIDFORMAT_END
 95
        8
302
GRIDFORMAT
  1
GRIDFORMAT_BEGIN
 90
        0
 91
        1
 62
     0
 92
       -2
340
0
 93
        0
 40
0.045
309
GRIDFORMAT_END
 95
       16
302
GRIDFORMAT
  1
GRIDFORMAT_BEGIN
 90
        0
 91
        1
 62
     0
 92
       -2
340
0
 93
        0
 40
0.045
309
GRIDFORMAT_END
 95
       32
302
GRIDFORMAT
  1
GRIDFORMAT_BEGIN
 90
        0
 91
        1
 62
     0
 92
       -2
340
0
 93
        0
 40
0.045
309
GRIDFORMAT_END
309
TABLEFORMAT_END
  1
CELLSTYLE_BEGIN
 90
        1
 91
        1
300
_TITLE
309
CELLSTYLE_END
300
CELLSTYLE
  1
TABLEFORMAT_BEGIN
 90
        5
170
     1
 91
        0
 92
        0
 62
   257
 93
        1
300
CONTENTFORMAT
  1
CONTENTFORMAT_BEGIN
 90
        0
 91
        0
 92
        4
 93
        0
300

 40
0.0
140
1.0
 94
        5
 62
     0
340
11
144
4.5
309
CONTENTFORMAT_END
171
     1
301
MARGIN
  1
CELLMARGIN_BEGIN
 40
1.5
 40
1.5
 40
1.5
 40
1.5
 40
0.18
 40
0.18
309
CELLMARGIN_END
 94
        6
 95
        1
302
GRIDFORMAT
  1
GRIDFORMAT_BEGIN
 90
        0
 91
        1
 62
     0
 92
       -2
340
0
 93
        0
 40
0.045
309
GRIDFORMAT_END
 95
        2
302
GRIDFORMAT
  1
GRIDFORMAT_BEGIN
 90
        0
 91
        1
 62
     0
 92
       -2
340
0
 93
        0
 40
0.045
309
GRIDFORMAT_END
 95
        4
302
GRIDFORMAT
  1
GRIDFORMAT_BEGIN
 90
        0
 91
        1
 62
     0
 92
       -2
340
0
 93
        0
 40
0.045
309
GRIDFORMAT_END
 95
        8
302
GRIDFORMAT
  1
GRIDFORMAT_BEGIN
 90
        0
 91
        1
 62
     0
 92
       -2
340
0
 93
        0
 40
0.045
309
GRIDFORMAT_END
 95
       16
302
GRIDFORMAT
  1
GRIDFORMAT_BEGIN
 90
        0
 91
        1
 62
     0
 92
       -2
340
0
 93
        0
 40
0.045
309
GRIDFORMAT_END
 95
       32
302
GRIDFORMAT
  1
GRIDFORMAT_BEGIN
 90
        0
 91
        1
 62
     0
 92
       -2
340
0
 93
        0
 40
0.045
309
GRIDFORMAT_END
309
TABLEFORMAT_END
  1
CELLSTYLE_BEGIN
 90
        2
 91
        1
300
_HEADER
309
CELLSTYLE_END
300
CELLSTYLE
  1
TABLEFORMAT_BEGIN
 90
        5
170
     1
 91
        0
 92
        0
 62
   257
 93
        1
300
CONTENTFORMAT
  1
CONTENTFORMAT_BEGIN
 90
        0
 91
        0
 92
        4
 93
        0
300

 40
0.0
140
1.0
 94
        2
 62
     0
340
11
144
4.5
309
CONTENTFORMAT_END
171
     1
301
MARGIN
  1
CELLMARGIN_BEGIN
 40
1.5
 40
1.5
 40
1.5
 40
1.5
 40
0.18
 40
0.18
309
CELLMARGIN_END
 94
        6
 95
        1
302
GRIDFORMAT
  1
GRIDFORMAT_BEGIN
 90
        0
 91
        1
 62
     0
 92
       -2
340
0
 93
        0
 40
0.045
309
GRIDFORMAT_END
 95
        2
302
GRIDFORMAT
  1
GRIDFORMAT_BEGIN
 90
        0
 91
        1
 62
     0
 92
       -2
340
0
 93
        0
 40
0.045
309
GRIDFORMAT_END
 95
        4
302
GRIDFORMAT
  1
GRIDFORMAT_BEGIN
 90
        0
 91
        1
 62
     0
 92
       -2
340
0
 93
        0
 40
0.045
309
GRIDFORMAT_END
 95
        8
302
GRIDFORMAT
  1
GRIDFORMAT_BEGIN
 90
        0
 91
        1
 62
     0
 92
       -2
340
0
 93
        0
 40
0.045
309
GRIDFORMAT_END
 95
       16
302
GRIDFORMAT
  1
GRIDFORMAT_BEGIN
 90
        0
 91
        1
 62
     0
 92
       -2
340
0
 93
        0
 40
0.045
309
GRIDFORMAT_END
 95
       32
302
GRIDFORMAT
  1
GRIDFORMAT_BEGIN
 90
        0
 91
        1
 62
     0
 92
       -2
340
0
 93
        0
 40
0.045
309
GRIDFORMAT_END
309
TABLEFORMAT_END
  1
CELLSTYLE_BEGIN
 90
        3
 91
        2
300
_DATA
309
CELLSTYLE_END
  0
XRECORD
  5
34A6
102
{ACAD_REACTORS
330
316C
102
}
330
316C
100
AcDbXrecord
280
     1
102
ACAD_ROUNDTRIP_PRE2007_TABLESTYLE
 90
        4
 91
        0
  1

 92
        4
 93
        0
  2

 94
        4
 95
        0
  3

  0
ENDSEC
  0
EOF
