  0
SECTION
  2
HEADER
  9
$ACADVER
  1
AC1027
  9
$ACADMAINTVER
 70
    20
  9
$DWGCODEPAGE
  3
ANSI_1252
  9
$LASTSAVEDBY
  1
se-milkar
  9
$CUSTOMPROPERTYTAG
  1
AmdtFileType
  9
$CUSTOMPROPERTY
  1
84
  9
$REQUIREDVERSIONS
160
                 0
  9
$INSBASE
 10
0.0
 20
0.0
 30
0.0
  9
$EXTMIN
 10
5.899877058519418
 20
1.184197530754005
 30
0.0
  9
$EXTMAX
 10
168.2515698250884
 20
262.7482222166935
 30
0.0
  9
$LIMMIN
 10
0.0
 20
0.0
  9
$LIMMAX
 10
420.0
 20
297.0
  9
$ORTHOMODE
 70
     0
  9
$REGENMODE
 70
     1
  9
$FILLMODE
 70
     1
  9
$QTEXTMODE
 70
     0
  9
$MIRRTEXT
 70
     0
  9
$LTSCALE
 40
1.0
  9
$ATTMODE
 70
     1
  9
$TEXTSIZE
 40
3.5
  9
$TRACEWID
 40
1.0
  9
$TEXTSTYLE
  7
STANDARD
  9
$CLAYER
  8
AM_0
  9
$CELTYPE
  6
BYLAYER
  9
$CECOLOR
 62
   256
  9
$CELTSCALE
 40
1.0
  9
$DISPSILH
 70
     0
  9
$DIMSCALE
 40
1.0
  9
$DIMASZ
 40
2.5
  9
$DIMEXO
 40
1.0
  9
$DIMDLI
 40
10.0
  9
$DIMRND
 40
0.0
  9
$DIMDLE
 40
0.0
  9
$DIMEXE
 40
1.0
  9
$DIMTP
 40
0.1
  9
$DIMTM
 40
0.1
  9
$DIMTXT
 40
3.5
  9
$DIMCEN
 40
0.0
  9
$DIMTSZ
 40
0.0
  9
$DIMTOL
 70
     0
  9
$DIMLIM
 70
     0
  9
$DIMTIH
 70
     0
  9
$DIMTOH
 70
     0
  9
$DIMSE1
 70
     0
  9
$DIMSE2
 70
     0
  9
$DIMTAD
 70
     1
  9
$DIMZIN
 70
     8
  9
$DIMBLK
  1

  9
$DIMASO
 70
     1
  9
$DIMSHO
 70
     1
  9
$DIMPOST
  1

  9
$DIMAPOST
  1
"
  9
$DIMALT
 70
     0
  9
$DIMALTD
 70
     3
  9
$DIMALTF
 40
0.0393701
  9
$DIMLFAC
 40
1.0
  9
$DIMTOFL
 70
     1
  9
$DIMTVP
 40
0.0
  9
$DIMTIX
 70
     0
  9
$DIMSOXD
 70
     0
  9
$DIMSAH
 70
     0
  9
$DIMBLK1
  1

  9
$DIMBLK2
  1

  9
$DIMSTYLE
  2
AM_ISO
  9
$DIMCLRD
 70
   256
  9
$DIMCLRE
 70
   256
  9
$DIMCLRT
 70
     2
  9
$DIMTFAC
 40
0.71
  9
$DIMGAP
 40
1.5
  9
$DIMJUST
 70
     0
  9
$DIMSD1
 70
     0
  9
$DIMSD2
 70
     0
  9
$DIMTOLJ
 70
     0
  9
$DIMTZIN
 70
     8
  9
$DIMALTZ
 70
     0
  9
$DIMALTTZ
 70
     0
  9
$DIMUPT
 70
     0
  9
$DIMDEC
 70
     2
  9
$DIMTDEC
 70
     2
  9
$DIMALTU
 70
     2
  9
$DIMALTTD
 70
     3
  9
$DIMTXSTY
  7
STANDARD
  9
$DIMAUNIT
 70
     0
  9
$DIMADEC
 70
     0
  9
$DIMALTRND
 40
0.0
  9
$DIMAZIN
 70
     2
  9
$DIMDSEP
 70
    46
  9
$DIMATFIT
 70
     3
  9
$DIMFRAC
 70
     0
  9
$DIMLDRBLK
  1

  9
$DIMLUNIT
 70
     2
  9
$DIMLWD
 70
    -1
  9
$DIMLWE
 70
    -1
  9
$DIMTMOVE
 70
     0
  9
$DIMFXL
 40
1.0
  9
$DIMFXLON
 70
     0
  9
$DIMJOGANG
 40
0.7853981633974483
  9
$DIMTFILL
 70
     0
  9
$DIMTFILLCLR
 70
     0
  9
$DIMARCSYM
 70
     0
  9
$DIMLTYPE
  6

  9
$DIMLTEX1
  6

  9
$DIMLTEX2
  6

  9
$DIMTXTDIRECTION
 70
     0
  9
$LUNITS
 70
     2
  9
$LUPREC
 70
     2
  9
$SKETCHINC
 40
1.0
  9
$FILLETRAD
 40
0.0
  9
$AUNITS
 70
     0
  9
$AUPREC
 70
     0
  9
$MENU
  1
.
  9
$ELEVATION
 40
0.0
  9
$PELEVATION
 40
0.0
  9
$THICKNESS
 40
0.0
  9
$LIMCHECK
 70
     0
  9
$CHAMFERA
 40
2.5
  9
$CHAMFERB
 40
2.5
  9
$CHAMFERC
 40
20.0
  9
$CHAMFERD
 40
0.0
  9
$SKPOLY
 70
     1
  9
$TDCREATE
 40
2456265.456077905
  9
$TDUCREATE
 40
2456265.372744572
  9
$TDUPDATE
 40
2457246.616544595
  9
$TDUUPDATE
 40
2457246.533211262
  9
$TDINDWG
 40
0.0057036111
  9
$TDUSRTIMER
 40
0.0057034028
  9
$USRTIMER
 70
     1
  9
$ANGBASE
 50
0.0
  9
$ANGDIR
 70
     0
  9
$PDMODE
 70
     0
  9
$PDSIZE
 40
0.0
  9
$PLINEWID
 40
0.0
  9
$SPLFRAME
 70
     0
  9
$SPLINETYPE
 70
     6
  9
$SPLINESEGS
 70
     8
  9
$HANDSEED
  5
1B83
  9
$SURFTAB1
 70
     6
  9
$SURFTAB2
 70
     6
  9
$SURFTYPE
 70
     6
  9
$SURFU
 70
     6
  9
$SURFV
 70
     6
  9
$UCSBASE
  2

  9
$UCSNAME
  2

  9
$UCSORG
 10
0.0
 20
0.0
 30
0.0
  9
$UCSXDIR
 10
1.0
 20
0.0
 30
0.0
  9
$UCSYDIR
 10
0.0
 20
1.0
 30
0.0
  9
$UCSORTHOREF
  2

  9
$UCSORTHOVIEW
 70
     0
  9
$UCSORGTOP
 10
0.0
 20
0.0
 30
0.0
  9
$UCSORGBOTTOM
 10
0.0
 20
0.0
 30
0.0
  9
$UCSORGLEFT
 10
0.0
 20
0.0
 30
0.0
  9
$UCSORGRIGHT
 10
0.0
 20
0.0
 30
0.0
  9
$UCSORGFRONT
 10
0.0
 20
0.0
 30
0.0
  9
$UCSORGBACK
 10
0.0
 20
0.0
 30
0.0
  9
$PUCSBASE
  2

  9
$PUCSNAME
  2

  9
$PUCSORG
 10
0.0
 20
0.0
 30
0.0
  9
$PUCSXDIR
 10
1.0
 20
0.0
 30
0.0
  9
$PUCSYDIR
 10
0.0
 20
1.0
 30
0.0
  9
$PUCSORTHOREF
  2

  9
$PUCSORTHOVIEW
 70
     0
  9
$PUCSORGTOP
 10
0.0
 20
0.0
 30
0.0
  9
$PUCSORGBOTTOM
 10
0.0
 20
0.0
 30
0.0
  9
$PUCSORGLEFT
 10
0.0
 20
0.0
 30
0.0
  9
$PUCSORGRIGHT
 10
0.0
 20
0.0
 30
0.0
  9
$PUCSORGFRONT
 10
0.0
 20
0.0
 30
0.0
  9
$PUCSORGBACK
 10
0.0
 20
0.0
 30
0.0
  9
$USERI1
 70
     0
  9
$USERI2
 70
     0
  9
$USERI3
 70
     0
  9
$USERI4
 70
     0
  9
$USERI5
 70
     0
  9
$USERR1
 40
0.0
  9
$USERR2
 40
0.0
  9
$USERR3
 40
0.0
  9
$USERR4
 40
0.0
  9
$USERR5
 40
0.0
  9
$WORLDVIEW
 70
     1
  9
$SHADEDGE
 70
     3
  9
$SHADEDIF
 70
    70
  9
$TILEMODE
 70
     1
  9
$MAXACTVP
 70
    48
  9
$PINSBASE
 10
0.0
 20
0.0
 30
0.0
  9
$PLIMCHECK
 70
     0
  9
$PEXTMIN
 10
1.000000000000000E+20
 20
1.000000000000000E+20
 30
1.000000000000000E+20
  9
$PEXTMAX
 10
-1.000000000000000E+20
 20
-1.000000000000000E+20
 30
-1.000000000000000E+20
  9
$PLIMMIN
 10
-0.2500002402958907
 20
-0.2499999962453767
  9
$PLIMMAX
 10
10.74999951940821
 20
8.249999763458731
  9
$UNITMODE
 70
     0
  9
$VISRETAIN
 70
     1
  9
$PLINEGEN
 70
     0
  9
$PSLTSCALE
 70
     1
  9
$TREEDEPTH
 70
  3020
  9
$CMLSTYLE
  2
STANDARD
  9
$CMLJUST
 70
     0
  9
$CMLSCALE
 40
1.0
  9
$PROXYGRAPHICS
 70
     1
  9
$MEASUREMENT
 70
     1
  9
$CELWEIGHT
370
    -1
  9
$ENDCAPS
280
     0
  9
$JOINSTYLE
280
     0
  9
$LWDISPLAY
290
     0
  9
$INSUNITS
 70
     4
  9
$HYPERLINKBASE
  1

  9
$STYLESHEET
  1
@LAYOUT.CTB
  9
$XEDIT
290
     1
  9
$CEPSNTYPE
380
     0
  9
$PSTYLEMODE
290
     1
  9
$FINGERPRINTGUID
  2
{FA3A2F76-BD32-4CEC-A370-E38A84654028}
  9
$VERSIONGUID
  2
{FBF01889-F167-46F4-B143-FC20FA2067A6}
  9
$EXTNAMES
290
     1
  9
$PSVPSCALE
 40
0.0
  9
$OLESTARTUP
290
     0
  9
$SORTENTS
280
   127
  9
$INDEXCTL
280
     1
  9
$HIDETEXT
280
     0
  9
$XCLIPFRAME
280
     2
  9
$HALOGAP
280
     0
  9
$OBSCOLOR
 70
   257
  9
$OBSLTYPE
280
     0
  9
$INTERSECTIONDISPLAY
280
     0
  9
$INTERSECTIONCOLOR
 70
   257
  9
$DIMASSOC
280
     2
  9
$PROJECTNAME
  1

  9
$CAMERADISPLAY
290
     0
  9
$LENSLENGTH
 40
50.0
  9
$CAMERAHEIGHT
 40
0.0
  9
$STEPSPERSEC
 40
2.0
  9
$STEPSIZE
 40
6.0
  9
$3DDWFPREC
 40
2.0
  9
$PSOLWIDTH
 40
0.25
  9
$PSOLHEIGHT
 40
4.0
  9
$LOFTANG1
 40
1.570796326794896
  9
$LOFTANG2
 40
1.570796326794896
  9
$LOFTMAG1
 40
0.0
  9
$LOFTMAG2
 40
0.0
  9
$LOFTPARAM
 70
     7
  9
$LOFTNORMALS
280
     1
  9
$LATITUDE
 40
37.795
  9
$LONGITUDE
 40
-122.394
  9
$NORTHDIRECTION
 40
0.0
  9
$TIMEZONE
 70
 -8000
  9
$LIGHTGLYPHDISPLAY
280
     1
  9
$TILEMODELIGHTSYNCH
280
     1
  9
$CMATERIAL
347
A37
  9
$SOLIDHIST
280
     0
  9
$SHOWHIST
280
     1
  9
$DWFFRAME
280
     2
  9
$DGNFRAME
280
     0
  9
$REALWORLDSCALE
290
     1
  9
$INTERFERECOLOR
 62
     1
  9
$INTERFEREOBJVS
345
A59
  9
$INTERFEREVPVS
346
1ADB
  9
$CSHADOW
280
     0
  9
$SHADOWPLANELOCATION
 40
0.0
  0
ENDSEC
  0
SECTION
  2
CLASSES
  0
CLASS
  1
DICTIONARYVAR
  2
AcDbDictionaryVar
  3
ObjectDBX Classes
 90
        0
 91
       13
280
     0
281
     0
  0
CLASS
  1
ACMESTATEMGR
  2
AcMeStateMgr
  3
AcMeServices
 90
     1024
 91
        1
280
     0
281
     0
  0
CLASS
  1
ACMESCOPE
  2
AcMeScope
  3
AcMeServices
 90
     1024
 91
        1
280
     0
281
     0
  0
CLASS
  1
ACMECOMMANDHISTORY
  2
AcMeCommandHistory
  3
AcMeServices
 90
     1024
 91
        1
280
     0
281
     0
  0
CLASS
  1
ACRFINSADJUSTERMGR
  2
AcRfInsAdjusterMgr
  3
AcMeServices
 90
     1024
 91
        1
280
     0
281
     0
  0
CLASS
  1
ACMEDRAWINGMAN
  2
AcMeDrawingMan
  3
AcMeServices
 90
     1024
 91
        0
280
     0
281
     0
  0
CLASS
  1
AMATTR
  2
AcMeAttribute
  3
AcMeServices
 90
     1024
 91
        0
280
     0
281
     0
  0
CLASS
  1
ACMEBOMCOLUMN
  2
AcMeBOMColumn
  3
AcMeServices
 90
     1024
 91
        0
280
     0
281
     0
  0
CLASS
  1
ACMEBOMCONF
  2
AcMeBOMConf
  3
AcMeServices
 90
     1024
 91
        0
280
     0
281
     0
  0
CLASS
  1
ACMEBOMTABLE
  2
AcMeBOMTable
  3
AcMeServices
 90
     1024
 91
        0
280
     0
281
     0
  0
CLASS
  1
ACMEBOMENTRY
  2
AcMeBOMEntry
  3
AcMeServices
 90
     1024
 91
        0
280
     0
281
     0
  0
CLASS
  1
ACMEVIEW
  2
AcMeView
  3
AcMeServices
 90
     1024
 91
        0
280
     0
281
     0
  0
CLASS
  1
ACGREFMASTER
  2
AcGrefMaster
  3
AcAttribServices
 90
     1024
 91
        1
280
     0
281
     0
  0
CLASS
  1
AMIMASTER
  2
AmiMaster
  3
AmiServices
 90
     1024
 91
        1
280
     0
281
     0
  0
CLASS
  1
ACASGREFMASTER
  2
AcAsGrefMaster
  3
AutoSurfResolverServices
 90
     1024
 91
        0
280
     0
281
     0
  0
CLASS
  1
ADAPPL
  2
AcAdAppl
  3
DesignerAssemblies
 90
     1024
 91
        0
280
     0
281
     0
  0
CLASS
  1
DEPMGR
  2
AcAdDepMgr
  3
DesignerAssemblies
 90
     1024
 91
        0
280
     0
281
     0
  0
CLASS
  1
PARAMMGR
  2
AcAdParamMgr
  3
DesignerAssemblies
 90
     1024
 91
        0
280
     0
281
     0
  0
CLASS
  1
PARAMSCOPE
  2
AcAdParamScope
  3
DesignerAssemblies
 90
     1024
 91
        0
280
     0
281
     0
  0
CLASS
  1
ACIMSYSVARMAN
  2
AcImSysVarManager
  3
AcMeServices
 90
     1024
 91
        3
280
     0
281
     0
  0
CLASS
  1
ACIMINTSYSVAR
  2
AcImIntSysVar
  3
AcMeServices
 90
     1024
 91
        2
280
     0
281
     0
  0
CLASS
  1
ACIMREALSYSVAR
  2
AcImRealSysVar
  3
AcMeServices
 90
     1024
 91
        0
280
     0
281
     0
  0
CLASS
  1
ACIMSTRSYSVAR
  2
AcImStrSysVar
  3
AcMeServices
 90
     1024
 91
        5
280
     0
281
     0
  0
CLASS
  1
NAMEDAPPL
  2
AcAdNamedAppl
  3
DesignerAssemblies
 90
     1024
 91
        0
280
     0
281
     0
  0
CLASS
  1
ADHNTMPLT
  2
AdHoleNoteTemplateMgr
  3
DesignerServices
 90
     1024
 91
        0
280
     0
281
     0
  0
CLASS
  1
AM_HNTEMPLATE_MGR_NAME
  2
AdHoleNoteTemplateMgrName
  3
DesignerServices
 90
     1024
 91
        0
280
     0
281
     0
  0
CLASS
  1
ACADGREFMODULE
  2
AcAdGrefModule
  3
AdGrefServices
 90
     1024
 91
        0
280
     0
281
     0
  0
CLASS
  1
AM_DRAWING_MGR
  2
AcDmDwgMgr
  3
AcMechDwgViewMgmt
 90
     1024
 91
        0
280
     0
281
     0
  0
CLASS
  1
AM_DWG_DOCUMENT
  2
AcDmDwgDocument
  3
AcMechDwgViewMgmt
 90
     1024
 91
        0
280
     0
281
     0
  0
CLASS
  1
AM_DWG_SHEET
  2
AcDmSheet
  3
AcMechDwgViewMgmt
 90
     1024
 91
        0
280
     0
281
     0
  0
CLASS
  1
AM_VIEWDIMPARMAP
  2
AcDmViewDimParMap
  3
AcMechDwgViewMgmt
 90
     1024
 91
        0
280
     0
281
     0
  0
CLASS
  1
AM_DWGMGR_NAME
  2
AcDmDwgMgrName
  3
AcMechDwgViewMgmt
 90
     1024
 91
        0
280
     0
281
     0
  0
CLASS
  1
ACAMPROJECT
  2
AcAmProject
  3
DesignerAssemblies
 90
     1024
 91
        1
280
     0
281
     0
  0
CLASS
  1
ACAMGRCOMPSET
  2
AcAmGrCompSet
  3
DesignerAssemblies
 90
        0
 91
        0
280
     0
281
     0
  0
CLASS
  1
ACAMGRCOMPDEFSET
  2
AcAmGrCompDefSet
  3
DesignerAssemblies
 90
     1024
 91
        1
280
     0
281
     0
  0
CLASS
  1
ACAMGRCOMPDEF
  2
AcAmGrCompDef
  3
DesignerAssemblies
 90
     1024
 91
        1
280
     0
281
     0
  0
CLASS
  1
ACCMCONTEXT
  2
AcCmContext
  3
DesignerAssemblies
 90
     1024
 91
        0
280
     0
281
     0
  0
CLASS
  1
ACAMCOMPDEF
  2
AcAmCompDef
  3
DesignerAssemblies
 90
     1024
 91
        1
280
     0
281
     0
  0
CLASS
  1
ACAMCOMPDEFMGR
  2
AcAmCompDefMgr
  3
DesignerAssemblies
 90
     1024
 91
        1
280
     0
281
     0
  0
CLASS
  1
AMCONTEXTMGR
  2
AcAmContextMgr
  3
DesignerAssemblies
 90
     1024
 91
        1
280
     0
281
     0
  0
CLASS
  1
ACAMCONTEXTMODELER
  2
AcAmContextModeler
  3
DesignerAssemblies
 90
     1024
 91
        1
280
     0
281
     0
  0
CLASS
  1
ACDMVIEWGEOM
  2
AcDmViewGeometry
  3
AcMechDwgViewMgmt
 90
     1024
 91
        0
280
     0
281
     1
  0
CLASS
  1
CBROWSERAPPOBJECT
  2
CBrowserAppObject
  3
McadcomServices
 90
     1024
 91
        2
280
     0
281
     0
  0
CLASS
  1
IM_STATIC_MAN
  2
AcImStaticVarManager
  3
AcMeServices
 90
     1024
 91
        0
280
     0
281
     0
  0
CLASS
  1
ASAPP
  2
AcAsAppObject
  3
AutoSurfServices
 90
     1024
 91
        0
280
     0
281
     0
  0
CLASS
  1
ACIMDBLSTATICVAR
  2
AcImDblStaticVar
  3
AcMeServices
 90
     1024
 91
        0
280
     0
281
     0
  0
CLASS
  1
ACIMSTRSTATICVAR
  2
AcImStrStaticVar
  3
AcMeServices
 90
     1024
 91
        0
280
     0
281
     0
  0
CLASS
  1
ACIMINTSTATICVAR
  2
AcImIntStaticVar
  3
AcMeServices
 90
     1024
 91
        0
280
     0
281
     0
  0
CLASS
  1
CATALOGSTATE
  2
AcAmCatalogState
  3
DesignerAssemblies
 90
     1024
 91
        0
280
     0
281
     0
  0
CLASS
  1
DM_PLACEHOLDER
  2
AcDmSelsetPlaceholder
  3
McadcomServices
 90
     1024
 91
        1
280
     0
281
     0
  0
CLASS
  1
LAYER_INDEX
  2
AcDbLayerIndex
  3
ObjectDBX Classes
 90
        0
 91
        1
280
     0
281
     0
  0
CLASS
  1
IDBUFFER
  2
AcDbIdBuffer
  3
ObjectDBX Classes
 90
        0
 91
        5
280
     0
281
     0
  0
CLASS
  1
ACMSTANDARDJIS
  2
AcmStandardJIS
  3
"Amdt_StdImp|Product Description: AutoCAD Mechanical|Company: Autodesk, Inc."
 90
     1024
 91
        0
280
     0
281
     0
  0
CLASS
  1
ACMSTANDARDANSI
  2
AcmStandardANSI
  3
"Amdt_StdImp|Product Description: AutoCAD Mechanical|Company: Autodesk, Inc."
 90
     1024
 91
        1
280
     0
281
     0
  0
CLASS
  1
ACMSTANDARDBSI
  2
AcmStandardBSI
  3
"Amdt_StdImp|Product Description: AutoCAD Mechanical|Company: Autodesk, Inc."
 90
     1024
 91
        0
280
     0
281
     0
  0
CLASS
  1
ACMSTANDARDDIN
  2
AcmStandardDIN
  3
"Amdt_StdImp|Product Description: AutoCAD Mechanical|Company: Autodesk, Inc."
 90
     1024
 91
        0
280
     0
281
     0
  0
CLASS
  1
ACMSTANDARDISO
  2
AcmStandardISO
  3
"Amdt_StdImp|Product Description: AutoCAD Mechanical|Company: Autodesk, Inc."
 90
     1024
 91
        1
280
     0
281
     0
  0
CLASS
  1
ACDBDICTIONARYWDFLT
  2
AcDbDictionaryWithDefault
  3
ObjectDBX Classes
 90
        0
 91
        1
280
     0
281
     0
  0
CLASS
  1
ACME_DOCUMENT
  2
AcMeDbDoc
  3
AcMeServices
 90
     1024
 91
        1
280
     0
281
     0
  0
CLASS
  1
AMGSETTINGSOBJ
  2
AmgSettingsObj
  3
"AcadM|Product Description: AutoCAD Mechanical|Company: Autodesk, Inc."
 90
     1024
 91
        2
280
     0
281
     0
  0
CLASS
  1
AMGOBJPROPCFG
  2
AmgObjPropCfg
  3
"AmgLay|Product Description: AutoCAD Mechanical|Company: Autodesk, Inc."
 90
     1024
 91
        2
280
     0
281
     0
  0
CLASS
  1
ACDBENTITYCACHE
  2
AcMeEntityCache
  3
AcMeServices
 90
     1024
 91
        1
280
     0
281
     0
  0
CLASS
  1
GSMANAGER
  2
AcMeGSManager
  3
AcMeServices
 90
     1024
 91
        0
280
     0
281
     0
  0
CLASS
  1
AMDTINTERNALREACTOR
  2
AmdtInternalReactor
  3
AcMeServices
 90
     1024
 91
        0
280
     0
281
     0
  0
CLASS
  1
ACME_DATABASE
  2
AcMeDbDatabase
  3
AcMeServices
 90
     1024
 91
        1
280
     0
281
     0
  0
CLASS
  1
ACGREFACADMASTER
  2
AcGrefacadMaster
  3
AcGrefServices
 90
     1024
 91
        1
280
     0
281
     0
  0
CLASS
  1
AMDTMENUSTATEMGR
  2
AmdtMenuStateMgr
  3
McadcomServices
 90
     1024
 91
        1
280
     0
281
     0
  0
CLASS
  1
AMDTMCOMMENUSTATE
  2
AmdtMcomMenuState
  3
McadcomServices
 90
     1024
 91
        1
280
     0
281
     0
  0
CLASS
  1
MAPIADMODULE
  2
MApiAdModule
  3
MApiAdServices
 90
     1024
 91
        0
280
     0
281
     0
  0
CLASS
  1
AMDTDMMENUSTATE
  2
AmdtDmMenuState
  3
AcMechDwgViewMgmt
 90
     1024
 91
        0
280
     0
281
     0
  0
CLASS
  1
AMDTADMENUSTATE
  2
AmdtAdMenuState
  3
DesignerServices
 90
     1024
 91
        0
280
     0
281
     0
  0
CLASS
  1
AMDTAMMENUSTATE
  2
AmdtAmMenuState
  3
DesignerAssemblies
 90
     1024
 91
        1
280
     0
281
     0
  0
CLASS
  1
ACMDATADICTIONARY
  2
AcmDataDictionary
  3
"AcmSymBB|Product Description: AutoCAD Mechanical|Company: Autodesk, Inc."
 90
     1024
 91
        1
280
     0
281
     0
  0
CLASS
  1
ACMDATAENTRYBLOCK
  2
AcmDataEntryBlock
  3
AcmSymBB|Product Description: AutoCAD Mechanical|Company: Autodesk, Inc.
 90
     1024
 91
        0
280
     0
281
     0
  0
CLASS
  1
ACMSURFSTANDARDJIS
  2
AcmSurfTextStdJIS
  3
"Amdt_StdImp|Product Description: AutoCAD Mechanical|Company: Autodesk, Inc."
 90
     1024
 91
        0
280
     0
281
     0
  0
CLASS
  1
ACMFCFSTANDARDJIS
  2
AcmFCFStdJIS
  3
"Amdt_StdImp|Product Description: AutoCAD Mechanical|Company: Autodesk, Inc."
 90
     1024
 91
        0
280
     0
281
     0
  0
CLASS
  1
ACMWELDSTANDARDJIS
  2
AcmWeldingStdJIS
  3
"Amdt_StdImp|Product Description: AutoCAD Mechanical|Company: Autodesk, Inc."
 90
     1024
 91
        0
280
     0
281
     0
  0
CLASS
  1
ACMIDSTANDARDJIS
  2
AcmIdStdJIS
  3
"Amdt_StdImp|Product Description: AutoCAD Mechanical|Company: Autodesk, Inc."
 90
     1024
 91
        0
280
     0
281
     0
  0
CLASS
  1
ACMDATUMSTANDARDJIS
  2
AcmDatumStdJIS
  3
"Amdt_StdImp|Product Description: AutoCAD Mechanical|Company: Autodesk, Inc."
 90
     1024
 91
        0
280
     0
281
     0
  0
CLASS
  1
ACMBOMSTANDARDJIS
  2
AcmBOMStdJIS
  3
"Amdt_StdImp|Product Description: AutoCAD Mechanical|Company: Autodesk, Inc."
 90
     1024
 91
        0
280
     0
281
     0
  0
CLASS
  1
ACMSURFSTANDARDANSI
  2
AcmSurfTextStdANSI
  3
"Amdt_StdImp|Product Description: AutoCAD Mechanical|Company: Autodesk, Inc."
 90
     1024
 91
        1
280
     0
281
     0
  0
CLASS
  1
ACMFCFSTANDARDANSI
  2
AcmFCFStdANSI
  3
"Amdt_StdImp|Product Description: AutoCAD Mechanical|Company: Autodesk, Inc."
 90
     1024
 91
        1
280
     0
281
     0
  0
CLASS
  1
ACMWELDSTANDARDANSI
  2
AcmWeldingStdANSI
  3
"Amdt_StdImp|Product Description: AutoCAD Mechanical|Company: Autodesk, Inc."
 90
     1024
 91
        1
280
     0
281
     0
  0
CLASS
  1
ACMIDSTANDARDANSI
  2
AcmIdStdANSI
  3
"Amdt_StdImp|Product Description: AutoCAD Mechanical|Company: Autodesk, Inc."
 90
     1024
 91
        1
280
     0
281
     0
  0
CLASS
  1
ACMDATUMSTANDARDANSI
  2
AcmDatumStdANSI
  3
"Amdt_StdImp|Product Description: AutoCAD Mechanical|Company: Autodesk, Inc."
 90
     1024
 91
        1
280
     0
281
     0
  0
CLASS
  1
ACMBOMSTANDARDANSI
  2
AcmBOMStdANSI
  3
"Amdt_StdImp|Product Description: AutoCAD Mechanical|Company: Autodesk, Inc."
 90
     1024
 91
        1
280
     0
281
     0
  0
CLASS
  1
ACMSURFSTANDARDBSI
  2
AcmSurfTextStdBSI
  3
"Amdt_StdImp|Product Description: AutoCAD Mechanical|Company: Autodesk, Inc."
 90
     1024
 91
        0
280
     0
281
     0
  0
CLASS
  1
ACMFCFSTANDARDBSI
  2
AcmFCFStdBSI
  3
"Amdt_StdImp|Product Description: AutoCAD Mechanical|Company: Autodesk, Inc."
 90
     1024
 91
        0
280
     0
281
     0
  0
CLASS
  1
ACMWELDSTANDARDBSI
  2
AcmWeldingStdBSI
  3
"Amdt_StdImp|Product Description: AutoCAD Mechanical|Company: Autodesk, Inc."
 90
     1024
 91
        0
280
     0
281
     0
  0
CLASS
  1
ACMIDSTANDARDBSI
  2
AcmIdStdBSI
  3
"Amdt_StdImp|Product Description: AutoCAD Mechanical|Company: Autodesk, Inc."
 90
     1024
 91
        0
280
     0
281
     0
  0
CLASS
  1
ACMDATUMSTANDARDBSI
  2
AcmDatumStdBSI
  3
"Amdt_StdImp|Product Description: AutoCAD Mechanical|Company: Autodesk, Inc."
 90
     1024
 91
        0
280
     0
281
     0
  0
CLASS
  1
ACMBOMSTANDARDBSI
  2
AcmBOMStdBSI
  3
"Amdt_StdImp|Product Description: AutoCAD Mechanical|Company: Autodesk, Inc."
 90
     1024
 91
        0
280
     0
281
     0
  0
CLASS
  1
AMDTEDGESTANDARDDIN
  2
AmdtEdgeStdDIN
  3
"Amdt_StdImp|Product Description: AutoCAD Mechanical|Company: Autodesk, Inc."
 90
     1024
 91
        0
280
     0
281
     0
  0
CLASS
  1
ACMSURFSTANDARDDIN
  2
AcmSurfTextStdDIN
  3
"Amdt_StdImp|Product Description: AutoCAD Mechanical|Company: Autodesk, Inc."
 90
     1024
 91
        0
280
     0
281
     0
  0
CLASS
  1
ACMFCFSTANDARDDIN
  2
AcmFCFStdDIN
  3
"Amdt_StdImp|Product Description: AutoCAD Mechanical|Company: Autodesk, Inc."
 90
     1024
 91
        0
280
     0
281
     0
  0
CLASS
  1
ACMWELDSTANDARDDIN
  2
AcmWeldingStdDIN
  3
"Amdt_StdImp|Product Description: AutoCAD Mechanical|Company: Autodesk, Inc."
 90
     1024
 91
        0
280
     0
281
     0
  0
CLASS
  1
ACMIDSTANDARDDIN
  2
AcmIdStdDIN
  3
"Amdt_StdImp|Product Description: AutoCAD Mechanical|Company: Autodesk, Inc."
 90
     1024
 91
        0
280
     0
281
     0
  0
CLASS
  1
ACMDATUMSTANDARDDIN
  2
AcmDatumStdDIN
  3
"Amdt_StdImp|Product Description: AutoCAD Mechanical|Company: Autodesk, Inc."
 90
     1024
 91
        0
280
     0
281
     0
  0
CLASS
  1
ACMBOMSTANDARDDIN
  2
AcmBOMStdDIN
  3
"Amdt_StdImp|Product Description: AutoCAD Mechanical|Company: Autodesk, Inc."
 90
     1024
 91
        0
280
     0
281
     0
  0
CLASS
  1
ACMSURFSTANDARDISO
  2
AcmSurfTextStdISO
  3
"Amdt_StdImp|Product Description: AutoCAD Mechanical|Company: Autodesk, Inc."
 90
     1024
 91
        1
280
     0
281
     0
  0
CLASS
  1
ACMFCFSTANDARDISO
  2
AcmFCFStdISO
  3
"Amdt_StdImp|Product Description: AutoCAD Mechanical|Company: Autodesk, Inc."
 90
     1024
 91
        1
280
     0
281
     0
  0
CLASS
  1
ACMWELDSTANDARDISO
  2
AcmWeldingStdISO
  3
"Amdt_StdImp|Product Description: AutoCAD Mechanical|Company: Autodesk, Inc."
 90
     1024
 91
        1
280
     0
281
     0
  0
CLASS
  1
ACMIDSTANDARDISO
  2
AcmIdStdISO
  3
"Amdt_StdImp|Product Description: AutoCAD Mechanical|Company: Autodesk, Inc."
 90
     1024
 91
        1
280
     0
281
     0
  0
CLASS
  1
ACMDATUMSTANDARDISO
  2
AcmDatumStdISO
  3
"Amdt_StdImp|Product Description: AutoCAD Mechanical|Company: Autodesk, Inc."
 90
     1024
 91
        1
280
     0
281
     0
  0
CLASS
  1
ACMBOMSTANDARDISO
  2
AcmBOMStdISO
  3
"Amdt_StdImp|Product Description: AutoCAD Mechanical|Company: Autodesk, Inc."
 90
     1024
 91
        1
280
     0
281
     0
  0
CLASS
  1
AMDTBROWSERDBTAB
  2
AmdtBrowserDbTab
  3
McadcomServices
 90
     1024
 91
        1
280
     0
281
     0
  0
CLASS
  1
ACAMGFILTERDAT
  2
AcAmgFilterDat
  3
"AcadM|Product Description: AutoCAD Mechanical|Company: Autodesk, Inc."
 90
     1024
 91
        4
280
     0
281
     0
  0
CLASS
  1
MAPIAMMOUDLE
  2
MApiAmModule
  3
MApiAmServices
 90
     1024
 91
        1
280
     0
281
     0
  0
CLASS
  1
AMDTMAPISURFMOUDULE
  2
AmdtMApiSurfModule
  3
MApiSurfServices
 90
     1024
 91
        0
280
     0
281
     0
  0
CLASS
  1
ACAMGLAYSTD
  2
AcAmgLayStd
  3
"AmgLay|Product Description: AutoCAD Mechanical|Company: Autodesk, Inc."
 90
     1024
 91
        2
280
     0
281
     0
  0
CLASS
  1
ACAMGDIMSTD
  2
AcAmgDimStd
  3
"AmgDim|Product Description: AutoCAD Mechanical|Company: Autodesk, Inc."
 90
     1024
 91
        2
280
     0
281
     0
  0
CLASS
  1
ACAMGTITLESTD
  2
AcAmgTitleStd
  3
"AmgTitle|Product Description: AutoCAD Mechanical|Company: Autodesk, Inc."
 90
     1024
 91
        2
280
     0
281
     0
  0
CLASS
  1
ACMDETAILSTANDARDJIS
  2
AmdtDetailSymStdJIS
  3
"Amdt_StdImp|Product Description: AutoCAD Mechanical|Company: Autodesk, Inc."
 90
     1024
 91
        0
280
     0
281
     0
  0
CLASS
  1
ACMSECTIONSTANDARDJIS
  2
AmdtSectionSymStdJIS
  3
"Amdt_StdImp|Product Description: AutoCAD Mechanical|Company: Autodesk, Inc."
 90
     1024
 91
        0
280
     0
281
     0
  0
CLASS
  1
ACMCENTERLINESTANDARDJIS
  2
AmdtCenterLineStdJIS
  3
"Amdt_StdImp|Product Description: AutoCAD Mechanical|Company: Autodesk, Inc."
 90
     1024
 91
        0
280
     0
281
     0
  0
CLASS
  1
ACMTHREADLINESTANDARDJIS
  2
AmdtThreadLineStdJIS
  3
"Amdt_StdImp|Product Description: AutoCAD Mechanical|Company: Autodesk, Inc."
 90
     1024
 91
        0
280
     0
281
     0
  0
CLASS
  1
ACMDETAILSTANDARDANSI
  2
AmdtDetailSymStdANSI
  3
"Amdt_StdImp|Product Description: AutoCAD Mechanical|Company: Autodesk, Inc."
 90
     1024
 91
        1
280
     0
281
     0
  0
CLASS
  1
ACMSECTIONSTANDARDANSI
  2
AmdtSectionSymStdANSI
  3
"Amdt_StdImp|Product Description: AutoCAD Mechanical|Company: Autodesk, Inc."
 90
     1024
 91
        1
280
     0
281
     0
  0
CLASS
  1
ACMCENTERLINESTANDARDANSI
  2
AmdtCenterLineStdANSI
  3
"Amdt_StdImp|Product Description: AutoCAD Mechanical|Company: Autodesk, Inc."
 90
     1024
 91
        1
280
     0
281
     0
  0
CLASS
  1
ACMTHREADLINESTANDARDANSI
  2
AmdtThreadLineStdANSI
  3
"Amdt_StdImp|Product Description: AutoCAD Mechanical|Company: Autodesk, Inc."
 90
     1024
 91
        1
280
     0
281
     0
  0
CLASS
  1
ACMDETAILSTANDARDBSI
  2
AmdtDetailSymStdBSI
  3
"Amdt_StdImp|Product Description: AutoCAD Mechanical|Company: Autodesk, Inc."
 90
     1024
 91
        0
280
     0
281
     0
  0
CLASS
  1
ACMSECTIONSTANDARDBSI
  2
AmdtSectionSymStdBSI
  3
"Amdt_StdImp|Product Description: AutoCAD Mechanical|Company: Autodesk, Inc."
 90
     1024
 91
        0
280
     0
281
     0
  0
CLASS
  1
ACMCENTERLINESTANDARDBSI
  2
AmdtCenterLineStdBSI
  3
"Amdt_StdImp|Product Description: AutoCAD Mechanical|Company: Autodesk, Inc."
 90
     1024
 91
        0
280
     0
281
     0
  0
CLASS
  1
ACMTHREADLINESTANDARDBSI
  2
AmdtThreadLineStdBSI
  3
"Amdt_StdImp|Product Description: AutoCAD Mechanical|Company: Autodesk, Inc."
 90
     1024
 91
        0
280
     0
281
     0
  0
CLASS
  1
ACMDETAILSTANDARDDIN
  2
AmdtDetailSymStdDIN
  3
"Amdt_StdImp|Product Description: AutoCAD Mechanical|Company: Autodesk, Inc."
 90
     1024
 91
        0
280
     0
281
     0
  0
CLASS
  1
ACMSECTIONSTANDARDDIN
  2
AmdtSectionSymStdDIN
  3
"Amdt_StdImp|Product Description: AutoCAD Mechanical|Company: Autodesk, Inc."
 90
     1024
 91
        0
280
     0
281
     0
  0
CLASS
  1
ACMCENTERLINESTANDARDDIN
  2
AmdtCenterLineStdDIN
  3
"Amdt_StdImp|Product Description: AutoCAD Mechanical|Company: Autodesk, Inc."
 90
     1024
 91
        0
280
     0
281
     0
  0
CLASS
  1
ACMTHREADLINESTANDARDDIN
  2
AmdtThreadLineStdDIN
  3
"Amdt_StdImp|Product Description: AutoCAD Mechanical|Company: Autodesk, Inc."
 90
     1024
 91
        0
280
     0
281
     0
  0
CLASS
  1
AMDTEDGESTANDARDISO
  2
AmdtEdgeStdISO
  3
"Amdt_StdImp|Product Description: AutoCAD Mechanical|Company: Autodesk, Inc."
 90
     1024
 91
        1
280
     0
281
     0
  0
CLASS
  1
ACMDETAILSTANDARDISO
  2
AmdtDetailSymStdISO
  3
"Amdt_StdImp|Product Description: AutoCAD Mechanical|Company: Autodesk, Inc."
 90
     1024
 91
        1
280
     0
281
     0
  0
CLASS
  1
ACMSECTIONSTANDARDISO
  2
AmdtSectionSymStdISO
  3
"Amdt_StdImp|Product Description: AutoCAD Mechanical|Company: Autodesk, Inc."
 90
     1024
 91
        1
280
     0
281
     0
  0
CLASS
  1
ACMCENTERLINESTANDARDISO
  2
AmdtCenterLineStdISO
  3
"Amdt_StdImp|Product Description: AutoCAD Mechanical|Company: Autodesk, Inc."
 90
     1024
 91
        1
280
     0
281
     0
  0
CLASS
  1
ACMTHREADLINESTANDARDISO
  2
AmdtThreadLineStdISO
  3
"Amdt_StdImp|Product Description: AutoCAD Mechanical|Company: Autodesk, Inc."
 90
     1024
 91
        1
280
     0
281
     0
  0
CLASS
  1
ACMNOTESTANDARDISO
  2
AmdtNoteStdISO
  3
"Amdt_StdImp|Product Description: AutoCAD Mechanical|Company: Autodesk, Inc."
 90
     1024
 91
        1
280
     0
281
     0
  0
CLASS
  1
ACAMGHOLECHARTSTDISO
  2
AcAmgHoleChartStdISO
  3
AmgDim|Product Description: AutoCAD Mechanical|Company: Autodesk, Inc.
 90
     1024
 91
        1
280
     0
281
     0
  0
CLASS
  1
ACMNOTESTANDARDANSI
  2
AmdtNoteStdANSI
  3
"Amdt_StdImp|Product Description: AutoCAD Mechanical|Company: Autodesk, Inc."
 90
     1024
 91
        1
280
     0
281
     0
  0
CLASS
  1
AMDTNOTETEMPLATEDB
  2
AmdtNoteTemplateDB
  3
AcmSymBB|Product Description: AutoCAD Mechanical|Company: Autodesk, Inc.
 90
     1024
 91
        8
280
     0
281
     0
  0
CLASS
  1
ACAMGHOLECHARTSTDANSI
  2
AcAmgHoleChartStdANSI
  3
AmgDim|Product Description: AutoCAD Mechanical|Company: Autodesk, Inc.
 90
     1024
 91
        1
280
     0
281
     0
  0
CLASS
  1
TABLESTYLE
  2
AcDbTableStyle
  3
ObjectDBX Classes
 90
     4095
 91
        1
280
     0
281
     0
  0
CLASS
  1
ACAD_TABLE
  2
AcDbTable
  3
ObjectDBX Classes
 90
     1025
 91
        0
280
     0
281
     1
  0
CLASS
  1
MATERIAL
  2
AcDbMaterial
  3
ObjectDBX Classes
 90
     1153
 91
        3
280
     0
281
     0
  0
CLASS
  1
VISUALSTYLE
  2
AcDbVisualStyle
  3
ObjectDBX Classes
 90
     4095
 91
       26
280
     0
281
     0
  0
CLASS
  1
SCALE
  2
AcDbScale
  3
ObjectDBX Classes
 90
     1153
 91
       17
280
     0
281
     0
  0
CLASS
  1
MLEADERSTYLE
  2
AcDbMLeaderStyle
  3
ACDB_MLEADERSTYLE_CLASS
 90
     4095
 91
        1
280
     0
281
     0
  0
CLASS
  1
ACRFATTGENMGR
  2
AcRfAttGeneralMgr
  3
AcAttribServices
 90
     1024
 91
        0
280
     0
281
     0
  0
CLASS
  1
ACRFOBJATTMGR
  2
AcRfObjAttGroupMgr
  3
AcAttribServices
 90
     1024
 91
        0
280
     0
281
     0
  0
CLASS
  1
ACRFMCADAPIATTHOLDER
  2
AcRfMCADAPIAttHolder
  3
AcAttribServices
 90
     1024
 91
        0
280
     0
281
     0
  0
CLASS
  1
AMDTSYSATTR
  2
AmdtSystemAttribute
  3
AcAttribServices
 90
     1024
 91
        0
280
     0
281
     0
  0
CLASS
  1
ACMTAPERSTANDARDISO
  2
AcmTaperStdISO
  3
"Amdt_StdImp|Product Description: AutoCAD Mechanical|Company: Autodesk, Inc."
 90
     1024
 91
        1
280
     0
281
     0
  0
CLASS
  1
ACMANOOTATIONVIEWSTANDARDISO
  2
AmdtAnViewStdISO
  3
"Amdt_StdImp|Product Description: AutoCAD Mechanical|Company: Autodesk, Inc."
 90
     1024
 91
        1
280
     0
281
     0
  0
CLASS
  1
ACMTAPERSTANDARDANSI
  2
AcmTaperStdANSI
  3
"Amdt_StdImp|Product Description: AutoCAD Mechanical|Company: Autodesk, Inc."
 90
     1024
 91
        1
280
     0
281
     0
  0
CLASS
  1
ACMANOOTATIONVIEWSTANDARDANSI
  2
AmdtAnViewStdANSI
  3
"Amdt_StdImp|Product Description: AutoCAD Mechanical|Company: Autodesk, Inc."
 90
     1024
 91
        1
280
     0
281
     0
  0
CLASS
  1
CELLSTYLEMAP
  2
AcDbCellStyleMap
  3
ObjectDBX Classes
 90
     1152
 91
        2
280
     0
281
     0
  0
CLASS
  1
CAMSSTRUCTBTNSTATE
  2
StructBtnState
  3
DesignerAssemblies
 90
     1024
 91
        0
280
     0
281
     0
  0
CLASS
  1
DIMASSOC
  2
AcDbDimAssoc
  3
"AcDbDimAssoc|Product Desc:     AcDim ARX App For Dimension|Company:          Autodesk, Inc.|WEB Address:      www.autodesk.com"
 90
        0
 91
        0
280
     0
281
     0
  0
CLASS
  1
SORTENTSTABLE
  2
AcDbSortentsTable
  3
ObjectDBX Classes
 90
        0
 91
        1
280
     0
281
     0
  0
CLASS
  1
AEC_REFEDIT_STATUS_TRACKER
  2
AecDbRefEditStatusTracker
  3
AecArchBase70|Product Desc: Autodesk Architectural Desktop 2007 |Company: Autodesk,Inc. |WEB Address: www.autodesk.com
 90
      129
 91
        0
280
     0
281
     0
  0
CLASS
  1
NPOCOLLECTION
  2
AcDbImpNonPersistentObjectsCollection
  3
ObjectDBX Classes
 90
     1153
 91
        0
280
     0
281
     0
  0
CLASS
  1
ACDBSECTIONVIEWSTYLE
  2
AcDbSectionViewStyle
  3
ObjectDBX Classes
 90
     1025
 91
        1
280
     0
281
     0
  0
CLASS
  1
ACDBDETAILVIEWSTYLE
  2
AcDbDetailViewStyle
  3
ObjectDBX Classes
 90
     1025
 91
        1
280
     0
281
     0
  0
ENDSEC
  0
SECTION
  2
TABLES
  0
TABLE
  2
VPORT
  5
8
330
0
100
AcDbSymbolTable
 70
     1
  0
VPORT
  5
A35
330
8
100
AcDbSymbolTableRecord
100
AcDbViewportTableRecord
  2
*Active
 70
     0
 10
0.0
 20
0.0
 11
1.0
 21
1.0
 12
61.71805334979802
 22
-57.9330564582454
 13
0.0
 23
0.0
 14
2.5
 24
2.5
 15
10.0
 25
10.0
 16
0.0
 26
0.0
 36
1.0
 17
139.6244245378787
 27
150.7333487253294
 37
0.0
 40
359.7863928825172
 41
1.476709613478691
 42
50.0
 43
0.0
 44
0.0
 50
0.0
 51
0.0
 71
     0
 72
   100
 73
     1
 74
     1
 75
     0
 76
     0
 77
     0
 78
     0
281
     0
 65
     0
110
0.0
120
0.0
130
0.0
111
1.0
121
0.0
131
0.0
112
0.0
122
1.0
132
0.0
 79
     0
146
0.0
348
A55
 60
     3
 61
     5
292
     1
282
     1
141
0.0
142
0.0
 63
   250
421
  3355443
1001
ACAD_NAV_VCDISPLAY
1070
     3
  0
ENDTAB
  0
TABLE
  2
LTYPE
  5
5
330
0
100
AcDbSymbolTable
 70
    19
  0
LTYPE
  5
14
330
5
100
AcDbSymbolTableRecord
100
AcDbLinetypeTableRecord
  2
BYBLOCK
 70
     0
  3

 72
    65
 73
     0
 40
0.0
  0
LTYPE
  5
15
330
5
100
AcDbSymbolTableRecord
100
AcDbLinetypeTableRecord
  2
BYLAYER
 70
     0
  3

 72
    65
 73
     0
 40
0.0
  0
LTYPE
  5
16
330
5
100
AcDbSymbolTableRecord
100
AcDbLinetypeTableRecord
  2
CONTINUOUS
 70
     0
  3
Solid line
 72
    65
 73
     0
 40
0.0
  0
LTYPE
  5
BD
330
5
100
AcDbSymbolTableRecord
100
AcDbLinetypeTableRecord
  2
HIDDEN
 70
     0
  3
__ __ __ __ __ __ __ __ __ __ __ __ __ __ __ __
 72
    65
 73
     2
 40
0.375
 49
0.25
 74
     0
 49
-0.125
 74
     0
  0
LTYPE
  5
BF
330
5
100
AcDbSymbolTableRecord
100
AcDbLinetypeTableRecord
  2
PHANTOM2
 70
     0
  3
___ _ _ ___ _ _ ___ _ _ ___ _ _ ___ _ _ ___ _ _
 72
    65
 73
     6
 40
1.25
 49
0.625
 74
     0
 49
-0.125
 74
     0
 49
0.125
 74
     0
 49
-0.125
 74
     0
 49
0.125
 74
     0
 49
-0.125
 74
     0
  0
LTYPE
  5
CA
330
5
100
AcDbSymbolTableRecord
100
AcDbLinetypeTableRecord
  2
CENTER
 70
     0
  3
____ _ ____ _ ____ _ ____ _ ____ _ ____ _ ____ 
 72
    65
 73
     4
 40
2.0
 49
1.25
 74
     0
 49
-0.25
 74
     0
 49
0.25
 74
     0
 49
-0.25
 74
     0
  0
LTYPE
  5
14D
330
5
100
AcDbSymbolTableRecord
100
AcDbLinetypeTableRecord
  2
ACANSTGB
 70
     0
  3
__ . . __ . .
 72
    65
 73
     6
 40
0.35433070866
 49
0.15748031496
 74
     0
 49
-0.03937007874
 74
     0
 49
0.03937007874
 74
     0
 49
-0.03937007874
 74
     0
 49
0.03937007874
 74
     0
 49
-0.03937007874
 74
     0
  0
LTYPE
  5
14E
330
5
100
AcDbSymbolTableRecord
100
AcDbLinetypeTableRecord
  2
ACANSTGL
 70
     0
  3
_ _ _ _ _
 72
    65
 73
     2
 40
0.11811023622
 49
0.07874015748
 74
     0
 49
-0.03937007874
 74
     0
  0
LTYPE
  5
15B
330
5
100
AcDbSymbolTableRecord
100
AcDbLinetypeTableRecord
  2
ACISOWELD
 70
     0
  3
_ _ _ _ _
 72
    65
 73
     2
 40
2.0
 49
2.0
 74
     0
 49
-1.0
 74
     0
  0
LTYPE
  5
15C
330
5
100
AcDbSymbolTableRecord
100
AcDbLinetypeTableRecord
  2
ACISOTGB
 70
     0
  3
__ . . __ . .
 72
    65
 73
     6
 40
9.0
 49
4.0
 74
     0
 49
-1.0
 74
     0
 49
1.0
 74
     0
 49
-1.0
 74
     0
 49
1.0
 74
     0
 49
-1.0
 74
     0
  0
LTYPE
  5
15D
330
5
100
AcDbSymbolTableRecord
100
AcDbLinetypeTableRecord
  2
ACISOTGL
 70
     0
  3
_ _ _ _ _
 72
    65
 73
     2
 40
3.0
 49
2.0
 74
     0
 49
-1.0
 74
     0
  0
LTYPE
  5
175
330
5
100
AcDbSymbolTableRecord
100
AcDbLinetypeTableRecord
  2
AM_ISO02W050
 70
     0
  3
__ __ __ __ __ __ __ __ __ __ __ __ __ __ __
 72
    65
 73
     2
 40
7.5
 49
6.0
 74
     0
 49
-1.5
 74
     0
  0
LTYPE
  5
176
330
5
100
AcDbSymbolTableRecord
100
AcDbLinetypeTableRecord
  2
AM_ISO08W050
 70
     0
  3
____ . ____ . ____ . ____ . ____ . ____ . ____
 72
    65
 73
     4
 40
18.0
 49
12.0
 74
     0
 49
-1.5
 74
     0
 49
3.0
 74
     0
 49
-1.5
 74
     0
  0
LTYPE
  5
177
330
5
100
AcDbSymbolTableRecord
100
AcDbLinetypeTableRecord
  2
AM_ISO09W050
 70
     0
  3
_____ . . _____ . . _____ . . ____ .. ____
 72
    65
 73
     6
 40
22.5
 49
12.0
 74
     0
 49
-1.5
 74
     0
 49
3.0
 74
     0
 49
-1.5
 74
     0
 49
3.0
 74
     0
 49
-1.5
 74
     0
  0
LTYPE
  5
178
330
5
100
AcDbSymbolTableRecord
100
AcDbLinetypeTableRecord
  2
AM_ISO02W050x2
 70
     0
  3
 _ _ _ _ _ _ _ _ _ _ _ _
 72
    65
 73
     2
 40
3.75
 49
3.0
 74
     0
 49
-0.75
 74
     0
  0
LTYPE
  5
179
330
5
100
AcDbSymbolTableRecord
100
AcDbLinetypeTableRecord
  2
AM_ISO08W050x2
 70
     0
  3
__ . __ . __ . __ . __ . __
 72
    65
 73
     4
 40
9.0
 49
6.0
 74
     0
 49
-0.75
 74
     0
 49
1.5
 74
     0
 49
-0.75
 74
     0
  0
LTYPE
  5
17C
330
5
100
AcDbSymbolTableRecord
100
AcDbLinetypeTableRecord
  2
Amzigzag
 70
     0
  3
/\/-/\/-/\/-/\/-/\/-/\/
 72
    65
 73
     2
 40
11.0001
 49
0.0001
 74
     4
 75
   135
340
17B
 46
0.04
 50
0.0
 44
0.0
 45
0.0
 49
-11.0
 74
     0
  0
LTYPE
  5
2ED
330
5
100
AcDbSymbolTableRecord
100
AcDbLinetypeTableRecord
  2
Amconstr
 70
     0
  3
_______________________
 72
    65
 73
     2
 40
9999.0
 49
9999.0
 74
     0
 49
0.0
 74
     0
  0
LTYPE
  5
2F8
330
5
100
AcDbSymbolTableRecord
100
AcDbLinetypeTableRecord
  2
CENTER2
 70
     0
  3
Center (.5x) ___ _ ___ _ ___ _ ___ _ ___ _ ___
 72
    65
 73
     4
 40
1.125
 49
0.75
 74
     0
 49
-0.125
 74
     0
 49
0.125
 74
     0
 49
-0.125
 74
     0
  0
LTYPE
  5
2F9
330
5
100
AcDbSymbolTableRecord
100
AcDbLinetypeTableRecord
  2
HIDDEN2
 70
     0
  3
Hidden (.5x) _ _ _ _ _ _ _ _ _ _ _ _ _ _ _ _ _
 72
    65
 73
     2
 40
0.1875
 49
0.125
 74
     0
 49
-0.0625
 74
     0
  0
LTYPE
  5
2FA
330
5
100
AcDbSymbolTableRecord
100
AcDbLinetypeTableRecord
  2
Amzigzag2
 70
     0
  3
/\/-/\/-/\/-/\/-/\/-/\/
 72
    65
 73
     2
 40
0.4401
 49
0.0001
 74
     4
 75
   135
340
17B
 46
0.0016
 50
0.0
 44
0.0
 45
0.0
 49
-0.4400000000000001
 74
     0
  0
ENDTAB
  0
TABLE
  2
LAYER
  5
2
102
{ACAD_XDICTIONARY
360
592
102
}
330
0
100
AcDbSymbolTable
 70
     5
  0
LAYER
  5
F
102
{ACAD_XDICTIONARY
360
AB7
102
}
330
2
100
AcDbSymbolTableRecord
100
AcDbLayerTableRecord
  2
0
 70
     0
 62
     7
  6
CONTINUOUS
370
    -3
390
166
347
A47
348
0
  0
LAYER
  5
5CF
102
{ACAD_XDICTIONARY
360
AB9
102
}
330
2
100
AcDbSymbolTableRecord
100
AcDbLayerTableRecord
  2
AM_0
 70
     0
 62
     7
  6
CONTINUOUS
370
    50
390
166
347
A47
348
0
  0
LAYER
  5
C7A
102
{ACAD_XDICTIONARY
360
119E
102
}
330
2
100
AcDbSymbolTableRecord
100
AcDbLayerTableRecord
  2
AM_5
 70
     0
 62
     3
  6
CONTINUOUS
370
    25
390
166
347
A47
348
0
1001
AcAecLayerStandard
1000

1000

  0
LAYER
  5
D15
102
{ACAD_XDICTIONARY
360
D16
102
}
330
2
100
AcDbSymbolTableRecord
100
AcDbLayerTableRecord
  2
AM_VIS
 70
     2
 62
     7
  6
CONTINUOUS
370
    50
390
166
347
A47
348
0
  0
LAYER
  5
D17
330
2
100
AcDbSymbolTableRecord
100
AcDbLayerTableRecord
  2
Defpoints
 70
     0
 62
     7
  6
CONTINUOUS
290
     0
370
    -3
390
166
347
A47
348
0
  0
ENDTAB
  0
TABLE
  2
STYLE
  5
3
330
0
100
AcDbSymbolTable
 70
     6
  0
STYLE
  5
10
330
3
100
AcDbSymbolTableRecord
100
AcDbTextStyleTableRecord
  2
STANDARD
 70
     0
 40
0.0
 41
1.0
 50
0.0
 71
     0
 42
3.5
  3
ISOCP.SHX
  4

  0
STYLE
  5
14C
330
3
100
AcDbSymbolTableRecord
100
AcDbTextStyleTableRecord
  2
ACANSGDT
 70
     0
 40
0.0
 41
1.0
 50
0.0
 71
     0
 42
3.5
  3
amgdt.shx
  4

  0
STYLE
  5
159
330
3
100
AcDbSymbolTableRecord
100
AcDbTextStyleTableRecord
  2
ACISOTS
 70
     0
 40
1.0
 41
1.0
 50
0.0
 71
     0
 42
2.5
  3
isocp.shx
  4

  0
STYLE
  5
15A
330
3
100
AcDbSymbolTableRecord
100
AcDbTextStyleTableRecord
  2
ACISOGDT
 70
     0
 40
0.0
 41
1.0
 50
0.0
 71
     0
 42
2.5
  3
amgdt.shx
  4

  0
STYLE
  5
17B
330
3
100
AcDbSymbolTableRecord
100
AcDbTextStyleTableRecord
  2

 70
     1
 40
0.0
 41
1.0
 50
0.0
 71
     0
 42
3.5
  3
ltypeshp.shx
  4

  0
STYLE
  5
425
330
3
100
AcDbSymbolTableRecord
100
AcDbTextStyleTableRecord
  2
ACANSTS
 70
     0
 40
1.0
 41
1.0
 50
0.0
 71
     0
 42
3.5
  3
romans.shx
  4

  0
ENDTAB
  0
TABLE
  2
VIEW
  5
6
330
0
100
AcDbSymbolTable
 70
     3
  0
VIEW
  5
1C8
330
6
100
AcDbSymbolTableRecord
100
AcDbViewTableRecord
  2
AMDTVIEW1
 70
     0
 40
329.0721649484536
 10
210.0
 20
164.5360824742268
 41
420.0
 11
0.0
 21
0.0
 31
1.0
 12
0.0
 22
0.0
 32
0.0
 42
50.0
 43
0.0
 44
0.0
 50
0.0
 71
     0
281
     0
 72
     0
 73
     0
348
A55
  0
VIEW
  5
1C9
330
6
100
AcDbSymbolTableRecord
100
AcDbViewTableRecord
  2
AMDTVIEW2
 70
     0
 40
329.0721649484536
 10
210.0
 20
164.5360824742268
 41
420.0
 11
0.0
 21
0.0
 31
1.0
 12
0.0
 22
0.0
 32
0.0
 42
50.0
 43
0.0
 44
0.0
 50
0.0
 71
     0
281
     0
 72
     0
 73
     0
348
A55
  0
VIEW
  5
1CA
330
6
100
AcDbSymbolTableRecord
100
AcDbViewTableRecord
  2
AMDTVIEW3
 70
     0
 40
329.0721649484536
 10
210.0
 20
164.5360824742268
 41
420.0
 11
0.0
 21
0.0
 31
1.0
 12
0.0
 22
0.0
 32
0.0
 42
50.0
 43
0.0
 44
0.0
 50
0.0
 71
     0
281
     0
 72
     0
 73
     0
348
A55
  0
ENDTAB
  0
TABLE
  2
UCS
  5
7
330
0
100
AcDbSymbolTable
 70
     0
  0
ENDTAB
  0
TABLE
  2
APPID
  5
9
330
0
100
AcDbSymbolTable
 70
    42
  0
APPID
  5
11
330
9
100
AcDbSymbolTableRecord
100
AcDbRegAppTableRecord
  2
ACAD
 70
     0
  0
APPID
  5
CD
330
9
100
AcDbSymbolTableRecord
100
AcDbRegAppTableRecord
  2
AD_DRAW
 70
     0
  0
APPID
  5
E7
330
9
100
AcDbSymbolTableRecord
100
AcDbRegAppTableRecord
  2
DESIGNERASSEMBLIES
 70
     0
  0
APPID
  5
EB
330
9
100
AcDbSymbolTableRecord
100
AcDbRegAppTableRecord
  2
MCAD_NO_VIS
 70
     0
  0
APPID
  5
122
330
9
100
AcDbSymbolTableRecord
100
AcDbRegAppTableRecord
  2
ASURF_PCURVE_APPNAME
 70
     0
  0
APPID
  5
17F
330
9
100
AcDbSymbolTableRecord
100
AcDbRegAppTableRecord
  2
ACAD_TEMP_GRAPHIC
 70
     0
  0
APPID
  5
189
330
9
100
AcDbSymbolTableRecord
100
AcDbRegAppTableRecord
  2
ACATTRIBSERVICES
 70
     0
  0
APPID
  5
1C4
330
9
100
AcDbSymbolTableRecord
100
AcDbRegAppTableRecord
  2
ACADM_DIM_EDIT
 70
     0
  0
APPID
  5
1D5
330
9
100
AcDbSymbolTableRecord
100
AcDbRegAppTableRecord
  2
GENIUS_GENDIM_13
 70
     0
  0
APPID
  5
1D6
330
9
100
AcDbSymbolTableRecord
100
AcDbRegAppTableRecord
  2
GENIUS_GENDTOL_13
 70
     0
  0
APPID
  5
1D7
330
9
100
AcDbSymbolTableRecord
100
AcDbRegAppTableRecord
  2
GENIUS_GE3DTOL_13
 70
     0
  0
APPID
  5
2E9
330
9
100
AcDbSymbolTableRecord
100
AcDbRegAppTableRecord
  2
AMG_3D2D_5.0
 70
     0
  0
APPID
  5
3C0
330
9
100
AcDbSymbolTableRecord
100
AcDbRegAppTableRecord
  2
AMDT_DM_ADJ
 70
     0
  0
APPID
  5
82F
330
9
100
AcDbSymbolTableRecord
100
AcDbRegAppTableRecord
  2
ACAD_PSEXT
 70
     0
  0
APPID
  5
84A
330
9
100
AcDbSymbolTableRecord
100
AcDbRegAppTableRecord
  2
DCO15
 70
     0
  0
APPID
  5
892
330
9
100
AcDbSymbolTableRecord
100
AcDbRegAppTableRecord
  2
ACAD_DSTYLE_DIMTEXT_FILL
 70
     0
  0
APPID
  5
A74
330
9
100
AcDbSymbolTableRecord
100
AcDbRegAppTableRecord
  2
ACAD_MLEADERVER
 70
     0
  0
APPID
  5
AB1
330
9
100
AcDbSymbolTableRecord
100
AcDbRegAppTableRecord
  2
AcAecLayerStandard
 70
     0
  0
APPID
  5
D19
330
9
100
AcDbSymbolTableRecord
100
AcDbRegAppTableRecord
  2
ACAD_DSTYLE_DIMINSPECT
 70
     0
  0
APPID
  5
11B0
330
9
100
AcDbSymbolTableRecord
100
AcDbRegAppTableRecord
  2
AcDbAttr
 70
     0
  0
APPID
  5
12CC
330
9
100
AcDbSymbolTableRecord
100
AcDbRegAppTableRecord
  2
GENIUS_GENSCREG_15
 70
     0
  0
APPID
  5
12CD
330
9
100
AcDbSymbolTableRecord
100
AcDbRegAppTableRecord
  2
GENIUS_GENODEF_13
 70
     0
  0
APPID
  5
12CE
330
9
100
AcDbSymbolTableRecord
100
AcDbRegAppTableRecord
  2
GENIUS_GENOBJ-N-SDF_13
 70
     0
  0
APPID
  5
1897
330
9
100
AcDbSymbolTableRecord
100
AcDbRegAppTableRecord
  2
ACAD_EXEMPT_FROM_CAD_STANDARDS
 70
     0
  0
APPID
  5
18EF
330
9
100
AcDbSymbolTableRecord
100
AcDbRegAppTableRecord
  2
GENIUS_GENDIMSH_14
 70
     0
  0
APPID
  5
1AF3
330
9
100
AcDbSymbolTableRecord
100
AcDbRegAppTableRecord
  2
ACAD_NAV_VCDISPLAY
 70
     0
  0
APPID
  5
1AF4
330
9
100
AcDbSymbolTableRecord
100
AcDbRegAppTableRecord
  2
ACAD_DSTYLE_DIMARC_LENGTH_SYMBOL
 70
     0
  0
APPID
  5
1AF5
330
9
100
AcDbSymbolTableRecord
100
AcDbRegAppTableRecord
  2
ACAD_DSTYLE_DIMJOGGED_JOGANGLE_SYMBOL
 70
     0
  0
APPID
  5
1AF6
330
9
100
AcDbSymbolTableRecord
100
AcDbRegAppTableRecord
  2
GENIUS_GENTRA_14
 70
     0
  0
APPID
  5
1AF7
330
9
100
AcDbSymbolTableRecord
100
AcDbRegAppTableRecord
  2
ACAD_DSTYLE_DIMBREAK
 70
     0
  0
APPID
  5
1AF8
330
9
100
AcDbSymbolTableRecord
100
AcDbRegAppTableRecord
  2
ACAD_DSTYLE_DIMJAG
 70
     0
  0
APPID
  5
1AF9
330
9
100
AcDbSymbolTableRecord
100
AcDbRegAppTableRecord
  2
ACAD_DSTYLE_DIMTALN
 70
     0
  0
APPID
  5
1AFA
330
9
100
AcDbSymbolTableRecord
100
AcDbRegAppTableRecord
  2
GENIUS_GENOBJ-N-TIT_13
 70
     0
  0
APPID
  5
1AFB
330
9
100
AcDbSymbolTableRecord
100
AcDbRegAppTableRecord
  2
GENIUS_GENOLIS_13
 70
     0
  0
APPID
  5
1AFC
330
9
100
AcDbSymbolTableRecord
100
AcDbRegAppTableRecord
  2
GENIUS_GENOENT_13
 70
     0
  0
APPID
  5
1AFD
330
9
100
AcDbSymbolTableRecord
100
AcDbRegAppTableRecord
  2
GENIUS_GENTITLE_13
 70
     0
  0
APPID
  5
1AFE
330
9
100
AcDbSymbolTableRecord
100
AcDbRegAppTableRecord
  2
GENIUS_GENOREF_13
 70
     0
  0
APPID
  5
1AFF
330
9
100
AcDbSymbolTableRecord
100
AcDbRegAppTableRecord
  2
ACAD_OBJECT_CHANGE_GUID
 70
     0
  0
APPID
  5
1B00
330
9
100
AcDbSymbolTableRecord
100
AcDbRegAppTableRecord
  2
ACAUTHENVIRON
 70
     0
  0
APPID
  5
1B01
330
9
100
AcDbSymbolTableRecord
100
AcDbRegAppTableRecord
  2
AcDbDynamicBlockTrueName
 70
     0
  0
APPID
  5
1B02
330
9
100
AcDbSymbolTableRecord
100
AcDbRegAppTableRecord
  2
AcDbDynamicBlockGUID
 70
     0
  0
APPID
  5
1B03
330
9
100
AcDbSymbolTableRecord
100
AcDbRegAppTableRecord
  2
PE_URL
 70
     0
  0
ENDTAB
  0
TABLE
  2
DIMSTYLE
  5
A
330
0
100
AcDbSymbolTable
 70
    14
100
AcDbDimStyleTable
 71
     2
340
344
340
31B
  0
DIMSTYLE
105
31C
330
A
100
AcDbSymbolTableRecord
100
AcDbDimStyleTableRecord
  2
AM_ANSI$3
 70
     0
  4
mm
 41
0.1
 42
0.05
 43
0.5
 44
0.1
 47
0.1
 48
0.1
 78
     7
 79
     2
140
0.12
141
0.0
146
0.71
147
0.06
176
   256
177
   256
178
     2
274
     4
284
     7
288
     1
289
     0
340
10
371
    -1
372
    -1
  0
DIMSTYLE
105
31D
330
A
100
AcDbSymbolTableRecord
100
AcDbDimStyleTableRecord
  2
AM_ANSI$4
 70
     0
  4
mm
 41
0.1
 42
0.05
 43
0.5
 44
0.1
 47
0.1
 48
0.1
 78
     7
 79
     2
140
0.12
141
0.0
146
0.71
147
0.06
176
   256
177
   256
178
     2
274
     4
284
     7
288
     1
289
     0
340
10
371
    -1
372
    -1
  0
DIMSTYLE
105
31E
330
A
100
AcDbSymbolTableRecord
100
AcDbDimStyleTableRecord
  2
AM_ANSI$7
 70
     0
  4
mm
 41
0.1
 42
0.05
 43
0.5
 44
0.1
 47
0.1
 48
0.1
 78
     7
 79
     2
140
0.24
141
0.0
146
0.71
147
0.06
176
   256
177
   256
178
     2
274
     4
284
     7
340
10
371
    -1
372
    -1
  0
DIMSTYLE
105
31F
330
A
100
AcDbSymbolTableRecord
100
AcDbDimStyleTableRecord
  2
AM_ANSI$SF
 70
     0
  4
mm
 41
0.1
 42
0.05
 43
0.5
 44
0.1
 47
0.1
 48
0.1
 75
     1
 76
     1
 78
     7
 79
     2
140
0.12
141
0.0
146
0.71
147
0.06
176
   256
177
   256
178
     2
274
     4
284
     7
340
10
371
    -1
372
    -1
  0
DIMSTYLE
105
320
330
A
100
AcDbSymbolTableRecord
100
AcDbDimStyleTableRecord
  2
AM_ANSI$SH
 70
     0
  4
mm
 41
0.1
 42
0.05
 43
0.5
 44
0.1
 47
0.1
 48
0.1
 75
     1
 76
     1
 78
     7
 79
     2
140
0.12
141
0.0
146
0.71
147
0.06
173
     1
176
   256
177
   256
178
     2
274
     4
284
     7
340
10
343
2F4
371
    -1
372
    -1
  0
DIMSTYLE
105
344
330
A
100
AcDbSymbolTableRecord
100
AcDbDimStyleTableRecord
  2
AM_ISO
 70
     0
  4
"
 41
2.5
 42
1.0
 43
10.0
 44
1.0
 47
0.1
 48
0.1
 73
     0
 74
     0
 77
     1
 78
     8
 79
     2
140
3.5
141
0.0
143
0.0393701
146
0.71
147
1.5
171
     3
172
     1
176
   256
177
   256
178
     2
271
     2
272
     2
274
     3
283
     0
284
     8
340
10
371
    -1
372
    -1
  0
DIMSTYLE
105
345
330
A
100
AcDbSymbolTableRecord
100
AcDbDimStyleTableRecord
  2
AM_ISO$3
 70
     0
  4
"
 41
2.5
 42
1.0
 43
10.0
 44
1.0
 47
0.1
 48
0.1
 73
     0
 77
     1
 78
     8
 79
     2
140
3.5
141
0.0
143
0.0393701
146
0.71
147
1.5
176
   256
177
   256
178
     2
271
     2
272
     3
274
     4
283
     0
284
     8
288
     1
289
     0
340
10
371
    -1
372
    -1
  0
DIMSTYLE
105
346
330
A
100
AcDbSymbolTableRecord
100
AcDbDimStyleTableRecord
  2
AM_ISO$4
 70
     0
  4
"
 41
2.5
 42
1.0
 43
10.0
 44
1.0
 47
0.1
 48
0.1
 73
     0
 77
     1
 78
     8
 79
     2
140
3.5
141
0.0
143
0.0393701
146
0.71
147
1.5
176
   256
177
   256
178
     2
271
     2
272
     3
274
     4
283
     0
284
     8
288
     1
289
     0
340
10
371
    -1
372
    -1
  0
DIMSTYLE
105
347
330
A
100
AcDbSymbolTableRecord
100
AcDbDimStyleTableRecord
  2
AM_ISO$6
 70
     0
  4
"
 41
2.5
 42
1.0
 43
10.0
 44
1.0
 47
0.1
 48
0.1
 73
     0
 74
     0
 78
     8
 79
     2
140
3.5
141
0.0
143
0.0393701
146
0.71
147
1.5
172
     1
176
   256
177
   256
178
     2
271
     2
272
     3
274
     4
283
     0
284
     8
340
10
371
    -1
372
    -1
  0
DIMSTYLE
105
348
330
A
100
AcDbSymbolTableRecord
100
AcDbDimStyleTableRecord
  2
AM_ISO$7
 70
     0
  4
"
 41
2.5
 42
1.0
 43
10.0
 44
1.0
 47
0.1
 48
0.1
 73
     0
 74
     0
 77
     1
 78
     8
 79
     2
140
5.0
141
0.0
143
0.0393701
146
0.71
147
1.5
172
     1
176
   256
177
   256
178
     2
271
     2
272
     3
274
     4
283
     0
284
     8
340
10
371
    -1
372
    -1
  0
DIMSTYLE
105
349
330
A
100
AcDbSymbolTableRecord
100
AcDbDimStyleTableRecord
  2
AM_ISO$SF
 70
     0
  4
"
 41
2.5
 42
1.0
 43
10.0
 44
1.0
 47
0.1
 48
0.1
 73
     0
 74
     0
 75
     1
 76
     1
 77
     1
 78
     8
 79
     2
140
3.5
141
0.0
143
0.0393701
146
0.71
147
1.5
172
     1
176
   256
177
   256
178
     2
271
     2
272
     3
274
     4
283
     0
284
     8
340
10
371
    -1
372
    -1
  0
DIMSTYLE
105
34A
330
A
100
AcDbSymbolTableRecord
100
AcDbDimStyleTableRecord
  2
AM_ISO$SH
 70
     0
  4
"
 41
2.5
 42
1.0
 43
10.0
 44
1.0
 47
0.1
 48
0.1
 73
     0
 74
     0
 75
     1
 76
     1
 77
     1
 78
     8
 79
     2
140
3.5
141
0.0
143
0.0393701
144
2.0
146
0.71
147
1.5
172
     1
173
     1
176
   256
177
   256
178
     2
271
     2
272
     3
274
     4
283
     0
284
     8
340
10
343
2F4
371
    -1
372
    -1
  0
DIMSTYLE
105
31B
330
A
100
AcDbSymbolTableRecord
100
AcDbDimStyleTableRecord
  2
AM_ANSI
 70
     0
  4
mm
 41
0.1
 42
0.05
 43
0.5
 44
0.1
 47
0.1
 48
0.1
 78
     7
 79
     2
140
0.12
141
0.0
146
0.71
147
0.06
176
   256
177
   256
178
     2
274
     4
284
     7
340
10
371
    -1
372
    -1
  0
ENDTAB
  0
TABLE
  2
BLOCK_RECORD
  5
1
330
0
100
AcDbSymbolTable
 70
     4
  0
BLOCK_RECORD
  5
1A
102
{ACAD_XDICTIONARY
360
12A
102
}
330
1
100
AcDbSymbolTableRecord
100
AcDbBlockTableRecord
  2
*MODEL_SPACE
340
169
 70
     0
280
     1
281
     0
  0
BLOCK_RECORD
  5
17
330
1
100
AcDbSymbolTableRecord
100
AcDbBlockTableRecord
  2
*PAPER_SPACE
340
16A
 70
     0
280
     1
281
     0
  0
BLOCK_RECORD
  5
2F4
330
1
100
AcDbSymbolTableRecord
100
AcDbBlockTableRecord
  2
GENAXEH
340
0
 70
     0
280
     1
281
     0
  0
BLOCK_RECORD
  5
CDF
330
1
100
AcDbSymbolTableRecord
100
AcDbBlockTableRecord
  2
info
340
0
310
2800000020000000200000000100080000000000000400000000000000000000000000000000000000000000000080000080000000808000800000008000800080800000C0C0C000C0DCC000F0CAA6000020400000206000002080000020A0000020C0000020E00000400000004020000040400000406000004080000040A0
310
000040C0000040E00000600000006020000060400000606000006080000060A0000060C0000060E00000800000008020000080400000806000008080000080A0000080C0000080E00000A0000000A0200000A0400000A0600000A0800000A0A00000A0C00000A0E00000C0000000C0200000C0400000C0600000C0800000C0
310
A00000C0C00000C0E00000E0000000E0200000E0400000E0600000E0800000E0A00000E0C00000E0E00040000000400020004000400040006000400080004000A0004000C0004000E00040200000402020004020400040206000402080004020A0004020C0004020E000404000004040200040404000404060004040800040
310
40A0004040C0004040E00040600000406020004060400040606000406080004060A0004060C0004060E00040800000408020004080400040806000408080004080A0004080C0004080E00040A0000040A0200040A0400040A0600040A0800040A0A00040A0C00040A0E00040C0000040C0200040C0400040C0600040C08000
310
40C0A00040C0C00040C0E00040E0000040E0200040E0400040E0600040E0800040E0A00040E0C00040E0E00080000000800020008000400080006000800080008000A0008000C0008000E00080200000802020008020400080206000802080008020A0008020C0008020E00080400000804020008040400080406000804080
310
008040A0008040C0008040E00080600000806020008060400080606000806080008060A0008060C0008060E00080800000808020008080400080806000808080008080A0008080C0008080E00080A0000080A0200080A0400080A0600080A0800080A0A00080A0C00080A0E00080C0000080C0200080C0400080C0600080C0
310
800080C0A00080C0C00080C0E00080E0000080E0200080E0400080E0600080E0800080E0A00080E0C00080E0E000C0000000C0002000C0004000C0006000C0008000C000A000C000C000C000E000C0200000C0202000C0204000C0206000C0208000C020A000C020C000C020E000C0400000C0402000C0404000C0406000C0
310
408000C040A000C040C000C040E000C0600000C0602000C0604000C0606000C0608000C060A000C060C000C060E000C0800000C0802000C0804000C0806000C0808000C080A000C080C000C080E000C0A00000C0A02000C0A04000C0A06000C0A08000C0A0A000C0A0C000C0A0E000C0C00000C0C02000C0C04000C0C06000
310
C0C08000C0C0A000F0FBFF00A4A0A000808080000000FF0000FF000000FFFF00FF000000FF00FF00FFFF0000FFFFFF00FFFFFFFFFFFFFFFFFFFFFFFFFFFFFFFFFFFFFFFFFFFFFFFFFFFFFFFFFFFFFFFFFFFFFFFFFFFFFFFFFFFFFFFFFFFFFFFFFFFFFFFFFFFFFFFFFFFFFFFFFFFFFFFFFFFFFFFFFFFFFFFFFFFFFFFFFFFFFF
310
FFFFFFFFFFFFFFFFFFFFFFFFFFFFFFFFFFFFFFFFFFFFFFFFFFFFFFFFFFFFFFFFFFFFFFFFFFFFFFFFFFFFFFFFFFFFFFFFFFFFFFFFFFFFFFFFFFFFFFFF00FFFFFFFFFFFFFFFFFFFFFFFFFFFFFFFFFFFFFFFFFFFFFFFFFFFFFFFFFFFF00FFFFFFFFFFFFFFFFFFFFFFFFFFFFFFFFFFFFFFFFFFFFFFFFFFFFFFFFFFFF00FFFFFFFF
310
FFFFFFFFFFFFFFFFFFFFFFFFFFFFFFFFFFFF0000000000FFFFFF00FFFFFFFF00FFFFFF00FFFF000000FFFF0000000000FFFFFFFFFFFFFF000000FFFFFFFFFF00FFFFFF00FF00FFFFFF00FFFFFF00FFFF00FFFFFFFFFFFFFF0000FFFFFFFFFF00FFFFFF00FFFFFFFFFF00FFFFFF00FFFF00FFFFFFFFFFFF00FF00FFFFFFFFFF
310
0000000000FFFFFFFFFF00FFFFFF00FFFF00FFFFFFFFFF00FFFFFF00FFFFFFFF00FFFFFF00FFFFFFFFFF00FFFFFF00FFFF00FFFFFFFF00FFFFFFFF00FFFFFFFF00FFFFFF00FFFFFFFFFF00FFFFFF00FFFF00FF00FF00FFFFFFFFFF00FFFFFFFF00FFFFFF00FFFFFFFFFF00FF0000000000FFFFFF00FFFFFFFFFFFFFF00FFFF
310
FFFFFFFFFFFFFFFFFFFFFFFFFFFFFFFFFFFFFFFF00FF00FFFFFFFFFF00FFFFFFFFFFFFFFFFFFFFFFFFFFFFFFFFFFFFFFFFFFFFFFFFFFFF00FFFFFFFF00FFFFFFFFFFFFFFFFFFFFFFFFFFFFFFFFFFFFFFFFFFFFFFFFFFFFFF00FFFFFF00FFFFFFFFFFFFFFFFFFFFFFFFFFFFFFFFFFFFFFFFFFFFFFFFFFFFFFFF00FF00FFFFFF
310
FFFF00000000FFFF00FFFFFF00FF0000000000FFFFFFFFFFFFFFFF0000FFFFFFFFFFFF00FFFF00FF00FFFF00FFFFFFFF00FFFF00FFFFFFFFFFFF000000FFFFFFFFFFFF00FFFF00FF00FF00FFFFFFFFFF00FFFF00FF0000000000FFFFFF00FFFFFFFFFF000000FFFF00000000FFFFFFFF00FFFF00FFFFFFFFFFFFFFFFFFFF00
310
FFFFFFFF00FFFF00FF00FFFFFF00FFFFFF00FFFF00FFFFFFFFFFFFFFFFFFFFFF00FFFFFF00FFFF00FF00FFFFFF00FFFFFF00FFFF00FFFFFFFFFFFFFFFFFFFFFFFF00FF00000000FFFF00000000FFFF0000000000FFFFFFFFFFFFFFFFFFFFFFFFFFFFFFFFFFFFFFFFFFFFFFFFFFFFFFFFFFFFFFFFFFFFFFFFFFFFFFFFFFFFFF
310
FFFFFFFFFFFFFFFFFFFFFFFFFFFFFFFFFFFFFFFFFFFFFFFFFFFFFFFFFFFFFFFFFFFFFFFFFFFFFFFFFFFFFFFFFFFFFFFFFFFFFFFFFFFFFFFFFFFFFFFFFFFFFFFFFFFFFFFFFFFFFFFFFFFFFFFFFFFFFFFFFFFFFFFFFFFFFFFFFFFFFFFFFFFFFFFFFFFFFFFFFFFFFFFFFFFFFFFFFFFFFFFFFFFFFFFFFFFFFFFFFFFFFFFFFFFFFF
310
FFFFFFFFFFFFFFFFFFFFFFFFFFFFFFFFFFFFFFFFFFFFFFFFFFFFFFFFFFFFFFFFFFFFFFFFFFFFFFFFFFFFFFFFFFFFFFFFFFFFFFFFFFFFFFFF
102
{BLKREFS
331
1AAD
331
1AB1
102
}
 70
     4
280
     1
281
     0
  0
BLOCK_RECORD
  5
1955
330
1
100
AcDbSymbolTableRecord
100
AcDbBlockTableRecord
  2
COMSEAL32
340
0
310
2800000020000000200000000100080000000000000400000000000000000000000000000000000000000000000080000080000000808000800000008000800080800000C0C0C000C0DCC000F0CAA6000020400000206000002080000020A0000020C0000020E00000400000004020000040400000406000004080000040A0
310
000040C0000040E00000600000006020000060400000606000006080000060A0000060C0000060E00000800000008020000080400000806000008080000080A0000080C0000080E00000A0000000A0200000A0400000A0600000A0800000A0A00000A0C00000A0E00000C0000000C0200000C0400000C0600000C0800000C0
310
A00000C0C00000C0E00000E0000000E0200000E0400000E0600000E0800000E0A00000E0C00000E0E00040000000400020004000400040006000400080004000A0004000C0004000E00040200000402020004020400040206000402080004020A0004020C0004020E000404000004040200040404000404060004040800040
310
40A0004040C0004040E00040600000406020004060400040606000406080004060A0004060C0004060E00040800000408020004080400040806000408080004080A0004080C0004080E00040A0000040A0200040A0400040A0600040A0800040A0A00040A0C00040A0E00040C0000040C0200040C0400040C0600040C08000
310
40C0A00040C0C00040C0E00040E0000040E0200040E0400040E0600040E0800040E0A00040E0C00040E0E00080000000800020008000400080006000800080008000A0008000C0008000E00080200000802020008020400080206000802080008020A0008020C0008020E00080400000804020008040400080406000804080
310
008040A0008040C0008040E00080600000806020008060400080606000806080008060A0008060C0008060E00080800000808020008080400080806000808080008080A0008080C0008080E00080A0000080A0200080A0400080A0600080A0800080A0A00080A0C00080A0E00080C0000080C0200080C0400080C0600080C0
310
800080C0A00080C0C00080C0E00080E0000080E0200080E0400080E0600080E0800080E0A00080E0C00080E0E000C0000000C0002000C0004000C0006000C0008000C000A000C000C000C000E000C0200000C0202000C0204000C0206000C0208000C020A000C020C000C020E000C0400000C0402000C0404000C0406000C0
310
408000C040A000C040C000C040E000C0600000C0602000C0604000C0606000C0608000C060A000C060C000C060E000C0800000C0802000C0804000C0806000C0808000C080A000C080C000C080E000C0A00000C0A02000C0A04000C0A06000C0A08000C0A0A000C0A0C000C0A0E000C0C00000C0C02000C0C04000C0C06000
310
C0C08000C0C0A000F0FBFF00A4A0A000808080000000FF0000FF000000FFFF00FF000000FF00FF00FFFF0000FFFFFF00000000000000000000000000000000000000000000000000000000000000000000000000000000000000FA00000000000000000000000000FA0000000000000000000000000000000000FAFAFAFAFA
310
FAFBFBFBFAFAFAFAFAFA0000000000000000000000000000000000FA00FAFBFBFBFBFA000000000000FA0000000000000000000000000000FAFAFAFAFFFAFFFFFFFFFAFFFFFFFFFFFFFA0000000000000000000000000000FA0000FFFFFAFFFFFFFFFA000000000000FF0000000000000000000000000000FAFAFAFAFAFAFF
310
FFFFFFFAFFFFFFFFFF00FF0000000000000000000000000000FAFA00FF00FF00000000FF00000000FF00FF0000000000000000000000000000FAFA00FF00FF00000000FF00000000FF00FF0000000000000000000000000000FAFA00FF00FF00000000FF00000000FF00FF0000000000000000000000000000FAFA00FF00FF
310
00000000FF00000000FF00FF0000000000000000000000000000FAFA00FF00FF00000000FF00000000FF00FF0000000000000000000000000000FAFA00FFFFFF00000000FF00000000FFFFFF0000000000000000000000000000FAFA00FF00FF00000000FF00000000FFFFFF0000000000000000000000000000FAFB00FF00
310
FF00000000FF00000000FF00FF0000000000000000000000000000FBFB00FF00FF00000000FF00000000FF00FF0000000000000000000000000000FBFB00FF00FF00000000FF00000000FF00FF0000000000000000000000000000FBFA00FF00FF00000000FF00000000FF00FF0000000000000000000000000000FBFA00FF
310
00FF00000000FF00000000FF00FF0000000000000000000000000000FAFA00FF00FF00000000FF00000000FF00FF0000000000000000000000000000FAFA00FF00FF00000000FF00000000FF00FF0000000000000000000000000000FAFA00FFFFFF00000000FF00000000FFFFFF0000000000000000000000000000FAFA00
310
FF00FF00000000FF00000000FF00FF0000000000000000000000000000FAFA00FF00FF00000000FF00000000FF00FF0000000000000000000000000000FAFAFAFAFAFAFFFFFFFFFFFFFFFFFFFF00FF0000000000000000000000000000FA0000FF00FFFFFFFFFF00FFFFFFFFFF00FF0000000000000000000000000000FA00
310
00FF00FF00FFFFFFFFFFFFFF00FF00FF0000000000000000000000000000FA0000FF00FFFFFFFFFFFFFFFFFFFFFF00FF0000000000000000000000000000FA0000FF00FFFFFFFFFFFFFFFFFFFFFF00FF0000000000000000000000000000FA0000FFFF0000000000FF0000000000FFFF0000000000000000000000000000FA
310
FAFAFAFFFFFFFFFFFFFFFFFFFFFFFFFFFF000000000000000000000000000000000000000000000000000000000000000000000000000000
102
{BLKREFS
331
1ACD
102
}
 70
     4
280
     1
281
     0
  0
ENDTAB
  0
ENDSEC
  0
SECTION
  2
BLOCKS
  0
BLOCK
  5
1B
330
1A
100
AcDbEntity
  8
0
100
AcDbBlockBegin
  2
*MODEL_SPACE
 70
     0
 10
0.0
 20
0.0
 30
0.0
  3
*MODEL_SPACE
  1

  0
ENDBLK
  5
1C
330
1A
100
AcDbEntity
  8
0
100
AcDbBlockEnd
  0
BLOCK
  5
18
330
17
100
AcDbEntity
 67
     1
  8
0
100
AcDbBlockBegin
  2
*PAPER_SPACE
 70
     0
 10
0.0
 20
0.0
 30
0.0
  3
*PAPER_SPACE
  1

  0
ENDBLK
  5
19
330
17
100
AcDbEntity
 67
     1
  8
0
100
AcDbBlockEnd
  0
BLOCK
  5
1B3E
330
2F4
100
AcDbEntity
  8
0
100
AcDbBlockBegin
  2
GENAXEH
 70
     0
 10
0.0
 20
0.0
 30
0.0
  3
GENAXEH
  1

  0
LINE
  5
1B3F
330
2F4
100
AcDbEntity
  8
0
100
AcDbLine
 10
-1.0
 20
0.0
 30
0.0
 11
1.0
 21
0.0
 31
0.0
  0
ENDBLK
  5
1B40
330
2F4
100
AcDbEntity
  8
0
100
AcDbBlockEnd
  0
BLOCK
  5
CE0
330
CDF
100
AcDbEntity
  8
0
100
AcDbBlockBegin
  2
info
 70
     2
 10
0.0
 20
0.0
 30
0.0
  3
info
  1

  0
POINT
  5
CE1
330
CDF
100
AcDbEntity
  8
0
100
AcDbPoint
 10
0.0
 20
0.0
 30
0.0
  0
ATTDEF
  5
CE2
330
CDF
100
AcDbEntity
  8
0
100
AcDbText
 10
9.467092950319427
 20
2.891095235479383
 30
0.00000001
 40
5.0
  1

100
AcDbAttributeDefinition
280
     0
  3
bredd
  2
BRD
 70
     1
280
     1
  0
ATTDEF
  5
CE3
330
CDF
100
AcDbEntity
  8
0
100
AcDbText
 10
9.467092950319427
 20
-5.442238097853946
 30
0.00000001
 40
5.0
  1

100
AcDbAttributeDefinition
280
     0
  3
Höjd
  2
HJD
 70
     1
280
     1
  0
ENDBLK
  5
CE4
330
CDF
100
AcDbEntity
  8
0
100
AcDbBlockEnd
  0
BLOCK
  5
1956
330
1955
100
AcDbEntity
  8
0
100
AcDbBlockBegin
  2
COMSEAL32
 70
     0
 10
0.0
 20
0.0
 30
0.0
  3
COMSEAL32
  1

  0
LINE
  5
1958
330
1955
100
AcDbEntity
  8
AM_VIS
100
AcDbLine
 10
-0.3097359545094491
 20
94.29426960658606
 30
0.0
 11
-0.3824628148370834
 21
94.318511893362
 31
0.0
  0
LINE
  5
1959
330
1955
100
AcDbEntity
  8
AM_VIS
100
AcDbLine
 10
-0.2450898564418651
 20
94.25386579529392
 30
0.0
 11
-0.3097359545094207
 21
94.29426960658606
 31
0.0
  0
LINE
  5
195A
330
1955
100
AcDbEntity
  8
AM_VIS
100
AcDbLine
 10
-0.2046860451494581
 20
94.20538122174296
 30
0.0
 11
-0.2450898564418935
 21
94.253865795294
 31
0.0
  0
LINE
  5
195B
330
1955
100
AcDbEntity
  8
AM_VIS
100
AcDbLine
 10
-0.172362996115254
 20
94.15689664819176
 30
0.0
 11
-0.2046860451494581
 21
94.20538122174296
 31
0.0
  0
LINE
  5
195C
330
1955
100
AcDbEntity
  8
AM_VIS
100
AcDbLine
 10
-0.1400399470815614
 20
94.04376597657288
 30
0.0
 11
-0.172362996115254
 21
94.15689664819176
 31
0.0
  0
LINE
  5
195D
330
1955
100
AcDbEntity
  8
AM_VIS
100
AcDbLine
 10
-0.1319591848228185
 20
93.91447378043656
 30
0.0
 11
-0.1400399470815614
 21
94.04376597657288
 31
0.0
  0
LINE
  5
195E
330
1955
100
AcDbEntity
  8
AM_VIS
100
AcDbLine
 10
-0.1319591848228185
 20
92.71852096617736
 30
0.0
 11
-0.1319591848228185
 21
93.91447378043656
 31
0.0
  0
LINE
  5
195F
330
1955
100
AcDbEntity
  8
AM_VIS
100
AcDbLine
 10
-0.140039947081334
 20
92.66195563036777
 30
0.0
 11
-0.1319591848228185
 21
92.71852096617736
 31
0.0
  0
LINE
  5
1960
330
1955
100
AcDbEntity
  8
AM_VIS
100
AcDbLine
 10
-0.1562014715983651
 20
92.6134710568168
 30
0.0
 11
-0.140039947081334
 21
92.66195563036777
 31
0.0
  0
LINE
  5
1961
330
1955
100
AcDbEntity
  8
AM_VIS
100
AcDbLine
 10
-0.172362996115254
 20
92.5569057210072
 30
0.0
 11
-0.1562014715983651
 21
92.6134710568168
 31
0.0
  0
LINE
  5
1962
330
1955
100
AcDbEntity
  8
AM_VIS
100
AcDbLine
 10
-0.2450898564418935
 20
92.4680173361637
 30
0.0
 11
-0.172362996115254
 21
92.5569057210072
 31
0.0
  0
LINE
  5
1963
330
1955
100
AcDbEntity
  8
AM_VIS
100
AcDbLine
 10
-0.3097359545085965
 20
92.44377504938858
 30
0.0
 11
-0.2450898564418935
 21
92.4680173361636
 31
0.0
  0
LINE
  5
1964
330
1955
100
AcDbEntity
  8
AM_VIS
100
AcDbLine
 10
-0.3824628148366571
 20
92.41953276261243
 30
0.0
 11
-0.3097359545085965
 21
92.44377504938858
 31
0.0
  0
LINE
  5
1965
330
1955
100
AcDbEntity
  8
AM_VIS
100
AcDbLine
 10
-0.4713511996801856
 20
92.41145200035408
 30
0.0
 11
-0.3824628148366571
 21
92.41953276261243
 31
0.0
  0
LINE
  5
1966
330
1955
100
AcDbEntity
  8
AM_VIS
100
AcDbLine
 10
-0.5602395845238563
 20
92.41953276261243
 30
0.0
 11
-0.4713511996801856
 21
92.41145200035408
 31
0.0
  0
LINE
  5
1967
330
1955
100
AcDbEntity
  8
AM_VIS
100
AcDbLine
 10
-0.6976125429183356
 20
92.4680173361637
 30
0.0
 11
-0.5602395845238278
 21
92.41953276261243
 31
0.0
  0
LINE
  5
1968
330
1955
100
AcDbEntity
  8
AM_VIS
100
AcDbLine
 10
-0.7582182598571308
 20
92.5286230531025
 30
0.0
 11
-0.6976125429183356
 21
92.4680173361637
 31
0.0
  0
LINE
  5
1969
330
1955
100
AcDbEntity
  8
AM_VIS
100
AcDbLine
 10
-0.7865009277618641
 20
92.6134710568168
 30
0.0
 11
-0.7582182598571308
 21
92.5286230531025
 31
0.0
  0
LINE
  5
196A
330
1955
100
AcDbEntity
  8
AM_VIS
100
AcDbLine
 10
-0.8107432145375526
 20
92.71852096617736
 30
0.0
 11
-0.7865009277618641
 21
92.6134710568168
 31
0.0
  0
LINE
  5
196B
330
1955
100
AcDbEntity
  8
AM_VIS
100
AcDbLine
 10
-0.8107432145375526
 20
93.9952814030215
 30
0.0
 11
-0.8107432145375526
 21
92.71852096617736
 31
0.0
  0
LINE
  5
196C
330
1955
100
AcDbEntity
  8
AM_VIS
100
AcDbLine
 10
-0.7865009277618641
 20
94.10033131238213
 30
0.0
 11
-0.8107432145375526
 21
93.9952814030215
 31
0.0
  0
LINE
  5
196D
330
1955
100
AcDbEntity
  8
AM_VIS
100
AcDbLine
 10
-0.7380163542109131
 20
94.20538122174296
 30
0.0
 11
-0.7865009277618641
 21
94.10033131238213
 31
0.0
  0
LINE
  5
196E
330
1955
100
AcDbEntity
  8
AM_VIS
100
AcDbLine
 10
-0.6976125429183356
 20
94.25386579529389
 30
0.0
 11
-0.7380163542108848
 21
94.20538122174296
 31
0.0
  0
LINE
  5
196F
330
1955
100
AcDbEntity
  8
AM_VIS
100
AcDbLine
 10
-0.6410472071090112
 20
94.29426960658629
 30
0.0
 11
-0.697612542918364
 21
94.25386579529392
 31
0.0
  0
LINE
  5
1970
330
1955
100
AcDbEntity
  8
AM_VIS
100
AcDbLine
 10
-0.5602395845238563
 20
94.31851189336208
 30
0.0
 11
-0.6410472071090112
 21
94.29426960658622
 31
0.0
  0
LINE
  5
1971
330
1955
100
AcDbEntity
  8
AM_VIS
100
AcDbLine
 10
-0.3824628148370834
 20
94.31851189336208
 30
0.0
 11
-0.5602395845238563
 21
94.31851189336208
 31
0.0
  0
LINE
  5
1972
330
1955
100
AcDbEntity
  8
AM_VIS
100
AcDbLine
 10
8.611425578882716
 20
93.68013167493989
 30
0.0
 11
9.290209608597448
 21
93.68013167493989
 31
0.0
  0
LINE
  5
1973
330
1955
100
AcDbEntity
  8
AM_VIS
100
AcDbLine
 10
8.611425578882716
 20
93.93871606721228
 30
0.0
 11
8.611425578882716
 21
93.68013167493989
 31
0.0
  0
LINE
  5
1974
330
1955
100
AcDbEntity
  8
AM_VIS
100
AcDbLine
 10
8.61950634114126
 20
94.03568521431429
 30
0.0
 11
8.611425578882744
 21
93.93871606721235
 31
0.0
  0
LINE
  5
1975
330
1955
100
AcDbEntity
  8
AM_VIS
100
AcDbLine
 10
8.643748627916636
 20
94.11649283689934
 30
0.0
 11
8.619506341141232
 21
94.03568521431429
 31
0.0
  0
LINE
  5
1976
330
1955
100
AcDbEntity
  8
AM_VIS
100
AcDbLine
 10
8.684152439209384
 20
94.18921969722578
 30
0.0
 11
8.643748627916663
 21
94.11649283689934
 31
0.0
  0
LINE
  5
1977
330
1955
100
AcDbEntity
  8
AM_VIS
100
AcDbLine
 10
8.732637012760191
 20
94.23770427077689
 30
0.0
 11
8.684152439209356
 21
94.18921969722578
 31
0.0
  0
LINE
  5
1978
330
1955
100
AcDbEntity
  8
AM_VIS
100
AcDbLine
 10
8.797283110828319
 20
94.28618884432802
 30
0.0
 11
8.732637012760221
 21
94.23770427077689
 31
0.0
  0
LINE
  5
1979
330
1955
100
AcDbEntity
  8
AM_VIS
100
AcDbLine
 10
8.861929208896441
 20
94.31043113110355
 30
0.0
 11
8.797283110828287
 21
94.28618884432802
 31
0.0
  0
LINE
  5
197A
330
1955
100
AcDbEntity
  8
AM_VIS
100
AcDbLine
 10
8.942736831481596
 20
94.31851189336208
 30
0.0
 11
8.861929208896441
 21
94.31043113110352
 31
0.0
  0
LINE
  5
197B
330
1955
100
AcDbEntity
  8
AM_VIS
100
AcDbLine
 10
9.015463691808236
 20
94.31043113110355
 30
0.0
 11
8.942736831481596
 21
94.31851189336208
 31
0.0
  0
LINE
  5
197C
330
1955
100
AcDbEntity
  8
AM_VIS
100
AcDbLine
 10
9.080109789876047
 20
94.2942696065865
 30
0.0
 11
9.015463691808207
 21
94.31043113110352
 31
0.0
  0
LINE
  5
197D
330
1955
100
AcDbEntity
  8
AM_VIS
100
AcDbLine
 10
9.136675125685682
 20
94.26194655755232
 30
0.0
 11
9.080109789876075
 21
94.2942696065865
 31
0.0
  0
LINE
  5
197E
330
1955
100
AcDbEntity
  8
AM_VIS
100
AcDbLine
 10
9.193240461495435
 20
94.2215427462599
 30
0.0
 11
9.136675125685682
 21
94.26194655755232
 31
0.0
  0
LINE
  5
197F
330
1955
100
AcDbEntity
  8
AM_VIS
100
AcDbLine
 10
9.233644272787868
 20
94.15689664819176
 30
0.0
 11
9.193240461495435
 21
94.2215427462599
 31
0.0
  0
LINE
  5
1980
330
1955
100
AcDbEntity
  8
AM_VIS
100
AcDbLine
 10
9.26596732182193
 20
94.08416978786522
 30
0.0
 11
9.233644272787868
 21
94.15689664819176
 31
0.0
  0
LINE
  5
1981
330
1955
100
AcDbEntity
  8
AM_VIS
100
AcDbLine
 10
9.282128846338961
 20
93.9952814030215
 30
0.0
 11
9.26596732182193
 21
94.08416978786522
 31
0.0
  0
LINE
  5
1982
330
1955
100
AcDbEntity
  8
AM_VIS
100
AcDbLine
 10
9.290209608597448
 20
93.89023149366101
 30
0.0
 11
9.282128846338961
 21
93.9952814030215
 31
0.0
  0
LINE
  5
1983
330
1955
100
AcDbEntity
  8
AM_VIS
100
AcDbLine
 10
9.290209608597448
 20
93.68013167493991
 30
0.0
 11
9.290209608597448
 21
93.89023149366101
 31
0.0
  0
LINE
  5
1984
330
1955
100
AcDbEntity
  8
AM_VIS
100
AcDbLine
 10
-4.487490042158555
 20
94.90840753823306
 30
0.0
 11
-4.487490042158555
 21
94.14073512367478
 31
0.0
  0
LINE
  5
1985
330
1955
100
AcDbEntity
  8
AM_VIS
100
AcDbLine
 10
-4.115774978267268
 20
94.90840753823306
 30
0.0
 11
-4.487490042158555
 21
94.90840753823306
 31
0.0
  0
LINE
  5
1986
330
1955
100
AcDbEntity
  8
AM_VIS
100
AcDbLine
 10
-4.487490042158555
 20
94.14073512367478
 30
0.0
 11
-4.043048117940627
 21
94.14073512367478
 31
0.0
  0
LINE
  5
1987
330
1955
100
AcDbEntity
  8
AM_VIS
100
AcDbLine
 10
-43.24999999999998
 20
-95.30000000000008
 30
0.0
 11
-43.24999999999998
 21
64.70074023069566
 31
0.0
  0
LINE
  5
1988
330
1955
100
AcDbEntity
  8
AM_VIS
100
AcDbLine
 10
-3.249999999999971
 20
-95.30000000000008
 30
0.0
 11
-43.24999999999998
 21
-95.30000000000008
 31
0.0
  0
LINE
  5
1989
330
1955
100
AcDbEntity
  8
AM_VIS
100
AcDbLine
 10
-3.250000000000028
 20
64.70074023069566
 30
0.0
 11
-3.250000000000028
 21
-95.30000000000008
 31
0.0
  0
LINE
  5
198A
330
1955
100
AcDbEntity
  8
AM_VIS
100
AcDbLine
 10
-43.24999999999998
 20
64.70074023069566
 30
0.0
 11
-3.25
 21
64.70074023069566
 31
0.0
  0
LINE
  5
198B
330
1955
100
AcDbEntity
  8
AM_VIS
100
AcDbLine
 10
3.25
 20
-95.30000000000008
 30
0.0
 11
3.25
 21
64.70074023069566
 31
0.0
  0
LINE
  5
198C
330
1955
100
AcDbEntity
  8
AM_VIS
100
AcDbLine
 10
43.25000000000001
 20
-95.30000000000008
 30
0.0
 11
3.25
 21
-95.30000000000008
 31
0.0
  0
LINE
  5
198D
330
1955
100
AcDbEntity
  8
AM_VIS
100
AcDbLine
 10
43.24999999999998
 20
64.70074023069566
 30
0.0
 11
43.24999999999998
 21
-95.30000000000008
 31
0.0
  0
LINE
  5
198E
330
1955
100
AcDbEntity
  8
AM_VIS
100
AcDbLine
 10
3.25
 20
64.70074023069566
 30
0.0
 11
43.24999999999998
 21
64.70074023069566
 31
0.0
  0
LINE
  5
198F
330
1955
100
AcDbEntity
  8
AM_VIS
100
AcDbLine
 10
-7.614745036201071
 20
97.30031316675137
 30
0.0
 11
-7.614745036201071
 21
90.35085762443458
 31
0.0
  0
LINE
  5
1990
330
1955
100
AcDbEntity
  8
AM_VIS
100
AcDbLine
 10
-10.26577022011057
 20
97.30031316675146
 30
0.0
 11
-7.614745036201071
 21
97.30031316675146
 31
0.0
  0
LINE
  5
1991
330
1955
100
AcDbEntity
  8
AM_VIS
100
AcDbLine
 10
-7.614745036201212
 20
90.35085762443458
 30
0.0
 11
-10.26540821099846
 21
90.35085762443458
 31
0.0
  0
LINE
  5
1992
330
1955
100
AcDbEntity
  8
AM_VIS
100
AcDbLine
 10
-1.206700565204386
 20
91.78115254419045
 30
0.0
 11
-1.408719621666989
 21
91.78923330644895
 31
0.0
  0
LINE
  5
1993
330
1955
100
AcDbEntity
  8
AM_VIS
100
AcDbLine
 10
0.4013711242385797
 20
91.78115254419045
 30
0.0
 11
-1.206700565204356
 21
91.78115254419045
 31
0.0
  0
LINE
  5
1994
330
1955
100
AcDbEntity
  8
AM_VIS
100
AcDbLine
 10
1.039751342660877
 20
94.37507722917166
 30
0.0
 11
1.039751342660877
 21
92.37104818906095
 31
0.0
  0
LINE
  5
1995
330
1955
100
AcDbEntity
  8
AM_VIS
100
AcDbLine
 10
-1.352154285857523
 20
94.94881134952576
 30
0.0
 11
0.4256134110141831
 21
94.94881134952548
 31
0.0
  0
LINE
  5
1996
330
1955
100
AcDbEntity
  8
AM_VIS
100
AcDbLine
 10
-1.982453742021164
 20
92.37912895132
 30
0.0
 11
-1.990534504279679
 21
94.21346198400152
 31
0.0
  0
LINE
  5
1997
330
1955
100
AcDbEntity
  8
AM_VIS
100
AcDbLine
 10
-1.966292217504133
 20
92.24983675518409
 30
0.0
 11
-1.982453742021164
 21
92.37912895132
 31
0.0
  0
LINE
  5
1998
330
1955
100
AcDbEntity
  8
AM_VIS
100
AcDbLine
 10
10.4376778493055
 20
92.22559446840842
 30
0.0
 11
10.39727403801294
 21
92.10438303453077
 31
0.0
  0
LINE
  5
1999
330
1955
100
AcDbEntity
  8
AM_VIS
100
AcDbLine
 10
10.46192013608112
 20
92.36296742680314
 30
0.0
 11
10.4376778493055
 21
92.22559446840842
 31
0.0
  0
LINE
  5
199A
330
1955
100
AcDbEntity
  8
AM_VIS
100
AcDbLine
 10
10.47000089833942
 20
92.51650190971467
 30
0.0
 11
10.46192013608112
 21
92.36296742680314
 31
0.0
  0
LINE
  5
199B
330
1955
100
AcDbEntity
  8
AM_VIS
100
AcDbLine
 10
10.47000089833957
 20
92.75084401521143
 30
0.0
 11
10.47000089833942
 21
92.51650190971467
 31
0.0
  0
LINE
  5
199C
330
1955
100
AcDbEntity
  8
AM_VIS
100
AcDbLine
 10
9.29020960859748
 20
92.75084401521151
 30
0.0
 11
10.4700008983396
 21
92.75084401521151
 31
0.0
  0
LINE
  5
199D
330
1955
100
AcDbEntity
  8
AM_VIS
100
AcDbLine
 10
9.282128846338961
 20
92.65387486810933
 30
0.0
 11
9.29020960859748
 21
92.75084401521151
 31
0.0
  0
LINE
  5
199E
330
1955
100
AcDbEntity
  8
AM_VIS
100
AcDbLine
 10
9.24980579730473
 20
92.5811480077828
 30
0.0
 11
9.282128846338936
 21
92.65387486810933
 31
0.0
  0
LINE
  5
199F
330
1955
100
AcDbEntity
  8
AM_VIS
100
AcDbLine
 10
9.209401986012297
 20
92.52458267197329
 30
0.0
 11
9.249805797304759
 21
92.5811480077828
 31
0.0
  0
LINE
  5
19A0
330
1955
100
AcDbEntity
  8
AM_VIS
100
AcDbLine
 10
9.160917412461202
 20
92.48417886068065
 30
0.0
 11
9.209401986012297
 21
92.52458267197331
 31
0.0
  0
LINE
  5
19A1
330
1955
100
AcDbEntity
  8
AM_VIS
100
AcDbLine
 10
9.112432838910279
 20
92.45185581164664
 30
0.0
 11
9.16091741246123
 21
92.48417886068056
 31
0.0
  0
LINE
  5
19A2
330
1955
100
AcDbEntity
  8
AM_VIS
100
AcDbLine
 10
9.055867503100644
 20
92.42761352487127
 30
0.0
 11
9.112432838910251
 21
92.45185581164664
 31
0.0
  0
LINE
  5
19A3
330
1955
100
AcDbEntity
  8
AM_VIS
100
AcDbLine
 10
9.007382929549434
 20
92.41953276261243
 30
0.0
 11
9.055867503100671
 21
92.42761352487127
 31
0.0
  0
LINE
  5
19A4
330
1955
100
AcDbEntity
  8
AM_VIS
100
AcDbLine
 10
8.950817593740081
 20
92.41145200035408
 30
0.0
 11
9.007382929549407
 21
92.41953276261243
 31
0.0
  0
LINE
  5
19A5
330
1955
100
AcDbEntity
  8
AM_VIS
100
AcDbLine
 10
8.861929208896441
 20
92.41953276261243
 30
0.0
 11
8.950817593740111
 21
92.41145200035408
 31
0.0
  0
LINE
  5
19A6
330
1955
100
AcDbEntity
  8
AM_VIS
100
AcDbLine
 10
8.789202348569942
 20
92.44377504938814
 30
0.0
 11
8.861929208896441
 21
92.41953276261243
 31
0.0
  0
LINE
  5
19A7
330
1955
100
AcDbEntity
  8
AM_VIS
100
AcDbLine
 10
8.724556250501818
 20
92.48417886068065
 30
0.0
 11
8.789202348569942
 21
92.44377504938814
 31
0.0
  0
LINE
  5
19A8
330
1955
100
AcDbEntity
  8
AM_VIS
100
AcDbLine
 10
8.684152439209384
 20
92.53266343423183
 30
0.0
 11
8.724556250501791
 21
92.48417886068065
 31
0.0
  0
LINE
  5
19A9
330
1955
100
AcDbEntity
  8
AM_VIS
100
AcDbLine
 10
8.651829390175151
 20
92.58922877004112
 30
0.0
 11
8.684152439209356
 21
92.53266343423183
 31
0.0
  0
LINE
  5
19AA
330
1955
100
AcDbEntity
  8
AM_VIS
100
AcDbLine
 10
8.619506341141089
 20
92.71852096617736
 30
0.0
 11
8.651829390175151
 21
92.58922877004112
 31
0.0
  0
LINE
  5
19AB
330
1955
100
AcDbEntity
  8
AM_VIS
100
AcDbLine
 10
8.611425578882716
 20
93.04983221877613
 30
0.0
 11
8.619506341141089
 21
92.71852096617736
 31
0.0
  0
LINE
  5
19AC
330
1955
100
AcDbEntity
  8
AM_VIS
100
AcDbLine
 10
10.47000089833957
 20
93.04983221877606
 30
0.0
 11
8.611425578882716
 21
93.04983221877606
 31
0.0
  0
LINE
  5
19AD
330
1955
100
AcDbEntity
  8
AM_VIS
100
AcDbLine
 10
10.47000089833942
 20
94.2134619840017
 30
0.0
 11
10.47000089833957
 21
93.04983221877606
 31
0.0
  0
LINE
  5
19AE
330
1955
100
AcDbEntity
  8
AM_VIS
100
AcDbLine
 10
10.46192013608106
 20
94.35891570465448
 30
0.0
 11
10.47000089833942
 21
94.2134619840017
 31
0.0
  0
LINE
  5
19AF
330
1955
100
AcDbEntity
  8
AM_VIS
100
AcDbLine
 10
8.110418318855181
 20
94.94881134952548
 30
0.0
 11
9.81545915540039
 21
94.94881134952548
 31
0.0
  0
LINE
  5
19B0
330
1955
100
AcDbEntity
  8
AM_VIS
100
AcDbLine
 10
7.973045360460587
 20
94.93264982500868
 30
0.0
 11
8.110418318855209
 21
94.94881134952557
 31
0.0
  0
LINE
  5
19B1
330
1955
100
AcDbEntity
  8
AM_VIS
100
AcDbLine
 10
7.851833926582827
 20
94.9003267759746
 30
0.0
 11
7.973045360460559
 21
94.93264982500868
 31
0.0
  0
LINE
  5
19B2
330
1955
100
AcDbEntity
  8
AM_VIS
100
AcDbLine
 10
7.738703254963753
 20
94.85992296468202
 30
0.0
 11
7.851833926582827
 21
94.9003267759746
 31
0.0
  0
LINE
  5
19B3
330
1955
100
AcDbEntity
  8
AM_VIS
100
AcDbLine
 10
7.649814870120222
 20
94.7952768666139
 30
0.0
 11
7.738703254963753
 21
94.85992296468202
 31
0.0
  0
LINE
  5
19B4
330
1955
100
AcDbEntity
  8
AM_VIS
100
AcDbLine
 10
7.577088009793584
 20
94.72255000628758
 30
0.0
 11
7.649814870120195
 21
94.7952768666139
 31
0.0
  0
LINE
  5
19B5
330
1955
100
AcDbEntity
  8
AM_VIS
100
AcDbLine
 10
7.512441911725743
 20
94.62558085918516
 30
0.0
 11
7.577088009793584
 21
94.72255000628758
 31
0.0
  0
LINE
  5
19B6
330
1955
100
AcDbEntity
  8
AM_VIS
100
AcDbLine
 10
7.472038100433023
 20
94.51245018756614
 30
0.0
 11
7.512441911725743
 21
94.62558085918516
 31
0.0
  0
LINE
  5
19B7
330
1955
100
AcDbEntity
  8
AM_VIS
100
AcDbLine
 10
7.439715051399105
 20
94.37507722917166
 30
0.0
 11
7.472038100433023
 21
94.51245018756614
 31
0.0
  0
LINE
  5
19B8
330
1955
100
AcDbEntity
  8
AM_VIS
100
AcDbLine
 10
7.431634289140589
 20
94.21346198400152
 30
0.0
 11
7.439715051399105
 21
94.37507722917166
 31
0.0
  0
LINE
  5
19B9
330
1955
100
AcDbEntity
  8
AM_VIS
100
AcDbLine
 10
7.431634289140589
 20
92.52458267197329
 30
0.0
 11
7.431634289140589
 21
94.21346198400152
 31
0.0
  0
LINE
  5
19BA
330
1955
100
AcDbEntity
  8
AM_VIS
100
AcDbLine
 10
7.439715051399105
 20
92.36296742680314
 30
0.0
 11
7.431634289140589
 21
92.52458267197331
 31
0.0
  0
LINE
  5
19BB
330
1955
100
AcDbEntity
  8
AM_VIS
100
AcDbLine
 10
7.463957338174508
 20
92.22559446840842
 30
0.0
 11
7.439715051399105
 21
92.36296742680314
 31
0.0
  0
LINE
  5
19BC
330
1955
100
AcDbEntity
  8
AM_VIS
100
AcDbLine
 10
7.504361149467228
 20
92.11246379678932
 30
0.0
 11
7.463957338174508
 21
92.22559446840842
 31
0.0
  0
LINE
  5
19BD
330
1955
100
AcDbEntity
  8
AM_VIS
100
AcDbLine
 10
7.560926485276695
 20
92.02357541194578
 30
0.0
 11
7.504361149467228
 21
92.11246379678932
 31
0.0
  0
LINE
  5
19BE
330
1955
100
AcDbEntity
  8
AM_VIS
100
AcDbLine
 10
7.625572583344818
 20
91.94276778936062
 30
0.0
 11
7.560926485276695
 21
92.02357541194576
 31
0.0
  0
LINE
  5
19BF
330
1955
100
AcDbEntity
  8
AM_VIS
100
AcDbLine
 10
7.698299443671317
 20
91.88620245355101
 30
0.0
 11
7.625572583344818
 21
91.94276778936062
 31
0.0
  0
LINE
  5
19C0
330
1955
100
AcDbEntity
  8
AM_VIS
100
AcDbLine
 10
7.787187828514987
 20
91.84579864225858
 30
0.0
 11
7.698299443671317
 21
91.88620245355101
 31
0.0
  0
LINE
  5
19C1
330
1955
100
AcDbEntity
  8
AM_VIS
100
AcDbLine
 10
7.88415697561703
 20
91.81347559322436
 30
0.0
 11
7.787187828514987
 21
91.84579864225858
 31
0.0
  0
LINE
  5
19C2
330
1955
100
AcDbEntity
  8
AM_VIS
100
AcDbLine
 10
7.981126122719075
 20
91.78923330644895
 30
0.0
 11
7.88415697561703
 21
91.81347559322436
 31
0.0
  0
LINE
  5
19C3
330
1955
100
AcDbEntity
  8
AM_VIS
100
AcDbLine
 10
8.09425679433815
 20
91.78115254418683
 30
0.0
 11
7.981126122719075
 21
91.78923330644895
 31
0.0
  0
LINE
  5
19C4
330
1955
100
AcDbEntity
  8
AM_VIS
100
AcDbLine
 10
9.839701442175792
 20
91.78115254419077
 30
0.0
 11
8.094256794338177
 21
91.78115254418695
 31
0.0
  0
LINE
  5
19C5
330
1955
100
AcDbEntity
  8
AM_VIS
100
AcDbLine
 10
10.02151859299235
 20
91.80539483096588
 30
0.0
 11
9.839701442175792
 21
91.78115254419077
 31
0.0
  0
LINE
  5
19C6
330
1955
100
AcDbEntity
  8
AM_VIS
100
AcDbLine
 10
10.07404354767273
 20
91.82963711774158
 30
0.0
 11
10.02151859299235
 21
91.80539483096584
 31
0.0
  0
LINE
  5
19C7
330
1955
100
AcDbEntity
  8
AM_VIS
100
AcDbLine
 10
10.12641885860734
 20
91.84460149229437
 30
0.0
 11
10.07404354767277
 21
91.82963711774148
 31
0.0
  0
LINE
  5
19C8
330
1955
100
AcDbEntity
  8
AM_VIS
100
AcDbLine
 10
10.21141650606725
 20
91.8781216912925
 30
0.0
 11
10.12641885860734
 21
91.8446014922944
 31
0.0
  0
LINE
  5
19C9
330
1955
100
AcDbEntity
  8
AM_VIS
100
AcDbLine
 10
10.34070870220361
 20
92.00741388742891
 30
0.0
 11
10.21141650606725
 21
91.8781216912925
 31
0.0
  0
LINE
  5
19CA
330
1955
100
AcDbEntity
  8
AM_VIS
100
AcDbLine
 10
10.39727403801296
 20
92.10438303453077
 30
0.0
 11
10.34070870220364
 21
92.00741388742891
 31
0.0
  0
LINE
  5
19CB
330
1955
100
AcDbEntity
  8
AM_VIS
100
AcDbLine
 10
1.451870217844656
 20
91.81347559322436
 30
0.0
 11
2.171058058851826
 21
93.44578956944326
 31
0.0
  0
LINE
  5
19CC
330
1955
100
AcDbEntity
  8
AM_VIS
100
AcDbLine
 10
2.60741922081138
 20
91.81347559322436
 30
0.0
 11
1.451870217844656
 21
91.81347559322436
 31
0.0
  0
LINE
  5
19CD
330
1955
100
AcDbEntity
  8
AM_VIS
100
AcDbLine
 10
3.100345718580399
 20
92.91245926038163
 30
0.0
 11
2.60741922081138
 21
91.81347559322436
 31
0.0
  0
LINE
  5
19CE
330
1955
100
AcDbEntity
  8
AM_VIS
100
AcDbLine
 10
3.593272216349276
 20
91.81347559322436
 30
0.0
 11
3.100345718580399
 21
92.91245926038163
 31
0.0
  0
LINE
  5
19CF
330
1955
100
AcDbEntity
  8
AM_VIS
100
AcDbLine
 10
4.878113415452105
 20
91.81347559322436
 30
0.0
 11
3.593272216349276
 21
91.81347559322436
 31
0.0
  0
LINE
  5
19D0
330
1955
100
AcDbEntity
  8
AM_VIS
100
AcDbLine
 10
4.134683287669274
 20
93.47003185621868
 30
0.0
 11
4.878113415452105
 21
91.81347559322436
 31
0.0
  0
LINE
  5
19D1
330
1955
100
AcDbEntity
  8
AM_VIS
100
AcDbLine
 10
4.764982743832887
 20
94.92456906275014
 30
0.0
 11
4.134683287669246
 21
93.47003185621868
 31
0.0
  0
LINE
  5
19D2
330
1955
100
AcDbEntity
  8
AM_VIS
100
AcDbLine
 10
3.633676027641853
 20
94.92456906275014
 30
0.0
 11
4.764982743832887
 21
94.92456906275014
 31
0.0
  0
LINE
  5
19D3
330
1955
100
AcDbEntity
  8
AM_VIS
100
AcDbLine
 10
3.197314865682443
 20
93.91447378043656
 30
0.0
 11
3.633676027641853
 21
94.92456906275014
 31
0.0
  0
LINE
  5
19D4
330
1955
100
AcDbEntity
  8
AM_VIS
100
AcDbLine
 10
2.760953703723032
 20
94.92456906275014
 30
0.0
 11
3.197314865682443
 21
93.91447378043656
 31
0.0
  0
LINE
  5
19D5
330
1955
100
AcDbEntity
  8
AM_VIS
100
AcDbLine
 10
1.540758602688326
 20
94.92456906275014
 30
0.0
 11
2.760953703723032
 21
94.92456906275014
 31
0.0
  0
LINE
  5
19D6
330
1955
100
AcDbEntity
  8
AM_VIS
100
AcDbLine
 10
2.171058058851826
 20
93.44578956944326
 30
0.0
 11
1.540758602688326
 21
94.92456906275014
 31
0.0
  0
LINE
  5
19D7
330
1955
100
AcDbEntity
  8
AM_VIS
100
AcDbLine
 10
5.4841705848402
 20
92.52458267197329
 30
0.0
 11
5.4841705848402
 21
94.28618884432802
 31
0.0
  0
LINE
  5
19D8
330
1955
100
AcDbEntity
  8
AM_VIS
100
AcDbLine
 10
6.946788553630084
 20
91.78115254419045
 30
0.0
 11
6.090227754228293
 21
91.78115254419045
 31
0.0
  0
LINE
  5
19D9
330
1955
100
AcDbEntity
  8
AM_VIS
100
AcDbLine
 10
6.946788553630227
 20
92.41145200035401
 30
0.0
 11
6.946788553630084
 21
91.78115254419045
 31
0.0
  0
LINE
  5
19DA
330
1955
100
AcDbEntity
  8
AM_VIS
100
AcDbLine
 10
6.663961874582327
 20
92.41145200035408
 30
0.0
 11
6.946788553630227
 21
92.41145200035408
 31
0.0
  0
LINE
  5
19DB
330
1955
100
AcDbEntity
  8
AM_VIS
100
AcDbLine
 10
6.663961874582327
 20
94.28618884432802
 30
0.0
 11
6.663961874582327
 21
92.41145200035408
 31
0.0
  0
LINE
  5
19DC
330
1955
100
AcDbEntity
  8
AM_VIS
100
AcDbLine
 10
6.930627029113195
 20
94.28618884432802
 30
0.0
 11
6.663961874582327
 21
94.28618884432802
 31
0.0
  0
LINE
  5
19DD
330
1955
100
AcDbEntity
  8
AM_VIS
100
AcDbLine
 10
6.930627029113054
 20
94.92456906275014
 30
0.0
 11
6.930627029113195
 21
94.28618884432802
 31
0.0
  0
LINE
  5
19DE
330
1955
100
AcDbEntity
  8
AM_VIS
100
AcDbLine
 10
6.663961874582327
 20
94.92456906275014
 30
0.0
 11
6.930627029113054
 21
94.92456906275014
 31
0.0
  0
LINE
  5
19DF
330
1955
100
AcDbEntity
  8
AM_VIS
100
AcDbLine
 10
6.663961874582327
 20
95.66799919053266
 30
0.0
 11
6.663961874582327
 21
94.92456906275013
 31
0.0
  0
LINE
  5
19E0
330
1955
100
AcDbEntity
  8
AM_VIS
100
AcDbLine
 10
5.282151528377311
 20
94.88416525145742
 30
0.0
 11
6.663961874582327
 21
95.66799919053266
 31
0.0
  0
LINE
  5
19E1
330
1955
100
AcDbEntity
  8
AM_VIS
100
AcDbLine
 10
5.282151528377311
 20
94.28618884432802
 30
0.0
 11
5.282151528377311
 21
94.88416525145742
 31
0.0
  0
LINE
  5
19E2
330
1955
100
AcDbEntity
  8
AM_VIS
100
AcDbLine
 10
5.4841705848402
 20
94.28618884432802
 30
0.0
 11
5.282151528377311
 21
94.28618884432802
 31
0.0
  0
LINE
  5
19E3
330
1955
100
AcDbEntity
  8
AM_VIS
100
AcDbLine
 10
-11.95853807056478
 20
97.3003131667512
 30
0.0
 11
-11.08533100634042
 21
97.3003131667512
 31
0.0
  0
LINE
  5
19E4
330
1955
100
AcDbEntity
  8
AM_VIS
100
AcDbLine
 10
-11.08486728831693
 20
90.35085762443458
 30
0.0
 11
-11.95787624774155
 21
90.35085762443458
 31
0.0
  0
LINE
  5
19E5
330
1955
100
AcDbEntity
  8
AM_VIS
100
AcDbLine
 10
-13.99854722042221
 20
96.79841074336927
 30
0.0
 11
-13.99854722042221
 21
97.31160372564822
 31
0.0
  0
LINE
  5
19E6
330
1955
100
AcDbEntity
  8
AM_VIS
100
AcDbLine
 10
-14.00195330917297
 20
90.35085762443431
 30
0.0
 11
-14.00195330917297
 21
90.85236882941126
 31
0.0
  0
LINE
  5
19E7
330
1955
100
AcDbEntity
  8
AM_VIS
100
AcDbLine
 10
11.03565425643523
 20
92.11246379678932
 30
0.0
 11
11.00333120740103
 21
92.23367523066686
 31
0.0
  0
LINE
  5
19E8
330
1955
100
AcDbEntity
  8
AM_VIS
100
AcDbLine
 10
11.09221959224456
 20
92.02357541194578
 30
0.0
 11
11.03565425643523
 21
92.11246379678932
 31
0.0
  0
LINE
  5
19E9
330
1955
100
AcDbEntity
  8
AM_VIS
100
AcDbLine
 10
11.15686569031267
 20
91.95084855161914
 30
0.0
 11
11.09221959224456
 21
92.02357541194578
 31
0.0
  0
LINE
  5
19EA
330
1955
100
AcDbEntity
  8
AM_VIS
100
AcDbLine
 10
11.22959255063931
 20
91.88620245355101
 30
0.0
 11
11.15686569031265
 21
91.95084855161914
 31
0.0
  0
LINE
  5
19EB
330
1955
100
AcDbEntity
  8
AM_VIS
100
AcDbLine
 10
11.41545008258504
 20
91.80172175721223
 30
0.0
 11
11.22959255063935
 21
91.88620245355101
 31
0.0
  0
LINE
  5
19EC
330
1955
100
AcDbEntity
  8
AM_VIS
100
AcDbLine
 10
11.52858075420397
 20
91.78923330644895
 30
0.0
 11
11.41545008258501
 21
91.8017217572123
 31
0.0
  0
LINE
  5
19ED
330
1955
100
AcDbEntity
  8
AM_VIS
100
AcDbLine
 10
11.64171142582346
 20
91.78115254419036
 30
0.0
 11
11.52858075420397
 21
91.78923330644895
 31
0.0
  0
LINE
  5
19EE
330
1955
100
AcDbEntity
  8
AM_VIS
100
AcDbLine
 10
13.32250997559271
 20
91.78115254419124
 30
0.0
 11
11.64171142582346
 21
91.78115254419045
 31
0.0
  0
LINE
  5
19EF
330
1955
100
AcDbEntity
  8
AM_VIS
100
AcDbLine
 10
13.41947912269474
 20
91.78923330644895
 30
0.0
 11
13.32250997559271
 21
91.78115254419124
 31
0.0
  0
LINE
  5
19F0
330
1955
100
AcDbEntity
  8
AM_VIS
100
AcDbLine
 10
13.51644826979708
 20
91.80539483096588
 30
0.0
 11
13.41947912269474
 21
91.78923330644895
 31
0.0
  0
LINE
  5
19F1
330
1955
100
AcDbEntity
  8
AM_VIS
100
AcDbLine
 10
13.60533665464061
 20
91.82963711774158
 30
0.0
 11
13.51644826979708
 21
91.80539483096584
 31
0.0
  0
LINE
  5
19F2
330
1955
100
AcDbEntity
  8
AM_VIS
100
AcDbLine
 10
13.68614427722576
 20
91.86196016677559
 30
0.0
 11
13.60533665464061
 21
91.82963711774158
 31
0.0
  0
LINE
  5
19F3
330
1955
100
AcDbEntity
  8
AM_VIS
100
AcDbLine
 10
13.76695189981062
 20
91.91044474032672
 30
0.0
 11
13.68614427722576
 21
91.86196016677559
 31
0.0
  0
LINE
  5
19F4
330
1955
100
AcDbEntity
  8
AM_VIS
100
AcDbLine
 10
13.83159799787876
 20
91.96701007613615
 30
0.0
 11
13.76695189981062
 21
91.91044474032672
 31
0.0
  0
LINE
  5
19F5
330
1955
100
AcDbEntity
  8
AM_VIS
100
AcDbLine
 10
13.88816333368837
 20
92.03973693646268
 30
0.0
 11
13.83159799787876
 21
91.96701007613615
 31
0.0
  0
LINE
  5
19F6
330
1955
100
AcDbEntity
  8
AM_VIS
100
AcDbLine
 10
13.93664790723932
 20
92.1286253213063
 30
0.0
 11
13.88816333368837
 21
92.03973693646268
 31
0.0
  0
LINE
  5
19F7
330
1955
100
AcDbEntity
  8
AM_VIS
100
AcDbLine
 10
13.97705171853204
 20
92.24175599292541
 30
0.0
 11
13.93664790723932
 21
92.1286253213063
 31
0.0
  0
LINE
  5
19F8
330
1955
100
AcDbEntity
  8
AM_VIS
100
AcDbLine
 10
13.99321324304892
 20
92.37104818906166
 30
0.0
 11
13.97705171853204
 21
92.24175599292541
 31
0.0
  0
LINE
  5
19F9
330
1955
100
AcDbEntity
  8
AM_VIS
100
AcDbLine
 10
14.00129400530744
 20
92.52458267197329
 30
0.0
 11
13.99321324304892
 21
92.37104818906166
 31
0.0
  0
LINE
  5
19FA
330
1955
100
AcDbEntity
  8
AM_VIS
100
AcDbLine
 10
14.00129400530744
 20
93.06599374329323
 30
0.0
 11
14.00129400530744
 21
92.52458267197329
 31
0.0
  0
LINE
  5
19FB
330
1955
100
AcDbEntity
  8
AM_VIS
100
AcDbLine
 10
12.82150271556531
 20
93.06599374329323
 30
0.0
 11
14.00129400530744
 21
93.06599374329323
 31
0.0
  0
LINE
  5
19FC
330
1955
100
AcDbEntity
  8
AM_VIS
100
AcDbLine
 10
12.82150271556531
 20
92.79932858876255
 30
0.0
 11
12.82150271556531
 21
93.06599374329323
 31
0.0
  0
LINE
  5
19FD
330
1955
100
AcDbEntity
  8
AM_VIS
100
AcDbLine
 10
12.81342195330694
 20
92.69427867940176
 30
0.0
 11
12.82150271556531
 21
92.79932858876255
 31
0.0
  0
LINE
  5
19FE
330
1955
100
AcDbEntity
  8
AM_VIS
100
AcDbLine
 10
12.78917966653125
 20
92.6134710568168
 30
0.0
 11
12.81342195330694
 21
92.69427867940176
 31
0.0
  0
LINE
  5
19FF
330
1955
100
AcDbEntity
  8
AM_VIS
100
AcDbLine
 10
12.75685661749719
 20
92.5488249587487
 30
0.0
 11
12.78917966653125
 21
92.6134710568168
 31
0.0
  0
LINE
  5
1A00
330
1955
100
AcDbEntity
  8
AM_VIS
100
AcDbLine
 10
12.71645280620461
 20
92.50034038519769
 30
0.0
 11
12.75685661749719
 21
92.5488249587487
 31
0.0
  0
LINE
  5
1A01
330
1955
100
AcDbEntity
  8
AM_VIS
100
AcDbLine
 10
12.66796823265366
 20
92.45993657390522
 30
0.0
 11
12.71645280620461
 21
92.50034038519769
 31
0.0
  0
LINE
  5
1A02
330
1955
100
AcDbEntity
  8
AM_VIS
100
AcDbLine
 10
12.61948365910257
 20
92.43569428712982
 30
0.0
 11
12.66796823265366
 21
92.45993657390522
 31
0.0
  0
LINE
  5
1A03
330
1955
100
AcDbEntity
  8
AM_VIS
100
AcDbLine
 10
12.57099908555162
 20
92.41953276261243
 30
0.0
 11
12.61948365910257
 21
92.43569428712971
 31
0.0
  0
LINE
  5
1A04
330
1955
100
AcDbEntity
  8
AM_VIS
100
AcDbLine
 10
12.49019146296646
 20
92.41145200035408
 30
0.0
 11
12.57099908555162
 21
92.41953276261243
 31
0.0
  0
LINE
  5
1A05
330
1955
100
AcDbEntity
  8
AM_VIS
100
AcDbLine
 10
12.40130307812293
 20
92.41953276261243
 30
0.0
 11
12.49019146296646
 21
92.41145200035408
 31
0.0
  0
LINE
  5
1A06
330
1955
100
AcDbEntity
  8
AM_VIS
100
AcDbLine
 10
12.32857621779629
 20
92.44377504938814
 30
0.0
 11
12.40130307812293
 21
92.41953276261243
 31
0.0
  0
LINE
  5
1A07
330
1955
100
AcDbEntity
  8
AM_VIS
100
AcDbLine
 10
12.26393011972817
 20
92.48417886068065
 30
0.0
 11
12.32857621779629
 21
92.44377504938814
 31
0.0
  0
LINE
  5
1A08
330
1955
100
AcDbEntity
  8
AM_VIS
100
AcDbLine
 10
12.21544554617722
 20
92.5488249587487
 30
0.0
 11
12.26393011972817
 21
92.48417886068065
 31
0.0
  0
LINE
  5
1A09
330
1955
100
AcDbEntity
  8
AM_VIS
100
AcDbLine
 10
12.17504173488464
 20
92.62155181907528
 30
0.0
 11
12.21544554617722
 21
92.5488249587487
 31
0.0
  0
LINE
  5
1A0A
330
1955
100
AcDbEntity
  8
AM_VIS
100
AcDbLine
 10
12.15888021036761
 20
92.70235944166046
 30
0.0
 11
12.17504173488464
 21
92.62155181907528
 31
0.0
  0
LINE
  5
1A0B
330
1955
100
AcDbEntity
  8
AM_VIS
100
AcDbLine
 10
12.15079944810909
 20
92.79932858876255
 30
0.0
 11
12.15888021036761
 21
92.70235944166046
 31
0.0
  0
LINE
  5
1A0C
330
1955
100
AcDbEntity
  8
AM_VIS
100
AcDbLine
 10
12.15079944810909
 20
93.89831225591951
 30
0.0
 11
12.15079944810909
 21
92.79932858876255
 31
0.0
  0
LINE
  5
1A0D
330
1955
100
AcDbEntity
  8
AM_VIS
100
AcDbLine
 10
12.15888021036761
 20
94.01144292753858
 30
0.0
 11
12.15079944810909
 21
93.89831225591951
 31
0.0
  0
LINE
  5
1A0E
330
1955
100
AcDbEntity
  8
AM_VIS
100
AcDbLine
 10
12.17504173488464
 20
94.10033131238213
 30
0.0
 11
12.15888021036761
 21
94.01144292753858
 31
0.0
  0
LINE
  5
1A0F
330
1955
100
AcDbEntity
  8
AM_VIS
100
AcDbLine
 10
12.21544554617722
 20
94.17305817270879
 30
0.0
 11
12.17504173488464
 21
94.10033131238213
 31
0.0
  0
LINE
  5
1A10
330
1955
100
AcDbEntity
  8
AM_VIS
100
AcDbLine
 10
12.25584935746965
 20
94.22962350851831
 30
0.0
 11
12.21544554617722
 21
94.17305817270879
 31
0.0
  0
LINE
  5
1A11
330
1955
100
AcDbEntity
  8
AM_VIS
100
AcDbLine
 10
12.33088500701313
 20
94.28965202815312
 30
0.0
 11
12.25584935746965
 21
94.22962350851831
 31
0.0
  0
LINE
  5
1A12
330
1955
100
AcDbEntity
  8
AM_VIS
100
AcDbLine
 10
12.39322231586442
 20
94.31043113110355
 30
0.0
 11
12.33088500701313
 21
94.28965202815312
 31
0.0
  0
LINE
  5
1A13
330
1955
100
AcDbEntity
  8
AM_VIS
100
AcDbLine
 10
12.46594917619106
 20
94.31851189336208
 30
0.0
 11
12.39322231586442
 21
94.31043113110352
 31
0.0
  0
LINE
  5
1A14
330
1955
100
AcDbEntity
  8
AM_VIS
100
AcDbLine
 10
12.5305952742589
 20
94.31043113110355
 30
0.0
 11
12.46594917619106
 21
94.31851189336208
 31
0.0
  0
LINE
  5
1A15
330
1955
100
AcDbEntity
  8
AM_VIS
100
AcDbLine
 10
12.57907984781015
 20
94.30235036884472
 30
0.0
 11
12.5305952742589
 21
94.31043113110352
 31
0.0
  0
LINE
  5
1A16
330
1955
100
AcDbEntity
  8
AM_VIS
100
AcDbLine
 10
12.67604899491218
 20
94.25386579529392
 30
0.0
 11
12.57907984781015
 21
94.30235036884472
 31
0.0
  0
LINE
  5
1A17
330
1955
100
AcDbEntity
  8
AM_VIS
100
AcDbLine
 10
12.71645280620461
 20
94.2215427462599
 30
0.0
 11
12.67604899491218
 21
94.25386579529392
 31
0.0
  0
LINE
  5
1A18
330
1955
100
AcDbEntity
  8
AM_VIS
100
AcDbLine
 10
12.75685661749719
 20
94.17305817270879
 30
0.0
 11
12.71645280620461
 21
94.2215427462599
 31
0.0
  0
LINE
  5
1A19
330
1955
100
AcDbEntity
  8
AM_VIS
100
AcDbLine
 10
12.78917966653139
 20
94.12457359915777
 30
0.0
 11
12.75685661749722
 21
94.17305817270879
 31
0.0
  0
LINE
  5
1A1A
330
1955
100
AcDbEntity
  8
AM_VIS
100
AcDbLine
 10
12.82381150478201
 20
94.00336216528009
 30
0.0
 11
12.78917966653137
 21
94.12457359915777
 31
0.0
  0
LINE
  5
1A1B
330
1955
100
AcDbEntity
  8
AM_VIS
100
AcDbLine
 10
12.82150271556531
 20
93.94679682947066
 30
0.0
 11
12.82381150478201
 21
94.00336216528009
 31
0.0
  0
LINE
  5
1A1C
330
1955
100
AcDbEntity
  8
AM_VIS
100
AcDbLine
 10
12.82150271556531
 20
93.6558893881642
 30
0.0
 11
12.82150271556531
 21
93.94679682947066
 31
0.0
  0
LINE
  5
1A1D
330
1955
100
AcDbEntity
  8
AM_VIS
100
AcDbLine
 10
14.00129400530744
 20
93.6558893881642
 30
0.0
 11
12.82150271556531
 21
93.6558893881642
 31
0.0
  0
LINE
  5
1A1E
330
1955
100
AcDbEntity
  8
AM_VIS
100
AcDbLine
 10
14.00129400530744
 20
94.20538122174296
 30
0.0
 11
14.00129400530744
 21
93.6558893881642
 31
0.0
  0
LINE
  5
1A1F
330
1955
100
AcDbEntity
  8
AM_VIS
100
AcDbLine
 10
13.99321324304892
 20
94.36699646691288
 30
0.0
 11
14.00129400530744
 21
94.20538122174296
 31
0.0
  0
LINE
  5
1A20
330
1955
100
AcDbEntity
  8
AM_VIS
100
AcDbLine
 10
13.96897095627352
 20
94.5043694253076
 30
0.0
 11
13.99321324304892
 21
94.36699646691288
 31
0.0
  0
LINE
  5
1A21
330
1955
100
AcDbEntity
  8
AM_VIS
100
AcDbLine
 10
13.9285671449808
 20
94.61750009692673
 30
0.0
 11
13.96897095627352
 21
94.5043694253076
 31
0.0
  0
LINE
  5
1A22
330
1955
100
AcDbEntity
  8
AM_VIS
100
AcDbLine
 10
13.88008257142985
 20
94.71446924402874
 30
0.0
 11
13.9285671449808
 21
94.61750009692673
 31
0.0
  0
LINE
  5
1A23
330
1955
100
AcDbEntity
  8
AM_VIS
100
AcDbLine
 10
13.81543647336173
 20
94.78719610435543
 30
0.0
 11
13.88008257142985
 21
94.71446924402874
 31
0.0
  0
LINE
  5
1A24
330
1955
100
AcDbEntity
  8
AM_VIS
100
AcDbLine
 10
13.73462885077671
 20
94.84376144016492
 30
0.0
 11
13.81543647336173
 21
94.78719610435536
 31
0.0
  0
LINE
  5
1A25
330
1955
100
AcDbEntity
  8
AM_VIS
100
AcDbLine
 10
13.65382122819156
 20
94.89224601371594
 30
0.0
 11
13.73462885077671
 21
94.84376144016492
 31
0.0
  0
LINE
  5
1A26
330
1955
100
AcDbEntity
  8
AM_VIS
100
AcDbLine
 10
13.55685208108951
 20
94.9164883004917
 30
0.0
 11
13.65382122819156
 21
94.89224601371594
 31
0.0
  0
LINE
  5
1A27
330
1955
100
AcDbEntity
  8
AM_VIS
100
AcDbLine
 10
13.42742838470187
 20
94.94635530735028
 30
0.0
 11
13.55685208108951
 21
94.9164883004917
 31
0.0
  0
LINE
  5
1A28
330
1955
100
AcDbEntity
  8
AM_VIS
100
AcDbLine
 10
13.34675226236839
 20
94.94881134952548
 30
0.0
 11
13.42742838470187
 21
94.94635530735028
 31
0.0
  0
LINE
  5
1A29
330
1955
100
AcDbEntity
  8
AM_VIS
100
AcDbLine
 10
11.70635752389088
 20
94.94881134952548
 30
0.0
 11
13.34675226236839
 21
94.94881134952548
 31
0.0
  0
LINE
  5
1A2A
330
1955
100
AcDbEntity
  8
AM_VIS
100
AcDbLine
 10
11.60130761453061
 20
94.940730587267
 30
0.0
 11
11.70635752389088
 21
94.94881134952548
 31
0.0
  0
LINE
  5
1A2B
330
1955
100
AcDbEntity
  8
AM_VIS
100
AcDbLine
 10
11.49625770517005
 20
94.92456906275014
 30
0.0
 11
11.60130761453061
 21
94.94073058726707
 31
0.0
  0
LINE
  5
1A2C
330
1955
100
AcDbEntity
  8
AM_VIS
100
AcDbLine
 10
11.39928855806801
 20
94.9003267759746
 30
0.0
 11
11.49625770517008
 21
94.92456906275013
 31
0.0
  0
LINE
  5
1A2D
330
1955
100
AcDbEntity
  8
AM_VIS
100
AcDbLine
 10
11.30231941096567
 20
94.86800372694052
 30
0.0
 11
11.39928855806798
 21
94.9003267759746
 31
0.0
  0
LINE
  5
1A2E
330
1955
100
AcDbEntity
  8
AM_VIS
100
AcDbLine
 10
11.19403719670163
 20
94.81386261980841
 30
0.0
 11
11.30231941096567
 21
94.86800372694052
 31
0.0
  0
LINE
  5
1A2F
330
1955
100
AcDbEntity
  8
AM_VIS
100
AcDbLine
 10
11.08413882998603
 20
94.6902269572533
 30
0.0
 11
11.19403719670163
 21
94.81386261980841
 31
0.0
  0
LINE
  5
1A30
330
1955
100
AcDbEntity
  8
AM_VIS
100
AcDbLine
 10
11.03565425643523
 20
94.60133857240968
 30
0.0
 11
11.08413882998603
 21
94.6902269572533
 31
0.0
  0
LINE
  5
1A31
330
1955
100
AcDbEntity
  8
AM_VIS
100
AcDbLine
 10
10.99525044514251
 20
94.4882079007908
 30
0.0
 11
11.03565425643523
 21
94.60133857240968
 31
0.0
  0
LINE
  5
1A32
330
1955
100
AcDbEntity
  8
AM_VIS
100
AcDbLine
 10
10.97908892062554
 20
94.35891570465479
 30
0.0
 11
10.99525044514251
 21
94.4882079007908
 31
0.0
  0
LINE
  5
1A33
330
1955
100
AcDbEntity
  8
AM_VIS
100
AcDbLine
 10
10.97100815836711
 20
94.20538122174269
 30
0.0
 11
10.97908892062554
 21
94.35891570465479
 31
0.0
  0
LINE
  5
1A34
330
1955
100
AcDbEntity
  8
AM_VIS
100
AcDbLine
 10
10.97100815836711
 20
92.52458267197329
 30
0.0
 11
10.97100815836711
 21
94.20538122174269
 31
0.0
  0
LINE
  5
1A35
330
1955
100
AcDbEntity
  8
AM_VIS
100
AcDbLine
 10
10.9790889206255
 20
92.36296742680314
 30
0.0
 11
10.97100815836714
 21
92.52458267197331
 31
0.0
  0
LINE
  5
1A36
330
1955
100
AcDbEntity
  8
AM_VIS
100
AcDbLine
 10
11.00333120740103
 20
92.23367523066686
 30
0.0
 11
10.97908892062548
 21
92.36296742680314
 31
0.0
  0
LINE
  5
1A37
330
1955
100
AcDbEntity
  8
AM_VIS
100
AcDbLine
 10
-14.00195330917297
 20
91.40096505813772
 30
0.0
 11
-13.99854722042235
 21
96.24981407314535
 31
0.0
  0
LINE
  5
1A38
330
1955
100
AcDbEntity
  8
AM_VIS
100
AcDbLine
 10
-4.487490042158555
 20
93.37306270911645
 30
0.0
 11
-4.487490042158555
 21
91.81347559322436
 31
0.0
  0
LINE
  5
1A39
330
1955
100
AcDbEntity
  8
AM_VIS
100
AcDbLine
 10
-4.220824887627826
 20
93.37306270911645
 30
0.0
 11
-4.487490042158555
 21
93.37306270911645
 31
0.0
  0
LINE
  5
1A3A
330
1955
100
AcDbEntity
  8
AM_VIS
100
AcDbLine
 10
-3.695575340824746
 20
92.5488249587487
 30
0.0
 11
-3.72789838985895
 21
93.04175145651759
 31
0.0
  0
LINE
  5
1A3B
330
1955
100
AcDbEntity
  8
AM_VIS
100
AcDbLine
 10
-3.679413816307714
 20
92.2659982797011
 30
0.0
 11
-3.695575340824746
 21
92.5488249587487
 31
0.0
  0
LINE
  5
1A3C
330
1955
100
AcDbEntity
  8
AM_VIS
100
AcDbLine
 10
-3.630929242756621
 20
91.90236397806817
 30
0.0
 11
-3.679413816307714
 21
92.2659982797011
 31
0.0
  0
LINE
  5
1A3D
330
1955
100
AcDbEntity
  8
AM_VIS
100
AcDbLine
 10
-3.606686955981217
 20
91.81347559322436
 30
0.0
 11
-3.630929242756621
 21
91.90236397806817
 31
0.0
  0
LINE
  5
1A3E
330
1955
100
AcDbEntity
  8
AM_VIS
100
AcDbLine
 10
-2.410734141722059
 20
91.81347559322436
 30
0.0
 11
-3.606686955981217
 21
91.81347559322436
 31
0.0
  0
LINE
  5
1A3F
330
1955
100
AcDbEntity
  8
AM_VIS
100
AcDbLine
 10
-2.523864813341134
 20
92.84781316231351
 30
0.0
 11
-2.507703288824245
 21
92.27407904195946
 31
0.0
  0
LINE
  5
1A40
330
1955
100
AcDbEntity
  8
AM_VIS
100
AcDbLine
 10
-2.548107100116623
 20
93.14680136587844
 30
0.0
 11
-2.523864813341134
 21
92.84781316231351
 31
0.0
  0
LINE
  5
1A41
330
1955
100
AcDbEntity
  8
AM_VIS
100
AcDbLine
 10
-3.501637046620658
 20
95.70840300182537
 30
0.0
 11
-3.356183325967662
 21
95.70032223956664
 31
0.0
  0
LINE
  5
1A42
330
1955
100
AcDbEntity
  8
AM_VIS
100
AcDbLine
 10
-5.667281331900824
 20
95.70840300182537
 30
0.0
 11
-3.501637046620658
 21
95.70840300182537
 31
0.0
  0
LINE
  5
1A43
330
1955
100
AcDbEntity
  8
AM_VIS
100
AcDbLine
 10
-5.667281331900824
 20
91.81347559322436
 30
0.0
 11
-5.667281331900824
 21
95.70840300182537
 31
0.0
  0
LINE
  5
1A44
330
1955
100
AcDbEntity
  8
AM_VIS
100
AcDbLine
 10
-4.487490042158555
 20
91.81347559322436
 30
0.0
 11
-5.667281331900824
 21
91.81347559322436
 31
0.0
  0
LINE
  5
1A45
330
1955
100
AcDbEntity
  8
AM_VIS
100
AcDbLine
 10
45.49999999999992
 20
-98.50000000000008
 30
0.0
 11
-45.49999999999998
 21
-98.50000000000008
 31
0.0
  0
LINE
  5
1A46
330
1955
100
AcDbEntity
  8
AM_VIS
100
AcDbLine
 10
45.49999999999992
 20
98.49999999999994
 30
0.0
 11
45.49999999999992
 21
-98.50000000000008
 31
0.0
  0
LINE
  5
1A47
330
1955
100
AcDbEntity
  8
AM_VIS
100
AcDbLine
 10
-45.49999999999998
 20
98.49999999999994
 30
0.0
 11
45.49999999999992
 21
98.49999999999994
 31
0.0
  0
LINE
  5
1A48
330
1955
100
AcDbEntity
  8
AM_VIS
100
AcDbLine
 10
-47.49992384612833
 20
98.49999999999994
 30
0.0
 11
-47.49992384612833
 21
-98.50000000000008
 31
0.0
  0
LINE
  5
1A49
330
1955
100
AcDbEntity
  8
AM_VIS
100
AcDbLine
 10
-45.49999999999995
 20
-98.50000000000008
 30
0.0
 11
-45.49999999999995
 21
98.49999999999994
 31
0.0
  0
LINE
  5
1A4A
330
1955
100
AcDbEntity
  8
AM_VIS
100
AcDbLine
 10
-47.60051129168672
 20
98.60058744555828
 30
0.0
 11
-47.49992384612825
 21
98.49999999999994
 31
0.0
  0
LINE
  5
1A4B
330
1955
100
AcDbEntity
  8
AM_VIS
100
AcDbLine
 10
-47.49992384612833
 20
-98.50000000000008
 30
0.0
 11
-47.60051129168672
 21
-98.6005874455585
 31
0.0
  0
LINE
  5
1A4C
330
1955
100
AcDbEntity
  8
AM_VIS
100
AcDbLine
 10
45.49999999999992
 20
100.4999238461281
 30
0.0
 11
-45.49999999999998
 21
100.4999238461281
 31
0.0
  0
LINE
  5
1A4D
330
1955
100
AcDbEntity
  8
AM_VIS
100
AcDbLine
 10
-45.49999999999995
 20
100.4999238461281
 30
0.0
 11
-45.6005874455584
 21
100.6005112916865
 31
0.0
  0
LINE
  5
1A4E
330
1955
100
AcDbEntity
  8
AM_VIS
100
AcDbLine
 10
-10.5
 20
-108.5
 30
0.0
 11
-10.5
 21
-117.5
 31
0.0
  0
LINE
  5
1A4F
330
1955
100
AcDbEntity
  8
AM_VIS
100
AcDbLine
 10
-51.00000000000001
 20
-108.5
 30
0.0
 11
-10.5
 21
-108.5
 31
0.0
  0
LINE
  5
1A50
330
1955
100
AcDbEntity
  8
AM_VIS
100
AcDbLine
 10
-51.00000000000001
 20
-117.5
 30
0.0
 11
-51.00000000000001
 21
-108.5
 31
0.0
  0
LINE
  5
1A51
330
1955
100
AcDbEntity
  8
AM_VIS
100
AcDbLine
 10
-10.5
 20
-117.5
 30
0.0
 11
-51.00000000000001
 21
-117.5
 31
0.0
  0
LINE
  5
1A52
330
1955
100
AcDbEntity
  8
AM_VIS
100
AcDbLine
 10
67.49999999999992
 20
115.4999999999999
 30
0.0
 11
67.49999999999992
 21
-115.5
 31
0.0
  0
LINE
  5
1A53
330
1955
100
AcDbEntity
  8
AM_VIS
100
AcDbLine
 10
62.49999999999996
 20
-120.5
 30
0.0
 11
-62.49999999999996
 21
-120.5
 31
0.0
  0
LINE
  5
1A54
330
1955
100
AcDbEntity
  8
AM_VIS
100
AcDbLine
 10
-67.49999999999997
 20
-115.5
 30
0.0
 11
-67.49999999999997
 21
115.4999999999999
 31
0.0
  0
LINE
  5
1A55
330
1955
100
AcDbEntity
  8
AM_VIS
100
AcDbLine
 10
-62.49999999999998
 20
120.4999999999999
 30
0.0
 11
62.49999999999996
 21
120.4999999999999
 31
0.0
  0
LINE
  5
1A56
330
1955
100
AcDbEntity
  8
AM_VIS
100
AcDbLine
 10
45.60058744555835
 20
100.6005112916865
 30
0.0
 11
45.49999999999992
 21
100.4999238461281
 31
0.0
  0
LINE
  5
1A57
330
1955
100
AcDbEntity
  8
AM_VIS
100
AcDbLine
 10
47.49992384612828
 20
-98.50000000000008
 30
0.0
 11
47.49992384612828
 21
98.49999999999994
 31
0.0
  0
LINE
  5
1A58
330
1955
100
AcDbEntity
  8
AM_VIS
100
AcDbLine
 10
47.49992384612828
 20
98.49999999999994
 30
0.0
 11
47.60051129168668
 21
98.60058744555836
 31
0.0
  0
LINE
  5
1A59
330
1955
100
AcDbEntity
  8
AM_VIS
100
AcDbLine
 10
47.60051129168668
 20
-98.6005874455585
 30
0.0
 11
47.49992384612828
 21
-98.50000000000008
 31
0.0
  0
LINE
  5
1A5A
330
1955
100
AcDbEntity
  8
AM_VIS
100
AcDbLine
 10
-45.60058744555835
 20
-100.6005112916867
 30
0.0
 11
-45.49999999999993
 21
-100.4999238461283
 31
0.0
  0
LINE
  5
1A5B
330
1955
100
AcDbEntity
  8
AM_VIS
100
AcDbLine
 10
-45.49999999999995
 20
-100.4999238461283
 30
0.0
 11
45.49999999999996
 21
-100.4999238461283
 31
0.0
  0
LINE
  5
1A5C
330
1955
100
AcDbEntity
  8
AM_VIS
100
AcDbLine
 10
45.49999999999992
 20
-100.4999238461283
 30
0.0
 11
45.60058744555835
 21
-100.6005112916867
 31
0.0
  0
ELLIPSE
  5
1A5D
330
1955
100
AcDbEntity
  8
AM_VIS
100
AcDbEllipse
 10
-45.60035897959366
 20
-98.60035897959377
 30
0.0
 11
-2.121481893392668
 21
-2.121481893392668
 31
0.0
210
0.0
220
0.0
230
1.0
 40
0.9999238504775703
 41
5.497825219993081
 42
7.06854539436609
  0
ELLIPSE
  5
1A5E
330
1955
100
AcDbEntity
  8
AM_VIS
100
AcDbEllipse
 10
-45.60035897959366
 20
-98.60035897959386
 30
0.0
 11
-1.414428958049824
 21
-1.414428958049795
 31
0.0
210
0.0
220
0.0
230
1.0
 40
0.9998477154504655
 41
5.49782521999307
 42
7.068545394366107
  0
LINE
  5
1A5F
330
1955
100
AcDbEntity
  8
AM_VIS
100
AcDbLine
 10
-48.60047321475091
 20
98.60058744555828
 30
0.0
 11
-48.60047321475091
 21
-98.6005874455585
 31
0.0
  0
LINE
  5
1A60
330
1955
100
AcDbEntity
  8
AM_VIS
100
AcDbLine
 10
-47.60051129168672
 20
-98.6005874455585
 30
0.0
 11
-47.60051129168672
 21
98.60058744555828
 31
0.0
  0
LINE
  5
1A61
330
1955
100
AcDbEntity
  8
AM_VIS
100
AcDbLine
 10
45.60058744555835
 20
-100.6005112916867
 30
0.0
 11
-45.60058744555835
 21
-100.6005112916867
 31
0.0
  0
LINE
  5
1A62
330
1955
100
AcDbEntity
  8
AM_VIS
100
AcDbLine
 10
-45.60058744555835
 20
-101.6004732147509
 30
0.0
 11
45.6005874455584
 21
-101.6004732147509
 31
0.0
  0
ELLIPSE
  5
1A63
330
1955
100
AcDbEntity
  8
AM_VIS
100
AcDbEllipse
 10
-45.60035897959366
 20
98.6003589795937
 30
0.0
 11
-2.121481893392668
 21
2.121481893392668
 31
0.0
210
0.0
220
0.0
230
1.0
 40
0.9999238504775703
 41
5.497825219993078
 42
7.068545394366107
  0
ELLIPSE
  5
1A64
330
1955
100
AcDbEntity
  8
AM_VIS
100
AcDbEllipse
 10
-45.6003589795937
 20
98.6003589795937
 30
0.0
 11
-1.414428958049811
 21
1.414428958049823
 31
0.0
210
0.0
220
0.0
230
1.0
 40
0.9998477154504643
 41
5.497825219993077
 42
7.068545394366124
  0
ELLIPSE
  5
1A65
330
1955
100
AcDbEntity
  8
AM_VIS
100
AcDbEllipse
 10
45.60035897959368
 20
-98.60035897959386
 30
0.0
 11
1.414428958049811
 21
-1.414428958049823
 31
0.0
210
0.0
220
0.0
230
1.0
 40
0.9998477154504675
 41
5.497825219993078
 42
7.068545394366116
  0
ELLIPSE
  5
1A66
330
1955
100
AcDbEntity
  8
AM_VIS
100
AcDbEllipse
 10
45.60035897959368
 20
-98.60035897959386
 30
0.0
 11
2.121481893392668
 21
-2.121481893392668
 31
0.0
210
0.0
220
0.0
230
1.0
 40
0.9999238504775703
 41
5.497825219993077
 42
7.0685453943661
  0
LINE
  5
1A67
330
1955
100
AcDbEntity
  8
AM_VIS
100
AcDbLine
 10
45.60058744555835
 20
101.6004732147507
 30
0.0
 11
-45.60058744555835
 21
101.6004732147507
 31
0.0
  0
LINE
  5
1A68
330
1955
100
AcDbEntity
  8
AM_VIS
100
AcDbLine
 10
-45.60058744555835
 20
100.6005112916865
 30
0.0
 11
45.6005874455584
 21
100.6005112916865
 31
0.0
  0
LINE
  5
1A69
330
1955
100
AcDbEntity
  8
AM_VIS
100
AcDbLine
 10
47.60051129168668
 20
98.60058744555828
 30
0.0
 11
47.60051129168668
 21
-98.6005874455585
 31
0.0
  0
LINE
  5
1A6A
330
1955
100
AcDbEntity
  8
AM_VIS
100
AcDbLine
 10
48.60047321475086
 20
-98.6005874455585
 30
0.0
 11
48.60047321475086
 21
98.60058744555828
 31
0.0
  0
ELLIPSE
  5
1A6B
330
1955
100
AcDbEntity
  8
AM_VIS
100
AcDbEllipse
 10
45.60035897959368
 20
98.6003589795937
 30
0.0
 11
1.414428958049811
 21
1.414428958049797
 31
0.0
210
0.0
220
0.0
230
1.0
 40
0.9998477154504715
 41
5.497825219993067
 42
7.0685453943661
  0
ELLIPSE
  5
1A6C
330
1955
100
AcDbEntity
  8
AM_VIS
100
AcDbEllipse
 10
45.60035897959368
 20
98.60035897959361
 30
0.0
 11
2.121481893392668
 21
2.121481893392668
 31
0.0
210
0.0
220
0.0
230
1.0
 40
0.9999238504775703
 41
5.497825219993083
 42
7.068545394366097
  0
CIRCLE
  5
1A6D
330
1955
100
AcDbEntity
  8
AM_VIS
100
AcDbCircle
 10
23.25000000000003
 20
81.2207402306957
 30
0.0
 40
10.00001903846792
  0
CIRCLE
  5
1A6E
330
1955
100
AcDbEntity
  8
AM_VIS
100
AcDbCircle
 10
-23.25
 20
81.2207402306957
 30
0.0
 40
10.00001903846792
  0
ARC
  5
1A6F
330
1955
100
AcDbEntity
  8
AM_VIS
100
AcDbCircle
 10
-9.748270218240262
 20
67.83842552029253
 30
0.0
 40
27.649754593485
100
AcDbArc
 50
77.77289239323181
 51
78.24608267035547
  0
ARC
  5
1A70
330
1955
100
AcDbEntity
  8
AM_VIS
100
AcDbCircle
 10
-4.026321864168068
 20
94.55362408420745
 30
0.0
 40
0.3352514447120563
100
AcDbArc
 50
27.1081228709129
 51
66.45625674124591
  0
ARC
  5
1A71
330
1955
100
AcDbEntity
  8
AM_VIS
100
AcDbCircle
 10
-4.067290404716317
 20
94.53265209321234
 30
0.0
 40
0.3812758482491992
100
AcDbArc
 50
332.8918771288162
 51
27.10812287091835
  0
ARC
  5
1A72
330
1955
100
AcDbEntity
  8
AM_VIS
100
AcDbCircle
 10
-4.088953724813393
 20
94.54374164992891
 30
0.0
 40
0.4056126045202614
100
AcDbArc
 50
276.4984299332658
 51
332.891877128818
  0
CIRCLE
  5
1A73
330
1955
100
AcDbEntity
  8
AM_VIS
100
AcDbCircle
 10
-23.25
 20
81.2207402306957
 30
0.0
 40
10.5
  0
CIRCLE
  5
1A74
330
1955
100
AcDbEntity
  8
AM_VIS
100
AcDbCircle
 10
23.25000000000003
 20
81.2207402306957
 30
0.0
 40
10.5
  0
ARC
  5
1A75
330
1955
100
AcDbEntity
  8
AM_VIS
100
AcDbCircle
 10
-14.00195330917297
 20
93.82539076195021
 30
0.0
 40
5.102367077581343
100
AcDbArc
 50
317.0809063324233
 51
42.9250629393057
  0
ARC
  5
1A76
330
1955
100
AcDbEntity
  8
AM_VIS
100
AcDbCircle
 10
-1.40320689826197
 20
92.36368647768186
 30
0.0
 40
0.574479621970082
100
AcDbArc
 50
191.4304844914626
 51
269.4501795705461
  0
ARC
  5
1A77
330
1955
100
AcDbEntity
  8
AM_VIS
100
AcDbCircle
 10
0.7650748507457195
 20
90.19829966923705
 30
0.0
 40
1.624100866456164
100
AcDbArc
 50
98.29866302967737
 51
102.9406475226362
  0
ARC
  5
1A78
330
1955
100
AcDbEntity
  8
AM_VIS
100
AcDbCircle
 10
0.44471177644013
 20
92.39466750958364
 30
0.0
 40
0.5955081508006435
100
AcDbArc
 50
278.2986630296782
 51
357.726911978632
  0
ARC
  5
1A79
330
1955
100
AcDbEntity
  8
AM_VIS
100
AcDbCircle
 10
0.4608746029521173
 20
94.37099512293594
 30
0.0
 40
0.5788911325691291
100
AcDbArc
 50
0.40403002232697
 51
93.49213999072992
  0
ARC
  5
1A7A
330
1955
100
AcDbEntity
  8
AM_VIS
100
AcDbCircle
 10
-1.374832554131302
 20
94.32372528836754
 30
0.0
 40
0.6254973123093667
100
AcDbArc
 50
87.92220705470095
 51
190.1532141872545
  0
ARC
  5
1A7B
330
1955
100
AcDbEntity
  8
AM_VIS
100
AcDbCircle
 10
9.886110229933846
 20
94.37706416730172
 30
0.0
 40
0.5760958381326438
100
AcDbArc
 50
358.19474068089
 51
97.04435690989663
  0
ARC
  5
1A7C
330
1955
100
AcDbEntity
  8
AM_VIS
100
AcDbCircle
 10
6.103836870746306
 20
92.41099616885254
 30
0.0
 40
0.6299906345175856
100
AcDbArc
 50
169.6128402964403
 51
268.7621949373276
  0
ARC
  5
1A7D
330
1955
100
AcDbEntity
  8
AM_VIS
100
AcDbCircle
 10
-14.00195330917297
 20
93.82539076195021
 30
0.0
 40
4.536713719948361
100
AcDbArc
 50
310.0155427753989
 51
49.99210360363903
  0
ARC
  5
1A7E
330
1955
100
AcDbEntity
  8
AM_VIS
100
AcDbCircle
 10
-14.00195330917297
 20
93.82539076195021
 30
0.0
 40
4.031207208363771
100
AcDbArc
 50
300.4684120702862
 51
59.54250091540298
  0
ARC
  5
1A7F
330
1955
100
AcDbEntity
  8
AM_VIS
100
AcDbCircle
 10
-14.00195330917297
 20
93.82539076195021
 30
0.0
 40
2.973021932538968
100
AcDbArc
 50
270.0
 51
89.93435818598536
  0
ARC
  5
1A80
330
1955
100
AcDbEntity
  8
AM_VIS
100
AcDbCircle
 10
-14.00025026479758
 20
93.83123067504127
 30
0.0
 40
3.48037346728066
100
AcDbArc
 50
269.9719635665985
 51
89.97196356659847
  0
ARC
  5
1A81
330
1955
100
AcDbEntity
  8
AM_VIS
100
AcDbCircle
 10
-14.00025026479767
 20
93.8253895656415
 30
0.0
 40
2.424425105658101
100
AcDbArc
 50
269.9597524118906
 51
89.95975241189055
  0
ARC
  5
1A82
330
1955
100
AcDbEntity
  8
AM_VIS
100
AcDbCircle
 10
-4.141657419758643
 20
92.95850360374563
 30
0.0
 40
0.4220506365528506
100
AcDbArc
 50
11.37596594782017
 51
100.811480075277
  0
ARC
  5
1A83
330
1955
100
AcDbEntity
  8
AM_VIS
100
AcDbCircle
 10
-0.2329687130543618
 20
92.51246152858559
 30
0.0
 40
2.287191203230086
100
AcDbArc
 50
185.9825169258634
 51
197.7947991534069
  0
ARC
  5
1A84
330
1955
100
AcDbEntity
  8
AM_VIS
100
AcDbCircle
 10
-3.262578447829866
 20
93.03346704601677
 30
0.0
 40
0.7234044337448414
100
AcDbArc
 50
9.013547133534988
 51
83.96218792414748
  0
ARC
  5
1A85
330
1955
100
AcDbEntity
  8
AM_VIS
100
AcDbCircle
 10
-3.27334193018288
 20
94.47614833201432
 30
0.0
 40
0.7284860009934573
100
AcDbArc
 50
276.8474460233777
 51
354.5848738675724
  0
ARC
  5
1A86
330
1955
100
AcDbEntity
  8
AM_VIS
100
AcDbCircle
 10
-4.106226109965546
 20
94.73388327047267
 30
0.0
 40
1.591956655531665
100
AcDbArc
 50
348.1656515277127
 51
22.25048533842505
  0
ARC
  5
1A87
330
1955
100
AcDbEntity
  8
AM_VIS
100
AcDbCircle
 10
-3.244946761418531
 20
94.97330580329004
 30
0.0
 40
0.711868631744903
100
AcDbArc
 50
30.69463155045264
 51
77.3885146656785
  0
ARC
  5
1A88
330
1955
100
AcDbEntity
  8
AM_VIS
100
AcDbCircle
 10
-3.384760960147444
 20
94.34840147062521
 30
0.0
 40
1.352222779970259
100
AcDbArc
 50
77.3885146656785
 51
88.78903109628422
  0
LINE
  5
1A89
330
1955
100
AcDbEntity
  8
AM_VIS
100
AcDbLine
 10
-45.49999999999998
 20
100.4999238461281
 30
0.0
 11
-45.49999999999998
 21
98.49999999999994
 31
0.0
  0
LINE
  5
1A8A
330
1955
100
AcDbEntity
  8
AM_VIS
100
AcDbLine
 10
-45.49999999999995
 20
98.49999999999994
 30
0.0
 11
-47.49992384612833
 21
98.49999999999994
 31
0.0
  0
ELLIPSE
  5
1A8B
330
1955
100
AcDbEntity
  8
AM_VIS
100
AcDbEllipse
 10
-45.49999999999998
 20
98.49999999999994
 30
0.0
 11
1.414213562374117
 21
1.414213562372049
 31
0.0
210
0.0
220
0.0
230
1.0
 40
0.9999238504775703
 41
0.7854362396090902
 42
2.356156413982134
  0
LINE
  5
1A8C
330
1955
100
AcDbEntity
  8
AM_VIS
100
AcDbLine
 10
-47.49992384612833
 20
-98.50000000000008
 30
0.0
 11
-45.49999999999995
 21
-98.50000000000008
 31
0.0
  0
LINE
  5
1A8D
330
1955
100
AcDbEntity
  8
AM_VIS
100
AcDbLine
 10
-45.49999999999995
 20
-98.50000000000008
 30
0.0
 11
-45.49999999999995
 21
-100.4999238461283
 31
0.0
  0
ELLIPSE
  5
1A8E
330
1955
100
AcDbEntity
  8
AM_VIS
100
AcDbEllipse
 10
-45.49999999999995
 20
-98.50000000000008
 30
0.0
 11
1.41421356237398
 21
-1.414213562372204
 31
0.0
210
0.0
220
0.0
230
1.0
 40
0.9999238504775703
 41
3.927028893197551
 42
5.497749067570571
  0
LINE
  5
1A8F
330
1955
100
AcDbEntity
  8
AM_VIS
100
AcDbLine
 10
45.49999999999992
 20
-100.4999238461283
 30
0.0
 11
45.49999999999992
 21
-98.50000000000008
 31
0.0
  0
LINE
  5
1A90
330
1955
100
AcDbEntity
  8
AM_VIS
100
AcDbLine
 10
45.49999999999992
 20
-98.50000000000008
 30
0.0
 11
47.49992384612828
 21
-98.50000000000008
 31
0.0
  0
LINE
  5
1A91
330
1955
100
AcDbEntity
  8
AM_VIS
100
AcDbLine
 10
47.49992384612828
 20
98.49999999999994
 30
0.0
 11
45.49999999999992
 21
98.49999999999994
 31
0.0
  0
LINE
  5
1A92
330
1955
100
AcDbEntity
  8
AM_VIS
100
AcDbLine
 10
45.49999999999992
 20
98.49999999999994
 30
0.0
 11
45.49999999999992
 21
100.4999238461281
 31
0.0
  0
ARC
  5
1A93
330
1955
100
AcDbEntity
  8
AM_VIS
100
AcDbCircle
 10
62.5
 20
-115.5
 30
0.0
 40
5.0
100
AcDbArc
 50
270.0
 51
0.0
  0
ARC
  5
1A94
330
1955
100
AcDbEntity
  8
AM_VIS
100
AcDbCircle
 10
-62.49999999999996
 20
-115.5
 30
0.0
 40
5.0
100
AcDbArc
 50
180.0
 51
270.0
  0
ARC
  5
1A95
330
1955
100
AcDbEntity
  8
AM_VIS
100
AcDbCircle
 10
-62.49999999999998
 20
115.4999999999999
 30
0.0
 40
5.0
100
AcDbArc
 50
90.0
 51
180.0
  0
ARC
  5
1A96
330
1955
100
AcDbEntity
  8
AM_VIS
100
AcDbCircle
 10
62.49999999999996
 20
115.4999999999999
 30
0.0
 40
5.0
100
AcDbArc
 50
0.0
 51
90.0
  0
ELLIPSE
  5
1A97
330
1955
100
AcDbEntity
  8
AM_VIS
100
AcDbEllipse
 10
45.49999999999992
 20
98.49999999999994
 30
0.0
 11
1.41421356237398
 21
-1.414213562372204
 31
0.0
210
0.0
220
0.0
230
1.0
 40
0.9999238504775703
 41
0.7854362396077597
 42
2.356156413980777
  0
ELLIPSE
  5
1A98
330
1955
100
AcDbEntity
  8
AM_VIS
100
AcDbEllipse
 10
45.49999999999992
 20
-98.50000000000008
 30
0.0
 11
1.414213562374136
 21
1.414213562372069
 31
0.0
210
0.0
220
0.0
230
1.0
 40
0.9999238504775703
 41
3.927028893198917
 42
5.49774906757193
  0
LINE
  5
1A99
330
1955
100
AcDbEntity
  8
AM_VIS
100
AcDbLine
 10
-48.60047321475091
 20
-98.6005874455585
 30
0.0
 11
-47.60051129168672
 21
-98.6005874455585
 31
0.0
  0
LINE
  5
1A9A
330
1955
100
AcDbEntity
  8
AM_VIS
100
AcDbLine
 10
-45.60058744555835
 20
-100.6005112916867
 30
0.0
 11
-45.60058744555835
 21
-101.6004732147509
 31
0.0
  0
LINE
  5
1A9B
330
1955
100
AcDbEntity
  8
AM_VIS
100
AcDbLine
 10
-48.60047321475091
 20
98.60058744555828
 30
0.0
 11
-47.60051129168672
 21
98.60058744555828
 31
0.0
  0
LINE
  5
1A9C
330
1955
100
AcDbEntity
  8
AM_VIS
100
AcDbLine
 10
45.60058744555835
 20
-100.6005112916867
 30
0.0
 11
45.60058744555835
 21
-101.6004732147509
 31
0.0
  0
LINE
  5
1A9D
330
1955
100
AcDbEntity
  8
AM_VIS
100
AcDbLine
 10
-45.60058744555835
 20
101.6004732147507
 30
0.0
 11
-45.60058744555835
 21
100.6005112916865
 31
0.0
  0
LINE
  5
1A9E
330
1955
100
AcDbEntity
  8
AM_VIS
100
AcDbLine
 10
47.60051129168674
 20
-98.6005874455585
 30
0.0
 11
48.60047321475086
 21
-98.6005874455585
 31
0.0
  0
LINE
  5
1A9F
330
1955
100
AcDbEntity
  8
AM_VIS
100
AcDbLine
 10
45.60058744555835
 20
101.6004732147507
 30
0.0
 11
45.60058744555835
 21
100.6005112916865
 31
0.0
  0
LINE
  5
1AA0
330
1955
100
AcDbEntity
  8
AM_VIS
100
AcDbLine
 10
47.60051129168674
 20
98.60058744555828
 30
0.0
 11
48.60047321475086
 21
98.60058744555828
 31
0.0
  0
CIRCLE
  5
1AA1
330
1955
100
AcDbEntity
  8
AM_VIS
100
AcDbCircle
 10
-23.25000000000003
 20
81.2207402306957
 30
0.0
 40
10.0
  0
CIRCLE
  5
1AA2
330
1955
100
AcDbEntity
  8
AM_VIS
100
AcDbCircle
 10
23.25000000000003
 20
81.2207402306957
 30
0.0
 40
10.0
  0
CIRCLE
  5
1AA3
330
1955
100
AcDbEntity
  8
AM_VIS
100
AcDbCircle
 10
61.49999999999994
 20
-38.16666666666674
 30
0.0
 40
2.0
  0
CIRCLE
  5
1AA4
330
1955
100
AcDbEntity
  8
AM_VIS
100
AcDbCircle
 10
-0.0000000000000568
 20
114.4999999999997
 30
0.0
 40
2.0
  0
CIRCLE
  5
1AA5
330
1955
100
AcDbEntity
  8
AM_VIS
100
AcDbCircle
 10
-61.50000000000002
 20
-38.16666666666686
 30
0.0
 40
2.0
  0
CIRCLE
  5
1AA6
330
1955
100
AcDbEntity
  8
AM_VIS
100
AcDbCircle
 10
-61.50000000000002
 20
-114.5
 30
0.0
 40
2.0
  0
CIRCLE
  5
1AA7
330
1955
100
AcDbEntity
  8
AM_VIS
100
AcDbCircle
 10
61.49999999999989
 20
114.4999999999997
 30
0.0
 40
2.0
  0
CIRCLE
  5
1AA8
330
1955
100
AcDbEntity
  8
AM_VIS
100
AcDbCircle
 10
-61.50000000000006
 20
114.4999999999997
 30
0.0
 40
2.0
  0
CIRCLE
  5
1AA9
330
1955
100
AcDbEntity
  8
AM_VIS
100
AcDbCircle
 10
61.49999999999998
 20
-114.5
 30
0.0
 40
2.0
  0
CIRCLE
  5
1AAA
330
1955
100
AcDbEntity
  8
AM_VIS
100
AcDbCircle
 10
-61.50000000000006
 20
38.16666666666652
 30
0.0
 40
2.0
  0
CIRCLE
  5
1AAB
330
1955
100
AcDbEntity
  8
AM_VIS
100
AcDbCircle
 10
-0.0000000000000284
 20
-114.5
 30
0.0
 40
2.0
  0
CIRCLE
  5
1AAC
330
1955
100
AcDbEntity
  8
AM_VIS
100
AcDbCircle
 10
61.49999999999994
 20
38.16666666666654
 30
0.0
 40
2.0
  0
INSERT
  5
1AAD
330
1955
100
AcDbEntity
  8
0
100
AcDbBlockReference
 66
     1
  2
info
 10
-43.24999951288889
 20
-95.29999957841706
 30
0.0
  0
ATTRIB
  5
1AAE
330
1AAD
100
AcDbEntity
  8
0
100
AcDbText
 10
-33.78290656256938
 20
-92.40890434293765
 30
0.00000001
 40
5.0
  1
40
100
AcDbAttribute
280
     0
  2
BRD
 70
     1
280
     1
  0
ATTRIB
  5
1AAF
330
1AAD
100
AcDbEntity
  8
0
100
AcDbText
 10
-33.78290656256938
 20
-100.7422376762707
 30
0.00000001
 40
5.0
  1
160
100
AcDbAttribute
280
     0
  2
HJD
 70
     1
280
     1
  0
SEQEND
  5
1AB0
330
1AAD
100
AcDbEntity
  8
0
  0
INSERT
  5
1AB1
330
1955
100
AcDbEntity
  8
0
100
AcDbBlockReference
 66
     1
  2
info
 10
3.250000487111094
 20
-95.29999957841706
 30
0.0
  0
ATTRIB
  5
1AB2
330
1AB1
100
AcDbEntity
  8
0
100
AcDbText
 10
12.7170934374306
 20
-92.40890434293765
 30
0.00000001
 40
5.0
  1
40
100
AcDbAttribute
280
     0
  2
BRD
 70
     1
280
     1
  0
ATTRIB
  5
1AB3
330
1AB1
100
AcDbEntity
  8
0
100
AcDbText
 10
12.7170934374306
 20
-100.7422376762707
 30
0.00000001
 40
5.0
  1
160
100
AcDbAttribute
280
     0
  2
HJD
 70
     1
280
     1
  0
SEQEND
  5
1AB4
330
1AB1
100
AcDbEntity
  8
0
  0
LINE
  5
1AB5
330
1955
100
AcDbEntity
  8
AM_5
100
AcDbLine
 10
-63.49999999999997
 20
120.4999999999999
 30
0.0
 11
-90.50000101
 21
120.4999999999999
 31
0.0
  0
LINE
  5
1AB6
330
1955
100
AcDbEntity
  8
AM_5
100
AcDbLine
 10
-63.49999999999996
 20
-120.5
 30
0.0
 11
-90.50000101000003
 21
-120.5
 31
0.0
  0
LINE
  5
1AB7
330
1955
100
AcDbEntity
  8
AM_5
100
AcDbLine
 10
-89.50000101
 20
117.9999999999999
 30
0.0
 11
-89.50000101000004
 21
-118.0
 31
0.0
  0
SOLID
  5
1AB8
330
1955
100
AcDbEntity
  8
AM_5
100
AcDbTrace
 10
-89.91666767666666
 20
117.9999999999999
 30
0.0
 11
-89.08333434333334
 21
117.9999999999999
 31
0.0
 12
-89.50000101
 22
120.4999999999999
 32
0.0
 13
-89.50000101
 23
120.4999999999999
 33
0.0
  0
SOLID
  5
1AB9
330
1955
100
AcDbEntity
  8
AM_5
100
AcDbTrace
 10
-89.9166676766667
 20
-118.0
 30
0.0
 11
-89.08333434333339
 21
-118.0
 31
0.0
 12
-89.50000101000004
 22
-120.5
 32
0.0
 13
-89.50000101000004
 23
-120.5
 33
0.0
  0
MTEXT
  5
1ABA
330
1955
100
AcDbEntity
  8
AM_5
 62
     2
100
AcDbMText
 10
-92.92584688828451
 20
-0.0000000000000284
 30
0.0
 40
3.5
 41
0.0
 46
0.0
 71
     5
 72
     1
  1
241 [9.488"]
 11
0.0000000000000001
 21
1.0
 31
0.0
 73
     1
 44
1.0
1001
ACAD
1000
MTEXTBEGIN
1070
    73
1070
     1
1070
    44
1040
1.0
1070
    74
1070
     0
1000
MTEXTEND
  0
LINE
  5
1ABB
330
1955
100
AcDbEntity
  8
AM_5
100
AcDbLine
 10
-44.24999951288889
 20
-95.29999957841706
 30
0.0
 11
-80.50000101000017
 21
-95.29999957841706
 31
0.0
  0
LINE
  5
1ABC
330
1955
100
AcDbEntity
  8
AM_5
100
AcDbLine
 10
-44.24999951288889
 20
64.70074023069567
 30
0.0
 11
-80.50000101000014
 21
64.70074023069567
 31
0.0
  0
LINE
  5
1ABD
330
1955
100
AcDbEntity
  8
AM_5
100
AcDbLine
 10
-79.50000101000019
 20
-92.79999957841706
 30
0.0
 11
-79.50000101000012
 21
62.20074023069567
 31
0.0
  0
SOLID
  5
1ABE
330
1955
100
AcDbEntity
  8
AM_5
100
AcDbTrace
 10
-79.91666767666683
 20
-92.79999957841706
 30
0.0
 11
-79.0833343433335
 21
-92.79999957841706
 31
0.0
 12
-79.50000101000019
 22
-95.29999957841706
 32
0.0
 13
-79.50000101000019
 23
-95.29999957841706
 33
0.0
  0
SOLID
  5
1ABF
330
1955
100
AcDbEntity
  8
AM_5
100
AcDbTrace
 10
-79.91666767666679
 20
62.20074023069567
 30
0.0
 11
-79.08333434333345
 21
62.20074023069567
 31
0.0
 12
-79.50000101000012
 22
64.70074023069567
 32
0.0
 13
-79.50000101000012
 23
64.70074023069567
 33
0.0
  0
MTEXT
  5
1AC0
330
1955
100
AcDbEntity
  8
AM_5
 62
     2
100
AcDbMText
 10
-82.92669276656909
 20
-15.29962967386066
 30
0.0
 40
3.5
 41
0.0
 46
0.0
 71
     5
 72
     1
  1
160 [6.299"]
 11
0.0000000000000001
 21
1.0
 31
0.0
 73
     1
 44
1.0
1001
ACAD
1000
MTEXTBEGIN
1070
    73
1070
     1
1070
    44
1040
1.0
1070
    74
1070
     0
1000
MTEXTEND
  0
LINE
  5
1AC1
330
1955
100
AcDbEntity
  8
AM_5
100
AcDbLine
 10
-43.24999951288889
 20
-96.29999957841706
 30
0.0
 11
-43.24999951288889
 21
-131.0640246859395
 31
0.0
  0
LINE
  5
1AC2
330
1955
100
AcDbEntity
  8
AM_5
100
AcDbLine
 10
-3.250000000000028
 20
-96.29999957841706
 30
0.0
 11
-3.250000000000028
 21
-131.0640246859395
 31
0.0
  0
LINE
  5
1AC3
330
1955
100
AcDbEntity
  8
AM_5
100
AcDbLine
 10
-40.74999951288889
 20
-130.0640246859395
 30
0.0
 11
-5.750000000000027
 21
-130.0640246859395
 31
0.0
  0
SOLID
  5
1AC4
330
1955
100
AcDbEntity
  8
AM_5
100
AcDbTrace
 10
-40.74999951288889
 20
-129.6473580192729
 30
0.0
 11
-40.74999951288889
 21
-130.4806913526062
 31
0.0
 12
-43.24999951288889
 22
-130.0640246859395
 32
0.0
 13
-43.24999951288889
 23
-130.0640246859395
 33
0.0
  0
SOLID
  5
1AC5
330
1955
100
AcDbEntity
  8
AM_5
100
AcDbTrace
 10
-5.750000000000027
 20
-129.6473580192729
 30
0.0
 11
-5.750000000000027
 21
-130.4806913526062
 31
0.0
 12
-3.250000000000028
 22
-130.0640246859395
 32
0.0
 13
-3.250000000000028
 23
-130.0640246859395
 33
0.0
  0
MTEXT
  5
1AC6
330
1955
100
AcDbEntity
  8
AM_5
 62
     2
100
AcDbMText
 10
-23.24999975644447
 20
-126.6390246859395
 30
0.0
 40
3.5
 41
0.0
 46
0.0
 71
     5
 72
     1
  1
40 [1.575"]
 73
     1
 44
1.0
1001
ACAD
1000
MTEXTBEGIN
1070
    73
1070
     1
1070
    44
1040
1.0
1070
    74
1070
     0
1000
MTEXTEND
  0
LINE
  5
1AC7
330
1955
100
AcDbEntity
  8
AM_5
100
AcDbLine
 10
-67.49999999999997
 20
-116.5
 30
0.0
 11
-67.49999999999997
 21
-141.0640246859396
 31
0.0
  0
LINE
  5
1AC8
330
1955
100
AcDbEntity
  8
AM_5
100
AcDbLine
 10
67.49999999999999
 20
-116.5
 30
0.0
 11
67.49999999999999
 21
-141.0640246859396
 31
0.0
  0
LINE
  5
1AC9
330
1955
100
AcDbEntity
  8
AM_5
100
AcDbLine
 10
-64.99999999999997
 20
-140.0640246859397
 30
0.0
 11
64.99999999999999
 21
-140.0640246859397
 31
0.0
  0
SOLID
  5
1ACA
330
1955
100
AcDbEntity
  8
AM_5
100
AcDbTrace
 10
-64.99999999999997
 20
-139.647358019273
 30
0.0
 11
-64.99999999999997
 21
-140.4806913526063
 31
0.0
 12
-67.49999999999997
 22
-140.0640246859397
 32
0.0
 13
-67.49999999999997
 23
-140.0640246859397
 33
0.0
  0
SOLID
  5
1ACB
330
1955
100
AcDbEntity
  8
AM_5
100
AcDbTrace
 10
64.99999999999999
 20
-139.647358019273
 30
0.0
 11
64.99999999999999
 21
-140.4806913526063
 31
0.0
 12
67.49999999999999
 22
-140.0640246859397
 32
0.0
 13
67.49999999999999
 23
-140.0640246859397
 33
0.0
  0
MTEXT
  5
1ACC
330
1955
100
AcDbEntity
  8
AM_5
 62
     2
100
AcDbMText
 10
0.0000000000000142
 20
-136.6390246859396
 30
0.0
 40
3.5
 41
0.0
 46
0.0
 71
     5
 72
     1
  1
135 [5.315"]
 73
     1
 44
1.0
1001
ACAD
1000
MTEXTBEGIN
1070
    73
1070
     1
1070
    44
1040
1.0
1070
    74
1070
     0
1000
MTEXTEND
  0
ENDBLK
  5
1957
330
1955
100
AcDbEntity
  8
0
100
AcDbBlockEnd
  0
ENDSEC
  0
SECTION
  2
ENTITIES
  0
INSERT
  5
1ACD
330
1A
100
AcDbEntity
  8
AM_0
100
AcDbBlockReference
  2
COMSEAL32
 10
100.7515698250884
 20
142.2482222166936
 30
0.0
  0
VIEWPORT
  5
22
330
17
100
AcDbEntity
 67
     1
  8
0
100
AcDbViewport
 10
7.900096624318575
 20
6.635154955787665
 30
0.0
 40
18.8944864125024
 41
11.87498859712033
 68
     1
 69
     1
 12
7.900096624318575
 22
6.635154955787665
 13
0.0
 23
0.0
 14
1.0
 24
1.0
 15
10.0
 25
10.0
 16
0.0
 26
0.0
 36
1.0
 17
0.0
 27
0.0
 37
0.0
 42
50.0
 43
0.0
 44
0.0
 45
11.87498859712033
 50
0.0
 51
0.0
 72
   100
 90
    32800
  1

281
     0
 71
     1
 74
     0
110
0.0
120
0.0
130
0.0
111
1.0
121
0.0
131
0.0
112
0.0
122
1.0
132
0.0
 79
     0
146
0.0
170
     0
 61
     5
348
A55
292
     1
282
     1
141
0.0
142
0.0
 63
   250
421
  3355443
1001
GENIUS_GENODEF_13
1002
{
1000
HIER
1070
     0
1002
}
1002
{
1000
MANEDIT
1070
     0
1002
}
1002
{
1000
NOSEL
1070
     0
1002
}
1002
{
1000
BEHIND
1070
     0
1002
}
1002
{
1000
OTHER
1070
     0
1002
}
1002
{
1000
REACTOR
1002
}
1001
GENIUS_GENOBJ-N-SDF_13
1002
{
1000
OWNER
1000
GEN
1002
}
1001
GENIUS_GENSCREG_15
1000
PF
1040
1.0
1000
DF
1040
1.0
1000
MIN
1011
-1.547146581932626
1021
0.6976606572275
1031
0.0
1000
MAX
1011
17.34733983056977
1021
12.57264925434783
1031
0.0
1000
FLAGS
1070
     4
  0
ENDSEC
  0
SECTION
  2
OBJECTS
  0
DICTIONARY
  5
C
330
0
100
AcDbDictionary
281
     1
  3
ACAD_CIP_PREVIOUS_PRODUCT_INFO
350
1AED
  3
ACAD_COLOR
350
3CA
  3
ACAD_DETAILVIEWSTYLE
350
1AE7
  3
ACAD_GROUP
350
D
  3
ACAD_LAYOUT
350
167
  3
ACAD_MATERIAL
350
3C9
  3
ACAD_MLEADERSTYLE
350
A72
  3
ACAD_MLINESTYLE
350
E
  3
ACAD_PLOTSETTINGS
350
168
  3
ACAD_PLOTSTYLENAME
350
165
  3
ACAD_SCALELIST
350
A60
  3
ACAD_SECTIONVIEWSTYLE
350
1AE5
  3
ACAD_TABLESTYLE
350
650
  3
ACAD_VISUALSTYLE
350
A4F
  3
ACDB_RECOMPOSE_DATA
350
1B82
  3
ACDBVARIABLEDICTIONARY
350
5D
  3
ACMDICTIONARY
350
142
  3
AMG
350
171
  3
AMGSNAPSETTINGS
350
1F2
  3
ASE_INDEX_DICTIONARY
350
849
  0
DICTIONARY
  5
592
330
2
100
AcDbDictionary
280
     1
281
     1
  3
ACAD_LAYERFILTERS
360
C7C
  3
ACAD_LAYERSTATES
360
822
  3
ACLYDICTIONARY
360
C7B
  3
AMLAYER_GROUPCOLORS
360
593
  0
DICTIONARY
  5
AB7
330
F
100
AcDbDictionary
280
     1
281
     1
  3
ADSK_XREC_LAYER_RECONCILED
360
1194
  0
DICTIONARY
  5
AB9
330
5CF
100
AcDbDictionary
280
     1
281
     1
  3
ADSK_XREC_LAYER_RECONCILED
360
1195
  0
DICTIONARY
  5
119E
330
C7A
100
AcDbDictionary
280
     1
281
     1
  3
ADSK_XREC_LAYER_RECONCILED
360
119F
  0
DICTIONARY
  5
D16
330
D15
100
AcDbDictionary
280
     1
281
     1
  3
ADSK_XREC_LAYER_RECONCILED
360
11A0
  0
DICTIONARY
  5
12A
330
1A
100
AcDbDictionary
280
     1
281
     1
  3
ACAD_INDEX
360
12B
  3
ACAD_SORTENTS
360
1438
  0
XRECORD
  5
1AED
102
{ACAD_REACTORS
330
C
102
}
330
C
100
AcDbXrecord
280
     1
300
AMECH_PP
300
2013
300
85963PDSU_2013_0F
  0
DICTIONARY
  5
3CA
102
{ACAD_REACTORS
330
C
102
}
330
C
100
AcDbDictionary
281
     1
  0
DICTIONARY
  5
1AE7
102
{ACAD_REACTORS
330
C
102
}
330
C
100
AcDbDictionary
281
     1
  3
Metric50
350
1AE8
  0
DICTIONARY
  5
D
102
{ACAD_REACTORS
330
C
102
}
330
C
100
AcDbDictionary
281
     1
  0
DICTIONARY
  5
167
102
{ACAD_REACTORS
330
C
102
}
330
C
100
AcDbDictionary
281
     1
  3
Layout1
350
16A
  3
Model
350
169
  0
DICTIONARY
  5
3C9
102
{ACAD_REACTORS
330
C
102
}
330
C
100
AcDbDictionary
281
     1
  3
ByBlock
350
A3F
  3
ByLayer
350
A37
  3
Global
350
A47
  0
DICTIONARY
  5
A72
102
{ACAD_REACTORS
330
C
102
}
330
C
100
AcDbDictionary
281
     1
  3
Standard
350
A73
  0
DICTIONARY
  5
E
102
{ACAD_REACTORS
330
C
102
}
330
C
100
AcDbDictionary
281
     1
  3
STANDARD
350
13
  0
DICTIONARY
  5
168
102
{ACAD_REACTORS
330
C
102
}
330
C
100
AcDbDictionary
281
     1
  0
ACDBDICTIONARYWDFLT
  5
165
102
{ACAD_REACTORS
330
C
102
}
330
C
100
AcDbDictionary
281
     1
  3
Normal
350
166
100
AcDbDictionaryWithDefault
340
166
  0
DICTIONARY
  5
A60
102
{ACAD_REACTORS
330
C
102
}
330
C
100
AcDbDictionary
281
     1
  3
A0
350
A61
  3
A1
350
A62
  3
A2
350
A63
  3
A3
350
A64
  3
A4
350
A65
  3
A5
350
A66
  3
A6
350
A67
  3
A7
350
A68
  3
A8
350
A69
  3
A9
350
A6A
  3
B0
350
A6B
  3
B1
350
A6C
  3
B2
350
A6D
  3
B3
350
A6E
  3
B4
350
A6F
  3
B5
350
A70
  3
B6
350
A71
  0
DICTIONARY
  5
1AE5
102
{ACAD_REACTORS
330
C
102
}
330
C
100
AcDbDictionary
281
     1
  3
Metric50
350
1AE6
  0
DICTIONARY
  5
650
102
{ACAD_REACTORS
330
C
102
}
330
C
100
AcDbDictionary
281
     1
  3
Standard
350
651
  0
DICTIONARY
  5
A4F
102
{ACAD_REACTORS
330
C
102
}
330
C
100
AcDbDictionary
281
     1
  3
2dWireframe
350
A55
  3
3D Hidden
350
A57
  3
3dWireframe
350
A56
  3
Basic
350
A54
  3
Brighten
350
A5B
  3
ColorChange
350
A5F
  3
Conceptual
350
A58
  3
Dim
350
A5A
  3
EdgeColorOff
350
1AE4
  3
Facepattern
350
A5E
  3
Flat
350
A50
  3
FlatWithEdges
350
A51
  3
Gouraud
350
A52
  3
GouraudWithEdges
350
A53
  3
Hidden
350
1ADC
  3
JitterOff
350
1AE2
  3
Linepattern
350
A5D
  3
OverhangOff
350
1AE3
  3
Realistic
350
A59
  3
Shaded
350
1AE1
  3
Shaded with edges
350
1AE0
  3
Shades of Gray
350
1ADD
  3
Sketchy
350
1ADE
  3
Thicken
350
A5C
  3
Wireframe
350
1ADB
  3
X-Ray
350
1ADF
  0
XRECORD
  5
1B82
102
{ACAD_REACTORS
330
C
102
}
330
C
100
AcDbXrecord
280
     1
 90
        1
330
651
  0
DICTIONARY
  5
5D
102
{ACAD_REACTORS
330
C
102
}
330
C
100
AcDbDictionary
281
     1
  3
CANNOSCALE
350
AF4
  3
CMLEADERSTYLE
350
AF2
  3
CTABLESTYLE
350
66F
  3
CVIEWDETAILSTYLE
350
1B7F
  3
CVIEWSECTIONSTYLE
350
1B80
  3
DIMADEC
350
5E
  3
DIMASSOC
350
3C7
  3
INDEXCTL
350
128
  3
LAYEREVAL
350
AF6
  3
LAYERNOTIFY
350
AF7
  3
LIGHTINGUNITS
350
AF5
  3
MSLTSCALE
350
AF3
  3
SORTENTS
350
11A3
  0
DICTIONARY
  5
142
102
{ACAD_REACTORS
330
C
102
}
330
C
100
AcDbDictionary
281
     1
  3
ACMSTDDICTIONARY
350
143
  3
AMDTSECTSYM_ARROWCOLOR
350
47D
  0
DICTIONARY
  5
171
102
{ACAD_REACTORS
330
C
102
}
330
C
100
AcDbDictionary
281
     1
  0
DICTIONARY
  5
1F2
102
{ACAD_REACTORS
330
C
102
}
330
C
100
AcDbDictionary
281
     1
  0
DICTIONARY
  5
849
102
{ACAD_REACTORS
330
C
102
}
330
C
100
AcDbDictionary
281
     1
  3
ASEBlockHierarchyIndexRecord
350
84B
1001
DCO15
1040
1524370329.156
  0
DICTIONARY
  5
C7C
102
{ACAD_REACTORS
330
592
102
}
330
592
100
AcDbDictionary
281
     1
  0
DICTIONARY
  5
822
102
{ACAD_REACTORS
330
592
102
}
330
592
100
AcDbDictionary
281
     1
  0
DICTIONARY
  5
C7B
102
{ACAD_REACTORS
330
592
102
}
330
592
100
AcDbDictionary
281
     1
1001
ACAD
1000
<All
  0
DICTIONARY
  5
593
102
{ACAD_REACTORS
330
592
102
}
330
592
100
AcDbDictionary
280
     1
281
     1
  0
XRECORD
  5
1194
102
{ACAD_REACTORS
330
AB7
102
}
330
AB7
100
AcDbXrecord
280
     1
290
     1
  0
XRECORD
  5
1195
102
{ACAD_REACTORS
330
AB9
102
}
330
AB9
100
AcDbXrecord
280
     1
290
     1
  0
XRECORD
  5
119F
102
{ACAD_REACTORS
330
119E
102
}
330
119E
100
AcDbXrecord
280
     1
290
     1
  0
XRECORD
  5
11A0
102
{ACAD_REACTORS
330
D16
102
}
330
D16
100
AcDbXrecord
280
     1
290
     1
  0
DICTIONARY
  5
12B
102
{ACAD_REACTORS
330
12A
102
}
330
12A
100
AcDbDictionary
281
     1
  3
*A1
350
12C
  0
SORTENTSTABLE
  5
1438
102
{ACAD_REACTORS
330
12A
102
}
330
12A
100
AcDbSortentsTable
330
1A
  0
ACDBDETAILVIEWSTYLE
  5
1AE8
102
{ACAD_REACTORS
330
1AE7
102
}
330
1AE7
100
AcDbModelDocViewStyle
 70
     0
  3
Metric50
290
     0
100
AcDbDetailViewStyle
 70
     0
 71
     0
 90
        3
 71
     1
340
10
 62
   256
 40
5.0
340
0
 62
   256
 40
5.0
300

 40
0.0
280
     1
 71
     2
340
16
 90
       25
 62
   256
 71
     3
340
10
 62
   256
 40
5.0
 90
        0
 40
15.0
 90
        1
300
%<\AcVar ViewDetailId>% (%<\AcVar ViewScale \f "%sn">%)
 71
     4
340
16
 90
       25
 62
   256
340
16
 90
       25
 62
   256
280
     0
  0
LAYOUT
  5
16A
102
{ACAD_XDICTIONARY
360
824
102
}
102
{ACAD_REACTORS
330
167
102
}
330
167
100
AcDbPlotSettings
  1

  2
none_device
  4
Letter_(8.50_x_11.00_Inches)
  6

 40
6.349999904632567
 41
6.349999904632567
 42
6.350006103515625
 43
6.350006103515625
 44
215.8999938964844
 45
279.3999938964844
 46
0.0
 47
7.25904629660107
 48
0.0
 49
0.0
140
0.0
141
0.0
142
1.0
143
1.0
 70
   688
 72
     0
 73
     1
 74
     5
  7
@Layout.ctb
 75
     0
147
1.0
 76
     0
 77
     2
 78
   300
148
-74.57150970956639
149
-30.33168042120906
100
AcDbLayout
  1
Layout1
 70
     1
 71
     1
 10
-0.2500002402958907
 20
-0.2499999962453767
 11
10.74999951940821
 21
8.249999763458731
 12
0.0
 22
0.0
 32
0.0
 14
1.000000000000000E+20
 24
1.000000000000000E+20
 34
1.000000000000000E+20
 15
-1.000000000000000E+20
 25
-1.000000000000000E+20
 35
-1.000000000000000E+20
146
0.0
 13
0.0
 23
0.0
 33
0.0
 16
1.0
 26
0.0
 36
0.0
 17
0.0
 27
1.0
 37
0.0
 76
     0
330
17
331
22
1001
ACAD_PSEXT
1000
None
1000
None
1000
Not applicable
1000
The layout will not be plotted unless a new plotter configuration name is selected.
1070
     0
  0
LAYOUT
  5
169
102
{ACAD_REACTORS
330
167
102
}
330
167
100
AcDbPlotSettings
  1

  2
none_device
  4
Letter_(8.50_x_11.00_Inches)
  6

 40
6.349999904632567
 41
6.349999904632567
 42
6.350006103515625
 43
6.350006103515625
 44
215.8999938964844
 45
279.3999938964844
 46
38.1308720290886
 47
0.0
 48
0.0
 49
0.0
140
0.0
141
0.0
142
1.0
143
24.24127445441686
 70
 11956
 72
     0
 73
     1
 74
     0
  7
@Layout.ctb
 75
     0
147
0.0412519565289521
 76
     0
 77
     2
 78
   300
148
8019.824937415057
149
-189.2331007602539
100
AcDbLayout
  1
Model
 70
     1
 71
     0
 10
0.0
 20
0.0
 11
12.0
 21
9.0
 12
0.0
 22
0.0
 32
0.0
 14
0.0
 24
0.0
 34
0.0
 15
0.0
 25
0.0
 35
0.0
146
0.0
 13
0.0
 23
0.0
 33
0.0
 16
1.0
 26
0.0
 36
0.0
 17
0.0
 27
1.0
 37
0.0
 76
     0
330
1A
331
A35
1001
ACAD_PSEXT
1000
None
1000
None
1000
Not applicable
1000
The layout will not be plotted unless a new plotter configuration name is selected.
1070
     0
  0
MATERIAL
  5
A3F
102
{ACAD_XDICTIONARY
360
A40
102
}
102
{ACAD_REACTORS
330
3C9
102
}
330
3C9
100
AcDbMaterial
  1
ByBlock
 72
     0
 43
0.0008202099737533
 43
0.0
 43
0.0
 43
0.0
 43
0.0
 43
0.0008202099737533
 43
0.0
 43
0.0
 43
0.0
 43
0.0
 43
1.0
 43
0.0
 43
0.0
 43
0.0
 43
0.0
 43
1.0
 77
     0
 47
0.0008202099737533
 47
0.0
 47
0.0
 47
0.0
 47
0.0
 47
0.0008202099737533
 47
0.0
 47
0.0
 47
0.0
 47
0.0
 47
1.0
 47
0.0
 47
0.0
 47
0.0
 47
0.0
 47
1.0
171
     0
 49
0.0008202099737533
 49
0.0
 49
0.0
 49
0.0
 49
0.0
 49
0.0008202099737533
 49
0.0
 49
0.0
 49
0.0
 49
0.0
 49
1.0
 49
0.0
 49
0.0
 49
0.0
 49
0.0
 49
1.0
175
     0
142
0.0008202099737533
142
0.0
142
0.0
142
0.0
142
0.0
142
0.0008202099737533
142
0.0
142
0.0
142
0.0
142
0.0
142
1.0
142
0.0
142
0.0
142
0.0
142
0.0
142
1.0
179
     0
144
0.0008202099737533
144
0.0
144
0.0
144
0.0
144
0.0
144
0.0008202099737533
144
0.0
144
0.0
144
0.0
144
0.0
144
1.0
144
0.0
144
0.0
144
0.0
144
0.0
144
1.0
147
0.0008202099737533
147
0.0
147
0.0
147
0.0
147
0.0
147
0.0008202099737533
147
0.0
147
0.0
147
0.0
147
0.0
147
1.0
147
0.0
147
0.0
147
0.0
147
0.0
147
1.0
  0
MATERIAL
  5
A37
102
{ACAD_XDICTIONARY
360
A38
102
}
102
{ACAD_REACTORS
330
3C9
102
}
330
3C9
100
AcDbMaterial
  1
ByLayer
 72
     0
 43
0.0008202099737533
 43
0.0
 43
0.0
 43
0.0
 43
0.0
 43
0.0008202099737533
 43
0.0
 43
0.0
 43
0.0
 43
0.0
 43
1.0
 43
0.0
 43
0.0
 43
0.0
 43
0.0
 43
1.0
 77
     0
 47
0.0008202099737533
 47
0.0
 47
0.0
 47
0.0
 47
0.0
 47
0.0008202099737533
 47
0.0
 47
0.0
 47
0.0
 47
0.0
 47
1.0
 47
0.0
 47
0.0
 47
0.0
 47
0.0
 47
1.0
171
     0
 49
0.0008202099737533
 49
0.0
 49
0.0
 49
0.0
 49
0.0
 49
0.0008202099737533
 49
0.0
 49
0.0
 49
0.0
 49
0.0
 49
1.0
 49
0.0
 49
0.0
 49
0.0
 49
0.0
 49
1.0
175
     0
142
0.0008202099737533
142
0.0
142
0.0
142
0.0
142
0.0
142
0.0008202099737533
142
0.0
142
0.0
142
0.0
142
0.0
142
1.0
142
0.0
142
0.0
142
0.0
142
0.0
142
1.0
179
     0
144
0.0008202099737533
144
0.0
144
0.0
144
0.0
144
0.0
144
0.0008202099737533
144
0.0
144
0.0
144
0.0
144
0.0
144
1.0
144
0.0
144
0.0
144
0.0
144
0.0
144
1.0
147
0.0008202099737533
147
0.0
147
0.0
147
0.0
147
0.0
147
0.0008202099737533
147
0.0
147
0.0
147
0.0
147
0.0
147
1.0
147
0.0
147
0.0
147
0.0
147
0.0
147
1.0
  0
MATERIAL
  5
A47
102
{ACAD_XDICTIONARY
360
A48
102
}
102
{ACAD_REACTORS
330
3C9
102
}
330
3C9
100
AcDbMaterial
  1
Global
 72
     0
 43
0.0008202099737533
 43
0.0
 43
0.0
 43
0.0
 43
0.0
 43
0.0008202099737533
 43
0.0
 43
0.0
 43
0.0
 43
0.0
 43
1.0
 43
0.0
 43
0.0
 43
0.0
 43
0.0
 43
1.0
 77
     0
 47
0.0008202099737533
 47
0.0
 47
0.0
 47
0.0
 47
0.0
 47
0.0008202099737533
 47
0.0
 47
0.0
 47
0.0
 47
0.0
 47
1.0
 47
0.0
 47
0.0
 47
0.0
 47
0.0
 47
1.0
171
     0
 49
0.0008202099737533
 49
0.0
 49
0.0
 49
0.0
 49
0.0
 49
0.0008202099737533
 49
0.0
 49
0.0
 49
0.0
 49
0.0
 49
1.0
 49
0.0
 49
0.0
 49
0.0
 49
0.0
 49
1.0
175
     0
142
0.0008202099737533
142
0.0
142
0.0
142
0.0
142
0.0
142
0.0008202099737533
142
0.0
142
0.0
142
0.0
142
0.0
142
1.0
142
0.0
142
0.0
142
0.0
142
0.0
142
1.0
179
     0
144
0.0008202099737533
144
0.0
144
0.0
144
0.0
144
0.0
144
0.0008202099737533
144
0.0
144
0.0
144
0.0
144
0.0
144
1.0
144
0.0
144
0.0
144
0.0
144
0.0
144
1.0
147
0.0008202099737533
147
0.0
147
0.0
147
0.0
147
0.0
147
0.0008202099737533
147
0.0
147
0.0
147
0.0
147
0.0
147
1.0
147
0.0
147
0.0
147
0.0
147
0.0
147
1.0
  0
MLEADERSTYLE
  5
A73
102
{ACAD_REACTORS
330
A72
102
}
330
A72
100
AcDbMLeaderStyle
179
     2
170
     2
171
     1
172
     0
 90
        2
 40
0.0
 41
0.0
173
     1
 91
-1056964608
340
14
 92
       -2
290
     1
 42
2.0
291
     1
 43
0.36
  3
Standard
 44
4.0
300

342
10
174
     1
178
     6
175
     1
176
     0
 93
-1056964608
 45
4.0
292
     0
297
     0
 46
4.0
 94
-1056964608
 47
1.0
 49
1.0
140
1.0
293
     1
141
0.0
294
     1
177
     0
142
1.0
295
     0
296
     0
143
0.125
271
     0
272
     9
273
     9
298
     0
1001
ACAD_MLEADERVER
1070
     2
  0
MLINESTYLE
  5
13
102
{ACAD_REACTORS
330
E
102
}
330
E
100
AcDbMlineStyle
  2
STANDARD
 70
     0
  3

 62
     0
 51
90.0
 52
90.0
 71
     2
 49
0.5
 62
   256
  6
BYLAYER
 49
-0.5
 62
   256
  6
BYLAYER
  0
ACDBPLACEHOLDER
  5
166
102
{ACAD_REACTORS
330
165
102
}
330
165
  0
SCALE
  5
A61
102
{ACAD_REACTORS
330
A60
102
}
330
A60
100
AcDbScale
 70
     0
300
1:1
140
1.0
141
1.0
290
     1
  0
SCALE
  5
A62
102
{ACAD_REACTORS
330
A60
102
}
330
A60
100
AcDbScale
 70
     0
300
1:2
140
1.0
141
2.0
290
     0
  0
SCALE
  5
A63
102
{ACAD_REACTORS
330
A60
102
}
330
A60
100
AcDbScale
 70
     0
300
1:4
140
1.0
141
4.0
290
     0
  0
SCALE
  5
A64
102
{ACAD_REACTORS
330
A60
102
}
330
A60
100
AcDbScale
 70
     0
300
1:5
140
1.0
141
5.0
290
     0
  0
SCALE
  5
A65
102
{ACAD_REACTORS
330
A60
102
}
330
A60
100
AcDbScale
 70
     0
300
1:8
140
1.0
141
8.0
290
     0
  0
SCALE
  5
A66
102
{ACAD_REACTORS
330
A60
102
}
330
A60
100
AcDbScale
 70
     0
300
1:10
140
1.0
141
10.0
290
     0
  0
SCALE
  5
A67
102
{ACAD_REACTORS
330
A60
102
}
330
A60
100
AcDbScale
 70
     0
300
1:16
140
1.0
141
16.0
290
     0
  0
SCALE
  5
A68
102
{ACAD_REACTORS
330
A60
102
}
330
A60
100
AcDbScale
 70
     0
300
1:20
140
1.0
141
20.0
290
     0
  0
SCALE
  5
A69
102
{ACAD_REACTORS
330
A60
102
}
330
A60
100
AcDbScale
 70
     0
300
1:30
140
1.0
141
30.0
290
     0
  0
SCALE
  5
A6A
102
{ACAD_REACTORS
330
A60
102
}
330
A60
100
AcDbScale
 70
     0
300
1:40
140
1.0
141
40.0
290
     0
  0
SCALE
  5
A6B
102
{ACAD_REACTORS
330
A60
102
}
330
A60
100
AcDbScale
 70
     0
300
1:50
140
1.0
141
50.0
290
     0
  0
SCALE
  5
A6C
102
{ACAD_REACTORS
330
A60
102
}
330
A60
100
AcDbScale
 70
     0
300
1:100
140
1.0
141
100.0
290
     0
  0
SCALE
  5
A6D
102
{ACAD_REACTORS
330
A60
102
}
330
A60
100
AcDbScale
 70
     0
300
2:1
140
2.0
141
1.0
290
     0
  0
SCALE
  5
A6E
102
{ACAD_REACTORS
330
A60
102
}
330
A60
100
AcDbScale
 70
     0
300
4:1
140
4.0
141
1.0
290
     0
  0
SCALE
  5
A6F
102
{ACAD_REACTORS
330
A60
102
}
330
A60
100
AcDbScale
 70
     0
300
8:1
140
8.0
141
1.0
290
     0
  0
SCALE
  5
A70
102
{ACAD_REACTORS
330
A60
102
}
330
A60
100
AcDbScale
 70
     0
300
10:1
140
10.0
141
1.0
290
     0
  0
SCALE
  5
A71
102
{ACAD_REACTORS
330
A60
102
}
330
A60
100
AcDbScale
 70
     0
300
100:1
140
100.0
141
1.0
290
     0
  0
ACDBSECTIONVIEWSTYLE
  5
1AE6
102
{ACAD_REACTORS
330
1AE5
102
}
330
1AE5
100
AcDbModelDocViewStyle
 70
     0
  3
Metric50
290
     0
100
AcDbSectionViewStyle
 70
     0
 71
     0
 90
      102
 71
     1
340
10
 62
   256
 40
5.0
340
0
340
0
 62
   256
 40
5.0
300
I, O, Q, S, X, Z
 40
10.0
 90
        0
 40
2.5
 90
        0
 71
     2
340
16
 90
       25
 62
   256
340
16
 90
       50
 62
   256
 40
5.0
 40
2.5
 40
5.0
 71
     3
340
10
 62
   256
 40
5.0
 90
        0
 40
15.0
 90
        1
300
%<\AcVar ViewSectionStartId>%-%<\AcVar ViewSectionEndId>% (%<\AcVar ViewScale \f "%sn">%)
 71
     4
 62
   256
 62
   257
300
ANSI31
 40
1.0
 90
        0
290
     0
290
     0
 90
        6
 40
0.0
 40
1.570796326794896
 40
0.2617993877991494
 40
1.308996938995747
 40
-0.2617993877991494
 40
1.832595714594046
  0
TABLESTYLE
  5
651
102
{ACAD_XDICTIONARY
360
AED
102
}
102
{ACAD_REACTORS
330
650
102
}
330
650
100
AcDbTableStyle
280
     0
  3
Standard
 70
     0
 71
     0
 40
1.5
 41
1.5
280
     0
281
     0
  7
STANDARD
140
4.5
170
     2
 62
     0
 63
     7
283
     0
 90
        4
 91
        0
  1

274
    -2
284
     1
 64
     0
275
    -2
285
     1
 65
     0
276
    -2
286
     1
 66
     0
277
    -2
287
     1
 67
     0
278
    -2
288
     1
 68
     0
279
    -2
289
     1
 69
     0
  7
STANDARD
140
6.0
170
     5
 62
     0
 63
     7
283
     0
 90
        4
 91
        0
  1

274
    -2
284
     1
 64
     0
275
    -2
285
     1
 65
     0
276
    -2
286
     1
 66
     0
277
    -2
287
     1
 67
     0
278
    -2
288
     1
 68
     0
279
    -2
289
     1
 69
     0
  7
STANDARD
140
4.5
170
     5
 62
     0
 63
     7
283
     0
 90
        4
 91
        0
  1

274
    -2
284
     1
 64
     0
275
    -2
285
     1
 65
     0
276
    -2
286
     1
 66
     0
277
    -2
287
     1
 67
     0
278
    -2
288
     1
 68
     0
279
    -2
289
     1
 69
     0
  0
VISUALSTYLE
  5
A55
102
{ACAD_REACTORS
330
A4F
102
}
330
A4F
100
AcDbVisualStyle
  2

 70
     4
177
     3
291
     0
 70
    58
 90
        0
176
     1
 90
        2
176
     1
 90
        0
176
     1
 90
        0
176
     1
 40
0.6
176
     1
 40
30.0
176
     1
 62
     7
176
     1
 90
        1
176
     1
 90
        4
176
     1
 62
     7
176
     1
 62
   257
176
     1
 90
        1
176
     1
 90
        1
176
     1
 40
1.0
176
     1
 90
        0
176
     1
 62
   257
176
     1
 40
1.0
176
     1
 90
        1
176
     1
 90
        6
176
     1
 90
        2
176
     1
 62
     7
176
     1
 90
        5
176
     1
 90
        0
176
     1
 90
        0
176
     1
290
     0
176
     1
 90
        1
176
     1
 40
0.0
176
     1
 90
        0
176
     1
290
     1
176
     1
290
     1
176
     1
290
     0
176
     1
290
     0
176
     1
290
     0
176
     1
290
     0
176
     1
290
     0
176
     1
290
     0
176
     1
290
     0
176
     1
 90
       50
176
     1
 40
0.0
176
     1
 40
1.0
176
     1
 90
        0
176
     1
 62
    18
420
        0
176
     1
 90
       50
176
     1
 90
        3
176
     1
 62
     5
420
      255
176
     1
290
     0
176
     1
 90
       50
176
     1
 90
       50
176
     1
 90
       50
176
     1
290
     0
176
     1
 90
       50
176
     1
 62
   256
176
     0
 40
1.0
176
     0
 90
        2
176
     1
  1
strokes_ogs.tif
176
     1
290
     0
176
     1
 40
1.0
176
     1
 40
1.0
176
     1
1001
ACAD
1000
AcDbSavedByObjectVersion
1070
     0
1000
AcDbSavedByObjectVersion
1070
     0
1000
AcDbSavedByObjectVersion
1070
     0
  0
VISUALSTYLE
  5
A57
102
{ACAD_REACTORS
330
A4F
102
}
330
A4F
100
AcDbVisualStyle
  2

 70
     6
177
     3
291
     0
 70
    58
 90
        1
176
     1
 90
        2
176
     1
 90
        2
176
     1
 90
        0
176
     1
 40
0.6
176
     1
 40
30.0
176
     1
 62
     7
176
     1
 90
        2
176
     1
 90
        2
176
     1
 62
     7
176
     1
 62
   257
176
     1
 90
        2
176
     1
 90
        1
176
     1
 40
40.0
176
     1
 90
        0
176
     1
 62
   257
176
     1
 40
1.0
176
     1
 90
        1
176
     1
 90
        6
176
     1
 90
        2
176
     1
 62
     7
176
     1
 90
        3
176
     1
 90
        0
176
     1
 90
        0
176
     1
290
     0
176
     1
 90
        1
176
     1
 40
0.0
176
     1
 90
        0
176
     1
290
     0
176
     1
290
     1
176
     1
290
     1
176
     1
290
     0
176
     1
290
     0
176
     1
290
     0
176
     1
290
     0
176
     1
290
     0
176
     1
290
     0
176
     1
 90
       50
176
     1
 40
0.0
176
     1
 40
1.0
176
     1
 90
        0
176
     1
 62
    18
420
        0
176
     1
 90
       50
176
     1
 90
        3
176
     1
 62
     5
420
      255
176
     1
290
     0
176
     1
 90
       50
176
     1
 90
       50
176
     1
 90
       50
176
     1
290
     0
176
     1
 90
       50
176
     1
 62
   256
176
     0
 40
1.0
176
     0
 90
        2
176
     1
  1
strokes_ogs.tif
176
     1
290
     0
176
     1
 40
1.0
176
     1
 40
1.0
176
     1
1001
ACAD
1000
AcDbSavedByObjectVersion
1070
     0
1000
AcDbSavedByObjectVersion
1070
     0
1000
AcDbSavedByObjectVersion
1070
     0
  0
VISUALSTYLE
  5
A56
102
{ACAD_REACTORS
330
A4F
102
}
330
A4F
100
AcDbVisualStyle
  2

 70
     5
177
     3
291
     0
 70
    58
 90
        0
176
     1
 90
        2
176
     1
 90
        0
176
     1
 90
        0
176
     1
 40
0.6
176
     1
 40
30.0
176
     1
 62
     7
176
     1
 90
        1
176
     1
 90
        4
176
     1
 62
     7
176
     1
 62
   257
176
     1
 90
        1
176
     1
 90
        1
176
     1
 40
1.0
176
     1
 90
        0
176
     1
 62
   257
176
     1
 40
1.0
176
     1
 90
        1
176
     1
 90
        6
176
     1
 90
        2
176
     1
 62
     7
176
     1
 90
        5
176
     1
 90
        0
176
     1
 90
        0
176
     1
290
     0
176
     1
 90
        1
176
     1
 40
0.0
176
     1
 90
        0
176
     1
290
     0
176
     1
290
     1
176
     1
290
     1
176
     1
290
     0
176
     1
290
     0
176
     1
290
     0
176
     1
290
     0
176
     1
290
     0
176
     1
290
     0
176
     1
 90
       50
176
     1
 40
0.0
176
     1
 40
1.0
176
     1
 90
        0
176
     1
 62
    18
420
        0
176
     1
 90
       50
176
     1
 90
        3
176
     1
 62
     5
420
      255
176
     1
290
     0
176
     1
 90
       50
176
     1
 90
       50
176
     1
 90
       50
176
     1
290
     0
176
     1
 90
       50
176
     1
 62
   256
176
     0
 40
1.0
176
     0
 90
        2
176
     1
  1
strokes_ogs.tif
176
     1
290
     0
176
     1
 40
1.0
176
     1
 40
1.0
176
     1
1001
ACAD
1000
AcDbSavedByObjectVersion
1070
     0
1000
AcDbSavedByObjectVersion
1070
     0
1000
AcDbSavedByObjectVersion
1070
     0
  0
VISUALSTYLE
  5
A54
102
{ACAD_REACTORS
330
A4F
102
}
330
A4F
100
AcDbVisualStyle
  2

 70
     7
177
     3
291
     1
 70
    58
 90
        1
176
     1
 90
        0
176
     1
 90
        1
176
     1
 90
        0
176
     1
 40
0.6
176
     1
 40
30.0
176
     1
 62
     7
176
     1
 90
        0
176
     1
 90
        4
176
     1
 62
     7
176
     1
 62
   257
176
     1
 90
        1
176
     1
 90
        1
176
     1
 40
1.0
176
     1
 90
        8
176
     1
 62
     7
176
     1
 40
1.0
176
     1
 90
        1
176
     1
 90
        6
176
     1
 90
        2
176
     1
 62
     7
176
     1
 90
        5
176
     1
 90
        0
176
     1
 90
        0
176
     1
290
     0
176
     1
 90
        1
176
     1
 40
0.0
176
     1
 90
        0
176
     1
290
     0
176
     1
290
     1
176
     1
290
     1
176
     1
290
     0
176
     1
290
     0
176
     1
290
     0
176
     1
290
     0
176
     1
290
     0
176
     1
290
     0
176
     1
 90
       50
176
     1
 40
0.0
176
     1
 40
1.0
176
     1
 90
        0
176
     1
 62
    18
420
        0
176
     1
 90
       50
176
     1
 90
        3
176
     1
 62
     5
420
      255
176
     1
290
     0
176
     1
 90
       50
176
     1
 90
       50
176
     1
 90
       50
176
     1
290
     0
176
     1
 90
       50
176
     1
 62
   256
176
     0
 40
1.0
176
     0
 90
        2
176
     1
  1
strokes_ogs.tif
176
     1
290
     0
176
     1
 40
1.0
176
     1
 40
1.0
176
     1
1001
ACAD
1000
AcDbSavedByObjectVersion
1070
     0
1000
AcDbSavedByObjectVersion
1070
     0
1000
AcDbSavedByObjectVersion
1070
     0
  0
VISUALSTYLE
  5
A5B
102
{ACAD_REACTORS
330
A4F
102
}
330
A4F
100
AcDbVisualStyle
  2

 70
    12
177
     3
291
     1
 70
    58
 90
        2
176
     1
 90
        2
176
     1
 90
        0
176
     1
 90
        0
176
     1
 40
0.6
176
     1
 40
30.0
176
     1
 62
     7
176
     1
 90
        1
176
     1
 90
        4
176
     1
 62
     7
176
     1
 62
   257
176
     1
 90
        1
176
     1
 90
        1
176
     1
 40
1.0
176
     1
 90
        8
176
     1
 62
     7
176
     1
 40
1.0
176
     1
 90
        1
176
     1
 90
        6
176
     1
 90
        2
176
     1
 62
     7
176
     1
 90
        5
176
     1
 90
        0
176
     1
 90
        0
176
     1
290
     0
176
     1
 90
        1
176
     1
 40
50.0
176
     1
 90
        0
176
     1
290
     0
176
     1
290
     1
176
     1
290
     1
176
     1
290
     0
176
     1
290
     0
176
     1
290
     0
176
     1
290
     0
176
     1
290
     0
176
     1
290
     0
176
     1
 90
       50
176
     1
 40
0.0
176
     1
 40
1.0
176
     1
 90
        0
176
     1
 62
    18
420
        0
176
     1
 90
       50
176
     1
 90
        3
176
     1
 62
     5
420
      255
176
     1
290
     0
176
     1
 90
       50
176
     1
 90
       50
176
     1
 90
       50
176
     1
290
     0
176
     1
 90
       50
176
     1
 62
   256
176
     0
 40
1.0
176
     0
 90
        2
176
     1
  1
strokes_ogs.tif
176
     1
290
     0
176
     1
 40
1.0
176
     1
 40
1.0
176
     1
1001
ACAD
1000
AcDbSavedByObjectVersion
1070
     0
1000
AcDbSavedByObjectVersion
1070
     0
1000
AcDbSavedByObjectVersion
1070
     0
  0
VISUALSTYLE
  5
A5F
102
{ACAD_REACTORS
330
A4F
102
}
330
A4F
100
AcDbVisualStyle
  2

 70
    16
177
     3
291
     1
 70
    58
 90
        2
176
     1
 90
        2
176
     1
 90
        3
176
     1
 90
        0
176
     1
 40
0.6
176
     1
 40
30.0
176
     1
 62
     8
176
     1
 90
        1
176
     1
 90
        4
176
     1
 62
     7
176
     1
 62
   257
176
     1
 90
        1
176
     1
 90
        1
176
     1
 40
1.0
176
     1
 90
        8
176
     1
 62
     8
176
     1
 40
1.0
176
     1
 90
        1
176
     1
 90
        6
176
     1
 90
        2
176
     1
 62
     7
176
     1
 90
        5
176
     1
 90
        0
176
     1
 90
        0
176
     1
290
     0
176
     1
 90
        1
176
     1
 40
0.0
176
     1
 90
        0
176
     1
290
     0
176
     1
290
     1
176
     1
290
     1
176
     1
290
     0
176
     1
290
     0
176
     1
290
     0
176
     1
290
     0
176
     1
290
     0
176
     1
290
     0
176
     1
 90
       50
176
     1
 40
0.0
176
     1
 40
1.0
176
     1
 90
        0
176
     1
 62
    18
420
        0
176
     1
 90
       50
176
     1
 90
        3
176
     1
 62
     5
420
      255
176
     1
290
     0
176
     1
 90
       50
176
     1
 90
       50
176
     1
 90
       50
176
     1
290
     0
176
     1
 90
       50
176
     1
 62
   256
176
     0
 40
1.0
176
     0
 90
        2
176
     1
  1
strokes_ogs.tif
176
     1
290
     0
176
     1
 40
1.0
176
     1
 40
1.0
176
     1
1001
ACAD
1000
AcDbSavedByObjectVersion
1070
     0
1000
AcDbSavedByObjectVersion
1070
     0
1000
AcDbSavedByObjectVersion
1070
     0
  0
VISUALSTYLE
  5
A58
102
{ACAD_REACTORS
330
A4F
102
}
330
A4F
100
AcDbVisualStyle
  2

 70
     9
177
     3
291
     0
 70
    58
 90
        3
176
     1
 90
        2
176
     1
 90
        0
176
     1
 90
        0
176
     1
 40
0.6
176
     1
 40
30.0
176
     1
 62
     7
176
     1
 90
        2
176
     1
 90
        2
176
     1
 62
     7
176
     1
 62
   257
176
     1
 90
        1
176
     1
 90
        1
176
     1
 40
40.0
176
     1
 90
        8
176
     1
 62
     7
176
     1
 40
1.0
176
     1
 90
        1
176
     1
 90
        6
176
     1
 90
        2
176
     1
 62
     7
176
     1
 90
        3
176
     1
 90
        0
176
     1
 90
        0
176
     1
290
     0
176
     1
 90
        1
176
     1
 40
0.0
176
     1
 90
        0
176
     1
290
     0
176
     1
290
     1
176
     1
290
     1
176
     1
290
     0
176
     1
290
     0
176
     1
290
     0
176
     1
290
     0
176
     1
290
     0
176
     1
290
     0
176
     1
 90
       50
176
     1
 40
0.0
176
     1
 40
1.0
176
     1
 90
        0
176
     1
 62
    18
420
        0
176
     1
 90
       50
176
     1
 90
        3
176
     1
 62
     5
420
      255
176
     1
290
     0
176
     1
 90
       50
176
     1
 90
       50
176
     1
 90
       50
176
     1
290
     0
176
     1
 90
       50
176
     1
 62
   256
176
     0
 40
1.0
176
     0
 90
        2
176
     1
  1
strokes_ogs.tif
176
     1
290
     0
176
     1
 40
1.0
176
     1
 40
1.0
176
     1
1001
ACAD
1000
AcDbSavedByObjectVersion
1070
     0
1000
AcDbSavedByObjectVersion
1070
     0
1000
AcDbSavedByObjectVersion
1070
     0
  0
VISUALSTYLE
  5
A5A
102
{ACAD_REACTORS
330
A4F
102
}
330
A4F
100
AcDbVisualStyle
  2

 70
    11
177
     3
291
     1
 70
    58
 90
        2
176
     1
 90
        2
176
     1
 90
        0
176
     1
 90
        0
176
     1
 40
0.6
176
     1
 40
30.0
176
     1
 62
     7
176
     1
 90
        1
176
     1
 90
        4
176
     1
 62
     7
176
     1
 62
   257
176
     1
 90
        1
176
     1
 90
        1
176
     1
 40
1.0
176
     1
 90
        8
176
     1
 62
     7
176
     1
 40
1.0
176
     1
 90
        1
176
     1
 90
        6
176
     1
 90
        2
176
     1
 62
     7
176
     1
 90
        5
176
     1
 90
        0
176
     1
 90
        0
176
     1
290
     0
176
     1
 90
        1
176
     1
 40
-50.0
176
     1
 90
        0
176
     1
290
     0
176
     1
290
     1
176
     1
290
     1
176
     1
290
     0
176
     1
290
     0
176
     1
290
     0
176
     1
290
     0
176
     1
290
     0
176
     1
290
     0
176
     1
 90
       50
176
     1
 40
0.0
176
     1
 40
1.0
176
     1
 90
        0
176
     1
 62
    18
420
        0
176
     1
 90
       50
176
     1
 90
        3
176
     1
 62
     5
420
      255
176
     1
290
     0
176
     1
 90
       50
176
     1
 90
       50
176
     1
 90
       50
176
     1
290
     0
176
     1
 90
       50
176
     1
 62
   256
176
     0
 40
1.0
176
     0
 90
        2
176
     1
  1
strokes_ogs.tif
176
     1
290
     0
176
     1
 40
1.0
176
     1
 40
1.0
176
     1
1001
ACAD
1000
AcDbSavedByObjectVersion
1070
     0
1000
AcDbSavedByObjectVersion
1070
     0
1000
AcDbSavedByObjectVersion
1070
     0
  0
VISUALSTYLE
  5
1AE4
102
{ACAD_REACTORS
330
A4F
102
}
330
A4F
100
AcDbVisualStyle
  2
EdgeColorOff
 70
    22
177
     3
291
     1
 70
    58
 90
        2
176
     0
 90
        2
176
     0
 90
        0
176
     0
 90
        0
176
     0
 40
0.6
176
     0
 40
30.0
176
     0
 62
     7
420
 16777215
176
     0
 90
        1
176
     0
 90
        4
176
     0
 62
     7
176
     0
 62
   257
176
     0
 90
        1
176
     0
 90
        1
176
     0
 40
1.0
176
     0
 90
        8
176
     2
 62
     7
176
     0
 40
1.0
176
     0
 90
        1
176
     0
 90
        6
176
     0
 90
        2
176
     0
 62
     7
176
     0
 90
        5
176
     0
 90
        0
176
     0
 90
        0
176
     0
290
     0
176
     0
 90
        1
176
     0
 40
0.0
176
     0
 90
        0
176
     0
290
     0
176
     1
290
     1
176
     1
290
     1
176
     1
290
     0
176
     1
290
     0
176
     1
290
     0
176
     1
290
     0
176
     1
290
     0
176
     1
290
     0
176
     1
 90
       50
176
     0
 40
0.0
176
     0
 40
1.0
176
     0
 90
        0
176
     0
 62
    18
420
        0
176
     0
 90
       50
176
     0
 90
        3
176
     0
 62
     5
420
      255
176
     0
290
     0
176
     1
 90
       50
176
     0
 90
       50
176
     0
 90
       50
176
     0
290
     0
176
     1
 90
       50
176
     0
 62
   256
176
     0
 40
1.0
176
     0
 90
        2
176
     0
  1
strokes_ogs.tif
176
     0
290
     0
176
     1
 40
1.0
176
     0
 40
1.0
176
     0
  0
VISUALSTYLE
  5
A5E
102
{ACAD_REACTORS
330
A4F
102
}
330
A4F
100
AcDbVisualStyle
  2

 70
    15
177
     3
291
     1
 70
    58
 90
        2
176
     1
 90
        2
176
     1
 90
        0
176
     1
 90
        0
176
     1
 40
0.6
176
     1
 40
30.0
176
     1
 62
     7
176
     1
 90
        1
176
     1
 90
        4
176
     1
 62
     7
176
     1
 62
   257
176
     1
 90
        1
176
     1
 90
        1
176
     1
 40
1.0
176
     1
 90
        8
176
     1
 62
     7
176
     1
 40
1.0
176
     1
 90
        1
176
     1
 90
        6
176
     1
 90
        2
176
     1
 62
     7
176
     1
 90
        5
176
     1
 90
        0
176
     1
 90
        0
176
     1
290
     0
176
     1
 90
        1
176
     1
 40
0.0
176
     1
 90
        0
176
     1
290
     0
176
     1
290
     1
176
     1
290
     1
176
     1
290
     0
176
     1
290
     0
176
     1
290
     0
176
     1
290
     0
176
     1
290
     0
176
     1
290
     0
176
     1
 90
       50
176
     1
 40
0.0
176
     1
 40
1.0
176
     1
 90
        0
176
     1
 62
    18
420
        0
176
     1
 90
       50
176
     1
 90
        3
176
     1
 62
     5
420
      255
176
     1
290
     0
176
     1
 90
       50
176
     1
 90
       50
176
     1
 90
       50
176
     1
290
     0
176
     1
 90
       50
176
     1
 62
   256
176
     0
 40
1.0
176
     0
 90
        2
176
     1
  1
strokes_ogs.tif
176
     1
290
     0
176
     1
 40
1.0
176
     1
 40
1.0
176
     1
1001
ACAD
1000
AcDbSavedByObjectVersion
1070
     0
1000
AcDbSavedByObjectVersion
1070
     0
1000
AcDbSavedByObjectVersion
1070
     0
  0
VISUALSTYLE
  5
A50
102
{ACAD_REACTORS
330
A4F
102
}
330
A4F
100
AcDbVisualStyle
  2

 70
     0
177
     3
291
     1
 70
    58
 90
        2
176
     1
 90
        1
176
     1
 90
        1
176
     1
 90
        2
176
     1
 40
0.6
176
     1
 40
30.0
176
     1
 62
     7
176
     1
 90
        0
176
     1
 90
        4
176
     1
 62
     7
176
     1
 62
   257
176
     1
 90
        1
176
     1
 90
        1
176
     1
 40
1.0
176
     1
 90
        8
176
     1
 62
     7
176
     1
 40
1.0
176
     1
 90
        1
176
     1
 90
        6
176
     1
 90
        2
176
     1
 62
     7
176
     1
 90
        5
176
     1
 90
        0
176
     1
 90
        0
176
     1
290
     0
176
     1
 90
       13
176
     1
 40
0.0
176
     1
 90
        0
176
     1
290
     0
176
     1
290
     1
176
     1
290
     1
176
     1
290
     0
176
     1
290
     0
176
     1
290
     0
176
     1
290
     0
176
     1
290
     0
176
     1
290
     0
176
     1
 90
       50
176
     1
 40
0.0
176
     1
 40
1.0
176
     1
 90
        0
176
     1
 62
    18
420
        0
176
     1
 90
       50
176
     1
 90
        3
176
     1
 62
     5
420
      255
176
     1
290
     0
176
     1
 90
       50
176
     1
 90
       50
176
     1
 90
       50
176
     1
290
     0
176
     1
 90
       50
176
     1
 62
   256
176
     0
 40
1.0
176
     0
 90
        2
176
     1
  1
strokes_ogs.tif
176
     1
290
     0
176
     1
 40
1.0
176
     1
 40
1.0
176
     1
1001
ACAD
1000
AcDbSavedByObjectVersion
1070
     0
1000
AcDbSavedByObjectVersion
1070
     0
1000
AcDbSavedByObjectVersion
1070
     0
  0
VISUALSTYLE
  5
A51
102
{ACAD_REACTORS
330
A4F
102
}
330
A4F
100
AcDbVisualStyle
  2

 70
     1
177
     3
291
     1
 70
    58
 90
        2
176
     1
 90
        1
176
     1
 90
        1
176
     1
 90
        2
176
     1
 40
0.6
176
     1
 40
30.0
176
     1
 62
     7
176
     1
 90
        1
176
     1
 90
        4
176
     1
 62
     7
176
     1
 62
   257
176
     1
 90
        1
176
     1
 90
        1
176
     1
 40
1.0
176
     1
 90
        0
176
     1
 62
   257
176
     1
 40
1.0
176
     1
 90
        1
176
     1
 90
        6
176
     1
 90
        2
176
     1
 62
     7
176
     1
 90
        5
176
     1
 90
        0
176
     1
 90
        0
176
     1
290
     0
176
     1
 90
       13
176
     1
 40
0.0
176
     1
 90
        0
176
     1
290
     0
176
     1
290
     1
176
     1
290
     1
176
     1
290
     0
176
     1
290
     0
176
     1
290
     0
176
     1
290
     0
176
     1
290
     0
176
     1
290
     0
176
     1
 90
       50
176
     1
 40
0.0
176
     1
 40
1.0
176
     1
 90
        0
176
     1
 62
    18
420
        0
176
     1
 90
       50
176
     1
 90
        3
176
     1
 62
     5
420
      255
176
     1
290
     0
176
     1
 90
       50
176
     1
 90
       50
176
     1
 90
       50
176
     1
290
     0
176
     1
 90
       50
176
     1
 62
   256
176
     0
 40
1.0
176
     0
 90
        2
176
     1
  1
strokes_ogs.tif
176
     1
290
     0
176
     1
 40
1.0
176
     1
 40
1.0
176
     1
1001
ACAD
1000
AcDbSavedByObjectVersion
1070
     0
1000
AcDbSavedByObjectVersion
1070
     0
1000
AcDbSavedByObjectVersion
1070
     0
  0
VISUALSTYLE
  5
A52
102
{ACAD_REACTORS
330
A4F
102
}
330
A4F
100
AcDbVisualStyle
  2

 70
     2
177
     3
291
     1
 70
    58
 90
        2
176
     1
 90
        2
176
     1
 90
        1
176
     1
 90
        2
176
     1
 40
0.6
176
     1
 40
30.0
176
     1
 62
     7
176
     1
 90
        0
176
     1
 90
        4
176
     1
 62
     7
176
     1
 62
   257
176
     1
 90
        1
176
     1
 90
        1
176
     1
 40
1.0
176
     1
 90
        0
176
     1
 62
     7
176
     1
 40
1.0
176
     1
 90
        1
176
     1
 90
        6
176
     1
 90
        2
176
     1
 62
     7
176
     1
 90
        5
176
     1
 90
        0
176
     1
 90
        0
176
     1
290
     0
176
     1
 90
       13
176
     1
 40
0.0
176
     1
 90
        0
176
     1
290
     0
176
     1
290
     1
176
     1
290
     1
176
     1
290
     0
176
     1
290
     0
176
     1
290
     0
176
     1
290
     0
176
     1
290
     0
176
     1
290
     0
176
     1
 90
       50
176
     1
 40
0.0
176
     1
 40
1.0
176
     1
 90
        0
176
     1
 62
    18
420
        0
176
     1
 90
       50
176
     1
 90
        3
176
     1
 62
     5
420
      255
176
     1
290
     0
176
     1
 90
       50
176
     1
 90
       50
176
     1
 90
       50
176
     1
290
     0
176
     1
 90
       50
176
     1
 62
   256
176
     0
 40
1.0
176
     0
 90
        2
176
     1
  1
strokes_ogs.tif
176
     1
290
     0
176
     1
 40
1.0
176
     1
 40
1.0
176
     1
1001
ACAD
1000
AcDbSavedByObjectVersion
1070
     0
1000
AcDbSavedByObjectVersion
1070
     0
1000
AcDbSavedByObjectVersion
1070
     0
  0
VISUALSTYLE
  5
A53
102
{ACAD_REACTORS
330
A4F
102
}
330
A4F
100
AcDbVisualStyle
  2

 70
     3
177
     3
291
     1
 70
    58
 90
        2
176
     1
 90
        2
176
     1
 90
        1
176
     1
 90
        2
176
     1
 40
0.6
176
     1
 40
30.0
176
     1
 62
     7
176
     1
 90
        1
176
     1
 90
        4
176
     1
 62
     7
176
     1
 62
   257
176
     1
 90
        1
176
     1
 90
        1
176
     1
 40
1.0
176
     1
 90
        0
176
     1
 62
   257
176
     1
 40
1.0
176
     1
 90
        1
176
     1
 90
        6
176
     1
 90
        2
176
     1
 62
     7
176
     1
 90
        5
176
     1
 90
        0
176
     1
 90
        0
176
     1
290
     0
176
     1
 90
       13
176
     1
 40
0.0
176
     1
 90
        0
176
     1
290
     0
176
     1
290
     1
176
     1
290
     1
176
     1
290
     0
176
     1
290
     0
176
     1
290
     0
176
     1
290
     0
176
     1
290
     0
176
     1
290
     0
176
     1
 90
       50
176
     1
 40
0.0
176
     1
 40
1.0
176
     1
 90
        0
176
     1
 62
    18
420
        0
176
     1
 90
       50
176
     1
 90
        3
176
     1
 62
     5
420
      255
176
     1
290
     0
176
     1
 90
       50
176
     1
 90
       50
176
     1
 90
       50
176
     1
290
     0
176
     1
 90
       50
176
     1
 62
   256
176
     0
 40
1.0
176
     0
 90
        2
176
     1
  1
strokes_ogs.tif
176
     1
290
     0
176
     1
 40
1.0
176
     1
 40
1.0
176
     1
1001
ACAD
1000
AcDbSavedByObjectVersion
1070
     0
1000
AcDbSavedByObjectVersion
1070
     0
1000
AcDbSavedByObjectVersion
1070
     0
  0
VISUALSTYLE
  5
1ADC
102
{ACAD_REACTORS
330
A4F
102
}
330
A4F
100
AcDbVisualStyle
  2
Hidden
 70
     6
177
     3
291
     0
 70
    58
 90
        1
176
     1
 90
        2
176
     1
 90
        2
176
     1
 90
        0
176
     1
 40
0.6
176
     1
 40
30.0
176
     1
 62
     7
420
 16777215
176
     1
 90
        2
176
     1
 90
        2
176
     1
 62
     7
176
     1
 62
   257
176
     1
 90
        2
176
     1
 90
        1
176
     1
 40
40.0
176
     1
 90
        0
176
     1
 62
   257
176
     1
 40
1.0
176
     1
 90
        1
176
     1
 90
        6
176
     1
 90
        2
176
     1
 62
     7
176
     1
 90
        3
176
     1
 90
        0
176
     1
 90
        0
176
     1
290
     0
176
     1
 90
        1
176
     1
 40
0.0
176
     1
 90
        0
176
     1
290
     0
176
     1
290
     1
176
     1
290
     1
176
     1
290
     0
176
     1
290
     0
176
     1
290
     0
176
     1
290
     0
176
     1
290
     0
176
     1
290
     0
176
     1
 90
       50
176
     1
 40
0.0
176
     1
 40
1.0
176
     1
 90
        0
176
     1
 62
    18
420
        0
176
     1
 90
       50
176
     1
 90
        3
176
     1
 62
     5
420
      255
176
     1
290
     0
176
     1
 90
       50
176
     1
 90
       50
176
     1
 90
       50
176
     1
290
     0
176
     1
 90
       50
176
     1
 62
   256
176
     0
 40
1.0
176
     0
 90
        2
176
     1
  1
strokes_ogs.tif
176
     1
290
     0
176
     1
 40
1.0
176
     1
 40
1.0
176
     1
  0
VISUALSTYLE
  5
1AE2
102
{ACAD_REACTORS
330
A4F
102
}
330
A4F
100
AcDbVisualStyle
  2
JitterOff
 70
    20
177
     3
291
     1
 70
    58
 90
        2
176
     0
 90
        2
176
     0
 90
        0
176
     0
 90
        0
176
     0
 40
0.6
176
     0
 40
30.0
176
     0
 62
     7
420
 16777215
176
     0
 90
        1
176
     0
 90
        4
176
     0
 62
     7
176
     0
 62
   257
176
     0
 90
        1
176
     0
 90
        1
176
     0
 40
1.0
176
     0
 90
       10
176
     2
 62
     7
176
     0
 40
1.0
176
     0
 90
        1
176
     0
 90
        6
176
     0
 90
        2
176
     0
 62
     7
176
     0
 90
        5
176
     0
 90
        0
176
     0
 90
        0
176
     0
290
     0
176
     0
 90
        1
176
     0
 40
0.0
176
     0
 90
        0
176
     0
290
     0
176
     1
290
     1
176
     1
290
     1
176
     1
290
     0
176
     1
290
     0
176
     1
290
     0
176
     1
290
     0
176
     1
290
     0
176
     1
290
     0
176
     1
 90
       50
176
     0
 40
0.0
176
     0
 40
1.0
176
     0
 90
        0
176
     0
 62
    18
420
        0
176
     0
 90
       50
176
     0
 90
        3
176
     0
 62
     5
420
      255
176
     0
290
     0
176
     1
 90
       50
176
     0
 90
       50
176
     0
 90
       50
176
     0
290
     0
176
     1
 90
       50
176
     0
 62
   256
176
     0
 40
1.0
176
     0
 90
        2
176
     0
  1
strokes_ogs.tif
176
     0
290
     0
176
     1
 40
1.0
176
     0
 40
1.0
176
     0
  0
VISUALSTYLE
  5
A5D
102
{ACAD_REACTORS
330
A4F
102
}
330
A4F
100
AcDbVisualStyle
  2

 70
    14
177
     3
291
     1
 70
    58
 90
        2
176
     1
 90
        2
176
     1
 90
        0
176
     1
 90
        0
176
     1
 40
0.6
176
     1
 40
30.0
176
     1
 62
     7
176
     1
 90
        1
176
     1
 90
        4
176
     1
 62
     7
176
     1
 62
   257
176
     1
 90
        7
176
     1
 90
        7
176
     1
 40
1.0
176
     1
 90
        8
176
     1
 62
     7
176
     1
 40
1.0
176
     1
 90
        1
176
     1
 90
        6
176
     1
 90
        2
176
     1
 62
     7
176
     1
 90
        5
176
     1
 90
        0
176
     1
 90
        0
176
     1
290
     0
176
     1
 90
        1
176
     1
 40
0.0
176
     1
 90
        0
176
     1
290
     0
176
     1
290
     1
176
     1
290
     1
176
     1
290
     0
176
     1
290
     0
176
     1
290
     0
176
     1
290
     0
176
     1
290
     0
176
     1
290
     0
176
     1
 90
       50
176
     1
 40
0.0
176
     1
 40
1.0
176
     1
 90
        0
176
     1
 62
    18
420
        0
176
     1
 90
       50
176
     1
 90
        3
176
     1
 62
     5
420
      255
176
     1
290
     0
176
     1
 90
       50
176
     1
 90
       50
176
     1
 90
       50
176
     1
290
     0
176
     1
 90
       50
176
     1
 62
   256
176
     0
 40
1.0
176
     0
 90
        2
176
     1
  1
strokes_ogs.tif
176
     1
290
     0
176
     1
 40
1.0
176
     1
 40
1.0
176
     1
1001
ACAD
1000
AcDbSavedByObjectVersion
1070
     0
1000
AcDbSavedByObjectVersion
1070
     0
1000
AcDbSavedByObjectVersion
1070
     0
  0
VISUALSTYLE
  5
1AE3
102
{ACAD_REACTORS
330
A4F
102
}
330
A4F
100
AcDbVisualStyle
  2
OverhangOff
 70
    21
177
     3
291
     1
 70
    58
 90
        2
176
     0
 90
        2
176
     0
 90
        0
176
     0
 90
        0
176
     0
 40
0.6
176
     0
 40
30.0
176
     0
 62
     7
420
 16777215
176
     0
 90
        1
176
     0
 90
        4
176
     0
 62
     7
176
     0
 62
   257
176
     0
 90
        1
176
     0
 90
        1
176
     0
 40
1.0
176
     0
 90
        9
176
     2
 62
     7
176
     0
 40
1.0
176
     0
 90
        1
176
     0
 90
        6
176
     0
 90
        2
176
     0
 62
     7
176
     0
 90
        5
176
     0
 90
        0
176
     0
 90
        0
176
     0
290
     0
176
     0
 90
        1
176
     0
 40
0.0
176
     0
 90
        0
176
     0
290
     0
176
     1
290
     1
176
     1
290
     1
176
     1
290
     0
176
     1
290
     0
176
     1
290
     0
176
     1
290
     0
176
     1
290
     0
176
     1
290
     0
176
     1
 90
       50
176
     0
 40
0.0
176
     0
 40
1.0
176
     0
 90
        0
176
     0
 62
    18
420
        0
176
     0
 90
       50
176
     0
 90
        3
176
     0
 62
     5
420
      255
176
     0
290
     0
176
     1
 90
       50
176
     0
 90
       50
176
     0
 90
       50
176
     0
290
     0
176
     1
 90
       50
176
     0
 62
   256
176
     0
 40
1.0
176
     0
 90
        2
176
     0
  1
strokes_ogs.tif
176
     0
290
     0
176
     1
 40
1.0
176
     0
 40
1.0
176
     0
  0
VISUALSTYLE
  5
A59
102
{ACAD_REACTORS
330
A4F
102
}
330
A4F
100
AcDbVisualStyle
  2

 70
     8
177
     3
291
     0
 70
    58
 90
        2
176
     1
 90
        2
176
     1
 90
        0
176
     1
 90
        0
176
     1
 40
0.6
176
     1
 40
30.0
176
     1
 62
     7
176
     1
 90
        1
176
     1
 90
        0
176
     1
 62
     7
176
     1
 62
   257
176
     1
 90
        1
176
     1
 90
        1
176
     1
 40
1.0
176
     1
 90
        8
176
     1
 62
     8
176
     1
 40
1.0
176
     1
 90
        1
176
     1
 90
        6
176
     1
 90
        2
176
     1
 62
     7
176
     1
 90
        5
176
     1
 90
        0
176
     1
 90
        0
176
     1
290
     0
176
     1
 90
       13
176
     1
 40
0.0
176
     1
 90
        0
176
     1
290
     0
176
     1
290
     1
176
     1
290
     1
176
     1
290
     0
176
     1
290
     0
176
     1
290
     0
176
     1
290
     0
176
     1
290
     0
176
     1
290
     0
176
     1
 90
       50
176
     1
 40
0.0
176
     1
 40
1.0
176
     1
 90
        0
176
     1
 62
    18
420
        0
176
     1
 90
       50
176
     1
 90
        3
176
     1
 62
     5
420
      255
176
     1
290
     0
176
     1
 90
       50
176
     1
 90
       50
176
     1
 90
       50
176
     1
290
     0
176
     1
 90
       50
176
     1
 62
   256
176
     0
 40
1.0
176
     0
 90
        2
176
     1
  1
strokes_ogs.tif
176
     1
290
     0
176
     1
 40
1.0
176
     1
 40
1.0
176
     1
1001
ACAD
1000
AcDbSavedByObjectVersion
1070
     0
1000
AcDbSavedByObjectVersion
1070
     0
1000
AcDbSavedByObjectVersion
1070
     0
  0
VISUALSTYLE
  5
1AE1
102
{ACAD_REACTORS
330
A4F
102
}
330
A4F
100
AcDbVisualStyle
  2
Shaded
 70
    27
177
     3
291
     0
 70
    58
 90
        2
176
     1
 90
        2
176
     1
 90
        1
176
     1
 90
        2
176
     1
 40
0.6
176
     1
 40
30.0
176
     1
 62
     7
420
 16777215
176
     1
 90
        0
176
     1
 90
        4
176
     1
 62
     7
176
     1
 62
   257
176
     1
 90
        1
176
     1
 90
        1
176
     1
 40
1.0
176
     1
 90
        8
176
     1
 62
   257
176
     1
 40
1.0
176
     1
 90
        1
176
     1
 90
        6
176
     1
 90
        2
176
     1
 62
     8
420
  7895160
176
     1
 90
        3
176
     1
 90
        0
176
     1
 90
        0
176
     1
290
     0
176
     1
 90
        5
176
     1
 40
0.0
176
     1
 90
        0
176
     1
290
     0
176
     1
290
     1
176
     1
290
     1
176
     1
290
     0
176
     1
290
     0
176
     1
290
     0
176
     1
290
     0
176
     1
290
     0
176
     1
290
     0
176
     1
 90
       50
176
     1
 40
0.0
176
     1
 40
1.0
176
     1
 90
        0
176
     1
 62
    18
420
        0
176
     1
 90
       50
176
     1
 90
        3
176
     1
 62
     5
420
      255
176
     1
290
     0
176
     1
 90
       50
176
     1
 90
       50
176
     1
 90
       50
176
     1
290
     0
176
     1
 90
       50
176
     1
 62
   256
176
     0
 40
1.0
176
     0
 90
        2
176
     1
  1
strokes_ogs.tif
176
     1
290
     0
176
     1
 40
1.0
176
     1
 40
1.0
176
     1
  0
VISUALSTYLE
  5
1AE0
102
{ACAD_REACTORS
330
A4F
102
}
330
A4F
100
AcDbVisualStyle
  2
Shaded with edges
 70
    26
177
     3
291
     0
 70
    58
 90
        2
176
     1
 90
        2
176
     1
 90
        1
176
     1
 90
        2
176
     1
 40
0.6
176
     1
 40
30.0
176
     1
 62
     7
420
 16777215
176
     1
 90
        1
176
     1
 90
       10
176
     1
 62
     7
176
     1
 62
   257
176
     1
 90
        2
176
     1
 90
        1
176
     1
 40
1.0
176
     1
 90
        8
176
     1
 62
   257
176
     1
 40
1.0
176
     1
 90
        1
176
     1
 90
        6
176
     1
 90
        2
176
     1
 62
     7
176
     1
 90
        3
176
     1
 90
        0
176
     1
 90
        0
176
     1
290
     0
176
     1
 90
        5
176
     1
 40
0.0
176
     1
 90
        0
176
     1
290
     0
176
     1
290
     1
176
     1
290
     1
176
     1
290
     0
176
     1
290
     0
176
     1
290
     0
176
     1
290
     0
176
     1
290
     0
176
     1
290
     0
176
     1
 90
       50
176
     1
 40
0.0
176
     1
 40
1.0
176
     1
 90
        0
176
     1
 62
    18
420
        0
176
     1
 90
       50
176
     1
 90
        3
176
     1
 62
     5
420
      255
176
     1
290
     0
176
     1
 90
       50
176
     1
 90
       50
176
     1
 90
       50
176
     1
290
     0
176
     1
 90
       50
176
     1
 62
   256
176
     0
 40
1.0
176
     0
 90
        2
176
     1
  1
strokes_ogs.tif
176
     1
290
     0
176
     1
 40
1.0
176
     1
 40
1.0
176
     1
  0
VISUALSTYLE
  5
1ADD
102
{ACAD_REACTORS
330
A4F
102
}
330
A4F
100
AcDbVisualStyle
  2
Shades of Gray
 70
    23
177
     3
291
     0
 70
    58
 90
        2
176
     1
 90
        2
176
     1
 90
        3
176
     1
 90
        0
176
     1
 40
0.6
176
     1
 40
30.0
176
     1
 62
     7
420
 16777215
176
     1
 90
        2
176
     1
 90
        2
176
     1
 62
     7
176
     1
 62
     7
176
     1
 90
        1
176
     1
 90
        1
176
     1
 40
40.0
176
     1
 90
        8
176
     1
 62
     7
176
     1
 40
1.0
176
     1
 90
        1
176
     1
 90
        6
176
     1
 90
        2
176
     1
 62
     7
176
     1
 90
        3
176
     1
 90
        0
176
     1
 90
        0
176
     1
290
     0
176
     1
 90
        1
176
     1
 40
0.0
176
     1
 90
        0
176
     1
290
     0
176
     1
290
     1
176
     1
290
     1
176
     1
290
     0
176
     1
290
     0
176
     1
290
     0
176
     1
290
     0
176
     1
290
     0
176
     1
290
     0
176
     1
 90
       50
176
     1
 40
0.0
176
     1
 40
1.0
176
     1
 90
        0
176
     1
 62
    18
420
        0
176
     1
 90
       50
176
     1
 90
        3
176
     1
 62
     5
420
      255
176
     1
290
     0
176
     1
 90
       50
176
     1
 90
       50
176
     1
 90
       50
176
     1
290
     0
176
     1
 90
       50
176
     1
 62
   256
176
     0
 40
1.0
176
     0
 90
        2
176
     1
  1
strokes_ogs.tif
176
     1
290
     0
176
     1
 40
1.0
176
     1
 40
1.0
176
     1
  0
VISUALSTYLE
  5
1ADE
102
{ACAD_REACTORS
330
A4F
102
}
330
A4F
100
AcDbVisualStyle
  2
Sketchy
 70
    24
177
     3
291
     0
 70
    58
 90
        1
176
     1
 90
        2
176
     1
 90
        2
176
     1
 90
        0
176
     1
 40
0.6
176
     1
 40
30.0
176
     1
 62
     7
420
 16777215
176
     1
 90
        2
176
     1
 90
        2
176
     1
 62
     7
176
     1
 62
     7
176
     1
 90
        1
176
     1
 90
        1
176
     1
 40
40.0
176
     1
 90
       11
176
     1
 62
     7
176
     1
 40
1.0
176
     1
 90
        1
176
     1
 90
        6
176
     1
 90
        2
176
     1
 62
     7
176
     1
 90
        6
176
     1
 90
        0
176
     1
 90
        0
176
     1
290
     0
176
     1
 90
        1
176
     1
 40
0.0
176
     1
 90
        0
176
     1
290
     0
176
     1
290
     1
176
     1
290
     1
176
     1
290
     0
176
     1
290
     0
176
     1
290
     0
176
     1
290
     0
176
     1
290
     0
176
     1
290
     0
176
     1
 90
       50
176
     1
 40
0.0
176
     1
 40
1.0
176
     1
 90
        0
176
     1
 62
    18
420
        0
176
     1
 90
       50
176
     1
 90
        3
176
     1
 62
     5
420
      255
176
     1
290
     0
176
     1
 90
       50
176
     1
 90
       50
176
     1
 90
       50
176
     1
290
     0
176
     1
 90
       50
176
     1
 62
   256
176
     0
 40
1.0
176
     0
 90
        2
176
     1
  1
strokes_ogs.tif
176
     1
290
     0
176
     1
 40
1.0
176
     1
 40
1.0
176
     1
  0
VISUALSTYLE
  5
A5C
102
{ACAD_REACTORS
330
A4F
102
}
330
A4F
100
AcDbVisualStyle
  2

 70
    13
177
     3
291
     1
 70
    58
 90
        2
176
     1
 90
        2
176
     1
 90
        0
176
     1
 90
        0
176
     1
 40
0.6
176
     1
 40
30.0
176
     1
 62
     7
176
     1
 90
        1
176
     1
 90
        4
176
     1
 62
     7
176
     1
 62
   257
176
     1
 90
        1
176
     1
 90
        1
176
     1
 40
1.0
176
     1
 90
       12
176
     1
 62
     7
176
     1
 40
1.0
176
     1
 90
        1
176
     1
 90
        6
176
     1
 90
        2
176
     1
 62
     7
176
     1
 90
        5
176
     1
 90
        0
176
     1
 90
        0
176
     1
290
     0
176
     1
 90
        1
176
     1
 40
0.0
176
     1
 90
        0
176
     1
290
     0
176
     1
290
     1
176
     1
290
     1
176
     1
290
     0
176
     1
290
     0
176
     1
290
     0
176
     1
290
     0
176
     1
290
     0
176
     1
290
     0
176
     1
 90
       50
176
     1
 40
0.0
176
     1
 40
1.0
176
     1
 90
        0
176
     1
 62
    18
420
        0
176
     1
 90
       50
176
     1
 90
        3
176
     1
 62
     5
420
      255
176
     1
290
     0
176
     1
 90
       50
176
     1
 90
       50
176
     1
 90
       50
176
     1
290
     0
176
     1
 90
       50
176
     1
 62
   256
176
     0
 40
1.0
176
     0
 90
        2
176
     1
  1
strokes_ogs.tif
176
     1
290
     0
176
     1
 40
1.0
176
     1
 40
1.0
176
     1
1001
ACAD
1000
AcDbSavedByObjectVersion
1070
     0
1000
AcDbSavedByObjectVersion
1070
     0
1000
AcDbSavedByObjectVersion
1070
     0
  0
VISUALSTYLE
  5
1ADB
102
{ACAD_REACTORS
330
A4F
102
}
330
A4F
100
AcDbVisualStyle
  2
Wireframe
 70
     5
177
     3
291
     0
 70
    58
 90
        0
176
     1
 90
        2
176
     1
 90
        0
176
     1
 90
        0
176
     1
 40
0.6
176
     1
 40
30.0
176
     1
 62
     7
420
 16777215
176
     1
 90
        1
176
     1
 90
        4
176
     1
 62
     7
176
     1
 62
   257
176
     1
 90
        1
176
     1
 90
        1
176
     1
 40
1.0
176
     1
 90
        0
176
     1
 62
   257
176
     1
 40
1.0
176
     1
 90
        1
176
     1
 90
        6
176
     1
 90
        2
176
     1
 62
     7
176
     1
 90
        3
176
     1
 90
        0
176
     1
 90
        0
176
     1
290
     0
176
     1
 90
        1
176
     1
 40
0.0
176
     1
 90
        0
176
     1
290
     0
176
     1
290
     1
176
     1
290
     1
176
     1
290
     0
176
     1
290
     0
176
     1
290
     0
176
     1
290
     0
176
     1
290
     0
176
     1
290
     0
176
     1
 90
       50
176
     1
 40
0.0
176
     1
 40
1.0
176
     1
 90
        0
176
     1
 62
    18
420
        0
176
     1
 90
       50
176
     1
 90
        3
176
     1
 62
     5
420
      255
176
     1
290
     0
176
     1
 90
       50
176
     1
 90
       50
176
     1
 90
       50
176
     1
290
     0
176
     1
 90
       50
176
     1
 62
   256
176
     0
 40
1.0
176
     0
 90
        2
176
     1
  1
strokes_ogs.tif
176
     1
290
     0
176
     1
 40
1.0
176
     1
 40
1.0
176
     1
  0
VISUALSTYLE
  5
1ADF
102
{ACAD_REACTORS
330
A4F
102
}
330
A4F
100
AcDbVisualStyle
  2
X-Ray
 70
    25
177
     3
291
     0
 70
    58
 90
        2
176
     1
 90
        2
176
     1
 90
        1
176
     1
 90
        1
176
     1
 40
0.5
176
     1
 40
30.0
176
     1
 62
     7
420
 16777215
176
     1
 90
        1
176
     1
 90
        0
176
     1
 62
     7
176
     1
 62
   257
176
     1
 90
        1
176
     1
 90
        1
176
     1
 40
1.0
176
     1
 90
        8
176
     1
 62
     7
176
     1
 40
1.0
176
     1
 90
        1
176
     1
 90
        6
176
     1
 90
        2
176
     1
 62
     7
176
     1
 90
        3
176
     1
 90
        0
176
     1
 90
        0
176
     1
290
     0
176
     1
 90
       13
176
     1
 40
0.0
176
     1
 90
        0
176
     1
290
     0
176
     1
290
     1
176
     1
290
     1
176
     1
290
     0
176
     1
290
     0
176
     1
290
     0
176
     1
290
     0
176
     1
290
     0
176
     1
290
     0
176
     1
 90
       50
176
     1
 40
0.0
176
     1
 40
1.0
176
     1
 90
        0
176
     1
 62
    18
420
        0
176
     1
 90
       50
176
     1
 90
        3
176
     1
 62
     5
420
      255
176
     1
290
     0
176
     1
 90
       50
176
     1
 90
       50
176
     1
 90
       50
176
     1
290
     0
176
     1
 90
       50
176
     1
 62
   256
176
     0
 40
1.0
176
     0
 90
        2
176
     1
  1
strokes_ogs.tif
176
     1
290
     0
176
     1
 40
1.0
176
     1
 40
1.0
176
     1
  0
DICTIONARYVAR
  5
AF4
102
{ACAD_REACTORS
330
5D
102
}
330
5D
100
DictionaryVariables
280
     0
  1
1:1
  0
DICTIONARYVAR
  5
AF2
102
{ACAD_REACTORS
330
5D
102
}
330
5D
100
DictionaryVariables
280
     0
  1
STANDARD
  0
DICTIONARYVAR
  5
66F
102
{ACAD_REACTORS
330
5D
102
}
330
5D
100
DictionaryVariables
280
     0
  1
STANDARD
  0
DICTIONARYVAR
  5
1B7F
102
{ACAD_REACTORS
330
5D
102
}
330
5D
100
DictionaryVariables
280
     0
  1
Metric50
  0
DICTIONARYVAR
  5
1B80
102
{ACAD_REACTORS
330
5D
102
}
330
5D
100
DictionaryVariables
280
     0
  1
Metric50
  0
DICTIONARYVAR
  5
5E
102
{ACAD_REACTORS
330
5D
102
}
330
5D
100
DictionaryVariables
280
     0
  1
0
  0
DICTIONARYVAR
  5
3C7
102
{ACAD_REACTORS
330
5D
102
}
330
5D
100
DictionaryVariables
280
     0
  1
2
  0
DICTIONARYVAR
  5
128
102
{ACAD_REACTORS
330
5D
102
}
330
5D
100
DictionaryVariables
280
     0
  1
1
  0
DICTIONARYVAR
  5
AF6
102
{ACAD_REACTORS
330
5D
102
}
330
5D
100
DictionaryVariables
280
     0
  1
1
  0
DICTIONARYVAR
  5
AF7
102
{ACAD_REACTORS
330
5D
102
}
330
5D
100
DictionaryVariables
280
     0
  1
15
  0
DICTIONARYVAR
  5
AF5
102
{ACAD_REACTORS
330
5D
102
}
330
5D
100
DictionaryVariables
280
     0
  1
0
  0
DICTIONARYVAR
  5
AF3
102
{ACAD_REACTORS
330
5D
102
}
330
5D
100
DictionaryVariables
280
     0
  1
0
  0
DICTIONARYVAR
  5
11A3
102
{ACAD_REACTORS
330
5D
102
}
330
5D
100
DictionaryVariables
280
     0
  1
127
  0
DICTIONARY
  5
143
102
{ACAD_REACTORS
330
142
102
}
330
142
100
AcDbDictionary
281
     1
  0
XRECORD
  5
47D
102
{ACAD_REACTORS
330
142
102
}
330
142
100
AcDbXrecord
280
     1
 90
-1056964608
  0
XRECORD
  5
84B
102
{ACAD_REACTORS
330
849
102
}
330
849
100
AcDbXrecord
280
     1
  0
LAYER_INDEX
  5
12C
102
{ACAD_REACTORS
330
12B
102
}
330
12B
100
AcDbIndex
 40
2457246.616544595
100
AcDbLayerIndex
  8
0
360
12D
 90
        0
  8
AM_0
360
59B
 90
        1
  8
AM_5
360
8F9
 90
        0
  8
AM_VIS
360
AD1
 90
        0
  8
Defpoints
360
AD4
 90
        0
  0
DICTIONARY
  5
824
330
16A
100
AcDbDictionary
280
     1
281
     1
  0
DICTIONARY
  5
A40
330
A3F
100
AcDbDictionary
280
     1
281
     1
  3
ACAD_XREC_ROUNDTRIP
360
11AE
  3
BUMPTILE
360
A42
  3
DIFFUSETILE
360
A41
  3
OPACITYTILE
360
A45
  3
REFLECTIONTILE
360
A44
  3
REFRACTIONTILE
360
A46
  3
SPECULARTILE
360
A43
  0
DICTIONARY
  5
A38
330
A37
100
AcDbDictionary
280
     1
281
     1
  3
ACAD_XREC_ROUNDTRIP
360
11AD
  3
BUMPTILE
360
A3A
  3
DIFFUSETILE
360
A39
  3
OPACITYTILE
360
A3D
  3
REFLECTIONTILE
360
A3C
  3
REFRACTIONTILE
360
A3E
  3
SPECULARTILE
360
A3B
  0
DICTIONARY
  5
A48
330
A47
100
AcDbDictionary
280
     1
281
     1
  3
ACAD_XREC_ROUNDTRIP
360
11AF
  3
BUMPTILE
360
A4A
  3
DIFFUSETILE
360
A49
  3
OPACITYTILE
360
A4D
  3
REFLECTIONTILE
360
A4C
  3
REFRACTIONTILE
360
A4E
  3
SPECULARTILE
360
A4B
  0
DICTIONARY
  5
AED
330
651
100
AcDbDictionary
280
     1
281
     1
  3
ACAD_ROUNDTRIP_2008_TABLESTYLE_CELLSTYLEMAP
360
1B81
  0
IDBUFFER
  5
12D
330
0
100
AcDbIdBuffer
  0
IDBUFFER
  5
59B
330
0
100
AcDbIdBuffer
330
1ACD
  0
IDBUFFER
  5
8F9
330
0
100
AcDbIdBuffer
  0
IDBUFFER
  5
AD1
330
0
100
AcDbIdBuffer
  0
IDBUFFER
  5
AD4
330
0
100
AcDbIdBuffer
  0
XRECORD
  5
11AE
102
{ACAD_REACTORS
330
A40
102
}
330
A40
100
AcDbXrecord
280
     1
102
MATERIAL
148
0.0
149
0.0
149
0.0
 93
        0
 94
      127
282
     0
 72
     0
 77
     0
171
     0
175
     0
179
     0
273
     0
  0
XRECORD
  5
A42
102
{ACAD_REACTORS
330
A40
102
}
330
A40
100
AcDbXrecord
280
     1
270
     1
271
     1
  0
XRECORD
  5
A41
102
{ACAD_REACTORS
330
A40
102
}
330
A40
100
AcDbXrecord
280
     1
270
     1
271
     1
  0
XRECORD
  5
A45
102
{ACAD_REACTORS
330
A40
102
}
330
A40
100
AcDbXrecord
280
     1
270
     1
271
     1
  0
XRECORD
  5
A44
102
{ACAD_REACTORS
330
A40
102
}
330
A40
100
AcDbXrecord
280
     1
270
     1
271
     1
  0
XRECORD
  5
A46
102
{ACAD_REACTORS
330
A40
102
}
330
A40
100
AcDbXrecord
280
     1
270
     1
271
     1
  0
XRECORD
  5
A43
102
{ACAD_REACTORS
330
A40
102
}
330
A40
100
AcDbXrecord
280
     1
270
     1
271
     1
  0
XRECORD
  5
11AD
102
{ACAD_REACTORS
330
A38
102
}
330
A38
100
AcDbXrecord
280
     1
102
MATERIAL
148
0.0
149
0.0
149
0.0
 93
        0
 94
      127
282
     0
 72
     0
 77
     0
171
     0
175
     0
179
     0
273
     0
  0
XRECORD
  5
A3A
102
{ACAD_REACTORS
330
A38
102
}
330
A38
100
AcDbXrecord
280
     1
270
     1
271
     1
  0
XRECORD
  5
A39
102
{ACAD_REACTORS
330
A38
102
}
330
A38
100
AcDbXrecord
280
     1
270
     1
271
     1
  0
XRECORD
  5
A3D
102
{ACAD_REACTORS
330
A38
102
}
330
A38
100
AcDbXrecord
280
     1
270
     1
271
     1
  0
XRECORD
  5
A3C
102
{ACAD_REACTORS
330
A38
102
}
330
A38
100
AcDbXrecord
280
     1
270
     1
271
     1
  0
XRECORD
  5
A3E
102
{ACAD_REACTORS
330
A38
102
}
330
A38
100
AcDbXrecord
280
     1
270
     1
271
     1
  0
XRECORD
  5
A3B
102
{ACAD_REACTORS
330
A38
102
}
330
A38
100
AcDbXrecord
280
     1
270
     1
271
     1
  0
XRECORD
  5
11AF
102
{ACAD_REACTORS
330
A48
102
}
330
A48
100
AcDbXrecord
280
     1
102
MATERIAL
148
0.0
149
0.0
149
0.0
 93
        0
 94
      127
282
     0
 72
     0
 77
     0
171
     0
175
     0
179
     0
273
     0
  0
XRECORD
  5
A4A
102
{ACAD_REACTORS
330
A48
102
}
330
A48
100
AcDbXrecord
280
     1
270
     1
271
     1
  0
XRECORD
  5
A49
102
{ACAD_REACTORS
330
A48
102
}
330
A48
100
AcDbXrecord
280
     1
270
     1
271
     1
  0
XRECORD
  5
A4D
102
{ACAD_REACTORS
330
A48
102
}
330
A48
100
AcDbXrecord
280
     1
270
     1
271
     1
  0
XRECORD
  5
A4C
102
{ACAD_REACTORS
330
A48
102
}
330
A48
100
AcDbXrecord
280
     1
270
     1
271
     1
  0
XRECORD
  5
A4E
102
{ACAD_REACTORS
330
A48
102
}
330
A48
100
AcDbXrecord
280
     1
270
     1
271
     1
  0
XRECORD
  5
A4B
102
{ACAD_REACTORS
330
A48
102
}
330
A48
100
AcDbXrecord
280
     1
270
     1
271
     1
  0
CELLSTYLEMAP
  5
1B81
102
{ACAD_REACTORS
330
AED
102
}
330
AED
100
AcDbCellStyleMap
 90
        3
300
CELLSTYLE
  1
TABLEFORMAT_BEGIN
 90
        5
170
     1
 91
        0
 92
    32768
 62
   257
 93
        1
300
CONTENTFORMAT
  1
CONTENTFORMAT_BEGIN
 90
        0
 91
        0
 92
        4
 93
        0
300

 40
0.0
140
1.0
 94
        5
 62
     0
340
10
144
6.0
309
CONTENTFORMAT_END
171
     1
301
MARGIN
  1
CELLMARGIN_BEGIN
 40
1.5
 40
1.5
 40
1.5
 40
1.5
 40
0.18
 40
0.18
309
CELLMARGIN_END
 94
        6
 95
        1
302
GRIDFORMAT
  1
GRIDFORMAT_BEGIN
 90
        0
 91
        1
 62
     0
 92
       -2
340
0
 93
        0
 40
0.045
309
GRIDFORMAT_END
 95
        2
302
GRIDFORMAT
  1
GRIDFORMAT_BEGIN
 90
        0
 91
        1
 62
     0
 92
       -2
340
0
 93
        0
 40
0.045
309
GRIDFORMAT_END
 95
        4
302
GRIDFORMAT
  1
GRIDFORMAT_BEGIN
 90
        0
 91
        1
 62
     0
 92
       -2
340
0
 93
        0
 40
0.045
309
GRIDFORMAT_END
 95
        8
302
GRIDFORMAT
  1
GRIDFORMAT_BEGIN
 90
        0
 91
        1
 62
     0
 92
       -2
340
0
 93
        0
 40
0.045
309
GRIDFORMAT_END
 95
       16
302
GRIDFORMAT
  1
GRIDFORMAT_BEGIN
 90
        0
 91
        1
 62
     0
 92
       -2
340
0
 93
        0
 40
0.045
309
GRIDFORMAT_END
 95
       32
302
GRIDFORMAT
  1
GRIDFORMAT_BEGIN
 90
        0
 91
        1
 62
     0
 92
       -2
340
0
 93
        0
 40
0.045
309
GRIDFORMAT_END
309
TABLEFORMAT_END
  1
CELLSTYLE_BEGIN
 90
        1
 91
        1
300
_TITLE
309
CELLSTYLE_END
300
CELLSTYLE
  1
TABLEFORMAT_BEGIN
 90
        5
170
     1
 91
        0
 92
        0
 62
   257
 93
        1
300
CONTENTFORMAT
  1
CONTENTFORMAT_BEGIN
 90
        0
 91
        0
 92
        4
 93
        0
300

 40
0.0
140
1.0
 94
        5
 62
     0
340
10
144
4.5
309
CONTENTFORMAT_END
171
     1
301
MARGIN
  1
CELLMARGIN_BEGIN
 40
1.5
 40
1.5
 40
1.5
 40
1.5
 40
0.18
 40
0.18
309
CELLMARGIN_END
 94
        6
 95
        1
302
GRIDFORMAT
  1
GRIDFORMAT_BEGIN
 90
        0
 91
        1
 62
     0
 92
       -2
340
0
 93
        0
 40
0.045
309
GRIDFORMAT_END
 95
        2
302
GRIDFORMAT
  1
GRIDFORMAT_BEGIN
 90
        0
 91
        1
 62
     0
 92
       -2
340
0
 93
        0
 40
0.045
309
GRIDFORMAT_END
 95
        4
302
GRIDFORMAT
  1
GRIDFORMAT_BEGIN
 90
        0
 91
        1
 62
     0
 92
       -2
340
0
 93
        0
 40
0.045
309
GRIDFORMAT_END
 95
        8
302
GRIDFORMAT
  1
GRIDFORMAT_BEGIN
 90
        0
 91
        1
 62
     0
 92
       -2
340
0
 93
        0
 40
0.045
309
GRIDFORMAT_END
 95
       16
302
GRIDFORMAT
  1
GRIDFORMAT_BEGIN
 90
        0
 91
        1
 62
     0
 92
       -2
340
0
 93
        0
 40
0.045
309
GRIDFORMAT_END
 95
       32
302
GRIDFORMAT
  1
GRIDFORMAT_BEGIN
 90
        0
 91
        1
 62
     0
 92
       -2
340
0
 93
        0
 40
0.045
309
GRIDFORMAT_END
309
TABLEFORMAT_END
  1
CELLSTYLE_BEGIN
 90
        2
 91
        1
300
_HEADER
309
CELLSTYLE_END
300
CELLSTYLE
  1
TABLEFORMAT_BEGIN
 90
        5
170
     1
 91
        0
 92
        0
 62
   257
 93
        1
300
CONTENTFORMAT
  1
CONTENTFORMAT_BEGIN
 90
        0
 91
        0
 92
        4
 93
        0
300

 40
0.0
140
1.0
 94
        2
 62
     0
340
10
144
4.5
309
CONTENTFORMAT_END
171
     1
301
MARGIN
  1
CELLMARGIN_BEGIN
 40
1.5
 40
1.5
 40
1.5
 40
1.5
 40
0.18
 40
0.18
309
CELLMARGIN_END
 94
        6
 95
        1
302
GRIDFORMAT
  1
GRIDFORMAT_BEGIN
 90
        0
 91
        1
 62
     0
 92
       -2
340
0
 93
        0
 40
0.045
309
GRIDFORMAT_END
 95
        2
302
GRIDFORMAT
  1
GRIDFORMAT_BEGIN
 90
        0
 91
        1
 62
     0
 92
       -2
340
0
 93
        0
 40
0.045
309
GRIDFORMAT_END
 95
        4
302
GRIDFORMAT
  1
GRIDFORMAT_BEGIN
 90
        0
 91
        1
 62
     0
 92
       -2
340
0
 93
        0
 40
0.045
309
GRIDFORMAT_END
 95
        8
302
GRIDFORMAT
  1
GRIDFORMAT_BEGIN
 90
        0
 91
        1
 62
     0
 92
       -2
340
0
 93
        0
 40
0.045
309
GRIDFORMAT_END
 95
       16
302
GRIDFORMAT
  1
GRIDFORMAT_BEGIN
 90
        0
 91
        1
 62
     0
 92
       -2
340
0
 93
        0
 40
0.045
309
GRIDFORMAT_END
 95
       32
302
GRIDFORMAT
  1
GRIDFORMAT_BEGIN
 90
        0
 91
        1
 62
     0
 92
       -2
340
0
 93
        0
 40
0.045
309
GRIDFORMAT_END
309
TABLEFORMAT_END
  1
CELLSTYLE_BEGIN
 90
        3
 91
        2
300
_DATA
309
CELLSTYLE_END
  0
ENDSEC
  0
SECTION
  2
ACDSDATA
 70
     2
 71
     7
  0
ACDSSCHEMA
 90
        0
  1
AcDb_Thumbnail_Schema
  2
AcDbDs::ID
280
    10
 91
        8
  2
Thumbnail_Data
280
    15
 91
        0
101
ACDSRECORD
 95
        0
 90
        1
  2
AcDbDs::TreatedAsObjectData
280
     1
291
     1
101
ACDSRECORD
 95
        0
 90
        2
  2
AcDbDs::Legacy
280
     1
291
     1
101
ACDSRECORD
  1
AcDbDs::ID
 90
        3
  2
AcDs:Indexable
280
     1
291
     1
101
ACDSRECORD
  1
AcDbDs::ID
 90
        4
  2
AcDbDs::HandleAttribute
280
     7
282
     1
  0
ACDSSCHEMA
 90
        1
  1
AcDbDs::TreatedAsObjectDataSchema
  2
AcDbDs::TreatedAsObjectData
280
     1
 91
        0
  0
ACDSSCHEMA
 90
        2
  1
AcDbDs::LegacySchema
  2
AcDbDs::Legacy
280
     1
 91
        0
  0
ACDSSCHEMA
 90
        3
  1
AcDbDs::IndexedPropertySchema
  2
AcDs:Indexable
280
     1
 91
        0
  0
ACDSSCHEMA
 90
        4
  1
AcDbDs::HandleAttributeSchema
  2
AcDbDs::HandleAttribute
280
     7
 91
        1
284
     1
  0
ACDSRECORD
 90
        0
  2
AcDbDs::ID
280
    10
320
16A
  2
Thumbnail_Data
280
    15
 94
      961
310
89504E470D0A1A0A0000000D49484452000000B40000008B0803000000FF3F437800000300504C5445000000000000FFFFFF0000000000000000000000000000000000000000000000000000330000660000990000CC0000FF0033000033330033660033990033CC0033FF0066000066330066660066990066CC0066FF0099
310
000099330099660099990099CC0099FF00CC0000CC3300CC6600CC9900CCCC00CCFF00FF0000FF3300FF6600FF9900FFCC00FFFF3300003300333300663300993300CC3300FF3333003333333333663333993333CC3333FF3366003366333366663366993366CC3366FF3399003399333399663399993399CC3399FF33CC00
310
33CC3333CC6633CC9933CCCC33CCFF33FF0033FF3333FF6633FF9933FFCC33FFFF6600006600336600666600996600CC6600FF6633006633336633666633996633CC6633FF6666006666336666666666996666CC6666FF6699006699336699666699996699CC6699FF66CC0066CC3366CC6666CC9966CCCC66CCFF66FF0066
310
FF3366FF6666FF9966FFCC66FFFF9900009900339900669900999900CC9900FF9933009933339933669933999933CC9933FF9966009966339966669966999966CC9966FF9999009999339999669999999999CC9999FF99CC0099CC3399CC6699CC9999CCCC99CCFF99FF0099FF3399FF6699FF9999FFCC99FFFFCC0000CC00
310
33CC0066CC0099CC00CCCC00FFCC3300CC3333CC3366CC3399CC33CCCC33FFCC6600CC6633CC6666CC6699CC66CCCC66FFCC9900CC9933CC9966CC9999CC99CCCC99FFCCCC00CCCC33CCCC66CCCC99CCCCCCCCCCFFCCFF00CCFF33CCFF66CCFF99CCFFCCCCFFFFFF0000FF0033FF0066FF0099FF00CCFF00FFFF3300FF3333
310
FF3366FF3399FF33CCFF33FFFF6600FF6633FF6666FF6699FF66CCFF66FFFF9900FF9933FF9966FF9999FF99CCFF99FFFFCC00FFCC33FFCC66FFCC99FFCCCCFFCCFFFFFF00FFFF33FFFF66FFFF99FFFFCCFFFFFF0000000D0D0D1A1A1A2828283535354343435050505D5D5D6B6B6B787878868686939393A1A1A1AEAEAEBB
310
BBBBC9C9C9D6D6D6E4E4E4F1F1F1FFFFFF000000000000000000000000000000000000000000000000000000000000C11FEF660000007C4944415478DAEDCE010D00000C0220FBC7348939FE4102D283222D2D2D2D2D2D2D2D2D2D2D2D2D2D2D2D2D2D2D2D2D2D2D2D2D2D2D2D2D2D2D2D2D2D2D2D2D2D2D2D2D2D2D2D2D2D
310
2D2D2D2D2D2D2D2D2D2D2D2D2D2D2D2D2D2D2D2D2D2D2D2D2D2D2D2D2D2D2D2D2D2D2D2D2D2D2D2D2D2D2D2D2D2D2D2D2DFD2E3D4FD54D036C4E53200000000049454E44AE426082
  0
ENDSEC
  0
EOF
