  0
SECTION
  2
HEADER
  9
$ACADVER
  1
AC1015
  9
$ACADMAINTVER
 70
    20
  9
$DWGCODEPAGE
  3
ANSI_1252
  9
$INSBASE
 10
0.0
 20
0.0
 30
0.0
  9
$EXTMIN
 10
-0.5249995957199931
 20
-0.0000001633364377
 30
0.0
  9
$EXTMAX
 10
117.9574394720434
 20
245.0170474397566
 30
0.0
  9
$LIMMIN
 10
0.0
 20
0.0
  9
$LIMMAX
 10
420.0
 20
297.0
  9
$ORTHOMODE
 70
     0
  9
$REGENMODE
 70
     1
  9
$FILLMODE
 70
     1
  9
$QTEXTMODE
 70
     0
  9
$MIRRTEXT
 70
     0
  9
$LTSCALE
 40
1.0
  9
$ATTMODE
 70
     1
  9
$TEXTSIZE
 40
3.5
  9
$TRACEWID
 40
1.0
  9
$TEXTSTYLE
  7
STANDARD
  9
$CLAYER
  8
AM_0
  9
$CELTYPE
  6
BYLAYER
  9
$CECOLOR
 62
   256
  9
$CELTSCALE
 40
1.0
  9
$DISPSILH
 70
     0
  9
$DIMSCALE
 40
1.0
  9
$DIMASZ
 40
2.5
  9
$DIMEXO
 40
1.0
  9
$DIMDLI
 40
10.0
  9
$DIMRND
 40
0.0
  9
$DIMDLE
 40
0.0
  9
$DIMEXE
 40
1.0
  9
$DIMTP
 40
0.1
  9
$DIMTM
 40
0.1
  9
$DIMTXT
 40
3.5
  9
$DIMCEN
 40
0.0
  9
$DIMTSZ
 40
0.0
  9
$DIMTOL
 70
     0
  9
$DIMLIM
 70
     0
  9
$DIMTIH
 70
     0
  9
$DIMTOH
 70
     0
  9
$DIMSE1
 70
     0
  9
$DIMSE2
 70
     0
  9
$DIMTAD
 70
     1
  9
$DIMZIN
 70
     8
  9
$DIMBLK
  1

  9
$DIMASO
 70
     1
  9
$DIMSHO
 70
     1
  9
$DIMPOST
  1

  9
$DIMAPOST
  1
"
  9
$DIMALT
 70
     0
  9
$DIMALTD
 70
     3
  9
$DIMALTF
 40
0.0393701
  9
$DIMLFAC
 40
1.0
  9
$DIMTOFL
 70
     1
  9
$DIMTVP
 40
0.0
  9
$DIMTIX
 70
     0
  9
$DIMSOXD
 70
     0
  9
$DIMSAH
 70
     0
  9
$DIMBLK1
  1

  9
$DIMBLK2
  1

  9
$DIMSTYLE
  2
AM_ISO
  9
$DIMCLRD
 70
   256
  9
$DIMCLRE
 70
   256
  9
$DIMCLRT
 70
     2
  9
$DIMTFAC
 40
0.71
  9
$DIMGAP
 40
1.5
  9
$DIMJUST
 70
     0
  9
$DIMSD1
 70
     0
  9
$DIMSD2
 70
     0
  9
$DIMTOLJ
 70
     0
  9
$DIMTZIN
 70
     8
  9
$DIMALTZ
 70
     0
  9
$DIMALTTZ
 70
     0
  9
$DIMUPT
 70
     0
  9
$DIMDEC
 70
     2
  9
$DIMTDEC
 70
     2
  9
$DIMALTU
 70
     2
  9
$DIMALTTD
 70
     3
  9
$DIMTXSTY
  7
STANDARD
  9
$DIMAUNIT
 70
     0
  9
$DIMADEC
 70
     0
  9
$DIMALTRND
 40
0.0
  9
$DIMAZIN
 70
     2
  9
$DIMDSEP
 70
    46
  9
$DIMATFIT
 70
     3
  9
$DIMFRAC
 70
     0
  9
$DIMLDRBLK
  1

  9
$DIMLUNIT
 70
     2
  9
$DIMLWD
 70
    -1
  9
$DIMLWE
 70
    -1
  9
$DIMTMOVE
 70
     0
  9
$LUNITS
 70
     2
  9
$LUPREC
 70
     2
  9
$SKETCHINC
 40
1.0
  9
$FILLETRAD
 40
0.0
  9
$AUNITS
 70
     0
  9
$AUPREC
 70
     0
  9
$MENU
  1
.
  9
$ELEVATION
 40
0.0
  9
$PELEVATION
 40
0.0
  9
$THICKNESS
 40
0.0
  9
$LIMCHECK
 70
     0
  9
$CHAMFERA
 40
2.5
  9
$CHAMFERB
 40
2.5
  9
$CHAMFERC
 40
20.0
  9
$CHAMFERD
 40
0.0
  9
$SKPOLY
 70
     1
  9
$TDCREATE
 40
2456265.526868102
  9
$TDUCREATE
 40
2456265.485201435
  9
$TDUPDATE
 40
2456266.605313264
  9
$TDUUPDATE
 40
2456266.563646597
  9
$TDINDWG
 40
0.0079350231
  9
$TDUSRTIMER
 40
0.0079349653
  9
$USRTIMER
 70
     1
  9
$ANGBASE
 50
0.0
  9
$ANGDIR
 70
     0
  9
$PDMODE
 70
     0
  9
$PDSIZE
 40
0.0
  9
$PLINEWID
 40
0.0
  9
$SPLFRAME
 70
     0
  9
$SPLINETYPE
 70
     6
  9
$SPLINESEGS
 70
     8
  9
$HANDSEED
  5
1984
  9
$SURFTAB1
 70
     6
  9
$SURFTAB2
 70
     6
  9
$SURFTYPE
 70
     6
  9
$SURFU
 70
     6
  9
$SURFV
 70
     6
  9
$UCSBASE
  2

  9
$UCSNAME
  2

  9
$UCSORG
 10
0.0
 20
0.0
 30
0.0
  9
$UCSXDIR
 10
1.0
 20
0.0
 30
0.0
  9
$UCSYDIR
 10
0.0
 20
1.0
 30
0.0
  9
$UCSORTHOREF
  2

  9
$UCSORTHOVIEW
 70
     0
  9
$UCSORGTOP
 10
0.0
 20
0.0
 30
0.0
  9
$UCSORGBOTTOM
 10
0.0
 20
0.0
 30
0.0
  9
$UCSORGLEFT
 10
0.0
 20
0.0
 30
0.0
  9
$UCSORGRIGHT
 10
0.0
 20
0.0
 30
0.0
  9
$UCSORGFRONT
 10
0.0
 20
0.0
 30
0.0
  9
$UCSORGBACK
 10
0.0
 20
0.0
 30
0.0
  9
$PUCSBASE
  2

  9
$PUCSNAME
  2

  9
$PUCSORG
 10
0.0
 20
0.0
 30
0.0
  9
$PUCSXDIR
 10
1.0
 20
0.0
 30
0.0
  9
$PUCSYDIR
 10
0.0
 20
1.0
 30
0.0
  9
$PUCSORTHOREF
  2

  9
$PUCSORTHOVIEW
 70
     0
  9
$PUCSORGTOP
 10
0.0
 20
0.0
 30
0.0
  9
$PUCSORGBOTTOM
 10
0.0
 20
0.0
 30
0.0
  9
$PUCSORGLEFT
 10
0.0
 20
0.0
 30
0.0
  9
$PUCSORGRIGHT
 10
0.0
 20
0.0
 30
0.0
  9
$PUCSORGFRONT
 10
0.0
 20
0.0
 30
0.0
  9
$PUCSORGBACK
 10
0.0
 20
0.0
 30
0.0
  9
$USERI1
 70
     0
  9
$USERI2
 70
     0
  9
$USERI3
 70
     0
  9
$USERI4
 70
     0
  9
$USERI5
 70
     0
  9
$USERR1
 40
0.0
  9
$USERR2
 40
0.0
  9
$USERR3
 40
0.0
  9
$USERR4
 40
0.0
  9
$USERR5
 40
0.0
  9
$WORLDVIEW
 70
     1
  9
$SHADEDGE
 70
     3
  9
$SHADEDIF
 70
    70
  9
$TILEMODE
 70
     1
  9
$MAXACTVP
 70
    48
  9
$PINSBASE
 10
0.0
 20
0.0
 30
0.0
  9
$PLIMCHECK
 70
     0
  9
$PEXTMIN
 10
1.000000000000000E+20
 20
1.000000000000000E+20
 30
1.000000000000000E+20
  9
$PEXTMAX
 10
-1.000000000000000E+20
 20
-1.000000000000000E+20
 30
-1.000000000000000E+20
  9
$PLIMMIN
 10
-0.2500002402958907
 20
-0.2499999962453767
  9
$PLIMMAX
 10
10.74999951940821
 20
8.249999763458731
  9
$UNITMODE
 70
     0
  9
$VISRETAIN
 70
     1
  9
$PLINEGEN
 70
     0
  9
$PSLTSCALE
 70
     1
  9
$TREEDEPTH
 70
  3020
  9
$CMLSTYLE
  2
STANDARD
  9
$CMLJUST
 70
     0
  9
$CMLSCALE
 40
1.0
  9
$PROXYGRAPHICS
 70
     1
  9
$MEASUREMENT
 70
     1
  9
$CELWEIGHT
370
    -1
  9
$ENDCAPS
280
     0
  9
$JOINSTYLE
280
     0
  9
$LWDISPLAY
290
     0
  9
$INSUNITS
 70
     4
  9
$HYPERLINKBASE
  1

  9
$STYLESHEET
  1
@LAYOUT.CTB
  9
$XEDIT
290
     1
  9
$CEPSNTYPE
380
     0
  9
$PSTYLEMODE
290
     1
  9
$FINGERPRINTGUID
  2
{971E133B-FE08-4D2A-A778-A281D9ABBC4D}
  9
$VERSIONGUID
  2
{E1B6A30C-79FB-4B67-9A4B-D54645AF3732}
  9
$EXTNAMES
290
     1
  9
$PSVPSCALE
 40
0.0
  9
$OLESTARTUP
290
     0
  0
ENDSEC
  0
SECTION
  2
CLASSES
  0
CLASS
  1
DICTIONARYVAR
  2
AcDbDictionaryVar
  3
ObjectDBX Classes
 90
        0
280
     0
281
     0
  0
CLASS
  1
ACMESTATEMGR
  2
AcMeStateMgr
  3
AcMeServices
 90
     1024
280
     0
281
     0
  0
CLASS
  1
ACMESCOPE
  2
AcMeScope
  3
AcMeServices
 90
     1024
280
     0
281
     0
  0
CLASS
  1
ACMECOMMANDHISTORY
  2
AcMeCommandHistory
  3
AcMeServices
 90
     1024
280
     0
281
     0
  0
CLASS
  1
ACRFINSADJUSTERMGR
  2
AcRfInsAdjusterMgr
  3
AcMeServices
 90
     1024
280
     0
281
     0
  0
CLASS
  1
ACMEDRAWINGMAN
  2
AcMeDrawingMan
  3
AcMeServices
 90
     1024
280
     0
281
     0
  0
CLASS
  1
AMATTR
  2
AcMeAttribute
  3
AcMeServices
 90
    33792
280
     0
281
     0
  0
CLASS
  1
ACMEBOMCOLUMN
  2
AcMeBOMColumn
  3
AcMeServices
 90
    33792
280
     0
281
     0
  0
CLASS
  1
ACMEBOMCONF
  2
AcMeBOMConf
  3
AcMeServices
 90
    33792
280
     0
281
     0
  0
CLASS
  1
ACMEBOMTABLE
  2
AcMeBOMTable
  3
AcMeServices
 90
    33792
280
     0
281
     0
  0
CLASS
  1
ACMEBOMENTRY
  2
AcMeBOMEntry
  3
AcMeServices
 90
    33792
280
     0
281
     0
  0
CLASS
  1
ACMEVIEW
  2
AcMeView
  3
AcMeServices
 90
     1024
280
     0
281
     0
  0
CLASS
  1
ACGREFMASTER
  2
AcGrefMaster
  3
AcAttribServices
 90
     1024
280
     0
281
     0
  0
CLASS
  1
AMIMASTER
  2
AmiMaster
  3
AmiServices
 90
     1024
280
     0
281
     0
  0
CLASS
  1
ACASGREFMASTER
  2
AcAsGrefMaster
  3
AutoSurfResolverServices
 90
     1024
280
     0
281
     0
  0
CLASS
  1
ADAPPL
  2
AcAdAppl
  3
DesignerServices
 90
     1024
280
     0
281
     0
  0
CLASS
  1
DEPMGR
  2
AcAdDepMgr
  3
DesignerServices
 90
     1024
280
     0
281
     0
  0
CLASS
  1
PARAMMGR
  2
AcAdParamMgr
  3
DesignerServices
 90
     1024
280
     0
281
     0
  0
CLASS
  1
PARAMSCOPE
  2
AcAdParamScope
  3
DesignerServices
 90
     1024
280
     0
281
     0
  0
CLASS
  1
ACIMSYSVARMAN
  2
AcImSysVarManager
  3
AcMeServices
 90
     1024
280
     0
281
     0
  0
CLASS
  1
ACIMINTSYSVAR
  2
AcImIntSysVar
  3
AcMeServices
 90
     1024
280
     0
281
     0
  0
CLASS
  1
ACIMREALSYSVAR
  2
AcImRealSysVar
  3
AcMeServices
 90
     1024
280
     0
281
     0
  0
CLASS
  1
ACIMSTRSYSVAR
  2
AcImStrSysVar
  3
AcMeServices
 90
     1024
280
     0
281
     0
  0
CLASS
  1
NAMEDAPPL
  2
AcAdNamedAppl
  3
DesignerServices
 90
     1024
280
     0
281
     0
  0
CLASS
  1
ADHNTMPLT
  2
AdHoleNoteTemplateMgr
  3
DesignerServices
 90
    33792
280
     0
281
     0
  0
CLASS
  1
AM_HNTEMPLATE_MGR_NAME
  2
AdHoleNoteTemplateMgrName
  3
DesignerServices
 90
    33792
280
     0
281
     0
  0
CLASS
  1
ACADGREFMODULE
  2
AcAdGrefModule
  3
AdGrefServices
 90
     1024
280
     0
281
     0
  0
CLASS
  1
AM_DRAWING_MGR
  2
AcDmDwgMgr
  3
AcMechDwgViewMgmt
 90
     1024
280
     0
281
     0
  0
CLASS
  1
AM_DWG_DOCUMENT
  2
AcDmDwgDocument
  3
AcMechDwgViewMgmt
 90
     1024
280
     0
281
     0
  0
CLASS
  1
AM_DWG_SHEET
  2
AcDmSheet
  3
AcMechDwgViewMgmt
 90
     1024
280
     0
281
     0
  0
CLASS
  1
AM_VIEWDIMPARMAP
  2
AcDmViewDimParMap
  3
AcMechDwgViewMgmt
 90
     1024
280
     0
281
     0
  0
CLASS
  1
AM_DWGMGR_NAME
  2
AcDmDwgMgrName
  3
AcMechDwgViewMgmt
 90
     1024
280
     0
281
     0
  0
CLASS
  1
ACAMPROJECT
  2
AcAmProject
  3
DesignerAssemblies
 90
     1024
280
     0
281
     0
  0
CLASS
  1
ACAMGRCOMPSET
  2
AcAmGrCompSet
  3
DesignerAssemblies
 90
    32768
280
     0
281
     0
  0
CLASS
  1
ACAMGRCOMPDEFSET
  2
AcAmGrCompDefSet
  3
DesignerAssemblies
 90
     1024
280
     0
281
     0
  0
CLASS
  1
ACAMGRCOMPDEF
  2
AcAmGrCompDef
  3
DesignerAssemblies
 90
     1024
280
     0
281
     0
  0
CLASS
  1
ACCMCONTEXT
  2
AcCmContext
  3
DesignerAssemblies
 90
     1024
280
     0
281
     0
  0
CLASS
  1
ACAMCOMPDEF
  2
AcAmCompDef
  3
DesignerAssemblies
 90
     1024
280
     0
281
     0
  0
CLASS
  1
ACAMCOMPDEFMGR
  2
AcAmCompDefMgr
  3
DesignerAssemblies
 90
     1024
280
     0
281
     0
  0
CLASS
  1
AMCONTEXTMGR
  2
AcAmContextMgr
  3
DesignerAssemblies
 90
     1024
280
     0
281
     0
  0
CLASS
  1
ACAMCONTEXTMODELER
  2
AcAmContextModeler
  3
DesignerAssemblies
 90
     1024
280
     0
281
     0
  0
CLASS
  1
ACDMVIEWGEOM
  2
AcDmViewGeometry
  3
AcMechDwgViewMgmt
 90
    33792
280
     0
281
     1
  0
CLASS
  1
CBROWSERAPPOBJECT
  2
CBrowserAppObject
  3
McadcomServices
 90
     1024
280
     0
281
     0
  0
CLASS
  1
IM_STATIC_MAN
  2
AcImStaticVarManager
  3
AcMeServices
 90
     1024
280
     0
281
     0
  0
CLASS
  1
ASAPP
  2
AcAsAppObject
  3
AutoSurfServices
 90
     1024
280
     0
281
     0
  0
CLASS
  1
ACIMDBLSTATICVAR
  2
AcImDblStaticVar
  3
AcMeServices
 90
     1024
280
     0
281
     0
  0
CLASS
  1
ACIMSTRSTATICVAR
  2
AcImStrStaticVar
  3
AcMeServices
 90
     1024
280
     0
281
     0
  0
CLASS
  1
ACIMINTSTATICVAR
  2
AcImIntStaticVar
  3
AcMeServices
 90
     1024
280
     0
281
     0
  0
CLASS
  1
CATALOGSTATE
  2
AcAmCatalogState
  3
DesignerAssemblies
 90
     1024
280
     0
281
     0
  0
CLASS
  1
DM_PLACEHOLDER
  2
AcDmSelsetPlaceholder
  3
AcMechDwgViewMgmt
 90
     1024
280
     0
281
     0
  0
CLASS
  1
LAYER_INDEX
  2
AcDbLayerIndex
  3
ObjectDBX Classes
 90
        0
280
     0
281
     0
  0
CLASS
  1
IDBUFFER
  2
AcDbIdBuffer
  3
ObjectDBX Classes
 90
        0
280
     0
281
     0
  0
CLASS
  1
ACMSTANDARDJIS
  2
AcmStandardJIS
  3
"Amdt_StdImp|Product Description: AutoCAD Mechanical|Company: Autodesk, Inc."
 90
    33792
280
     0
281
     0
  0
CLASS
  1
ACMSTANDARDANSI
  2
AcmStandardANSI
  3
"Amdt_StdImp|Product Description: AutoCAD Mechanical|Company: Autodesk, Inc."
 90
     1024
280
     0
281
     0
  0
CLASS
  1
ACMSTANDARDBSI
  2
AcmStandardBSI
  3
"Amdt_StdImp|Product Description: AutoCAD Mechanical|Company: Autodesk, Inc."
 90
    33792
280
     0
281
     0
  0
CLASS
  1
ACMSTANDARDDIN
  2
AcmStandardDIN
  3
"Amdt_StdImp|Product Description: AutoCAD Mechanical|Company: Autodesk, Inc."
 90
    33792
280
     0
281
     0
  0
CLASS
  1
ACMSTANDARDISO
  2
AcmStandardISO
  3
"Amdt_StdImp|Product Description: AutoCAD Mechanical|Company: Autodesk, Inc."
 90
     1024
280
     0
281
     0
  0
CLASS
  1
ACDBDICTIONARYWDFLT
  2
AcDbDictionaryWithDefault
  3
ObjectDBX Classes
 90
        0
280
     0
281
     0
  0
CLASS
  1
ACDBPLACEHOLDER
  2
AcDbPlaceHolder
  3
ObjectDBX Classes
 90
        0
280
     0
281
     0
  0
CLASS
  1
LAYOUT
  2
AcDbLayout
  3
ObjectDBX Classes
 90
        0
280
     0
281
     0
  0
CLASS
  1
ACME_DOCUMENT
  2
AcMeDbDoc
  3
AcMeServices
 90
     1024
280
     0
281
     0
  0
CLASS
  1
AMGSETTINGSOBJ
  2
AmgSettingsObj
  3
"AcadM|Product Description: AutoCAD Mechanical|Company: Autodesk, Inc."
 90
     1024
280
     0
281
     0
  0
CLASS
  1
AMGOBJPROPCFG
  2
AmgObjPropCfg
  3
"AmgLay|Product Description: AutoCAD Mechanical|Company: Autodesk, Inc."
 90
     1025
280
     0
281
     0
  0
CLASS
  1
ACDBENTITYCACHE
  2
AcMeEntityCache
  3
AcMeServices
 90
     1024
280
     0
281
     0
  0
CLASS
  1
GSMANAGER
  2
AcMeGSManager
  3
AcMeServices
 90
     1024
280
     0
281
     0
  0
CLASS
  1
AMDTINTERNALREACTOR
  2
AmdtInternalReactor
  3
AcMeServices
 90
     1024
280
     0
281
     0
  0
CLASS
  1
ACME_DATABASE
  2
AcMeDbDatabase
  3
AcMeServices
 90
     1024
280
     0
281
     0
  0
CLASS
  1
ACGREFACADMASTER
  2
AcGrefacadMaster
  3
AcGrefServices
 90
     1024
280
     0
281
     0
  0
CLASS
  1
AMDTMENUSTATEMGR
  2
AmdtMenuStateMgr
  3
McadcomServices
 90
     1024
280
     0
281
     0
  0
CLASS
  1
AMDTMCOMMENUSTATE
  2
AmdtMcomMenuState
  3
McadcomServices
 90
     1024
280
     0
281
     0
  0
CLASS
  1
MAPIADMODULE
  2
MApiAdModule
  3
MApiAdServices
 90
     1024
280
     0
281
     0
  0
CLASS
  1
AMDTDMMENUSTATE
  2
AmdtDmMenuState
  3
AcMechDwgViewMgmt
 90
     1024
280
     0
281
     0
  0
CLASS
  1
AMDTADMENUSTATE
  2
AmdtAdMenuState
  3
DesignerServices
 90
     1024
280
     0
281
     0
  0
CLASS
  1
AMDTAMMENUSTATE
  2
AmdtAmMenuState
  3
DesignerAssemblies
 90
     1024
280
     0
281
     0
  0
CLASS
  1
ACMDATADICTIONARY
  2
AcmDataDictionary
  3
"AcmSymBB|Product Description: AutoCAD Mechanical|Company: Autodesk, Inc."
 90
     1024
280
     0
281
     0
  0
CLASS
  1
ACMDATAENTRYBLOCK
  2
AcmDataEntryBlock
  3
AcmSymBB|Product Description: AutoCAD Mechanical|Company: Autodesk, Inc.
 90
     1024
280
     0
281
     0
  0
CLASS
  1
ACMSURFSTANDARDJIS
  2
AcmSurfTextStdJIS
  3
"Amdt_StdImp|Product Description: AutoCAD Mechanical|Company: Autodesk, Inc."
 90
    33792
280
     0
281
     0
  0
CLASS
  1
ACMFCFSTANDARDJIS
  2
AcmFCFStdJIS
  3
"Amdt_StdImp|Product Description: AutoCAD Mechanical|Company: Autodesk, Inc."
 90
    33792
280
     0
281
     0
  0
CLASS
  1
ACMWELDSTANDARDJIS
  2
AcmWeldingStdJIS
  3
"Amdt_StdImp|Product Description: AutoCAD Mechanical|Company: Autodesk, Inc."
 90
    33792
280
     0
281
     0
  0
CLASS
  1
ACMIDSTANDARDJIS
  2
AcmIdStdJIS
  3
"Amdt_StdImp|Product Description: AutoCAD Mechanical|Company: Autodesk, Inc."
 90
    33792
280
     0
281
     0
  0
CLASS
  1
ACMDATUMSTANDARDJIS
  2
AcmDatumStdJIS
  3
"Amdt_StdImp|Product Description: AutoCAD Mechanical|Company: Autodesk, Inc."
 90
    33792
280
     0
281
     0
  0
CLASS
  1
ACMBOMSTANDARDJIS
  2
AcmBOMStdJIS
  3
"Amdt_StdImp|Product Description: AutoCAD Mechanical|Company: Autodesk, Inc."
 90
    33792
280
     0
281
     0
  0
CLASS
  1
ACMSURFSTANDARDANSI
  2
AcmSurfTextStdANSI
  3
"Amdt_StdImp|Product Description: AutoCAD Mechanical|Company: Autodesk, Inc."
 90
     1024
280
     0
281
     0
  0
CLASS
  1
ACMFCFSTANDARDANSI
  2
AcmFCFStdANSI
  3
"Amdt_StdImp|Product Description: AutoCAD Mechanical|Company: Autodesk, Inc."
 90
     1024
280
     0
281
     0
  0
CLASS
  1
ACMWELDSTANDARDANSI
  2
AcmWeldingStdANSI
  3
"Amdt_StdImp|Product Description: AutoCAD Mechanical|Company: Autodesk, Inc."
 90
     1024
280
     0
281
     0
  0
CLASS
  1
ACMIDSTANDARDANSI
  2
AcmIdStdANSI
  3
"Amdt_StdImp|Product Description: AutoCAD Mechanical|Company: Autodesk, Inc."
 90
     1024
280
     0
281
     0
  0
CLASS
  1
ACMDATUMSTANDARDANSI
  2
AcmDatumStdANSI
  3
"Amdt_StdImp|Product Description: AutoCAD Mechanical|Company: Autodesk, Inc."
 90
     1024
280
     0
281
     0
  0
CLASS
  1
ACMBOMSTANDARDANSI
  2
AcmBOMStdANSI
  3
"Amdt_StdImp|Product Description: AutoCAD Mechanical|Company: Autodesk, Inc."
 90
     1024
280
     0
281
     0
  0
CLASS
  1
ACMSURFSTANDARDBSI
  2
AcmSurfTextStdBSI
  3
"Amdt_StdImp|Product Description: AutoCAD Mechanical|Company: Autodesk, Inc."
 90
    33792
280
     0
281
     0
  0
CLASS
  1
ACMFCFSTANDARDBSI
  2
AcmFCFStdBSI
  3
"Amdt_StdImp|Product Description: AutoCAD Mechanical|Company: Autodesk, Inc."
 90
    33792
280
     0
281
     0
  0
CLASS
  1
ACMWELDSTANDARDBSI
  2
AcmWeldingStdBSI
  3
"Amdt_StdImp|Product Description: AutoCAD Mechanical|Company: Autodesk, Inc."
 90
    33792
280
     0
281
     0
  0
CLASS
  1
ACMIDSTANDARDBSI
  2
AcmIdStdBSI
  3
"Amdt_StdImp|Product Description: AutoCAD Mechanical|Company: Autodesk, Inc."
 90
    33792
280
     0
281
     0
  0
CLASS
  1
ACMDATUMSTANDARDBSI
  2
AcmDatumStdBSI
  3
"Amdt_StdImp|Product Description: AutoCAD Mechanical|Company: Autodesk, Inc."
 90
    33792
280
     0
281
     0
  0
CLASS
  1
ACMBOMSTANDARDBSI
  2
AcmBOMStdBSI
  3
"Amdt_StdImp|Product Description: AutoCAD Mechanical|Company: Autodesk, Inc."
 90
    33792
280
     0
281
     0
  0
CLASS
  1
AMDTEDGESTANDARDDIN
  2
AmdtEdgeStdDIN
  3
"Amdt_StdImp|Product Description: AutoCAD Mechanical|Company: Autodesk, Inc."
 90
    33792
280
     0
281
     0
  0
CLASS
  1
ACMSURFSTANDARDDIN
  2
AcmSurfTextStdDIN
  3
"Amdt_StdImp|Product Description: AutoCAD Mechanical|Company: Autodesk, Inc."
 90
    33792
280
     0
281
     0
  0
CLASS
  1
ACMFCFSTANDARDDIN
  2
AcmFCFStdDIN
  3
"Amdt_StdImp|Product Description: AutoCAD Mechanical|Company: Autodesk, Inc."
 90
    33792
280
     0
281
     0
  0
CLASS
  1
ACMWELDSTANDARDDIN
  2
AcmWeldingStdDIN
  3
"Amdt_StdImp|Product Description: AutoCAD Mechanical|Company: Autodesk, Inc."
 90
    33792
280
     0
281
     0
  0
CLASS
  1
ACMIDSTANDARDDIN
  2
AcmIdStdDIN
  3
"Amdt_StdImp|Product Description: AutoCAD Mechanical|Company: Autodesk, Inc."
 90
    33792
280
     0
281
     0
  0
CLASS
  1
ACMDATUMSTANDARDDIN
  2
AcmDatumStdDIN
  3
"Amdt_StdImp|Product Description: AutoCAD Mechanical|Company: Autodesk, Inc."
 90
    33792
280
     0
281
     0
  0
CLASS
  1
ACMBOMSTANDARDDIN
  2
AcmBOMStdDIN
  3
"Amdt_StdImp|Product Description: AutoCAD Mechanical|Company: Autodesk, Inc."
 90
    33792
280
     0
281
     0
  0
CLASS
  1
ACMSURFSTANDARDISO
  2
AcmSurfTextStdISO
  3
"Amdt_StdImp|Product Description: AutoCAD Mechanical|Company: Autodesk, Inc."
 90
     1024
280
     0
281
     0
  0
CLASS
  1
ACMFCFSTANDARDISO
  2
AcmFCFStdISO
  3
"Amdt_StdImp|Product Description: AutoCAD Mechanical|Company: Autodesk, Inc."
 90
     1024
280
     0
281
     0
  0
CLASS
  1
ACMWELDSTANDARDISO
  2
AcmWeldingStdISO
  3
"Amdt_StdImp|Product Description: AutoCAD Mechanical|Company: Autodesk, Inc."
 90
     1024
280
     0
281
     0
  0
CLASS
  1
ACMIDSTANDARDISO
  2
AcmIdStdISO
  3
"Amdt_StdImp|Product Description: AutoCAD Mechanical|Company: Autodesk, Inc."
 90
     1024
280
     0
281
     0
  0
CLASS
  1
ACMDATUMSTANDARDISO
  2
AcmDatumStdISO
  3
"Amdt_StdImp|Product Description: AutoCAD Mechanical|Company: Autodesk, Inc."
 90
     1024
280
     0
281
     0
  0
CLASS
  1
ACMBOMSTANDARDISO
  2
AcmBOMStdISO
  3
"Amdt_StdImp|Product Description: AutoCAD Mechanical|Company: Autodesk, Inc."
 90
     1024
280
     0
281
     0
  0
CLASS
  1
AMDTBROWSERDBTAB
  2
AmdtBrowserDbTab
  3
McadcomServices
 90
     1024
280
     0
281
     0
  0
CLASS
  1
ACAMGFILTERDAT
  2
AcAmgFilterDat
  3
"AcadM|Product Description: AutoCAD Mechanical|Company: Autodesk, Inc."
 90
     1024
280
     0
281
     0
  0
CLASS
  1
MAPIAMMOUDLE
  2
MApiAmModule
  3
MApiAmServices
 90
     1024
280
     0
281
     0
  0
CLASS
  1
AMDTMAPISURFMOUDULE
  2
AmdtMApiSurfModule
  3
MApiSurfServices
 90
    33792
280
     0
281
     0
  0
CLASS
  1
ACAMGLAYSTD
  2
AcAmgLayStd
  3
"AmgLay|Product Description: AutoCAD Mechanical|Company: Autodesk, Inc."
 90
     1024
280
     0
281
     0
  0
CLASS
  1
ACAMGDIMSTD
  2
AcAmgDimStd
  3
"AmgDim|Product Description: AutoCAD Mechanical|Company: Autodesk, Inc."
 90
     1024
280
     0
281
     0
  0
CLASS
  1
ACAMGTITLESTD
  2
AcAmgTitleStd
  3
"AmgTitle|Product Description: AutoCAD Mechanical|Company: Autodesk, Inc."
 90
     4095
280
     0
281
     0
  0
CLASS
  1
ACMDETAILSTANDARDJIS
  2
AmdtDetailSymStdJIS
  3
"Amdt_StdImp|Product Description: AutoCAD Mechanical|Company: Autodesk, Inc."
 90
    33792
280
     0
281
     0
  0
CLASS
  1
ACMSECTIONSTANDARDJIS
  2
AmdtSectionSymStdJIS
  3
"Amdt_StdImp|Product Description: AutoCAD Mechanical|Company: Autodesk, Inc."
 90
    33792
280
     0
281
     0
  0
CLASS
  1
ACMCENTERLINESTANDARDJIS
  2
AmdtCenterLineStdJIS
  3
"Amdt_StdImp|Product Description: AutoCAD Mechanical|Company: Autodesk, Inc."
 90
    33792
280
     0
281
     0
  0
CLASS
  1
ACMTHREADLINESTANDARDJIS
  2
AmdtThreadLineStdJIS
  3
"Amdt_StdImp|Product Description: AutoCAD Mechanical|Company: Autodesk, Inc."
 90
    33792
280
     0
281
     0
  0
CLASS
  1
ACMDETAILSTANDARDANSI
  2
AmdtDetailSymStdANSI
  3
"Amdt_StdImp|Product Description: AutoCAD Mechanical|Company: Autodesk, Inc."
 90
     1024
280
     0
281
     0
  0
CLASS
  1
ACMSECTIONSTANDARDANSI
  2
AmdtSectionSymStdANSI
  3
"Amdt_StdImp|Product Description: AutoCAD Mechanical|Company: Autodesk, Inc."
 90
     1024
280
     0
281
     0
  0
CLASS
  1
ACMCENTERLINESTANDARDANSI
  2
AmdtCenterLineStdANSI
  3
"Amdt_StdImp|Product Description: AutoCAD Mechanical|Company: Autodesk, Inc."
 90
     1024
280
     0
281
     0
  0
CLASS
  1
ACMTHREADLINESTANDARDANSI
  2
AmdtThreadLineStdANSI
  3
"Amdt_StdImp|Product Description: AutoCAD Mechanical|Company: Autodesk, Inc."
 90
     1024
280
     0
281
     0
  0
CLASS
  1
ACMDETAILSTANDARDBSI
  2
AmdtDetailSymStdBSI
  3
"Amdt_StdImp|Product Description: AutoCAD Mechanical|Company: Autodesk, Inc."
 90
    33792
280
     0
281
     0
  0
CLASS
  1
ACMSECTIONSTANDARDBSI
  2
AmdtSectionSymStdBSI
  3
"Amdt_StdImp|Product Description: AutoCAD Mechanical|Company: Autodesk, Inc."
 90
    33792
280
     0
281
     0
  0
CLASS
  1
ACMCENTERLINESTANDARDBSI
  2
AmdtCenterLineStdBSI
  3
"Amdt_StdImp|Product Description: AutoCAD Mechanical|Company: Autodesk, Inc."
 90
    33792
280
     0
281
     0
  0
CLASS
  1
ACMTHREADLINESTANDARDBSI
  2
AmdtThreadLineStdBSI
  3
"Amdt_StdImp|Product Description: AutoCAD Mechanical|Company: Autodesk, Inc."
 90
    33792
280
     0
281
     0
  0
CLASS
  1
ACMDETAILSTANDARDDIN
  2
AmdtDetailSymStdDIN
  3
"Amdt_StdImp|Product Description: AutoCAD Mechanical|Company: Autodesk, Inc."
 90
    33792
280
     0
281
     0
  0
CLASS
  1
ACMSECTIONSTANDARDDIN
  2
AmdtSectionSymStdDIN
  3
"Amdt_StdImp|Product Description: AutoCAD Mechanical|Company: Autodesk, Inc."
 90
    33792
280
     0
281
     0
  0
CLASS
  1
ACMCENTERLINESTANDARDDIN
  2
AmdtCenterLineStdDIN
  3
"Amdt_StdImp|Product Description: AutoCAD Mechanical|Company: Autodesk, Inc."
 90
    33792
280
     0
281
     0
  0
CLASS
  1
ACMTHREADLINESTANDARDDIN
  2
AmdtThreadLineStdDIN
  3
"Amdt_StdImp|Product Description: AutoCAD Mechanical|Company: Autodesk, Inc."
 90
    33792
280
     0
281
     0
  0
CLASS
  1
AMDTEDGESTANDARDISO
  2
AmdtEdgeStdISO
  3
"Amdt_StdImp|Product Description: AutoCAD Mechanical|Company: Autodesk, Inc."
 90
     1024
280
     0
281
     0
  0
CLASS
  1
ACMDETAILSTANDARDISO
  2
AmdtDetailSymStdISO
  3
"Amdt_StdImp|Product Description: AutoCAD Mechanical|Company: Autodesk, Inc."
 90
     1024
280
     0
281
     0
  0
CLASS
  1
ACMSECTIONSTANDARDISO
  2
AmdtSectionSymStdISO
  3
"Amdt_StdImp|Product Description: AutoCAD Mechanical|Company: Autodesk, Inc."
 90
     1024
280
     0
281
     0
  0
CLASS
  1
ACMCENTERLINESTANDARDISO
  2
AmdtCenterLineStdISO
  3
"Amdt_StdImp|Product Description: AutoCAD Mechanical|Company: Autodesk, Inc."
 90
     1024
280
     0
281
     0
  0
CLASS
  1
ACMTHREADLINESTANDARDISO
  2
AmdtThreadLineStdISO
  3
"Amdt_StdImp|Product Description: AutoCAD Mechanical|Company: Autodesk, Inc."
 90
     1024
280
     0
281
     0
  0
CLASS
  1
ACMNOTESTANDARDISO
  2
AmdtNoteStdISO
  3
"Amdt_StdImp|Product Description: AutoCAD Mechanical|Company: Autodesk, Inc."
 90
     1024
280
     0
281
     0
  0
CLASS
  1
ACAMGHOLECHARTSTDISO
  2
AcAmgHoleChartStdISO
  3
AmgDim|Product Description: AutoCAD Mechanical|Company: Autodesk, Inc.
 90
     1024
280
     0
281
     0
  0
CLASS
  1
ACMNOTESTANDARDANSI
  2
AmdtNoteStdANSI
  3
"Amdt_StdImp|Product Description: AutoCAD Mechanical|Company: Autodesk, Inc."
 90
     1024
280
     0
281
     0
  0
CLASS
  1
AMDTNOTETEMPLATEDB
  2
AmdtNoteTemplateDB
  3
AcmSymBB|Product Description: AutoCAD Mechanical|Company: Autodesk, Inc.
 90
     1024
280
     0
281
     0
  0
CLASS
  1
ACAMGHOLECHARTSTDANSI
  2
AcAmgHoleChartStdANSI
  3
AmgDim|Product Description: AutoCAD Mechanical|Company: Autodesk, Inc.
 90
     1024
280
     0
281
     0
  0
CLASS
  1
TABLESTYLE
  2
AcDbTableStyle
  3
ObjectDBX Classes
 90
     4095
280
     0
281
     0
  0
CLASS
  1
ACAD_TABLE
  2
AcDbTable
  3
ObjectDBX Classes
 90
    33793
280
     0
281
     1
  0
CLASS
  1
MATERIAL
  2
AcDbMaterial
  3
ObjectDBX Classes
 90
     1153
280
     0
281
     0
  0
CLASS
  1
VISUALSTYLE
  2
AcDbVisualStyle
  3
ObjectDBX Classes
 90
     4095
280
     0
281
     0
  0
CLASS
  1
SCALE
  2
AcDbScale
  3
ObjectDBX Classes
 90
     1153
280
     0
281
     0
  0
CLASS
  1
MLEADERSTYLE
  2
AcDbMLeaderStyle
  3
ACDB_MLEADERSTYLE_CLASS
 90
     4095
280
     0
281
     0
  0
CLASS
  1
ACRFATTGENMGR
  2
AcRfAttGeneralMgr
  3
AcAttribServices
 90
     1024
280
     0
281
     0
  0
CLASS
  1
ACRFOBJATTMGR
  2
AcRfObjAttGroupMgr
  3
AcAttribServices
 90
     1024
280
     0
281
     0
  0
CLASS
  1
ACRFMCADAPIATTHOLDER
  2
AcRfMCADAPIAttHolder
  3
AcAttribServices
 90
     1024
280
     0
281
     0
  0
CLASS
  1
AMDTSYSATTR
  2
AmdtSystemAttribute
  3
AcAttribServices
 90
     1024
280
     0
281
     0
  0
CLASS
  1
ACMTAPERSTANDARDISO
  2
AcmTaperStdISO
  3
"Amdt_StdImp|Product Description: AutoCAD Mechanical|Company: Autodesk, Inc."
 90
     1024
280
     0
281
     0
  0
CLASS
  1
ACMANOOTATIONVIEWSTANDARDISO
  2
AmdtAnViewStdISO
  3
"Amdt_StdImp|Product Description: AutoCAD Mechanical|Company: Autodesk, Inc."
 90
     1024
280
     0
281
     0
  0
CLASS
  1
ACMTAPERSTANDARDANSI
  2
AcmTaperStdANSI
  3
"Amdt_StdImp|Product Description: AutoCAD Mechanical|Company: Autodesk, Inc."
 90
     1024
280
     0
281
     0
  0
CLASS
  1
ACMANOOTATIONVIEWSTANDARDANSI
  2
AmdtAnViewStdANSI
  3
"Amdt_StdImp|Product Description: AutoCAD Mechanical|Company: Autodesk, Inc."
 90
     1024
280
     0
281
     0
  0
CLASS
  1
CELLSTYLEMAP
  2
AcDbCellStyleMap
  3
ObjectDBX Classes
 90
     1152
280
     0
281
     0
  0
CLASS
  1
CAMSSTRUCTBTNSTATE
  2
StructBtnState
  3
DesignerAssemblies
 90
    33792
280
     0
281
     0
  0
CLASS
  1
DIMASSOC
  2
AcDbDimAssoc
  3
"AcDbDimAssoc|Product Desc:     AcDim ARX App For Dimension|Company:          Autodesk, Inc.|WEB Address:      www.autodesk.com"
 90
        0
280
     0
281
     0
  0
CLASS
  1
SORTENTSTABLE
  2
AcDbSortentsTable
  3
ObjectDBX Classes
 90
        0
280
     0
281
     0
  0
CLASS
  1
AEC_REFEDIT_STATUS_TRACKER
  2
AecDbRefEditStatusTracker
  3
AecArchBase50|Product Desc: Autodesk Architectural Desktop 2007 |Company: Autodesk,Inc. |WEB Address: www.autodesk.com
 90
      129
280
     0
281
     0
  0
CLASS
  1
NPOCOLLECTION
  2
AcDbImpNonPersistentObjectsCollection
  3
ObjectDBX Classes
 90
     1153
280
     0
281
     0
  0
ENDSEC
  0
SECTION
  2
TABLES
  0
TABLE
  2
VPORT
  5
8
330
0
100
AcDbSymbolTable
 70
     1
  0
VPORT
  5
A35
330
8
100
AcDbSymbolTableRecord
100
AcDbViewportTableRecord
  2
*Active
 70
     0
 10
0.0
 20
0.0
 11
1.0
 21
1.0
 12
-47.2861379817013
 22
-12.22718067169148
 13
0.0
 23
0.0
 14
2.5
 24
2.5
 15
10.0
 25
10.0
 16
0.0
 26
0.0
 36
1.0
 17
250.6293714675774
 27
130.0308763777141
 37
0.0
 40
442.5427944901887
 41
1.262690355329949
 42
50.0
 43
0.0
 44
0.0
 50
0.0
 51
0.0
 71
     0
 72
   100
 73
     1
 74
     1
 75
     0
 76
     0
 77
     0
 78
     0
281
     0
 65
     0
110
0.0
120
0.0
130
0.0
111
1.0
121
0.0
131
0.0
112
0.0
122
1.0
132
0.0
 79
     0
146
0.0
  0
ENDTAB
  0
TABLE
  2
LTYPE
  5
5
330
0
100
AcDbSymbolTable
 70
    21
  0
LTYPE
  5
14
330
5
100
AcDbSymbolTableRecord
100
AcDbLinetypeTableRecord
  2
BYBLOCK
 70
     0
  3

 72
    65
 73
     0
 40
0.0
  0
LTYPE
  5
15
330
5
100
AcDbSymbolTableRecord
100
AcDbLinetypeTableRecord
  2
BYLAYER
 70
     0
  3

 72
    65
 73
     0
 40
0.0
  0
LTYPE
  5
16
330
5
100
AcDbSymbolTableRecord
100
AcDbLinetypeTableRecord
  2
CONTINUOUS
 70
     0
  3
Solid line
 72
    65
 73
     0
 40
0.0
  0
LTYPE
  5
BD
330
5
100
AcDbSymbolTableRecord
100
AcDbLinetypeTableRecord
  2
HIDDEN
 70
     0
  3
__ __ __ __ __ __ __ __ __ __ __ __ __ __ __ __
 72
    65
 73
     2
 40
0.375
 49
0.25
 74
     0
 49
-0.125
 74
     0
  0
LTYPE
  5
BF
330
5
100
AcDbSymbolTableRecord
100
AcDbLinetypeTableRecord
  2
PHANTOM2
 70
     0
  3
___ _ _ ___ _ _ ___ _ _ ___ _ _ ___ _ _ ___ _ _
 72
    65
 73
     6
 40
1.25
 49
0.625
 74
     0
 49
-0.125
 74
     0
 49
0.125
 74
     0
 49
-0.125
 74
     0
 49
0.125
 74
     0
 49
-0.125
 74
     0
  0
LTYPE
  5
CA
330
5
100
AcDbSymbolTableRecord
100
AcDbLinetypeTableRecord
  2
CENTER
 70
     0
  3
____ _ ____ _ ____ _ ____ _ ____ _ ____ _ ____ 
 72
    65
 73
     4
 40
2.0
 49
1.25
 74
     0
 49
-0.25
 74
     0
 49
0.25
 74
     0
 49
-0.25
 74
     0
  0
LTYPE
  5
14D
330
5
100
AcDbSymbolTableRecord
100
AcDbLinetypeTableRecord
  2
ACANSTGB
 70
     0
  3
__ . . __ . .
 72
    65
 73
     6
 40
0.35433070866
 49
0.15748031496
 74
     0
 49
-0.03937007874
 74
     0
 49
0.03937007874
 74
     0
 49
-0.03937007874
 74
     0
 49
0.03937007874
 74
     0
 49
-0.03937007874
 74
     0
  0
LTYPE
  5
14E
330
5
100
AcDbSymbolTableRecord
100
AcDbLinetypeTableRecord
  2
ACANSTGL
 70
     0
  3
_ _ _ _ _
 72
    65
 73
     2
 40
0.11811023622
 49
0.07874015748
 74
     0
 49
-0.03937007874
 74
     0
  0
LTYPE
  5
15B
330
5
100
AcDbSymbolTableRecord
100
AcDbLinetypeTableRecord
  2
ACISOWELD
 70
     0
  3
_ _ _ _ _
 72
    65
 73
     2
 40
2.0
 49
2.0
 74
     0
 49
-1.0
 74
     0
  0
LTYPE
  5
15C
330
5
100
AcDbSymbolTableRecord
100
AcDbLinetypeTableRecord
  2
ACISOTGB
 70
     0
  3
__ . . __ . .
 72
    65
 73
     6
 40
9.0
 49
4.0
 74
     0
 49
-1.0
 74
     0
 49
1.0
 74
     0
 49
-1.0
 74
     0
 49
1.0
 74
     0
 49
-1.0
 74
     0
  0
LTYPE
  5
15D
330
5
100
AcDbSymbolTableRecord
100
AcDbLinetypeTableRecord
  2
ACISOTGL
 70
     0
  3
_ _ _ _ _
 72
    65
 73
     2
 40
3.0
 49
2.0
 74
     0
 49
-1.0
 74
     0
  0
LTYPE
  5
175
330
5
100
AcDbSymbolTableRecord
100
AcDbLinetypeTableRecord
  2
AM_ISO02W050
 70
     0
  3
__ __ __ __ __ __ __ __ __ __ __ __ __ __ __
 72
    65
 73
     2
 40
7.5
 49
6.0
 74
     0
 49
-1.5
 74
     0
  0
LTYPE
  5
176
330
5
100
AcDbSymbolTableRecord
100
AcDbLinetypeTableRecord
  2
AM_ISO08W050
 70
     0
  3
____ . ____ . ____ . ____ . ____ . ____ . ____
 72
    65
 73
     4
 40
18.0
 49
12.0
 74
     0
 49
-1.5
 74
     0
 49
3.0
 74
     0
 49
-1.5
 74
     0
  0
LTYPE
  5
177
330
5
100
AcDbSymbolTableRecord
100
AcDbLinetypeTableRecord
  2
AM_ISO09W050
 70
     0
  3
_____ . . _____ . . _____ . . ____ .. ____
 72
    65
 73
     6
 40
22.5
 49
12.0
 74
     0
 49
-1.5
 74
     0
 49
3.0
 74
     0
 49
-1.5
 74
     0
 49
3.0
 74
     0
 49
-1.5
 74
     0
  0
LTYPE
  5
178
330
5
100
AcDbSymbolTableRecord
100
AcDbLinetypeTableRecord
  2
AM_ISO02W050x2
 70
     0
  3
 _ _ _ _ _ _ _ _ _ _ _ _
 72
    65
 73
     2
 40
3.75
 49
3.0
 74
     0
 49
-0.75
 74
     0
  0
LTYPE
  5
179
330
5
100
AcDbSymbolTableRecord
100
AcDbLinetypeTableRecord
  2
AM_ISO08W050x2
 70
     0
  3
__ . __ . __ . __ . __ . __
 72
    65
 73
     4
 40
9.0
 49
6.0
 74
     0
 49
-0.75
 74
     0
 49
1.5
 74
     0
 49
-0.75
 74
     0
  0
LTYPE
  5
17C
330
5
100
AcDbSymbolTableRecord
100
AcDbLinetypeTableRecord
  2
Amzigzag
 70
     0
  3
/\/-/\/-/\/-/\/-/\/-/\/
 72
    65
 73
     2
 40
11.0001
 49
0.0001
 74
     4
 75
   135
340
17B
 46
0.04
 50
0.0
 44
0.0
 45
0.0
 49
-11.0
 74
     0
  0
LTYPE
  5
2ED
330
5
100
AcDbSymbolTableRecord
100
AcDbLinetypeTableRecord
  2
Amconstr
 70
     0
  3
_______________________
 72
    65
 73
     2
 40
9999.0
 49
9999.0
 74
     0
 49
0.0
 74
     0
  0
LTYPE
  5
2F8
330
5
100
AcDbSymbolTableRecord
100
AcDbLinetypeTableRecord
  2
CENTER2
 70
     0
  3
Center (.5x) ___ _ ___ _ ___ _ ___ _ ___ _ ___
 72
    65
 73
     4
 40
1.125
 49
0.75
 74
     0
 49
-0.125
 74
     0
 49
0.125
 74
     0
 49
-0.125
 74
     0
  0
LTYPE
  5
2F9
330
5
100
AcDbSymbolTableRecord
100
AcDbLinetypeTableRecord
  2
HIDDEN2
 70
     0
  3
Hidden (.5x) _ _ _ _ _ _ _ _ _ _ _ _ _ _ _ _ _
 72
    65
 73
     2
 40
0.1875
 49
0.125
 74
     0
 49
-0.0625
 74
     0
  0
LTYPE
  5
2FA
330
5
100
AcDbSymbolTableRecord
100
AcDbLinetypeTableRecord
  2
Amzigzag2
 70
     0
  3
/\/-/\/-/\/-/\/-/\/-/\/
 72
    65
 73
     2
 40
0.4401
 49
0.0001
 74
     4
 75
   135
340
17B
 46
0.0016
 50
0.0
 44
0.0
 45
0.0
 49
-0.4400000000000001
 74
     0
  0
ENDTAB
  0
TABLE
  2
LAYER
  5
2
102
{ACAD_XDICTIONARY
360
592
102
}
330
0
100
AcDbSymbolTable
 70
    10
  0
LAYER
  5
F
102
{ACAD_XDICTIONARY
360
AB7
102
}
330
2
100
AcDbSymbolTableRecord
100
AcDbLayerTableRecord
  2
0
 70
     0
 62
     7
  6
CONTINUOUS
370
    -3
390
166
  0
LAYER
  5
5CF
102
{ACAD_XDICTIONARY
360
AB9
102
}
330
2
100
AcDbSymbolTableRecord
100
AcDbLayerTableRecord
  2
AM_0
 70
     0
 62
     7
  6
CONTINUOUS
370
    50
390
166
  0
LAYER
  5
C7A
102
{ACAD_XDICTIONARY
360
139F
102
}
330
2
100
AcDbSymbolTableRecord
100
AcDbLayerTableRecord
  2
AM_5
 70
     0
 62
     3
  6
CONTINUOUS
370
    25
390
166
1001
AcAecLayerStandard
1000

1000

  0
LAYER
  5
D15
102
{ACAD_XDICTIONARY
360
13A1
102
}
330
2
100
AcDbSymbolTableRecord
100
AcDbLayerTableRecord
  2
Visible Edges(ISO)
 70
     0
 62
     7
  6
CONTINUOUS
370
    35
390
166
  0
LAYER
  5
D16
102
{ACAD_XDICTIONARY
360
13A3
102
}
330
2
100
AcDbSymbolTableRecord
100
AcDbLayerTableRecord
  2
Visible Tangent Edges(ISO)
 70
     0
 62
     7
  6
CONTINUOUS
370
    25
390
166
  0
LAYER
  5
D17
330
2
100
AcDbSymbolTableRecord
100
AcDbLayerTableRecord
  2
Defpoints
 70
     0
 62
     7
  6
CONTINUOUS
290
     0
370
    -3
390
166
  0
ENDTAB
  0
TABLE
  2
STYLE
  5
3
330
0
100
AcDbSymbolTable
 70
     9
  0
STYLE
  5
10
330
3
100
AcDbSymbolTableRecord
100
AcDbTextStyleTableRecord
  2
STANDARD
 70
     0
 40
0.0
 41
1.0
 50
0.0
 71
     0
 42
3.5
  3
ISOCP.SHX
  4

  0
STYLE
  5
14C
330
3
100
AcDbSymbolTableRecord
100
AcDbTextStyleTableRecord
  2
ACANSGDT
 70
     0
 40
0.0
 41
1.0
 50
0.0
 71
     0
 42
3.5
  3
amgdt.shx
  4

  0
STYLE
  5
159
330
3
100
AcDbSymbolTableRecord
100
AcDbTextStyleTableRecord
  2
ACISOTS
 70
     0
 40
1.0
 41
1.0
 50
0.0
 71
     0
 42
2.5
  3
isocp.shx
  4

  0
STYLE
  5
15A
330
3
100
AcDbSymbolTableRecord
100
AcDbTextStyleTableRecord
  2
ACISOGDT
 70
     0
 40
0.0
 41
1.0
 50
0.0
 71
     0
 42
2.5
  3
amgdt.shx
  4

  0
STYLE
  5
17B
330
3
100
AcDbSymbolTableRecord
100
AcDbTextStyleTableRecord
  2

 70
     1
 40
0.0
 41
1.0
 50
0.0
 71
     0
 42
3.5
  3
ltypeshp.shx
  4

  0
STYLE
  5
425
330
3
100
AcDbSymbolTableRecord
100
AcDbTextStyleTableRecord
  2
ACANSTS
 70
     0
 40
1.0
 41
1.0
 50
0.0
 71
     0
 42
3.5
  3
romans.shx
  4

  0
ENDTAB
  0
TABLE
  2
VIEW
  5
6
330
0
100
AcDbSymbolTable
 70
     3
  0
VIEW
  5
1C8
330
6
100
AcDbSymbolTableRecord
100
AcDbViewTableRecord
  2
AMDTVIEW1
 70
     0
 40
329.0721649484536
 10
210.0
 20
164.5360824742268
 41
420.0
 11
0.0
 21
0.0
 31
1.0
 12
0.0
 22
0.0
 32
0.0
 42
50.0
 43
0.0
 44
0.0
 50
0.0
 71
     0
281
     0
 72
     0
  0
VIEW
  5
1C9
330
6
100
AcDbSymbolTableRecord
100
AcDbViewTableRecord
  2
AMDTVIEW2
 70
     0
 40
329.0721649484536
 10
210.0
 20
164.5360824742268
 41
420.0
 11
0.0
 21
0.0
 31
1.0
 12
0.0
 22
0.0
 32
0.0
 42
50.0
 43
0.0
 44
0.0
 50
0.0
 71
     0
281
     0
 72
     0
  0
VIEW
  5
1CA
330
6
100
AcDbSymbolTableRecord
100
AcDbViewTableRecord
  2
AMDTVIEW3
 70
     0
 40
329.0721649484536
 10
210.0
 20
164.5360824742268
 41
420.0
 11
0.0
 21
0.0
 31
1.0
 12
0.0
 22
0.0
 32
0.0
 42
50.0
 43
0.0
 44
0.0
 50
0.0
 71
     0
281
     0
 72
     0
  0
ENDTAB
  0
TABLE
  2
UCS
  5
7
330
0
100
AcDbSymbolTable
 70
     0
  0
ENDTAB
  0
TABLE
  2
APPID
  5
9
330
0
100
AcDbSymbolTable
 70
    23
  0
APPID
  5
11
330
9
100
AcDbSymbolTableRecord
100
AcDbRegAppTableRecord
  2
ACAD
 70
     0
  0
APPID
  5
CD
330
9
100
AcDbSymbolTableRecord
100
AcDbRegAppTableRecord
  2
AD_DRAW
 70
     0
  0
APPID
  5
E7
330
9
100
AcDbSymbolTableRecord
100
AcDbRegAppTableRecord
  2
DESIGNERASSEMBLIES
 70
     0
  0
APPID
  5
EB
330
9
100
AcDbSymbolTableRecord
100
AcDbRegAppTableRecord
  2
MCAD_NO_VIS
 70
     0
  0
APPID
  5
122
330
9
100
AcDbSymbolTableRecord
100
AcDbRegAppTableRecord
  2
ASURF_PCURVE_APPNAME
 70
     0
  0
APPID
  5
17F
330
9
100
AcDbSymbolTableRecord
100
AcDbRegAppTableRecord
  2
ACAD_TEMP_GRAPHIC
 70
     0
  0
APPID
  5
189
330
9
100
AcDbSymbolTableRecord
100
AcDbRegAppTableRecord
  2
ACATTRIBSERVICES
 70
     0
  0
APPID
  5
1C4
330
9
100
AcDbSymbolTableRecord
100
AcDbRegAppTableRecord
  2
ACADM_DIM_EDIT
 70
     0
  0
APPID
  5
1D5
330
9
100
AcDbSymbolTableRecord
100
AcDbRegAppTableRecord
  2
GENIUS_GENDIM_13
 70
     0
  0
APPID
  5
1D6
330
9
100
AcDbSymbolTableRecord
100
AcDbRegAppTableRecord
  2
GENIUS_GENDTOL_13
 70
     0
  0
APPID
  5
1D7
330
9
100
AcDbSymbolTableRecord
100
AcDbRegAppTableRecord
  2
GENIUS_GE3DTOL_13
 70
     0
  0
APPID
  5
2E9
330
9
100
AcDbSymbolTableRecord
100
AcDbRegAppTableRecord
  2
AMG_3D2D_5.0
 70
     0
  0
APPID
  5
3C0
330
9
100
AcDbSymbolTableRecord
100
AcDbRegAppTableRecord
  2
AMDT_DM_ADJ
 70
     0
  0
APPID
  5
82F
330
9
100
AcDbSymbolTableRecord
100
AcDbRegAppTableRecord
  2
ACAD_PSEXT
 70
     0
  0
APPID
  5
84A
330
9
100
AcDbSymbolTableRecord
100
AcDbRegAppTableRecord
  2
DCO15
 70
     0
  0
APPID
  5
892
330
9
100
AcDbSymbolTableRecord
100
AcDbRegAppTableRecord
  2
ACAD_DSTYLE_DIMTEXT_FILL
 70
     0
  0
APPID
  5
A74
330
9
100
AcDbSymbolTableRecord
100
AcDbRegAppTableRecord
  2
ACAD_MLEADERVER
 70
     0
  0
APPID
  5
AB1
330
9
100
AcDbSymbolTableRecord
100
AcDbRegAppTableRecord
  2
AcAecLayerStandard
 70
     0
  0
APPID
  5
D1A
330
9
100
AcDbSymbolTableRecord
100
AcDbRegAppTableRecord
  2
ACAD_DSTYLE_DIMINSPECT
 70
     0
  0
APPID
  5
13B4
330
9
100
AcDbSymbolTableRecord
100
AcDbRegAppTableRecord
  2
AcDbAttr
 70
     0
  0
APPID
  5
14CF
330
9
100
AcDbSymbolTableRecord
100
AcDbRegAppTableRecord
  2
GENIUS_GENSCREG_15
 70
     0
  0
APPID
  5
14D0
330
9
100
AcDbSymbolTableRecord
100
AcDbRegAppTableRecord
  2
GENIUS_GENODEF_13
 70
     0
  0
APPID
  5
14D1
330
9
100
AcDbSymbolTableRecord
100
AcDbRegAppTableRecord
  2
GENIUS_GENOBJ-N-SDF_13
 70
     0
  0
ENDTAB
  0
TABLE
  2
DIMSTYLE
  5
A
330
0
100
AcDbSymbolTable
 70
    15
100
AcDbDimStyleTable
 71
     2
340
344
340
31B
  0
DIMSTYLE
105
31C
330
A
100
AcDbSymbolTableRecord
100
AcDbDimStyleTableRecord
  2
AM_ANSI$3
 70
     0
  4
mm
 41
0.1
 42
0.05
 43
0.5
 44
0.1
 47
0.1
 48
0.1
 78
     7
 79
     2
140
0.12
141
0.0
146
0.71
147
0.06
176
   256
177
   256
178
     2
274
     4
284
     7
288
     1
289
     0
340
10
371
    -1
372
    -1
  0
DIMSTYLE
105
31D
330
A
100
AcDbSymbolTableRecord
100
AcDbDimStyleTableRecord
  2
AM_ANSI$4
 70
     0
  4
mm
 41
0.1
 42
0.05
 43
0.5
 44
0.1
 47
0.1
 48
0.1
 78
     7
 79
     2
140
0.12
141
0.0
146
0.71
147
0.06
176
   256
177
   256
178
     2
274
     4
284
     7
288
     1
289
     0
340
10
371
    -1
372
    -1
  0
DIMSTYLE
105
31E
330
A
100
AcDbSymbolTableRecord
100
AcDbDimStyleTableRecord
  2
AM_ANSI$7
 70
     0
  4
mm
 41
0.1
 42
0.05
 43
0.5
 44
0.1
 47
0.1
 48
0.1
 78
     7
 79
     2
140
0.24
141
0.0
146
0.71
147
0.06
176
   256
177
   256
178
     2
274
     4
284
     7
340
10
371
    -1
372
    -1
  0
DIMSTYLE
105
31F
330
A
100
AcDbSymbolTableRecord
100
AcDbDimStyleTableRecord
  2
AM_ANSI$SF
 70
     0
  4
mm
 41
0.1
 42
0.05
 43
0.5
 44
0.1
 47
0.1
 48
0.1
 75
     1
 76
     1
 78
     7
 79
     2
140
0.12
141
0.0
146
0.71
147
0.06
176
   256
177
   256
178
     2
274
     4
284
     7
340
10
371
    -1
372
    -1
  0
DIMSTYLE
105
320
330
A
100
AcDbSymbolTableRecord
100
AcDbDimStyleTableRecord
  2
AM_ANSI$SH
 70
     0
  4
mm
 41
0.1
 42
0.05
 43
0.5
 44
0.1
 47
0.1
 48
0.1
 75
     1
 76
     1
 78
     7
 79
     2
140
0.12
141
0.0
146
0.71
147
0.06
173
     1
176
   256
177
   256
178
     2
274
     4
284
     7
340
10
343
2F4
371
    -1
372
    -1
  0
DIMSTYLE
105
344
330
A
100
AcDbSymbolTableRecord
100
AcDbDimStyleTableRecord
  2
AM_ISO
 70
     0
  4
"
 41
2.5
 42
1.0
 43
10.0
 44
1.0
 47
0.1
 48
0.1
 73
     0
 74
     0
 77
     1
 78
     8
 79
     2
140
3.5
141
0.0
143
0.0393701
146
0.71
147
1.5
171
     3
172
     1
176
   256
177
   256
178
     2
271
     2
272
     2
274
     3
283
     0
284
     8
340
10
371
    -1
372
    -1
  0
DIMSTYLE
105
345
330
A
100
AcDbSymbolTableRecord
100
AcDbDimStyleTableRecord
  2
AM_ISO$3
 70
     0
  4
"
 41
2.5
 42
1.0
 43
10.0
 44
1.0
 47
0.1
 48
0.1
 73
     0
 77
     1
 78
     8
 79
     2
140
3.5
141
0.0
143
0.0393701
146
0.71
147
1.5
176
   256
177
   256
178
     2
271
     2
272
     3
274
     4
283
     0
284
     8
288
     1
289
     0
340
10
371
    -1
372
    -1
  0
DIMSTYLE
105
346
330
A
100
AcDbSymbolTableRecord
100
AcDbDimStyleTableRecord
  2
AM_ISO$4
 70
     0
  4
"
 41
2.5
 42
1.0
 43
10.0
 44
1.0
 47
0.1
 48
0.1
 73
     0
 77
     1
 78
     8
 79
     2
140
3.5
141
0.0
143
0.0393701
146
0.71
147
1.5
176
   256
177
   256
178
     2
271
     2
272
     3
274
     4
283
     0
284
     8
288
     1
289
     0
340
10
371
    -1
372
    -1
  0
DIMSTYLE
105
347
330
A
100
AcDbSymbolTableRecord
100
AcDbDimStyleTableRecord
  2
AM_ISO$6
 70
     0
  4
"
 41
2.5
 42
1.0
 43
10.0
 44
1.0
 47
0.1
 48
0.1
 73
     0
 74
     0
 78
     8
 79
     2
140
3.5
141
0.0
143
0.0393701
146
0.71
147
1.5
172
     1
176
   256
177
   256
178
     2
271
     2
272
     3
274
     4
283
     0
284
     8
340
10
371
    -1
372
    -1
  0
DIMSTYLE
105
348
330
A
100
AcDbSymbolTableRecord
100
AcDbDimStyleTableRecord
  2
AM_ISO$7
 70
     0
  4
"
 41
2.5
 42
1.0
 43
10.0
 44
1.0
 47
0.1
 48
0.1
 73
     0
 74
     0
 77
     1
 78
     8
 79
     2
140
5.0
141
0.0
143
0.0393701
146
0.71
147
1.5
172
     1
176
   256
177
   256
178
     2
271
     2
272
     3
274
     4
283
     0
284
     8
340
10
371
    -1
372
    -1
  0
DIMSTYLE
105
349
330
A
100
AcDbSymbolTableRecord
100
AcDbDimStyleTableRecord
  2
AM_ISO$SF
 70
     0
  4
"
 41
2.5
 42
1.0
 43
10.0
 44
1.0
 47
0.1
 48
0.1
 73
     0
 74
     0
 75
     1
 76
     1
 77
     1
 78
     8
 79
     2
140
3.5
141
0.0
143
0.0393701
146
0.71
147
1.5
172
     1
176
   256
177
   256
178
     2
271
     2
272
     3
274
     4
283
     0
284
     8
340
10
371
    -1
372
    -1
  0
DIMSTYLE
105
34A
330
A
100
AcDbSymbolTableRecord
100
AcDbDimStyleTableRecord
  2
AM_ISO$SH
 70
     0
  4
"
 41
2.5
 42
1.0
 43
10.0
 44
1.0
 47
0.1
 48
0.1
 73
     0
 74
     0
 75
     1
 76
     1
 77
     1
 78
     8
 79
     2
140
3.5
141
0.0
143
0.0393701
144
2.0
146
0.71
147
1.5
172
     1
173
     1
176
   256
177
   256
178
     2
271
     2
272
     3
274
     4
283
     0
284
     8
340
10
343
2F4
371
    -1
372
    -1
  0
DIMSTYLE
105
31B
330
A
100
AcDbSymbolTableRecord
100
AcDbDimStyleTableRecord
  2
AM_ANSI
 70
     0
  4
mm
 41
0.1
 42
0.05
 43
0.5
 44
0.1
 47
0.1
 48
0.1
 78
     7
 79
     2
140
0.12
141
0.0
146
0.71
147
0.06
176
   256
177
   256
178
     2
274
     4
284
     7
340
10
371
    -1
372
    -1
  0
DIMSTYLE
105
D18
330
A
100
AcDbSymbolTableRecord
100
AcDbDimStyleTableRecord
  2
Standard
 70
     0
340
10
  0
ENDTAB
  0
TABLE
  2
BLOCK_RECORD
  5
1
330
0
100
AcDbSymbolTable
 70
    17
  0
BLOCK_RECORD
  5
1A
102
{ACAD_XDICTIONARY
360
12A
102
}
330
1
100
AcDbSymbolTableRecord
100
AcDbBlockTableRecord
  2
*MODEL_SPACE
340
169
  0
BLOCK_RECORD
  5
17
330
1
100
AcDbSymbolTableRecord
100
AcDbBlockTableRecord
  2
*PAPER_SPACE
340
16A
  0
BLOCK_RECORD
  5
2F4
330
1
100
AcDbSymbolTableRecord
100
AcDbBlockTableRecord
  2
GENAXEH
340
0
  0
BLOCK_RECORD
  5
CDF
330
1
100
AcDbSymbolTableRecord
100
AcDbBlockTableRecord
  2
info
340
0
310
2800000020000000200000000100080000000000000400000000000000000000000000000000000000000000000080000080000000808000800000008000800080800000C0C0C000C0DCC000F0CAA6000020400000206000002080000020A0000020C0000020E00000400000004020000040400000406000004080000040A0
310
000040C0000040E00000600000006020000060400000606000006080000060A0000060C0000060E00000800000008020000080400000806000008080000080A0000080C0000080E00000A0000000A0200000A0400000A0600000A0800000A0A00000A0C00000A0E00000C0000000C0200000C0400000C0600000C0800000C0
310
A00000C0C00000C0E00000E0000000E0200000E0400000E0600000E0800000E0A00000E0C00000E0E00040000000400020004000400040006000400080004000A0004000C0004000E00040200000402020004020400040206000402080004020A0004020C0004020E000404000004040200040404000404060004040800040
310
40A0004040C0004040E00040600000406020004060400040606000406080004060A0004060C0004060E00040800000408020004080400040806000408080004080A0004080C0004080E00040A0000040A0200040A0400040A0600040A0800040A0A00040A0C00040A0E00040C0000040C0200040C0400040C0600040C08000
310
40C0A00040C0C00040C0E00040E0000040E0200040E0400040E0600040E0800040E0A00040E0C00040E0E00080000000800020008000400080006000800080008000A0008000C0008000E00080200000802020008020400080206000802080008020A0008020C0008020E00080400000804020008040400080406000804080
310
008040A0008040C0008040E00080600000806020008060400080606000806080008060A0008060C0008060E00080800000808020008080400080806000808080008080A0008080C0008080E00080A0000080A0200080A0400080A0600080A0800080A0A00080A0C00080A0E00080C0000080C0200080C0400080C0600080C0
310
800080C0A00080C0C00080C0E00080E0000080E0200080E0400080E0600080E0800080E0A00080E0C00080E0E000C0000000C0002000C0004000C0006000C0008000C000A000C000C000C000E000C0200000C0202000C0204000C0206000C0208000C020A000C020C000C020E000C0400000C0402000C0404000C0406000C0
310
408000C040A000C040C000C040E000C0600000C0602000C0604000C0606000C0608000C060A000C060C000C060E000C0800000C0802000C0804000C0806000C0808000C080A000C080C000C080E000C0A00000C0A02000C0A04000C0A06000C0A08000C0A0A000C0A0C000C0A0E000C0C00000C0C02000C0C04000C0C06000
310
C0C08000C0C0A000F0FBFF00A4A0A000808080000000FF0000FF000000FFFF00FF000000FF00FF00FFFF0000FFFFFF00FFFFFFFFFFFFFFFFFFFFFFFFFFFFFFFFFFFFFFFFFFFFFFFFFFFFFFFFFFFFFFFFFFFFFFFFFFFFFFFFFFFFFFFFFFFFFFFFFFFFFFFFFFFFFFFFFFFFFFFFFFFFFFFFFFFFFFFFFFFFFFFFFFFFFFFFFFFFFF
310
FFFFFFFFFFFFFFFFFFFFFFFFFFFFFFFFFFFFFFFFFFFFFFFFFFFFFFFFFFFFFFFFFFFFFFFFFFFFFFFFFFFFFFFFFFFFFFFFFFFFFFFFFFFFFFFFFFFFFFFF00FFFFFFFFFFFFFFFFFFFFFFFFFFFFFFFFFFFFFFFFFFFFFFFFFFFFFFFFFFFF00FFFFFFFFFFFFFFFFFFFFFFFFFFFFFFFFFFFFFFFFFFFFFFFFFFFFFFFFFFFF00FFFFFFFF
310
FFFFFFFFFFFFFFFFFFFFFFFFFFFFFFFFFFFF0000000000FFFFFF00FFFFFFFF00FFFFFF00FFFF000000FFFF0000000000FFFFFFFFFFFFFF000000FFFFFFFFFF00FFFFFF00FF00FFFFFF00FFFFFF00FFFF00FFFFFFFFFFFFFF0000FFFFFFFFFF00FFFFFF00FFFFFFFFFF00FFFFFF00FFFF00FFFFFFFFFFFF00FF00FFFFFFFFFF
310
0000000000FFFFFFFFFF00FFFFFF00FFFF00FFFFFFFFFF00FFFFFF00FFFFFFFF00FFFFFF00FFFFFFFFFF00FFFFFF00FFFF00FFFFFFFF00FFFFFFFF00FFFFFFFF00FFFFFF00FFFFFFFFFF00FFFFFF00FFFF00FF00FF00FFFFFFFFFF00FFFFFFFF00FFFFFF00FFFFFFFFFF00FF0000000000FFFFFF00FFFFFFFFFFFFFF00FFFF
310
FFFFFFFFFFFFFFFFFFFFFFFFFFFFFFFFFFFFFFFF00FF00FFFFFFFFFF00FFFFFFFFFFFFFFFFFFFFFFFFFFFFFFFFFFFFFFFFFFFFFFFFFFFF00FFFFFFFF00FFFFFFFFFFFFFFFFFFFFFFFFFFFFFFFFFFFFFFFFFFFFFFFFFFFFFF00FFFFFF00FFFFFFFFFFFFFFFFFFFFFFFFFFFFFFFFFFFFFFFFFFFFFFFFFFFFFFFF00FF00FFFFFF
310
FFFF00000000FFFF00FFFFFF00FF0000000000FFFFFFFFFFFFFFFF0000FFFFFFFFFFFF00FFFF00FF00FFFF00FFFFFFFF00FFFF00FFFFFFFFFFFF000000FFFFFFFFFFFF00FFFF00FF00FF00FFFFFFFFFF00FFFF00FF0000000000FFFFFF00FFFFFFFFFF000000FFFF00000000FFFFFFFF00FFFF00FFFFFFFFFFFFFFFFFFFF00
310
FFFFFFFF00FFFF00FF00FFFFFF00FFFFFF00FFFF00FFFFFFFFFFFFFFFFFFFFFF00FFFFFF00FFFF00FF00FFFFFF00FFFFFF00FFFF00FFFFFFFFFFFFFFFFFFFFFFFF00FF00000000FFFF00000000FFFF0000000000FFFFFFFFFFFFFFFFFFFFFFFFFFFFFFFFFFFFFFFFFFFFFFFFFFFFFFFFFFFFFFFFFFFFFFFFFFFFFFFFFFFFFF
310
FFFFFFFFFFFFFFFFFFFFFFFFFFFFFFFFFFFFFFFFFFFFFFFFFFFFFFFFFFFFFFFFFFFFFFFFFFFFFFFFFFFFFFFFFFFFFFFFFFFFFFFFFFFFFFFFFFFFFFFFFFFFFFFFFFFFFFFFFFFFFFFFFFFFFFFFFFFFFFFFFFFFFFFFFFFFFFFFFFFFFFFFFFFFFFFFFFFFFFFFFFFFFFFFFFFFFFFFFFFFFFFFFFFFFFFFFFFFFFFFFFFFFFFFFFFFFF
310
FFFFFFFFFFFFFFFFFFFFFFFFFFFFFFFFFFFFFFFFFFFFFFFFFFFFFFFFFFFFFFFFFFFFFFFFFFFFFFFFFFFFFFFFFFFFFFFFFFFFFFFFFFFFFFFF
102
{BLKREFS
331
1380
331
1959
102
}
1001
ACAD
1000
DesignCenter Data
1002
{
1070
     1
1070
     4
1002
}
  0
BLOCK_RECORD
  5
175A
330
1
100
AcDbSymbolTableRecord
100
AcDbBlockTableRecord
  2
COMSEAL12
340
0
310
2800000020000000200000000100080000000000000400000000000000000000000000000000000000000000000080000080000000808000800000008000800080800000C0C0C000C0DCC000F0CAA6000020400000206000002080000020A0000020C0000020E00000400000004020000040400000406000004080000040A0
310
000040C0000040E00000600000006020000060400000606000006080000060A0000060C0000060E00000800000008020000080400000806000008080000080A0000080C0000080E00000A0000000A0200000A0400000A0600000A0800000A0A00000A0C00000A0E00000C0000000C0200000C0400000C0600000C0800000C0
310
A00000C0C00000C0E00000E0000000E0200000E0400000E0600000E0800000E0A00000E0C00000E0E00040000000400020004000400040006000400080004000A0004000C0004000E00040200000402020004020400040206000402080004020A0004020C0004020E000404000004040200040404000404060004040800040
310
40A0004040C0004040E00040600000406020004060400040606000406080004060A0004060C0004060E00040800000408020004080400040806000408080004080A0004080C0004080E00040A0000040A0200040A0400040A0600040A0800040A0A00040A0C00040A0E00040C0000040C0200040C0400040C0600040C08000
310
40C0A00040C0C00040C0E00040E0000040E0200040E0400040E0600040E0800040E0A00040E0C00040E0E00080000000800020008000400080006000800080008000A0008000C0008000E00080200000802020008020400080206000802080008020A0008020C0008020E00080400000804020008040400080406000804080
310
008040A0008040C0008040E00080600000806020008060400080606000806080008060A0008060C0008060E00080800000808020008080400080806000808080008080A0008080C0008080E00080A0000080A0200080A0400080A0600080A0800080A0A00080A0C00080A0E00080C0000080C0200080C0400080C0600080C0
310
800080C0A00080C0C00080C0E00080E0000080E0200080E0400080E0600080E0800080E0A00080E0C00080E0E000C0000000C0002000C0004000C0006000C0008000C000A000C000C000C000E000C0200000C0202000C0204000C0206000C0208000C020A000C020C000C020E000C0400000C0402000C0404000C0406000C0
310
408000C040A000C040C000C040E000C0600000C0602000C0604000C0606000C0608000C060A000C060C000C060E000C0800000C0802000C0804000C0806000C0808000C080A000C080C000C080E000C0A00000C0A02000C0A04000C0A06000C0A08000C0A0A000C0A0C000C0A0E000C0C00000C0C02000C0C04000C0C06000
310
C0C08000C0C0A000F0FBFF00A4A0A000808080000000FF0000FF000000FFFF00FF000000FF00FF00FFFF0000FFFFFF000000000000000000000000000000000000000000000000000000000000000000000000000000000000000000FA000000000000000000FA000000000000000000000000000000000000000000FAFAFA
310
FAFBFBFBFAFAFAFA000000000000000000000000000000000000000000FA0000FAFAFBFBFAFA00FA000000000000000000000000000000000000000000FA0000FAFBFBFB00FA00FA000000000000000000000000000000000000FAFAFAFAFAFFFAFFFFFFFFFAFFFA000000000000000000000000000000000000FA0000FAFF
310
FFFA00000000FAFFFA000000000000000000000000000000000000FA0000FFFFFFFA00000000FAFFFF000000000000000000000000000000000000FA0000FF00FFFAFFFFFFFFFA00FF000000000000000000000000000000000000FA00FAFAFAFAFAFFFFFFFFFF00FF000000000000000000000000000000000000FA00FAFF
310
00FFFF00000000FF00FF000000000000000000000000000000000000FA00FAFF00FFFF00000000FF00FF000000000000000000000000000000000000FA00FAFF00FFFF00000000FF00FF000000000000000000000000000000000000FA00FAFF00FFFF00000000FF00FF000000000000000000000000000000000000FAFBFB
310
FF00FFFF00000000FF00FF000000000000000000000000000000000000FAFBFBFF00FFFF00000000FF00FF000000000000000000000000000000000000FBFBFBFF00FFFF00000000FF00FF000000000000000000000000000000000000FBFBFBFF00FFFF00000000FF00FF000000000000000000000000000000000000FB00
310
FAFF00FFFF00000000FF00FF000000000000000000000000000000000000FB00FAFF00FFFF00000000FF00FF000000000000000000000000000000000000FA00FAFF00FFFF00000000FF00FF000000000000000000000000000000000000FA00FAFF00FFFF00000000FF00FF000000000000000000000000000000000000FA
310
00FAFAFAFAFAFFFFFFFFFF00FF000000000000000000000000000000000000FA0000FF00FFFF00FFFF00FF00FF000000000000000000000000000000000000FA0000FF00FFFFFF00FF00FF00FF000000000000000000000000000000000000FA0000FF00FFFFFFFFFF00FF00FF000000000000000000000000000000000000
310
FA0000FF00FFFFFFFFFFFFFF00FF000000000000000000000000000000000000FA0000FF0000FFFFFFFFFFFF00FF000000000000000000000000000000000000FA0000FFFFFFFFFFFFFFFFFFFFFF000000000000000000000000000000000000FA0000FFFFFFFFFFFFFFFFFFFFFF0000000000000000000000000000000000
310
00FAFAFAFAFAFFFFFFFFFFFFFFFF000000000000000000000000000000000000000000000000000000000000000000000000000000000000
102
{BLKREFS
331
197B
102
}
1001
ACAD
1000
DesignCenter Data
1002
{
1070
     1
1070
     4
1002
}
  0
ENDTAB
  0
ENDSEC
  0
SECTION
  2
BLOCKS
  0
BLOCK
  5
1B
330
1A
100
AcDbEntity
  8
0
100
AcDbBlockBegin
  2
*MODEL_SPACE
 70
     0
 10
0.0
 20
0.0
 30
0.0
  3
*MODEL_SPACE
  1

  0
ENDBLK
  5
1C
330
1A
100
AcDbEntity
  8
0
100
AcDbBlockEnd
  0
BLOCK
  5
18
330
17
100
AcDbEntity
 67
     1
  8
0
100
AcDbBlockBegin
  2
*PAPER_SPACE
 70
     0
 10
0.0
 20
0.0
 30
0.0
  3
*PAPER_SPACE
  1

  0
ENDBLK
  5
19
330
17
100
AcDbEntity
 67
     1
  8
0
100
AcDbBlockEnd
  0
BLOCK
  5
146D
330
2F4
100
AcDbEntity
  8
0
100
AcDbBlockBegin
  2
GENAXEH
 70
     0
 10
0.0
 20
0.0
 30
0.0
  3
GENAXEH
  1

  0
LINE
  5
146E
330
2F4
100
AcDbEntity
  8
0
100
AcDbLine
 10
-1.0
 20
0.0
 30
0.0
 11
1.0
 21
0.0
 31
0.0
  0
ENDBLK
  5
146F
330
2F4
100
AcDbEntity
  8
0
100
AcDbBlockEnd
  0
BLOCK
  5
CE0
330
CDF
100
AcDbEntity
  8
0
100
AcDbBlockBegin
  2
info
 70
     2
 10
0.0
 20
0.0
 30
0.0
  3
info
  1

  0
POINT
  5
CE1
330
CDF
100
AcDbEntity
  8
0
100
AcDbPoint
 10
0.0
 20
0.0
 30
0.0
  0
ATTDEF
  5
CE2
330
CDF
100
AcDbEntity
  8
0
100
AcDbText
 10
9.467092950319427
 20
2.891095235479383
 30
0.00000001
 40
5.0
  1

100
AcDbAttributeDefinition
  3
bredd
  2
BRD
 70
     1
1001
AcDbAttr
1070
     0
1070
     1
  0
ATTDEF
  5
CE3
330
CDF
100
AcDbEntity
  8
0
100
AcDbText
 10
9.467092950319427
 20
-5.442238097853946
 30
0.00000001
 40
5.0
  1

100
AcDbAttributeDefinition
  3
Höjd
  2
HJD
 70
     1
1001
AcDbAttr
1070
     0
1070
     1
  0
ENDBLK
  5
CE4
330
CDF
100
AcDbEntity
  8
0
100
AcDbBlockEnd
  0
BLOCK
  5
175B
330
175A
100
AcDbEntity
  8
0
100
AcDbBlockBegin
  2
COMSEAL12
 70
     0
 10
0.0
 20
0.0
 30
0.0
  3
COMSEAL12
  1

  0
LINE
  5
175D
330
175A
100
AcDbEntity
  8
Visible Edges(ISO)
100
AcDbLine
 10
44.00000000000004
 20
100.0000000000001
 30
0.0
 11
44.00000000000004
 21
79.01760739297225
 31
0.0
  0
LINE
  5
175E
330
175A
100
AcDbEntity
  8
Visible Edges(ISO)
100
AcDbLine
 10
44.00000000000004
 20
78.01715043204075
 30
0.0
 11
44.00000000000004
 21
78.01775969781584
 31
0.0
  0
LINE
  5
175F
330
175A
100
AcDbEntity
  8
Visible Edges(ISO)
100
AcDbLine
 10
44.00000000000004
 20
-78.01715043204061
 30
0.0
 11
44.00000000000004
 21
-78.01775969781573
 31
0.0
  0
LINE
  5
1760
330
175A
100
AcDbEntity
  8
Visible Edges(ISO)
100
AcDbLine
 10
44.00000000000004
 20
-79.01760739297214
 30
0.0
 11
44.00000000000004
 21
-99.99999999999994
 31
0.0
  0
LINE
  5
1761
330
175A
100
AcDbEntity
  8
Visible Edges(ISO)
100
AcDbLine
 10
4.017150432040665
 20
106.0085745629472
 30
0.0
 11
4.017759697815762
 21
106.0088791726343
 31
0.0
  0
LINE
  5
1762
330
175A
100
AcDbEntity
  8
Visible Edges(ISO)
100
AcDbLine
 10
36.00000000000004
 20
106.0000000000002
 30
0.0
 11
3.017302736884346
 21
106.0000000000002
 31
0.0
  0
LINE
  5
1763
330
175A
100
AcDbEntity
  8
Visible Tangent Edges(ISO)
100
AcDbLine
 10
36.00000000000004
 20
106.0000000000002
 30
0.0
 11
36.00000000000004
 21
106.0174537355817
 31
0.0
  0
LINE
  5
1764
330
175A
100
AcDbEntity
  8
Visible Edges(ISO)
100
AcDbLine
 10
36.00000000000004
 20
106.0174537355817
 30
0.0
 11
5.017607392972166
 21
106.0174537355817
 31
0.0
  0
LINE
  5
1765
330
175A
100
AcDbEntity
  8
Visible Edges(ISO)
100
AcDbLine
 10
4.017150432040665
 20
108.0000000000001
 30
0.0
 11
4.017759697815762
 21
108.0000000000001
 31
0.0
  0
LINE
  5
1766
330
175A
100
AcDbEntity
  8
Visible Edges(ISO)
100
AcDbLine
 10
-35.99999999999996
 20
108.0000000000001
 30
0.0
 11
-5.017607392972166
 21
108.0000000000001
 31
0.0
  0
LINE
  5
1767
330
175A
100
AcDbEntity
  8
Visible Edges(ISO)
100
AcDbLine
 10
-4.017150432040637
 20
108.0000000000001
 30
0.0
 11
-4.017759697815733
 21
108.0000000000001
 31
0.0
  0
LINE
  5
1768
330
175A
100
AcDbEntity
  8
Visible Edges(ISO)
100
AcDbLine
 10
5.017607392972166
 20
108.0000000000001
 30
0.0
 11
36.00000000000004
 21
108.0000000000001
 31
0.0
  0
LINE
  5
1769
330
175A
100
AcDbEntity
  8
Visible Edges(ISO)
100
AcDbLine
 10
-4.017150432040637
 20
106.0085745629472
 30
0.0
 11
-4.017759697815733
 21
106.0088791726343
 31
0.0
  0
LINE
  5
176A
330
175A
100
AcDbEntity
  8
Visible Edges(ISO)
100
AcDbLine
 10
-3.017302736884346
 20
106.0000000000002
 30
0.0
 11
-35.99999999999996
 21
106.0000000000002
 31
0.0
  0
ARC
  5
176B
330
175A
100
AcDbEntity
  8
Visible Edges(ISO)
100
AcDbCircle
 10
-35.99999999999996
 20
100.0000000000001
 30
0.0
 40
5.999999999999996
100
AcDbArc
 50
90.0
 51
180.0
  0
LINE
  5
176C
330
175A
100
AcDbEntity
  8
Visible Edges(ISO)
100
AcDbLine
 10
-41.99999999999995
 20
100.0000000000001
 30
0.0
 11
-41.99999999999995
 21
77.01730273688434
 31
0.0
  0
LINE
  5
176D
330
175A
100
AcDbEntity
  8
Visible Edges(ISO)
100
AcDbLine
 10
-41.99999999999995
 20
-77.01730273688434
 30
0.0
 11
-41.99999999999995
 21
-100.0000000000001
 31
0.0
  0
ARC
  5
176E
330
175A
100
AcDbEntity
  8
Visible Edges(ISO)
100
AcDbCircle
 10
-35.99999999999996
 20
-100.0000000000001
 30
0.0
 40
5.999999999999982
100
AcDbArc
 50
180.0
 51
270.0
  0
LINE
  5
176F
330
175A
100
AcDbEntity
  8
Visible Edges(ISO)
100
AcDbLine
 10
-35.99999999999996
 20
-106.0
 30
0.0
 11
-3.017302736884346
 21
-105.9999999999999
 31
0.0
  0
LINE
  5
1770
330
175A
100
AcDbEntity
  8
Visible Edges(ISO)
100
AcDbLine
 10
3.017302736884346
 20
-106.0
 30
0.0
 11
36.00000000000004
 21
-105.9999999999999
 31
0.0
  0
ARC
  5
1771
330
175A
100
AcDbEntity
  8
Visible Edges(ISO)
100
AcDbCircle
 10
36.00000000000004
 20
-99.99999999999994
 30
0.0
 40
5.999999999999986
100
AcDbArc
 50
270.0
 51
0.0
  0
LINE
  5
1772
330
175A
100
AcDbEntity
  8
Visible Edges(ISO)
100
AcDbLine
 10
42.00000000000004
 20
-99.99999999999994
 30
0.0
 11
42.00000000000004
 21
-77.01730273688434
 31
0.0
  0
LINE
  5
1773
330
175A
100
AcDbEntity
  8
Visible Edges(ISO)
100
AcDbLine
 10
42.00000000000004
 20
77.01730273688434
 30
0.0
 11
42.00000000000004
 21
100.0000000000001
 31
0.0
  0
ARC
  5
1774
330
175A
100
AcDbEntity
  8
Visible Edges(ISO)
100
AcDbCircle
 10
36.00000000000004
 20
100.0000000000001
 30
0.0
 40
6.000000000000002
100
AcDbArc
 50
0.0
 51
90.0
  0
LINE
  5
1775
330
175A
100
AcDbEntity
  8
Visible Edges(ISO)
100
AcDbLine
 10
42.00857456294715
 20
78.01715043204075
 30
0.0
 11
42.00887917263435
 21
78.01775969781584
 31
0.0
  0
LINE
  5
1776
330
175A
100
AcDbEntity
  8
Visible Edges(ISO)
100
AcDbLine
 10
42.00857456294724
 20
-78.01715043204061
 30
0.0
 11
42.00887917263435
 21
-78.01775969781573
 31
0.0
  0
LINE
  5
1777
330
175A
100
AcDbEntity
  8
Visible Tangent Edges(ISO)
100
AcDbLine
 10
42.00000000000004
 20
-99.99999999999994
 30
0.0
 11
42.01745373558149
 21
-99.99999999999994
 31
0.0
  0
LINE
  5
1778
330
175A
100
AcDbEntity
  8
Visible Edges(ISO)
100
AcDbLine
 10
42.01745373558149
 20
-99.99999999999994
 30
0.0
 11
42.01745373558149
 21
-79.01760739297214
 31
0.0
  0
LINE
  5
1779
330
175A
100
AcDbEntity
  8
Visible Edges(ISO)
100
AcDbLine
 10
36.00000000000004
 20
-107.9999999999999
 30
0.0
 11
5.017607392972166
 21
-107.9999999999999
 31
0.0
  0
LINE
  5
177A
330
175A
100
AcDbEntity
  8
Visible Edges(ISO)
100
AcDbLine
 10
4.01715043204075
 20
-107.9999999999999
 30
0.0
 11
4.017759697815762
 21
-107.9999999999999
 31
0.0
  0
LINE
  5
177B
330
175A
100
AcDbEntity
  8
Visible Edges(ISO)
100
AcDbLine
 10
-4.017150432040637
 20
-107.9999999999999
 30
0.0
 11
-4.017759697815733
 21
-107.9999999999999
 31
0.0
  0
LINE
  5
177C
330
175A
100
AcDbEntity
  8
Visible Edges(ISO)
100
AcDbLine
 10
-5.017607392972166
 20
-107.9999999999999
 30
0.0
 11
-35.99999999999996
 21
-108.0
 31
0.0
  0
LINE
  5
177D
330
175A
100
AcDbEntity
  8
Visible Edges(ISO)
100
AcDbLine
 10
4.01715043204075
 20
-106.0085745629471
 30
0.0
 11
4.017759697815762
 21
-106.0088791726343
 31
0.0
  0
LINE
  5
177E
330
175A
100
AcDbEntity
  8
Visible Edges(ISO)
100
AcDbLine
 10
-4.017150432040637
 20
-106.0085745629471
 30
0.0
 11
-4.017759697815733
 21
-106.0088791726343
 31
0.0
  0
LINE
  5
177F
330
175A
100
AcDbEntity
  8
Visible Tangent Edges(ISO)
100
AcDbLine
 10
-35.99999999999996
 20
-106.0
 30
0.0
 11
-35.99999999999996
 21
-106.0174537355815
 31
0.0
  0
LINE
  5
1780
330
175A
100
AcDbEntity
  8
Visible Edges(ISO)
100
AcDbLine
 10
-35.99999999999996
 20
-106.0174537355815
 30
0.0
 11
-5.017607392972166
 21
-106.0174537355814
 31
0.0
  0
LINE
  5
1781
330
175A
100
AcDbEntity
  8
Visible Edges(ISO)
100
AcDbLine
 10
-43.99999999999995
 20
-100.0000000000001
 30
0.0
 11
-43.99999999999995
 21
-79.01760739297214
 31
0.0
  0
LINE
  5
1782
330
175A
100
AcDbEntity
  8
Visible Edges(ISO)
100
AcDbLine
 10
-43.99999999999995
 20
-78.01715043204061
 30
0.0
 11
-43.99999999999995
 21
-78.01775969781573
 31
0.0
  0
LINE
  5
1783
330
175A
100
AcDbEntity
  8
Visible Edges(ISO)
100
AcDbLine
 10
-43.99999999999995
 20
78.01715043204075
 30
0.0
 11
-43.99999999999995
 21
78.01775969781584
 31
0.0
  0
LINE
  5
1784
330
175A
100
AcDbEntity
  8
Visible Edges(ISO)
100
AcDbLine
 10
-43.99999999999995
 20
79.01760739297225
 30
0.0
 11
-43.99999999999995
 21
100.0000000000001
 31
0.0
  0
LINE
  5
1785
330
175A
100
AcDbEntity
  8
Visible Edges(ISO)
100
AcDbLine
 10
-42.00857456294714
 20
-78.01715043204072
 30
0.0
 11
-42.00887917263433
 21
-78.01775969781573
 31
0.0
  0
LINE
  5
1786
330
175A
100
AcDbEntity
  8
Visible Edges(ISO)
100
AcDbLine
 10
-42.00857456294714
 20
78.01715043204075
 30
0.0
 11
-42.00887917263433
 21
78.01775969781584
 31
0.0
  0
LINE
  5
1787
330
175A
100
AcDbEntity
  8
Visible Tangent Edges(ISO)
100
AcDbLine
 10
-41.99999999999995
 20
100.0000000000001
 30
0.0
 11
-42.01745373558156
 21
100.0000000000001
 31
0.0
  0
LINE
  5
1788
330
175A
100
AcDbEntity
  8
Visible Edges(ISO)
100
AcDbLine
 10
-42.01745373558156
 20
100.0000000000001
 30
0.0
 11
-42.01745373558156
 21
79.01760739297225
 31
0.0
  0
LINE
  5
1789
330
175A
100
AcDbEntity
  8
Visible Edges(ISO)
100
AcDbLine
 10
-42.01745373558143
 20
-79.01760739297214
 30
0.0
 11
-42.01745373558156
 21
-100.0000000000001
 31
0.0
  0
LINE
  5
178A
330
175A
100
AcDbEntity
  8
Visible Tangent Edges(ISO)
100
AcDbLine
 10
-41.99999999999995
 20
-100.0000000000001
 30
0.0
 11
-42.01745373558156
 21
-100.0000000000001
 31
0.0
  0
ARC
  5
178B
330
175A
100
AcDbEntity
  8
Visible Edges(ISO)
100
AcDbCircle
 10
-35.99999999999996
 20
-100.0000000000001
 30
0.0
 40
6.017453735581521
100
AcDbArc
 50
180.0
 51
270.0
  0
ARC
  5
178C
330
175A
100
AcDbEntity
  8
Visible Edges(ISO)
100
AcDbCircle
 10
-35.99999999999996
 20
-100.0000000000001
 30
0.0
 40
7.999999999999986
100
AcDbArc
 50
180.0
 51
270.0
  0
LINE
  5
178D
330
175A
100
AcDbEntity
  8
Visible Edges(ISO)
100
AcDbLine
 10
5.017607392972166
 20
-106.0174537355815
 30
0.0
 11
36.00000000000004
 21
-106.0174537355814
 31
0.0
  0
LINE
  5
178E
330
175A
100
AcDbEntity
  8
Visible Tangent Edges(ISO)
100
AcDbLine
 10
36.00000000000004
 20
-105.9999999999999
 30
0.0
 11
36.00000000000004
 21
-106.0174537355814
 31
0.0
  0
ARC
  5
178F
330
175A
100
AcDbEntity
  8
Visible Edges(ISO)
100
AcDbCircle
 10
36.00000000000004
 20
-99.99999999999994
 30
0.0
 40
6.017453735581507
100
AcDbArc
 50
270.0
 51
0.0
  0
ARC
  5
1790
330
175A
100
AcDbEntity
  8
Visible Edges(ISO)
100
AcDbCircle
 10
36.00000000000004
 20
-99.99999999999994
 30
0.0
 40
8.000000000000001
100
AcDbArc
 50
270.0
 51
0.0
  0
LINE
  5
1791
330
175A
100
AcDbEntity
  8
Visible Edges(ISO)
100
AcDbLine
 10
42.01745373558149
 20
79.01760739297225
 30
0.0
 11
42.01745373558149
 21
100.0000000000001
 31
0.0
  0
LINE
  5
1792
330
175A
100
AcDbEntity
  8
Visible Tangent Edges(ISO)
100
AcDbLine
 10
42.00000000000004
 20
100.0000000000001
 30
0.0
 11
42.01745373558149
 21
100.0000000000001
 31
0.0
  0
ARC
  5
1793
330
175A
100
AcDbEntity
  8
Visible Edges(ISO)
100
AcDbCircle
 10
36.00000000000004
 20
100.0000000000001
 30
0.0
 40
6.017453735581521
100
AcDbArc
 50
0.0
 51
90.0
  0
ARC
  5
1794
330
175A
100
AcDbEntity
  8
Visible Edges(ISO)
100
AcDbCircle
 10
36.00000000000004
 20
100.0000000000001
 30
0.0
 40
8.000000000000008
100
AcDbArc
 50
0.0
 51
90.0
  0
LINE
  5
1795
330
175A
100
AcDbEntity
  8
Visible Edges(ISO)
100
AcDbLine
 10
-5.017607392972166
 20
106.0174537355817
 30
0.0
 11
-35.99999999999996
 21
106.0174537355817
 31
0.0
  0
LINE
  5
1796
330
175A
100
AcDbEntity
  8
Visible Tangent Edges(ISO)
100
AcDbLine
 10
-35.99999999999996
 20
106.0000000000002
 30
0.0
 11
-35.99999999999996
 21
106.0174537355817
 31
0.0
  0
ARC
  5
1797
330
175A
100
AcDbEntity
  8
Visible Edges(ISO)
100
AcDbCircle
 10
-35.99999999999996
 20
100.0000000000001
 30
0.0
 40
6.017453735581561
100
AcDbArc
 50
90.0
 51
180.0
  0
ARC
  5
1798
330
175A
100
AcDbEntity
  8
Visible Edges(ISO)
100
AcDbCircle
 10
-35.99999999999996
 20
100.0000000000001
 30
0.0
 40
8.000000000000008
100
AcDbArc
 50
90.0
 51
180.0
  0
LINE
  5
1799
330
175A
100
AcDbEntity
  8
Visible Edges(ISO)
100
AcDbLine
 10
44.00000000000004
 20
79.01760739297225
 30
0.0
 11
44.00000000000004
 21
78.01775969781584
 31
0.0
  0
LINE
  5
179A
330
175A
100
AcDbEntity
  8
Visible Edges(ISO)
100
AcDbLine
 10
44.00000000000004
 20
77.01730273688434
 30
0.0
 11
44.00000000000004
 21
78.01715043204075
 31
0.0
  0
LINE
  5
179B
330
175A
100
AcDbEntity
  8
Visible Edges(ISO)
100
AcDbLine
 10
44.00000000000004
 20
-78.01715043204061
 30
0.0
 11
44.00000000000004
 21
-77.01730273688434
 31
0.0
  0
LINE
  5
179C
330
175A
100
AcDbEntity
  8
Visible Edges(ISO)
100
AcDbLine
 10
44.00000000000004
 20
-78.01775969781573
 30
0.0
 11
44.00000000000004
 21
-79.01760739297214
 31
0.0
  0
LINE
  5
179D
330
175A
100
AcDbEntity
  8
Visible Edges(ISO)
100
AcDbLine
 10
4.017759697815762
 20
108.0000000000001
 30
0.0
 11
5.017607392972166
 21
108.0000000000001
 31
0.0
  0
LINE
  5
179E
330
175A
100
AcDbEntity
  8
Visible Tangent Edges(ISO)
100
AcDbLine
 10
4.017759697815762
 20
108.0000000000001
 30
0.0
 11
4.017759697815762
 21
106.0088791726343
 31
0.0
  0
ELLIPSE
  5
179F
330
175A
100
AcDbEntity
  8
Visible Edges(ISO)
100
AcDbEllipse
 10
5.017607392972166
 20
106.0087268677909
 30
0.0
 11
1.0
 21
0.000000000000001
 31
0.0
210
0.0
220
0.0
230
1.0
 40
0.0087268677907588
 41
1.570796326795003
 42
3.124139359540953
  0
LINE
  5
17A0
330
175A
100
AcDbEntity
  8
Visible Tangent Edges(ISO)
100
AcDbLine
 10
5.017607392972166
 20
106.0174537355817
 30
0.0
 11
5.017607392972166
 21
108.0000000000001
 31
0.0
  0
ELLIPSE
  5
17A1
330
175A
100
AcDbEntity
  8
Visible Edges(ISO)
100
AcDbEllipse
 10
3.017302736884346
 20
106.0087268677909
 30
0.0
 11
0.9999999999999998
 21
0.000000000000001
 31
0.0
210
0.0
220
0.0
230
1.0
 40
0.0087268677907588
 41
4.712388980384795
 42
6.265732013152605
  0
LINE
  5
17A2
330
175A
100
AcDbEntity
  8
Visible Tangent Edges(ISO)
100
AcDbLine
 10
4.017150432040665
 20
106.0085745629472
 30
0.0
 11
4.017150432040665
 21
108.0000000000001
 31
0.0
  0
LINE
  5
17A3
330
175A
100
AcDbEntity
  8
Visible Edges(ISO)
100
AcDbLine
 10
4.01715043204075
 20
108.0000000000001
 30
0.0
 11
3.017302736884346
 21
108.0000000000001
 31
0.0
  0
LINE
  5
17A4
330
175A
100
AcDbEntity
  8
Visible Tangent Edges(ISO)
100
AcDbLine
 10
3.017302736884346
 20
108.0000000000001
 30
0.0
 11
3.017302736884346
 21
106.0000000000002
 31
0.0
  0
ELLIPSE
  5
17A5
330
175A
100
AcDbEntity
  8
Visible Edges(ISO)
100
AcDbEllipse
 10
-5.017607392972166
 20
106.0087268677909
 30
0.0
 11
1.0
 21
-0.000000000000011
 31
0.0
210
0.0
220
0.0
230
1.0
 40
0.0087268677907588
 41
0.0174533090139084
 42
1.570796326793634
  0
LINE
  5
17A6
330
175A
100
AcDbEntity
  8
Visible Tangent Edges(ISO)
100
AcDbLine
 10
-4.017759697815733
 20
106.0088791726343
 30
0.0
 11
-4.017759697815733
 21
108.0000000000001
 31
0.0
  0
LINE
  5
17A7
330
175A
100
AcDbEntity
  8
Visible Edges(ISO)
100
AcDbLine
 10
-5.017607392972166
 20
108.0000000000001
 30
0.0
 11
-4.017759697815733
 21
108.0000000000001
 31
0.0
  0
LINE
  5
17A8
330
175A
100
AcDbEntity
  8
Visible Tangent Edges(ISO)
100
AcDbLine
 10
-5.017607392972166
 20
108.0000000000001
 30
0.0
 11
-5.017607392972166
 21
106.0174537355817
 31
0.0
  0
LINE
  5
17A9
330
175A
100
AcDbEntity
  8
Visible Edges(ISO)
100
AcDbLine
 10
-3.017302736884346
 20
108.0000000000001
 30
0.0
 11
-4.017150432040637
 21
108.0000000000001
 31
0.0
  0
LINE
  5
17AA
330
175A
100
AcDbEntity
  8
Visible Tangent Edges(ISO)
100
AcDbLine
 10
-4.017150432040637
 20
108.0000000000001
 30
0.0
 11
-4.017150432040637
 21
106.0085745629472
 31
0.0
  0
ELLIPSE
  5
17AB
330
175A
100
AcDbEntity
  8
Visible Edges(ISO)
100
AcDbEllipse
 10
-3.017302736884346
 20
106.0087268677909
 30
0.0
 11
0.9999999999999998
 21
-0.000000000000001
 31
0.0
210
0.0
220
0.0
230
1.0
 40
0.0087268677907588
 41
3.159045947616772
 42
4.712388980384583
  0
LINE
  5
17AC
330
175A
100
AcDbEntity
  8
Visible Tangent Edges(ISO)
100
AcDbLine
 10
-3.017302736884346
 20
106.0000000000002
 30
0.0
 11
-3.017302736884346
 21
108.0000000000001
 31
0.0
  0
LINE
  5
17AD
330
175A
100
AcDbEntity
  8
Visible Tangent Edges(ISO)
100
AcDbLine
 10
-43.99999999999995
 20
77.01730273688434
 30
0.0
 11
-41.99999999999995
 21
77.01730273688434
 31
0.0
  0
LINE
  5
17AE
330
175A
100
AcDbEntity
  8
Visible Tangent Edges(ISO)
100
AcDbLine
 10
-41.99999999999995
 20
-77.01730273688434
 30
0.0
 11
-43.99999999999995
 21
-77.01730273688434
 31
0.0
  0
LINE
  5
17AF
330
175A
100
AcDbEntity
  8
Visible Tangent Edges(ISO)
100
AcDbLine
 10
-3.017302736884346
 20
-107.9999999999999
 30
0.0
 11
-3.017302736884346
 21
-105.9999999999999
 31
0.0
  0
LINE
  5
17B0
330
175A
100
AcDbEntity
  8
Visible Tangent Edges(ISO)
100
AcDbLine
 10
3.017302736884346
 20
-106.0
 30
0.0
 11
3.017302736884346
 21
-107.9999999999999
 31
0.0
  0
LINE
  5
17B1
330
175A
100
AcDbEntity
  8
Visible Tangent Edges(ISO)
100
AcDbLine
 10
44.00000000000004
 20
-77.01730273688434
 30
0.0
 11
42.00000000000004
 21
-77.01730273688434
 31
0.0
  0
LINE
  5
17B2
330
175A
100
AcDbEntity
  8
Visible Tangent Edges(ISO)
100
AcDbLine
 10
42.00000000000004
 20
77.01730273688434
 30
0.0
 11
44.00000000000004
 21
77.01730273688434
 31
0.0
  0
ELLIPSE
  5
17B3
330
175A
100
AcDbEntity
  8
Visible Edges(ISO)
100
AcDbEllipse
 10
42.00872686779084
 20
79.01760739297225
 30
0.0
 11
0.000000000000009
 21
-1.0
 31
0.0
210
0.0
220
0.0
230
1.0
 40
0.0087268677907588
 41
0.0174532791506899
 42
1.570796326795889
  0
LINE
  5
17B4
330
175A
100
AcDbEntity
  8
Visible Tangent Edges(ISO)
100
AcDbLine
 10
42.00887917263435
 20
78.01775969781584
 30
0.0
 11
44.00000000000004
 21
78.01775969781584
 31
0.0
  0
LINE
  5
17B5
330
175A
100
AcDbEntity
  8
Visible Tangent Edges(ISO)
100
AcDbLine
 10
44.00000000000004
 20
79.01760739297225
 30
0.0
 11
42.01745373558149
 21
79.01760739297225
 31
0.0
  0
LINE
  5
17B6
330
175A
100
AcDbEntity
  8
Visible Tangent Edges(ISO)
100
AcDbLine
 10
44.00000000000004
 20
78.01715043204075
 30
0.0
 11
42.00857456294715
 21
78.01715043204075
 31
0.0
  0
ELLIPSE
  5
17B7
330
175A
100
AcDbEntity
  8
Visible Edges(ISO)
100
AcDbEllipse
 10
42.00872686779084
 20
77.01730273688434
 30
0.0
 11
-0.000000000000011
 21
-1.0
 31
0.0
210
0.0
220
0.0
230
1.0
 40
0.0087268677907588
 41
3.159045962840036
 42
4.71238898038341
  0
LINE
  5
17B8
330
175A
100
AcDbEntity
  8
Visible Tangent Edges(ISO)
100
AcDbLine
 10
44.00000000000004
 20
-78.01775969781573
 30
0.0
 11
42.00887917263435
 21
-78.01775969781573
 31
0.0
  0
ELLIPSE
  5
17B9
330
175A
100
AcDbEntity
  8
Visible Edges(ISO)
100
AcDbEllipse
 10
42.00872686779084
 20
-79.01760739297214
 30
0.0
 11
-0.0000000000000088
 21
-1.0
 31
0.0
210
0.0
220
0.0
230
1.0
 40
0.0087268677907588
 41
1.570796326793864
 42
3.124139374439101
  0
LINE
  5
17BA
330
175A
100
AcDbEntity
  8
Visible Tangent Edges(ISO)
100
AcDbLine
 10
42.01745373558149
 20
-79.01760739297214
 30
0.0
 11
44.00000000000004
 21
-79.01760739297214
 31
0.0
  0
ELLIPSE
  5
17BB
330
175A
100
AcDbEntity
  8
Visible Edges(ISO)
100
AcDbEllipse
 10
42.00872686779084
 20
-77.01730273688434
 30
0.0
 11
0.0000000000000111
 21
-1.0
 31
0.0
210
0.0
220
0.0
230
1.0
 40
0.0087268677907588
 41
4.712388980385933
 42
6.265731998161608
  0
LINE
  5
17BC
330
175A
100
AcDbEntity
  8
Visible Tangent Edges(ISO)
100
AcDbLine
 10
42.00857456294724
 20
-78.01715043204061
 30
0.0
 11
44.00000000000004
 21
-78.01715043204061
 31
0.0
  0
ELLIPSE
  5
17BD
330
175A
100
AcDbEntity
  8
Visible Edges(ISO)
100
AcDbEllipse
 10
5.017607392972166
 20
-106.0087268677907
 30
0.0
 11
-1.0
 21
0.0000000000000105
 31
0.0
210
0.0
220
0.0
230
1.0
 40
0.0087268677907588
 41
0.0174533090232298
 42
1.570796326793653
  0
LINE
  5
17BE
330
175A
100
AcDbEntity
  8
Visible Tangent Edges(ISO)
100
AcDbLine
 10
4.017759697815762
 20
-106.0088791726343
 30
0.0
 11
4.017759697815762
 21
-107.9999999999999
 31
0.0
  0
LINE
  5
17BF
330
175A
100
AcDbEntity
  8
Visible Edges(ISO)
100
AcDbLine
 10
5.017607392972166
 20
-107.9999999999999
 30
0.0
 11
4.017759697815762
 21
-107.9999999999999
 31
0.0
  0
LINE
  5
17C0
330
175A
100
AcDbEntity
  8
Visible Tangent Edges(ISO)
100
AcDbLine
 10
5.017607392972166
 20
-107.9999999999999
 30
0.0
 11
5.017607392972166
 21
-106.0174537355815
 31
0.0
  0
LINE
  5
17C1
330
175A
100
AcDbEntity
  8
Visible Edges(ISO)
100
AcDbLine
 10
3.017302736884346
 20
-107.9999999999999
 30
0.0
 11
4.01715043204075
 21
-107.9999999999999
 31
0.0
  0
LINE
  5
17C2
330
175A
100
AcDbEntity
  8
Visible Edges(ISO)
100
AcDbLine
 10
-4.017150432040637
 20
-107.9999999999999
 30
0.0
 11
-3.017302736884346
 21
-107.9999999999999
 31
0.0
  0
LINE
  5
17C3
330
175A
100
AcDbEntity
  8
Visible Edges(ISO)
100
AcDbLine
 10
-4.017759697815733
 20
-107.9999999999999
 30
0.0
 11
-5.017607392972166
 21
-107.9999999999999
 31
0.0
  0
LINE
  5
17C4
330
175A
100
AcDbEntity
  8
Visible Tangent Edges(ISO)
100
AcDbLine
 10
4.01715043204075
 20
-107.9999999999999
 30
0.0
 11
4.01715043204075
 21
-106.0085745629471
 31
0.0
  0
ELLIPSE
  5
17C5
330
175A
100
AcDbEntity
  8
Visible Edges(ISO)
100
AcDbEllipse
 10
3.017302736884346
 20
-106.0087268677907
 30
0.0
 11
-0.9999999999999998
 21
0.0000000000000005
 31
0.0
210
0.0
220
0.0
230
1.0
 40
0.0087268677907588
 41
3.159045947620843
 42
4.712388980384583
  0
LINE
  5
17C6
330
175A
100
AcDbEntity
  8
Visible Tangent Edges(ISO)
100
AcDbLine
 10
-4.017759697815733
 20
-107.9999999999999
 30
0.0
 11
-4.017759697815733
 21
-106.0088791726343
 31
0.0
  0
ELLIPSE
  5
17C7
330
175A
100
AcDbEntity
  8
Visible Edges(ISO)
100
AcDbEllipse
 10
-5.017607392972166
 20
-106.0087268677907
 30
0.0
 11
-1.0
 21
-0.0000000000000115
 31
0.0
210
0.0
220
0.0
230
1.0
 40
0.0087268677907588
 41
1.570796326796157
 42
3.124139344573849
  0
LINE
  5
17C8
330
175A
100
AcDbEntity
  8
Visible Tangent Edges(ISO)
100
AcDbLine
 10
-5.017607392972166
 20
-106.0174537355814
 30
0.0
 11
-5.017607392972166
 21
-107.9999999999999
 31
0.0
  0
ELLIPSE
  5
17C9
330
175A
100
AcDbEntity
  8
Visible Edges(ISO)
100
AcDbEllipse
 10
-3.017302736884346
 20
-106.0087268677907
 30
0.0
 11
-0.9999999999999998
 21
-0.0000000000000015
 31
0.0
210
0.0
220
0.0
230
1.0
 40
0.0087268677907588
 41
4.712388980384778
 42
6.265732013148535
  0
LINE
  5
17CA
330
175A
100
AcDbEntity
  8
Visible Tangent Edges(ISO)
100
AcDbLine
 10
-4.017150432040637
 20
-106.0085745629471
 30
0.0
 11
-4.017150432040637
 21
-107.9999999999999
 31
0.0
  0
ELLIPSE
  5
17CB
330
175A
100
AcDbEntity
  8
Visible Edges(ISO)
100
AcDbEllipse
 10
-42.00872686779073
 20
-79.01760739297214
 30
0.0
 11
-0.0000000000000089
 21
1.0
 31
0.0
210
0.0
220
0.0
230
1.0
 40
0.0087268677907588
 41
0.0174532791527256
 42
1.570796326795926
  0
LINE
  5
17CC
330
175A
100
AcDbEntity
  8
Visible Tangent Edges(ISO)
100
AcDbLine
 10
-42.00887917263433
 20
-78.01775969781573
 30
0.0
 11
-43.99999999999995
 21
-78.01775969781573
 31
0.0
  0
LINE
  5
17CD
330
175A
100
AcDbEntity
  8
Visible Edges(ISO)
100
AcDbLine
 10
-43.99999999999995
 20
-79.01760739297214
 30
0.0
 11
-43.99999999999995
 21
-78.01775969781573
 31
0.0
  0
LINE
  5
17CE
330
175A
100
AcDbEntity
  8
Visible Tangent Edges(ISO)
100
AcDbLine
 10
-43.99999999999995
 20
-79.01760739297214
 30
0.0
 11
-42.01745373558143
 21
-79.01760739297214
 31
0.0
  0
LINE
  5
17CF
330
175A
100
AcDbEntity
  8
Visible Edges(ISO)
100
AcDbLine
 10
-43.99999999999995
 20
-77.01730273688434
 30
0.0
 11
-43.99999999999995
 21
-78.01715043204072
 31
0.0
  0
LINE
  5
17D0
330
175A
100
AcDbEntity
  8
Visible Edges(ISO)
100
AcDbLine
 10
-43.99999999999995
 20
78.01715043204075
 30
0.0
 11
-43.99999999999995
 21
77.01730273688434
 31
0.0
  0
LINE
  5
17D1
330
175A
100
AcDbEntity
  8
Visible Edges(ISO)
100
AcDbLine
 10
-43.99999999999995
 20
78.01775969781584
 30
0.0
 11
-43.99999999999995
 21
79.01760739297225
 31
0.0
  0
LINE
  5
17D2
330
175A
100
AcDbEntity
  8
Visible Tangent Edges(ISO)
100
AcDbLine
 10
-43.99999999999995
 20
-78.01715043204061
 30
0.0
 11
-42.00857456294714
 21
-78.01715043204072
 31
0.0
  0
ELLIPSE
  5
17D3
330
175A
100
AcDbEntity
  8
Visible Edges(ISO)
100
AcDbEllipse
 10
-42.00872686779073
 20
-77.01730273688434
 30
0.0
 11
0.0000000000000109
 21
1.0
 31
0.0
210
0.0
220
0.0
230
1.0
 40
0.0087268677907588
 41
3.159045962605736
 42
4.712388980383446
  0
LINE
  5
17D4
330
175A
100
AcDbEntity
  8
Visible Tangent Edges(ISO)
100
AcDbLine
 10
-43.99999999999995
 20
78.01775969781584
 30
0.0
 11
-42.00887917263433
 21
78.01775969781584
 31
0.0
  0
ELLIPSE
  5
17D5
330
175A
100
AcDbEntity
  8
Visible Edges(ISO)
100
AcDbEllipse
 10
-42.00872686779073
 20
79.01760739297225
 30
0.0
 11
0.0000000000000088
 21
1.0
 31
0.0
210
0.0
220
0.0
230
1.0
 40
0.0087268677907588
 41
1.570796326793901
 42
3.124139374439101
  0
LINE
  5
17D6
330
175A
100
AcDbEntity
  8
Visible Tangent Edges(ISO)
100
AcDbLine
 10
-42.01745373558156
 20
79.01760739297225
 30
0.0
 11
-43.99999999999995
 21
79.01760739297225
 31
0.0
  0
ELLIPSE
  5
17D7
330
175A
100
AcDbEntity
  8
Visible Edges(ISO)
100
AcDbEllipse
 10
-42.00872686779073
 20
77.01730273688434
 30
0.0
 11
-0.0000000000000112
 21
1.0
 31
0.0
210
0.0
220
0.0
230
1.0
 40
0.0087268677907588
 41
4.712388980385965
 42
6.265731997931378
  0
LINE
  5
17D8
330
175A
100
AcDbEntity
  8
Visible Tangent Edges(ISO)
100
AcDbLine
 10
-42.00857456294714
 20
78.01715043204075
 30
0.0
 11
-43.99999999999995
 21
78.01715043204075
 31
0.0
  0
LINE
  5
17D9
330
175A
100
AcDbEntity
  8
Visible Edges(ISO)
100
AcDbLine
 10
44.00000000000004
 20
77.01730273688434
 30
0.0
 11
44.00000000000004
 21
-77.01730273688434
 31
0.0
  0
LINE
  5
17DA
330
175A
100
AcDbEntity
  8
Visible Edges(ISO)
100
AcDbLine
 10
-3.017302736884346
 20
108.0000000000001
 30
0.0
 11
3.017302736884346
 21
108.0000000000001
 31
0.0
  0
LINE
  5
17DB
330
175A
100
AcDbEntity
  8
Visible Edges(ISO)
100
AcDbLine
 10
-43.99999999999995
 20
-77.01730273688434
 30
0.0
 11
-43.99999999999995
 21
77.01730273688434
 31
0.0
  0
LINE
  5
17DC
330
175A
100
AcDbEntity
  8
Visible Edges(ISO)
100
AcDbLine
 10
3.017302736884346
 20
-107.9999999999999
 30
0.0
 11
-3.017302736884346
 21
-107.9999999999999
 31
0.0
  0
LINE
  5
17DD
330
175A
100
AcDbEntity
  8
Visible Tangent Edges(ISO)
100
AcDbLine
 10
-25.36785079356096
 20
78.61796502436863
 30
0.0
 11
-25.36785079356096
 21
-78.61796502436845
 31
0.0
  0
ELLIPSE
  5
17DE
330
175A
100
AcDbEntity
  8
Visible Tangent Edges(ISO)
100
AcDbEllipse
 10
-22.36773655840375
 20
78.6177365584038
 30
0.0
 11
-2.121481893392664
 21
2.121481893392664
 31
0.0
210
0.0
220
0.0
230
1.0
 40
0.9999238504775703
 41
5.497825219993078
 42
7.068545394366085
  0
LINE
  5
17DF
330
175A
100
AcDbEntity
  8
Visible Tangent Edges(ISO)
100
AcDbLine
 10
22.36796502436846
 20
81.61785079356105
 30
0.0
 11
-22.36796502436846
 21
81.61785079356105
 31
0.0
  0
ELLIPSE
  5
17E0
330
175A
100
AcDbEntity
  8
Visible Tangent Edges(ISO)
100
AcDbEllipse
 10
22.36773655840375
 20
78.6177365584038
 30
0.0
 11
2.121481893392664
 21
2.121481893392664
 31
0.0
210
0.0
220
0.0
230
1.0
 40
0.9999238504775703
 41
5.497825219993083
 42
7.068545394366097
  0
LINE
  5
17E1
330
175A
100
AcDbEntity
  8
Visible Tangent Edges(ISO)
100
AcDbLine
 10
25.36785079356096
 20
-78.61796502436845
 30
0.0
 11
25.36785079356096
 21
78.61796502436863
 31
0.0
  0
ELLIPSE
  5
17E2
330
175A
100
AcDbEntity
  8
Visible Tangent Edges(ISO)
100
AcDbEllipse
 10
22.36773655840375
 20
-78.61773655840372
 30
0.0
 11
2.121481893392664
 21
-2.121481893392664
 31
0.0
210
0.0
220
0.0
230
1.0
 40
0.9999238504775703
 41
5.497825219993075
 42
7.068545394366097
  0
LINE
  5
17E3
330
175A
100
AcDbEntity
  8
Visible Tangent Edges(ISO)
100
AcDbLine
 10
-22.36796502436846
 20
-81.61785079356093
 30
0.0
 11
22.36796502436846
 21
-81.61785079356093
 31
0.0
  0
ELLIPSE
  5
17E4
330
175A
100
AcDbEntity
  8
Visible Tangent Edges(ISO)
100
AcDbEllipse
 10
-22.36773655840375
 20
-78.61773655840372
 30
0.0
 11
-2.121481893392664
 21
-2.121481893392664
 31
0.0
210
0.0
220
0.0
230
1.0
 40
0.9999238504775703
 41
5.497825219993075
 42
7.068545394366092
  0
LINE
  5
17E5
330
175A
100
AcDbEntity
  8
Visible Tangent Edges(ISO)
100
AcDbLine
 10
-24.36788887049685
 20
78.61796502436863
 30
0.0
 11
-25.36785079356096
 21
78.61796502436863
 31
0.0
  0
LINE
  5
17E6
330
175A
100
AcDbEntity
  8
Visible Tangent Edges(ISO)
100
AcDbLine
 10
-25.36785079356096
 20
-78.61796502436845
 30
0.0
 11
-24.36788887049685
 21
-78.61796502436845
 31
0.0
  0
LINE
  5
17E7
330
175A
100
AcDbEntity
  8
Visible Tangent Edges(ISO)
100
AcDbLine
 10
-24.36788887049685
 20
-78.61796502436845
 30
0.0
 11
-24.36788887049685
 21
78.61796502436863
 31
0.0
  0
LINE
  5
17E8
330
175A
100
AcDbEntity
  8
Visible Tangent Edges(ISO)
100
AcDbLine
 10
-22.36796502436846
 20
80.61788887049681
 30
0.0
 11
-22.36796502436846
 21
81.61785079356105
 31
0.0
  0
ELLIPSE
  5
17E9
330
175A
100
AcDbEntity
  8
Visible Tangent Edges(ISO)
100
AcDbEllipse
 10
-22.36773655840375
 20
78.6177365584038
 30
0.0
 11
-1.414428958049813
 21
1.4144289580498
 31
0.0
210
0.0
220
0.0
230
1.0
 40
0.9998477154504763
 41
5.497825219993089
 42
7.068545394366107
  0
LINE
  5
17EA
330
175A
100
AcDbEntity
  8
Visible Tangent Edges(ISO)
100
AcDbLine
 10
-22.36796502436846
 20
-81.61785079356093
 30
0.0
 11
-22.36796502436846
 21
-80.61788887049685
 31
0.0
  0
ELLIPSE
  5
17EB
330
175A
100
AcDbEntity
  8
Visible Tangent Edges(ISO)
100
AcDbEllipse
 10
-22.36773655840375
 20
-78.61773655840372
 30
0.0
 11
-1.414428958049813
 21
-1.414428958049816
 31
0.0
210
0.0
220
0.0
230
1.0
 40
0.9998477154504685
 41
5.497825219993071
 42
7.06854539436609
  0
LINE
  5
17EC
330
175A
100
AcDbEntity
  8
Visible Tangent Edges(ISO)
100
AcDbLine
 10
22.36796502436846
 20
80.61788887049681
 30
0.0
 11
22.36796502436846
 21
81.61785079356105
 31
0.0
  0
LINE
  5
17ED
330
175A
100
AcDbEntity
  8
Visible Tangent Edges(ISO)
100
AcDbLine
 10
-22.36796502436846
 20
80.61788887049681
 30
0.0
 11
22.36796502436846
 21
80.61788887049681
 31
0.0
  0
LINE
  5
17EE
330
175A
100
AcDbEntity
  8
Visible Tangent Edges(ISO)
100
AcDbLine
 10
22.36796502436846
 20
-81.61785079356093
 30
0.0
 11
22.36796502436846
 21
-80.61788887049685
 31
0.0
  0
LINE
  5
17EF
330
175A
100
AcDbEntity
  8
Visible Tangent Edges(ISO)
100
AcDbLine
 10
22.36796502436846
 20
-80.61788887049685
 30
0.0
 11
-22.36796502436846
 21
-80.61788887049672
 31
0.0
  0
LINE
  5
17F0
330
175A
100
AcDbEntity
  8
Visible Tangent Edges(ISO)
100
AcDbLine
 10
24.36788887049676
 20
78.61796502436863
 30
0.0
 11
25.36785079356096
 21
78.61796502436863
 31
0.0
  0
ELLIPSE
  5
17F1
330
175A
100
AcDbEntity
  8
Visible Tangent Edges(ISO)
100
AcDbEllipse
 10
22.36773655840375
 20
78.6177365584038
 30
0.0
 11
1.414428958049813
 21
1.4144289580498
 31
0.0
210
0.0
220
0.0
230
1.0
 40
0.9998477154504698
 41
5.497825219993058
 42
7.0685453943661
  0
LINE
  5
17F2
330
175A
100
AcDbEntity
  8
Visible Tangent Edges(ISO)
100
AcDbLine
 10
25.36785079356096
 20
-78.61796502436845
 30
0.0
 11
24.36788887049684
 21
-78.61796502436845
 31
0.0
  0
ELLIPSE
  5
17F3
330
175A
100
AcDbEntity
  8
Visible Tangent Edges(ISO)
100
AcDbEllipse
 10
22.36773655840375
 20
-78.61773655840372
 30
0.0
 11
1.414428958049813
 21
-1.414428958049816
 31
0.0
210
0.0
220
0.0
230
1.0
 40
0.9998477154504685
 41
5.497825219993072
 42
7.0685453943661
  0
LINE
  5
17F4
330
175A
100
AcDbEntity
  8
Visible Tangent Edges(ISO)
100
AcDbLine
 10
24.36788887049676
 20
78.61796502436863
 30
0.0
 11
24.36788887049684
 21
-78.61796502436845
 31
0.0
  0
LINE
  5
17F5
330
175A
100
AcDbEntity
  8
Visible Edges(ISO)
100
AcDbLine
 10
-10.29627108803495
 20
99.76029963643265
 30
0.0
 11
-7.644544171741841
 21
99.76029963643265
 31
0.0
  0
LINE
  5
17F6
330
175A
100
AcDbEntity
  8
Visible Edges(ISO)
100
AcDbLine
 10
-7.644544171741841
 20
99.76029963643265
 30
0.0
 11
-7.644544171741955
 21
92.81084409411585
 31
0.0
  0
LINE
  5
17F7
330
175A
100
AcDbEntity
  8
Visible Edges(ISO)
100
AcDbLine
 10
-7.644544171741955
 20
92.81084409411585
 30
0.0
 11
-10.29520734653913
 21
92.81084409411585
 31
0.0
  0
ARC
  5
17F8
330
175A
100
AcDbEntity
  8
Visible Edges(ISO)
100
AcDbCircle
 10
-14.03175244471372
 20
96.28500000000009
 30
0.0
 40
5.102110203541537
100
AcDbArc
 50
317.0840086012435
 51
42.93353173622741
  0
LINE
  5
17F9
330
175A
100
AcDbEntity
  8
Visible Edges(ISO)
100
AcDbLine
 10
-3.725374476365459
 20
95.00868330133926
 30
0.0
 11
-3.757697525399663
 21
95.50160979910709
 31
0.0
  0
ARC
  5
17FA
330
175A
100
AcDbEntity
  8
Visible Edges(ISO)
100
AcDbCircle
 10
-4.171456555299329
 20
95.41836194633509
 30
0.0
 40
0.4220506365528565
100
AcDbArc
 50
11.37596594781682
 51
100.8114800752802
  0
LINE
  5
17FB
330
175A
100
AcDbEntity
  8
Visible Edges(ISO)
100
AcDbLine
 10
-4.250624023168541
 20
95.83292105170597
 30
0.0
 11
-4.51728917769924
 21
95.83292105170597
 31
0.0
  0
LINE
  5
17FC
330
175A
100
AcDbEntity
  8
Visible Edges(ISO)
100
AcDbLine
 10
-4.51728917769924
 20
95.83292105170597
 30
0.0
 11
-4.51728917769924
 21
94.27333393581376
 31
0.0
  0
LINE
  5
17FD
330
175A
100
AcDbEntity
  8
Visible Edges(ISO)
100
AcDbLine
 10
-4.51728917769924
 20
94.27333393581376
 30
0.0
 11
-5.697080467441537
 21
94.27333393581376
 31
0.0
  0
LINE
  5
17FE
330
175A
100
AcDbEntity
  8
Visible Edges(ISO)
100
AcDbLine
 10
-5.697080467441537
 20
94.27333393581376
 30
0.0
 11
-5.697080467441537
 21
98.16826134441498
 31
0.0
  0
LINE
  5
17FF
330
175A
100
AcDbEntity
  8
Visible Edges(ISO)
100
AcDbLine
 10
-5.697080467441537
 20
98.16826134441498
 30
0.0
 11
-3.531436182161456
 21
98.16826134441498
 31
0.0
  0
LINE
  5
1800
330
175A
100
AcDbEntity
  8
Visible Edges(ISO)
100
AcDbLine
 10
-3.531436182161456
 20
98.16826134441498
 30
0.0
 11
-3.385982461508461
 21
98.16018058215613
 31
0.0
  0
ARC
  5
1801
330
175A
100
AcDbEntity
  8
Visible Edges(ISO)
100
AcDbCircle
 10
-3.414560095688244
 20
96.80825981321374
 30
0.0
 40
1.35222277997109
100
AcDbArc
 50
77.38851466568168
 51
88.78903109628099
  0
ARC
  5
1802
330
175A
100
AcDbEntity
  8
Visible Edges(ISO)
100
AcDbCircle
 10
-3.274745896959245
 20
97.4331641458793
 30
0.0
 40
0.7118686317449443
100
AcDbArc
 50
30.69463155046577
 51
77.38851466567931
  0
ARC
  5
1803
330
175A
100
AcDbEntity
  8
Visible Edges(ISO)
100
AcDbCircle
 10
-4.136025245506232
 20
97.19374161306205
 30
0.0
 40
1.591956655531648
100
AcDbArc
 50
348.1656515276995
 51
22.250485338432
  0
ARC
  5
1804
330
175A
100
AcDbEntity
  8
Visible Edges(ISO)
100
AcDbCircle
 10
-3.30314106572365
 20
96.93600667460371
 30
0.0
 40
0.7284860009933754
100
AcDbArc
 50
276.8474460233844
 51
354.584873867538
  0
ARC
  5
1805
330
175A
100
AcDbEntity
  8
Visible Edges(ISO)
100
AcDbCircle
 10
-3.292377583370665
 20
95.49332538860614
 30
0.0
 40
0.7234044337449495
100
AcDbArc
 50
9.013547133536725
 51
83.96218792413776
  0
LINE
  5
1806
330
175A
100
AcDbEntity
  8
Visible Edges(ISO)
100
AcDbLine
 10
-2.577906235657252
 20
95.60665970846793
 30
0.0
 11
-2.553663948881819
 21
95.30767150490294
 31
0.0
  0
LINE
  5
1807
330
175A
100
AcDbEntity
  8
Visible Edges(ISO)
100
AcDbLine
 10
-2.553663948881819
 20
95.30767150490294
 30
0.0
 11
-2.537502424364959
 21
94.73393738454893
 31
0.0
  0
ARC
  5
1808
330
175A
100
AcDbEntity
  8
Visible Edges(ISO)
100
AcDbCircle
 10
-0.2627678485953311
 20
94.97231987117515
 30
0.0
 40
2.287191203229786
100
AcDbArc
 50
185.9825169258617
 51
197.7947991534103
  0
LINE
  5
1809
330
175A
100
AcDbEntity
  8
Visible Edges(ISO)
100
AcDbLine
 10
-2.440533277262744
 20
94.27333393581376
 30
0.0
 11
-3.636486091521959
 21
94.27333393581376
 31
0.0
  0
LINE
  5
180A
330
175A
100
AcDbEntity
  8
Visible Edges(ISO)
100
AcDbLine
 10
-3.636486091521959
 20
94.27333393581376
 30
0.0
 11
-3.660728378297335
 21
94.36222232065768
 31
0.0
  0
LINE
  5
180B
330
175A
100
AcDbEntity
  8
Visible Edges(ISO)
100
AcDbLine
 10
-3.660728378297335
 20
94.36222232065768
 30
0.0
 11
-3.709212951848456
 21
94.72585662229056
 31
0.0
  0
LINE
  5
180C
330
175A
100
AcDbEntity
  8
Visible Edges(ISO)
100
AcDbLine
 10
-3.709212951848456
 20
94.72585662229056
 30
0.0
 11
-3.725374476365459
 21
95.00868330133926
 31
0.0
  0
LINE
  5
180D
330
175A
100
AcDbEntity
  8
Visible Edges(ISO)
100
AcDbLine
 10
0.3715719886979514
 20
94.24101088677998
 30
0.0
 11
-1.236499700744133
 21
94.24101088677998
 31
0.0
  0
LINE
  5
180E
330
175A
100
AcDbEntity
  8
Visible Edges(ISO)
100
AcDbLine
 10
-1.236499700744133
 20
94.24101088677998
 30
0.0
 11
-1.438518757207845
 21
94.24909164903857
 31
0.0
  0
ARC
  5
180F
330
175A
100
AcDbEntity
  8
Visible Edges(ISO)
100
AcDbCircle
 10
-1.43300603380274
 20
94.82354482027123
 30
0.0
 40
0.5744796219700782
100
AcDbArc
 50
191.4304844914626
 51
269.4501795705461
  0
LINE
  5
1810
330
175A
100
AcDbEntity
  8
Visible Edges(ISO)
100
AcDbLine
 10
-1.996091353044846
 20
94.7096950977736
 30
0.0
 11
-2.012252877561962
 21
94.83898729390944
 31
0.0
  0
LINE
  5
1811
330
175A
100
AcDbEntity
  8
Visible Edges(ISO)
100
AcDbLine
 10
-2.012252877561962
 20
94.83898729390944
 30
0.0
 11
-2.020333639820449
 21
96.67332032659096
 31
0.0
  0
ARC
  5
1812
330
175A
100
AcDbEntity
  8
Visible Edges(ISO)
100
AcDbCircle
 10
-1.404631689672157
 20
96.78358363095714
 30
0.0
 40
0.6254973123093685
100
AcDbArc
 50
87.9222070547042
 51
190.1532141872595
  0
LINE
  5
1813
330
175A
100
AcDbEntity
  8
Visible Edges(ISO)
100
AcDbLine
 10
-1.381953421398236
 20
97.40866969211532
 30
0.0
 11
0.395814275473441
 21
97.40866969211499
 31
0.0
  0
ARC
  5
1814
330
175A
100
AcDbEntity
  8
Visible Edges(ISO)
100
AcDbCircle
 10
0.4310754674113469
 20
96.83085346552543
 30
0.0
 40
0.5788911325691064
100
AcDbArc
 50
0.4040300223579097
 51
93.49213999073075
  0
LINE
  5
1815
330
175A
100
AcDbEntity
  8
Visible Edges(ISO)
100
AcDbLine
 10
1.009952207120164
 20
96.83493557176127
 30
0.0
 11
1.009952207120051
 21
94.8309065316512
 31
0.0
  0
ARC
  5
1816
330
175A
100
AcDbEntity
  8
Visible Edges(ISO)
100
AcDbCircle
 10
0.4149126408993311
 20
94.85452585217325
 30
0.0
 40
0.595508150800645
100
AcDbArc
 50
278.298663029679
 51
357.7269119786988
  0
ARC
  5
1817
330
175A
100
AcDbEntity
  8
Visible Edges(ISO)
100
AcDbCircle
 10
0.7352757152063419
 20
92.65815801181895
 30
0.0
 40
1.624100866463748
100
AcDbArc
 50
98.29866302968724
 51
102.940647522622
  0
LINE
  5
1818
330
175A
100
AcDbEntity
  8
Visible Edges(ISO)
100
AcDbLine
 10
-14.03140608843876
 20
93.86082399137057
 30
0.0
 11
-14.02800000000005
 21
98.70967222130085
 31
0.0
  0
ARC
  5
1819
330
175A
100
AcDbEntity
  8
Visible Edges(ISO)
100
AcDbCircle
 10
-14.02970304427781
 20
96.28524810633559
 30
0.0
 40
2.424424713060451
100
AcDbArc
 50
269.9597524076786
 51
89.9597524076786
  0
LINE
  5
181A
330
175A
100
AcDbEntity
  8
Visible Edges(ISO)
100
AcDbLine
 10
9.990303270593955
 20
94.21299331609725
 30
0.0
 11
9.808486119777455
 21
94.18875102932236
 31
0.0
  0
LINE
  5
181B
330
175A
100
AcDbEntity
  8
Visible Edges(ISO)
100
AcDbLine
 10
9.808486119777455
 20
94.18875102932236
 30
0.0
 11
8.063041471939754
 21
94.18875102931735
 31
0.0
  0
LINE
  5
181C
330
175A
100
AcDbEntity
  8
Visible Edges(ISO)
100
AcDbLine
 10
8.063041471939754
 20
94.18875102931735
 30
0.0
 11
7.949910800320679
 21
94.19683179158042
 31
0.0
  0
LINE
  5
181D
330
175A
100
AcDbEntity
  8
Visible Edges(ISO)
100
AcDbLine
 10
7.949910800320679
 20
94.19683179158042
 30
0.0
 11
7.852941653218664
 21
94.22107407835596
 31
0.0
  0
LINE
  5
181E
330
175A
100
AcDbEntity
  8
Visible Edges(ISO)
100
AcDbLine
 10
7.852941653218664
 20
94.22107407835596
 30
0.0
 11
7.755972506116535
 21
94.25339712739008
 31
0.0
  0
LINE
  5
181F
330
175A
100
AcDbEntity
  8
Visible Edges(ISO)
100
AcDbLine
 10
7.755972506116535
 20
94.25339712739008
 30
0.0
 11
7.667084121272949
 21
94.29380093868259
 31
0.0
  0
LINE
  5
1820
330
175A
100
AcDbEntity
  8
Visible Edges(ISO)
100
AcDbLine
 10
7.667084121272949
 20
94.29380093868259
 30
0.0
 11
7.594357260946452
 21
94.35036627449212
 31
0.0
  0
LINE
  5
1821
330
175A
100
AcDbEntity
  8
Visible Edges(ISO)
100
AcDbLine
 10
7.594357260946452
 20
94.35036627449212
 30
0.0
 11
7.529711162878356
 21
94.43117389707726
 31
0.0
  0
LINE
  5
1822
330
175A
100
AcDbEntity
  8
Visible Edges(ISO)
100
AcDbLine
 10
7.529711162878356
 20
94.43117389707726
 30
0.0
 11
7.473145827068861
 21
94.52006228192084
 31
0.0
  0
LINE
  5
1823
330
175A
100
AcDbEntity
  8
Visible Edges(ISO)
100
AcDbLine
 10
7.473145827068861
 20
94.52006228192084
 30
0.0
 11
7.43274201577617
 21
94.63319295353983
 31
0.0
  0
LINE
  5
1824
330
175A
100
AcDbEntity
  8
Visible Edges(ISO)
100
AcDbLine
 10
7.43274201577617
 20
94.63319295353983
 30
0.0
 11
7.408499729000737
 21
94.77056591193468
 31
0.0
  0
LINE
  5
1825
330
175A
100
AcDbEntity
  8
Visible Edges(ISO)
100
AcDbLine
 10
7.408499729000737
 20
94.77056591193468
 30
0.0
 11
7.40041896674225
 21
94.9321811571048
 31
0.0
  0
LINE
  5
1826
330
175A
100
AcDbEntity
  8
Visible Edges(ISO)
100
AcDbLine
 10
7.40041896674225
 20
94.9321811571048
 30
0.0
 11
7.40041896674225
 21
96.62106046913294
 31
0.0
  0
LINE
  5
1827
330
175A
100
AcDbEntity
  8
Visible Edges(ISO)
100
AcDbLine
 10
7.40041896674225
 20
96.62106046913294
 30
0.0
 11
7.408499729000737
 21
96.78267571430314
 31
0.0
  0
LINE
  5
1828
330
175A
100
AcDbEntity
  8
Visible Edges(ISO)
100
AcDbLine
 10
7.408499729000737
 20
96.78267571430314
 30
0.0
 11
7.440822778034657
 21
96.92004867269758
 31
0.0
  0
LINE
  5
1829
330
175A
100
AcDbEntity
  8
Visible Edges(ISO)
100
AcDbLine
 10
7.440822778034657
 20
96.92004867269758
 30
0.0
 11
7.481226589327349
 21
97.03317934431664
 31
0.0
  0
LINE
  5
182A
330
175A
100
AcDbEntity
  8
Visible Edges(ISO)
100
AcDbLine
 10
7.481226589327349
 20
97.03317934431664
 30
0.0
 11
7.545872687395245
 21
97.13014849141911
 31
0.0
  0
LINE
  5
182B
330
175A
100
AcDbEntity
  8
Visible Edges(ISO)
100
AcDbLine
 10
7.545872687395245
 20
97.13014849141911
 30
0.0
 11
7.618599547721856
 21
97.20287535174533
 31
0.0
  0
LINE
  5
182C
330
175A
100
AcDbEntity
  8
Visible Edges(ISO)
100
AcDbLine
 10
7.618599547721856
 20
97.20287535174533
 30
0.0
 11
7.707487932565356
 21
97.2675214498135
 31
0.0
  0
LINE
  5
182D
330
175A
100
AcDbEntity
  8
Visible Edges(ISO)
100
AcDbLine
 10
7.707487932565356
 20
97.2675214498135
 30
0.0
 11
7.82061860418446
 21
97.30792526110613
 31
0.0
  0
LINE
  5
182E
330
175A
100
AcDbEntity
  8
Visible Edges(ISO)
100
AcDbLine
 10
7.82061860418446
 20
97.30792526110613
 30
0.0
 11
7.941830038062164
 21
97.3402483101402
 31
0.0
  0
LINE
  5
182F
330
175A
100
AcDbEntity
  8
Visible Edges(ISO)
100
AcDbLine
 10
7.941830038062164
 20
97.3402483101402
 30
0.0
 11
8.079202996456757
 21
97.35640983465708
 31
0.0
  0
LINE
  5
1830
330
175A
100
AcDbEntity
  8
Visible Edges(ISO)
100
AcDbLine
 10
8.079202996456757
 20
97.35640983465708
 30
0.0
 11
9.784243833001937
 21
97.35640983465714
 31
0.0
  0
ARC
  5
1831
330
175A
100
AcDbEntity
  8
Visible Edges(ISO)
100
AcDbCircle
 10
9.854894907535452
 20
96.78466265243327
 30
0.0
 40
0.576095838132643
100
AcDbArc
 50
358.1947406809014
 51
97.04435690989262
  0
LINE
  5
1832
330
175A
100
AcDbEntity
  8
Visible Edges(ISO)
100
AcDbLine
 10
10.43070481368266
 20
96.76651418978616
 30
0.0
 11
10.43878557594105
 21
96.62106046913294
 31
0.0
  0
LINE
  5
1833
330
175A
100
AcDbEntity
  8
Visible Edges(ISO)
100
AcDbLine
 10
10.43878557594105
 20
96.62106046913294
 30
0.0
 11
10.43878557594105
 21
95.45743070390759
 31
0.0
  0
LINE
  5
1834
330
175A
100
AcDbEntity
  8
Visible Edges(ISO)
100
AcDbLine
 10
10.43878557594105
 20
95.45743070390759
 30
0.0
 11
8.580210256484349
 21
95.45743070390759
 31
0.0
  0
LINE
  5
1835
330
175A
100
AcDbEntity
  8
Visible Edges(ISO)
100
AcDbLine
 10
8.580210256484349
 20
95.45743070390759
 30
0.0
 11
8.588291018742665
 21
95.12611945130908
 31
0.0
  0
LINE
  5
1836
330
175A
100
AcDbEntity
  8
Visible Edges(ISO)
100
AcDbLine
 10
8.588291018742665
 20
95.12611945130908
 30
0.0
 11
8.620614067776756
 21
94.99682725517264
 31
0.0
  0
LINE
  5
1837
330
175A
100
AcDbEntity
  8
Visible Edges(ISO)
100
AcDbLine
 10
8.620614067776756
 20
94.99682725517264
 30
0.0
 11
8.652937116810846
 21
94.94026191936336
 31
0.0
  0
LINE
  5
1838
330
175A
100
AcDbEntity
  8
Visible Edges(ISO)
100
AcDbLine
 10
8.652937116810846
 20
94.94026191936336
 30
0.0
 11
8.693340928103367
 21
94.89177734581208
 31
0.0
  0
LINE
  5
1839
330
175A
100
AcDbEntity
  8
Visible Edges(ISO)
100
AcDbLine
 10
8.693340928103367
 20
94.89177734581208
 30
0.0
 11
8.757987026171548
 21
94.85137353451966
 31
0.0
  0
LINE
  5
183A
330
175A
100
AcDbEntity
  8
Visible Edges(ISO)
100
AcDbLine
 10
8.757987026171548
 20
94.85137353451966
 30
0.0
 11
8.830713886498045
 21
94.82713124774386
 31
0.0
  0
LINE
  5
183B
330
175A
100
AcDbEntity
  8
Visible Edges(ISO)
100
AcDbLine
 10
8.830713886498045
 20
94.82713124774386
 30
0.0
 11
8.919602271341744
 21
94.8190504854856
 31
0.0
  0
LINE
  5
183C
330
175A
100
AcDbEntity
  8
Visible Edges(ISO)
100
AcDbLine
 10
8.919602271341744
 20
94.8190504854856
 30
0.0
 11
8.97616760715104
 21
94.82713124774386
 31
0.0
  0
LINE
  5
183D
330
175A
100
AcDbEntity
  8
Visible Edges(ISO)
100
AcDbLine
 10
8.97616760715104
 20
94.82713124774386
 30
0.0
 11
9.024652180702247
 21
94.83521201000275
 31
0.0
  0
LINE
  5
183E
330
175A
100
AcDbEntity
  8
Visible Edges(ISO)
100
AcDbLine
 10
9.024652180702247
 20
94.83521201000275
 30
0.0
 11
9.081217516511856
 21
94.85945429677826
 31
0.0
  0
LINE
  5
183F
330
175A
100
AcDbEntity
  8
Visible Edges(ISO)
100
AcDbLine
 10
9.081217516511856
 20
94.85945429677826
 30
0.0
 11
9.129702090062863
 21
94.89177734581208
 31
0.0
  0
LINE
  5
1840
330
175A
100
AcDbEntity
  8
Visible Edges(ISO)
100
AcDbLine
 10
9.129702090062863
 20
94.89177734581208
 30
0.0
 11
9.178186663613843
 21
94.9321811571048
 31
0.0
  0
LINE
  5
1841
330
175A
100
AcDbEntity
  8
Visible Edges(ISO)
100
AcDbLine
 10
9.178186663613843
 20
94.9321811571048
 30
0.0
 11
9.218590474906363
 21
94.98874649291428
 31
0.0
  0
LINE
  5
1842
330
175A
100
AcDbEntity
  8
Visible Edges(ISO)
100
AcDbLine
 10
9.218590474906363
 20
94.98874649291428
 30
0.0
 11
9.250913523940567
 21
95.06147335324067
 31
0.0
  0
LINE
  5
1843
330
175A
100
AcDbEntity
  8
Visible Edges(ISO)
100
AcDbLine
 10
9.250913523940567
 20
95.06147335324067
 30
0.0
 11
9.258994286199055
 21
95.15844250034296
 31
0.0
  0
LINE
  5
1844
330
175A
100
AcDbEntity
  8
Visible Edges(ISO)
100
AcDbLine
 10
9.258994286199055
 20
95.15844250034296
 30
0.0
 11
10.43878557594105
 21
95.15844250034296
 31
0.0
  0
LINE
  5
1845
330
175A
100
AcDbEntity
  8
Visible Edges(ISO)
100
AcDbLine
 10
10.43878557594105
 20
95.15844250034296
 30
0.0
 11
10.43878557594105
 21
94.92410039484605
 31
0.0
  0
LINE
  5
1846
330
175A
100
AcDbEntity
  8
Visible Edges(ISO)
100
AcDbLine
 10
10.43878557594105
 20
94.92410039484605
 30
0.0
 11
10.43070481368266
 21
94.77056591193468
 31
0.0
  0
LINE
  5
1847
330
175A
100
AcDbEntity
  8
Visible Edges(ISO)
100
AcDbLine
 10
10.43070481368266
 20
94.77056591193468
 30
0.0
 11
10.40646252690717
 21
94.63319295353983
 31
0.0
  0
LINE
  5
1848
330
175A
100
AcDbEntity
  8
Visible Edges(ISO)
100
AcDbLine
 10
10.40646252690717
 20
94.63319295353983
 30
0.0
 11
10.36605871561457
 21
94.51198151966236
 31
0.0
  0
LINE
  5
1849
330
175A
100
AcDbEntity
  8
Visible Edges(ISO)
100
AcDbLine
 10
10.36605871561457
 20
94.51198151966236
 30
0.0
 11
10.30949337980496
 21
94.4150123725601
 31
0.0
  0
LINE
  5
184A
330
175A
100
AcDbEntity
  8
Visible Edges(ISO)
100
AcDbLine
 10
10.30949337980496
 20
94.4150123725601
 30
0.0
 11
10.18020118366874
 21
94.2857201764238
 31
0.0
  0
LINE
  5
184B
330
175A
100
AcDbEntity
  8
Visible Edges(ISO)
100
AcDbLine
 10
10.18020118366874
 20
94.2857201764238
 30
0.0
 11
10.09520353620895
 21
94.25219997742585
 31
0.0
  0
LINE
  5
184C
330
175A
100
AcDbEntity
  8
Visible Edges(ISO)
100
AcDbLine
 10
10.09520353620895
 20
94.25219997742585
 30
0.0
 11
10.04282822527438
 21
94.23723560287317
 31
0.0
  0
LINE
  5
184D
330
175A
100
AcDbEntity
  8
Visible Edges(ISO)
100
AcDbLine
 10
10.04282822527438
 20
94.23723560287317
 30
0.0
 11
9.990303270593955
 21
94.21299331609725
 31
0.0
  0
LINE
  5
184E
330
175A
100
AcDbEntity
  8
Visible Edges(ISO)
100
AcDbLine
 10
10.94879491531796
 20
94.82282576939258
 30
0.0
 11
10.94071415305954
 21
94.98444101456277
 31
0.0
  0
LINE
  5
184F
330
175A
100
AcDbEntity
  8
Visible Edges(ISO)
100
AcDbLine
 10
10.94071415305954
 20
94.98444101456277
 30
0.0
 11
10.94071415305954
 21
96.66523956433236
 31
0.0
  0
LINE
  5
1850
330
175A
100
AcDbEntity
  8
Visible Edges(ISO)
100
AcDbLine
 10
10.94071415305954
 20
96.66523956433236
 30
0.0
 11
10.94879491531796
 21
96.81877404724383
 31
0.0
  0
LINE
  5
1851
330
175A
100
AcDbEntity
  8
Visible Edges(ISO)
100
AcDbLine
 10
10.94879491531796
 20
96.81877404724383
 30
0.0
 11
10.96495643983493
 21
96.94806624338013
 31
0.0
  0
LINE
  5
1852
330
175A
100
AcDbEntity
  8
Visible Edges(ISO)
100
AcDbLine
 10
10.96495643983493
 20
96.94806624338013
 30
0.0
 11
11.00536025112774
 21
97.06119691499907
 31
0.0
  0
LINE
  5
1853
330
175A
100
AcDbEntity
  8
Visible Edges(ISO)
100
AcDbLine
 10
11.00536025112774
 20
97.06119691499907
 30
0.0
 11
11.05384482467835
 21
97.150085299843
 31
0.0
  0
LINE
  5
1854
330
175A
100
AcDbEntity
  8
Visible Edges(ISO)
100
AcDbLine
 10
11.05384482467835
 20
97.150085299843
 30
0.0
 11
11.16374319139416
 21
97.27372096239788
 31
0.0
  0
LINE
  5
1855
330
175A
100
AcDbEntity
  8
Visible Edges(ISO)
100
AcDbLine
 10
11.16374319139416
 20
97.27372096239788
 30
0.0
 11
11.27202540565815
 21
97.32786206952994
 31
0.0
  0
LINE
  5
1856
330
175A
100
AcDbEntity
  8
Visible Edges(ISO)
100
AcDbLine
 10
11.27202540565815
 20
97.32786206952994
 30
0.0
 11
11.36899455276035
 21
97.36018511856407
 31
0.0
  0
LINE
  5
1857
330
175A
100
AcDbEntity
  8
Visible Edges(ISO)
100
AcDbLine
 10
11.36899455276035
 20
97.36018511856407
 30
0.0
 11
11.46596369986244
 21
97.38442740533958
 31
0.0
  0
LINE
  5
1858
330
175A
100
AcDbEntity
  8
Visible Edges(ISO)
100
AcDbLine
 10
11.46596369986244
 20
97.38442740533958
 30
0.0
 11
11.57101360922303
 21
97.40058892985643
 31
0.0
  0
LINE
  5
1859
330
175A
100
AcDbEntity
  8
Visible Edges(ISO)
100
AcDbLine
 10
11.57101360922303
 20
97.40058892985643
 30
0.0
 11
11.67606351858353
 21
97.40866969211499
 31
0.0
  0
LINE
  5
185A
330
175A
100
AcDbEntity
  8
Visible Edges(ISO)
100
AcDbLine
 10
11.67606351858353
 20
97.40866969211499
 30
0.0
 11
13.31645825706093
 21
97.40866969211499
 31
0.0
  0
LINE
  5
185B
330
175A
100
AcDbEntity
  8
Visible Edges(ISO)
100
AcDbLine
 10
13.31645825706093
 20
97.40866969211499
 30
0.0
 11
13.39713437939429
 21
97.40621364993968
 31
0.0
  0
LINE
  5
185C
330
175A
100
AcDbEntity
  8
Visible Edges(ISO)
100
AcDbLine
 10
13.39713437939429
 20
97.40621364993968
 30
0.0
 11
13.52655807578193
 21
97.3763466430811
 31
0.0
  0
LINE
  5
185D
330
175A
100
AcDbEntity
  8
Visible Edges(ISO)
100
AcDbLine
 10
13.52655807578193
 20
97.3763466430811
 30
0.0
 11
13.62352722288395
 21
97.35210435630534
 31
0.0
  0
LINE
  5
185E
330
175A
100
AcDbEntity
  8
Visible Edges(ISO)
100
AcDbLine
 10
13.62352722288395
 20
97.35210435630534
 30
0.0
 11
13.70433484546919
 21
97.30361978275432
 31
0.0
  0
LINE
  5
185F
330
175A
100
AcDbEntity
  8
Visible Edges(ISO)
100
AcDbLine
 10
13.70433484546919
 20
97.30361978275432
 30
0.0
 11
13.78514246805406
 21
97.24705444694473
 31
0.0
  0
LINE
  5
1860
330
175A
100
AcDbEntity
  8
Visible Edges(ISO)
100
AcDbLine
 10
13.78514246805406
 20
97.24705444694473
 30
0.0
 11
13.84978856612235
 21
97.17432758661807
 31
0.0
  0
LINE
  5
1861
330
175A
100
AcDbEntity
  8
Visible Edges(ISO)
100
AcDbLine
 10
13.84978856612235
 20
97.17432758661807
 30
0.0
 11
13.89827313967325
 21
97.07735843951617
 31
0.0
  0
LINE
  5
1862
330
175A
100
AcDbEntity
  8
Visible Edges(ISO)
100
AcDbLine
 10
13.89827313967325
 20
97.07735843951617
 30
0.0
 11
13.93867695096594
 21
96.96422776789711
 31
0.0
  0
LINE
  5
1863
330
175A
100
AcDbEntity
  8
Visible Edges(ISO)
100
AcDbLine
 10
13.93867695096594
 20
96.96422776789711
 30
0.0
 11
13.96291923774143
 21
96.82685480950233
 31
0.0
  0
LINE
  5
1864
330
175A
100
AcDbEntity
  8
Visible Edges(ISO)
100
AcDbLine
 10
13.96291923774143
 20
96.82685480950233
 30
0.0
 11
13.97099999999994
 21
96.66523956433213
 31
0.0
  0
LINE
  5
1865
330
175A
100
AcDbEntity
  8
Visible Edges(ISO)
100
AcDbLine
 10
13.97099999999994
 20
96.66523956433213
 30
0.0
 11
13.97099999999994
 21
96.11574773075364
 31
0.0
  0
LINE
  5
1866
330
175A
100
AcDbEntity
  8
Visible Edges(ISO)
100
AcDbLine
 10
13.97099999999994
 20
96.11574773075364
 30
0.0
 11
12.79120871025785
 21
96.11574773075364
 31
0.0
  0
LINE
  5
1867
330
175A
100
AcDbEntity
  8
Visible Edges(ISO)
100
AcDbLine
 10
12.79120871025785
 20
96.11574773075364
 30
0.0
 11
12.79120871025785
 21
96.40665517206009
 31
0.0
  0
LINE
  5
1868
330
175A
100
AcDbEntity
  8
Visible Edges(ISO)
100
AcDbLine
 10
12.79120871025785
 20
96.40665517206009
 30
0.0
 11
12.79351749947477
 21
96.46322050786967
 31
0.0
  0
LINE
  5
1869
330
175A
100
AcDbEntity
  8
Visible Edges(ISO)
100
AcDbLine
 10
12.79351749947477
 20
96.46322050786967
 30
0.0
 11
12.75888566122375
 21
96.58443194174743
 31
0.0
  0
LINE
  5
186A
330
175A
100
AcDbEntity
  8
Visible Edges(ISO)
100
AcDbLine
 10
12.75888566122375
 20
96.58443194174743
 30
0.0
 11
12.72656261218945
 21
96.63291651529824
 31
0.0
  0
LINE
  5
186B
330
175A
100
AcDbEntity
  8
Visible Edges(ISO)
100
AcDbLine
 10
12.72656261218945
 20
96.63291651529824
 30
0.0
 11
12.68615880089703
 21
96.68140108884934
 31
0.0
  0
LINE
  5
186C
330
175A
100
AcDbEntity
  8
Visible Edges(ISO)
100
AcDbLine
 10
12.68615880089703
 20
96.68140108884934
 30
0.0
 11
12.64575498960434
 21
96.71372413788288
 31
0.0
  0
LINE
  5
186D
330
175A
100
AcDbEntity
  8
Visible Edges(ISO)
100
AcDbLine
 10
12.64575498960434
 20
96.71372413788288
 30
0.0
 11
12.54878584250227
 21
96.76220871143398
 31
0.0
  0
LINE
  5
186E
330
175A
100
AcDbEntity
  8
Visible Edges(ISO)
100
AcDbLine
 10
12.54878584250227
 20
96.76220871143398
 30
0.0
 11
12.50030126895113
 21
96.77028947369263
 31
0.0
  0
LINE
  5
186F
330
175A
100
AcDbEntity
  8
Visible Edges(ISO)
100
AcDbLine
 10
12.50030126895113
 20
96.77028947369263
 30
0.0
 11
12.43565517088325
 21
96.77837023595124
 31
0.0
  0
LINE
  5
1870
330
175A
100
AcDbEntity
  8
Visible Edges(ISO)
100
AcDbLine
 10
12.43565517088325
 20
96.77837023595124
 30
0.0
 11
12.36292831055664
 21
96.77028947369286
 31
0.0
  0
LINE
  5
1871
330
175A
100
AcDbEntity
  8
Visible Edges(ISO)
100
AcDbLine
 10
12.36292831055664
 20
96.77028947369286
 30
0.0
 11
12.30059100170544
 21
96.74951037074237
 31
0.0
  0
LINE
  5
1872
330
175A
100
AcDbEntity
  8
Visible Edges(ISO)
100
AcDbLine
 10
12.30059100170544
 20
96.74951037074237
 30
0.0
 11
12.22555535216224
 21
96.68948185110725
 31
0.0
  0
LINE
  5
1873
330
175A
100
AcDbEntity
  8
Visible Edges(ISO)
100
AcDbLine
 10
12.22555535216224
 20
96.68948185110725
 30
0.0
 11
12.18515154086945
 21
96.63291651529796
 31
0.0
  0
LINE
  5
1874
330
175A
100
AcDbEntity
  8
Visible Edges(ISO)
100
AcDbLine
 10
12.18515154086945
 20
96.63291651529796
 30
0.0
 11
12.14474772957695
 21
96.56018965497134
 31
0.0
  0
LINE
  5
1875
330
175A
100
AcDbEntity
  8
Visible Edges(ISO)
100
AcDbLine
 10
12.14474772957695
 20
96.56018965497134
 30
0.0
 11
12.12858620505986
 21
96.47130127012781
 31
0.0
  0
LINE
  5
1876
330
175A
100
AcDbEntity
  8
Visible Edges(ISO)
100
AcDbLine
 10
12.12858620505986
 20
96.47130127012781
 30
0.0
 11
12.12050544280137
 21
96.35817059850877
 31
0.0
  0
LINE
  5
1877
330
175A
100
AcDbEntity
  8
Visible Edges(ISO)
100
AcDbLine
 10
12.12050544280137
 20
96.35817059850877
 30
0.0
 11
12.12050544280137
 21
95.2591869313518
 31
0.0
  0
LINE
  5
1878
330
175A
100
AcDbEntity
  8
Visible Edges(ISO)
100
AcDbLine
 10
12.12050544280137
 20
95.2591869313518
 30
0.0
 11
12.12858620505986
 21
95.16221778424966
 31
0.0
  0
LINE
  5
1879
330
175A
100
AcDbEntity
  8
Visible Edges(ISO)
100
AcDbLine
 10
12.12858620505986
 20
95.16221778424966
 30
0.0
 11
12.14474772957695
 21
95.08141016166462
 31
0.0
  0
LINE
  5
187A
330
175A
100
AcDbEntity
  8
Visible Edges(ISO)
100
AcDbLine
 10
12.14474772957695
 20
95.08141016166462
 30
0.0
 11
12.18515154086952
 21
95.00868330133783
 31
0.0
  0
LINE
  5
187B
330
175A
100
AcDbEntity
  8
Visible Edges(ISO)
100
AcDbLine
 10
12.18515154086952
 20
95.00868330133783
 30
0.0
 11
12.23363611442043
 21
94.94403720326971
 31
0.0
  0
LINE
  5
187C
330
175A
100
AcDbEntity
  8
Visible Edges(ISO)
100
AcDbLine
 10
12.23363611442043
 20
94.94403720326971
 30
0.0
 11
12.29828221248846
 21
94.90363339197731
 31
0.0
  0
LINE
  5
187D
330
175A
100
AcDbEntity
  8
Visible Edges(ISO)
100
AcDbLine
 10
12.29828221248846
 20
94.90363339197731
 30
0.0
 11
12.37100907281525
 21
94.87939110520136
 31
0.0
  0
LINE
  5
187E
330
175A
100
AcDbEntity
  8
Visible Edges(ISO)
100
AcDbLine
 10
12.37100907281525
 20
94.87939110520136
 30
0.0
 11
12.45989745765865
 21
94.87131034294305
 31
0.0
  0
LINE
  5
187F
330
175A
100
AcDbEntity
  8
Visible Edges(ISO)
100
AcDbLine
 10
12.45989745765865
 20
94.87131034294305
 30
0.0
 11
12.54070508024378
 21
94.87939110520136
 31
0.0
  0
LINE
  5
1880
330
175A
100
AcDbEntity
  8
Visible Edges(ISO)
100
AcDbLine
 10
12.54070508024378
 20
94.87939110520136
 30
0.0
 11
12.58918965379476
 21
94.8955526297188
 31
0.0
  0
LINE
  5
1881
330
175A
100
AcDbEntity
  8
Visible Edges(ISO)
100
AcDbLine
 10
12.58918965379476
 20
94.8955526297188
 30
0.0
 11
12.63767422734585
 21
94.91979491649431
 31
0.0
  0
LINE
  5
1882
330
175A
100
AcDbEntity
  8
Visible Edges(ISO)
100
AcDbLine
 10
12.63767422734585
 20
94.91979491649431
 30
0.0
 11
12.68615880089678
 21
94.96019872778663
 31
0.0
  0
LINE
  5
1883
330
175A
100
AcDbEntity
  8
Visible Edges(ISO)
100
AcDbLine
 10
12.68615880089678
 20
94.96019872778663
 30
0.0
 11
12.72656261218935
 21
95.00868330133773
 31
0.0
  0
LINE
  5
1884
330
175A
100
AcDbEntity
  8
Visible Edges(ISO)
100
AcDbLine
 10
12.72656261218935
 20
95.00868330133773
 30
0.0
 11
12.75888566122347
 21
95.07332939940585
 31
0.0
  0
LINE
  5
1885
330
175A
100
AcDbEntity
  8
Visible Edges(ISO)
100
AcDbLine
 10
12.75888566122347
 20
95.07332939940585
 30
0.0
 11
12.78312794799905
 21
95.15413702199078
 31
0.0
  0
LINE
  5
1886
330
175A
100
AcDbEntity
  8
Visible Edges(ISO)
100
AcDbLine
 10
12.78312794799905
 20
95.15413702199078
 30
0.0
 11
12.79120871025745
 21
95.25918693135162
 31
0.0
  0
LINE
  5
1887
330
175A
100
AcDbEntity
  8
Visible Edges(ISO)
100
AcDbLine
 10
12.79120871025745
 20
95.25918693135162
 30
0.0
 11
12.79120871025745
 21
95.52585208588238
 31
0.0
  0
LINE
  5
1888
330
175A
100
AcDbEntity
  8
Visible Edges(ISO)
100
AcDbLine
 10
12.79120871025745
 20
95.52585208588238
 30
0.0
 11
13.97099999999986
 21
95.52585208588238
 31
0.0
  0
LINE
  5
1889
330
175A
100
AcDbEntity
  8
Visible Edges(ISO)
100
AcDbLine
 10
13.97099999999986
 20
95.52585208588238
 30
0.0
 11
13.97099999999986
 21
94.98444101456277
 31
0.0
  0
LINE
  5
188A
330
175A
100
AcDbEntity
  8
Visible Edges(ISO)
100
AcDbLine
 10
13.97099999999986
 20
94.98444101456277
 30
0.0
 11
13.96291923774137
 21
94.8309065316512
 31
0.0
  0
LINE
  5
188B
330
175A
100
AcDbEntity
  8
Visible Edges(ISO)
100
AcDbLine
 10
13.96291923774137
 20
94.8309065316512
 30
0.0
 11
13.94675771322446
 21
94.7016143355148
 31
0.0
  0
LINE
  5
188C
330
175A
100
AcDbEntity
  8
Visible Edges(ISO)
100
AcDbLine
 10
13.94675771322446
 20
94.7016143355148
 30
0.0
 11
13.90635390193196
 21
94.58848366389629
 31
0.0
  0
LINE
  5
188D
330
175A
100
AcDbEntity
  8
Visible Edges(ISO)
100
AcDbLine
 10
13.90635390193196
 20
94.58848366389629
 30
0.0
 11
13.85786932838087
 21
94.49959527905207
 31
0.0
  0
LINE
  5
188E
330
175A
100
AcDbEntity
  8
Visible Edges(ISO)
100
AcDbLine
 10
13.85786932838087
 20
94.49959527905207
 30
0.0
 11
13.80130399257126
 21
94.42686841872557
 31
0.0
  0
LINE
  5
188F
330
175A
100
AcDbEntity
  8
Visible Edges(ISO)
100
AcDbLine
 10
13.80130399257126
 20
94.42686841872557
 30
0.0
 11
13.73665789450312
 21
94.3703030829161
 31
0.0
  0
LINE
  5
1890
330
175A
100
AcDbEntity
  8
Visible Edges(ISO)
100
AcDbLine
 10
13.73665789450312
 20
94.3703030829161
 30
0.0
 11
13.65585027191827
 21
94.32181850936506
 31
0.0
  0
LINE
  5
1891
330
175A
100
AcDbEntity
  8
Visible Edges(ISO)
100
AcDbLine
 10
13.65585027191827
 20
94.32181850936506
 30
0.0
 11
13.57504264933306
 21
94.28949546033095
 31
0.0
  0
LINE
  5
1892
330
175A
100
AcDbEntity
  8
Visible Edges(ISO)
100
AcDbLine
 10
13.57504264933306
 20
94.28949546033095
 30
0.0
 11
13.48615426448944
 21
94.26525317355531
 31
0.0
  0
LINE
  5
1893
330
175A
100
AcDbEntity
  8
Visible Edges(ISO)
100
AcDbLine
 10
13.48615426448944
 20
94.26525317355531
 30
0.0
 11
13.38918511738725
 21
94.24909164903846
 31
0.0
  0
LINE
  5
1894
330
175A
100
AcDbEntity
  8
Visible Edges(ISO)
100
AcDbLine
 10
13.38918511738725
 20
94.24909164903846
 30
0.0
 11
13.29221597028515
 21
94.24101088678019
 31
0.0
  0
LINE
  5
1895
330
175A
100
AcDbEntity
  8
Visible Edges(ISO)
100
AcDbLine
 10
13.29221597028515
 20
94.24101088678019
 30
0.0
 11
11.61141742051552
 21
94.24101088677986
 31
0.0
  0
LINE
  5
1896
330
175A
100
AcDbEntity
  8
Visible Edges(ISO)
100
AcDbLine
 10
11.61141742051552
 20
94.24101088677986
 30
0.0
 11
11.49828674889644
 21
94.24909164903846
 31
0.0
  0
LINE
  5
1897
330
175A
100
AcDbEntity
  8
Visible Edges(ISO)
100
AcDbLine
 10
11.49828674889644
 20
94.24909164903846
 30
0.0
 11
11.38515607727746
 21
94.26158009980156
 31
0.0
  0
LINE
  5
1898
330
175A
100
AcDbEntity
  8
Visible Edges(ISO)
100
AcDbLine
 10
11.38515607727746
 20
94.26158009980156
 30
0.0
 11
11.19929854533185
 21
94.3460607961407
 31
0.0
  0
LINE
  5
1899
330
175A
100
AcDbEntity
  8
Visible Edges(ISO)
100
AcDbLine
 10
11.19929854533185
 20
94.3460607961407
 30
0.0
 11
11.12657168500504
 21
94.41070689420849
 31
0.0
  0
LINE
  5
189A
330
175A
100
AcDbEntity
  8
Visible Edges(ISO)
100
AcDbLine
 10
11.12657168500504
 20
94.41070689420849
 30
0.0
 11
11.06192558693695
 21
94.48343375453509
 31
0.0
  0
LINE
  5
189B
330
175A
100
AcDbEntity
  8
Visible Edges(ISO)
100
AcDbLine
 10
11.06192558693695
 20
94.48343375453509
 30
0.0
 11
11.00536025112768
 21
94.57232213937869
 31
0.0
  0
LINE
  5
189C
330
175A
100
AcDbEntity
  8
Visible Edges(ISO)
100
AcDbLine
 10
11.00536025112768
 20
94.57232213937869
 30
0.0
 11
10.97303720209356
 21
94.69353357325616
 31
0.0
  0
LINE
  5
189D
330
175A
100
AcDbEntity
  8
Visible Edges(ISO)
100
AcDbLine
 10
10.97303720209356
 20
94.69353357325616
 30
0.0
 11
10.94879491531796
 21
94.82282576939258
 31
0.0
  0
LINE
  5
189E
330
175A
100
AcDbEntity
  8
Visible Edges(ISO)
100
AcDbLine
 10
3.070546583039657
 20
95.37231760297112
 30
0.0
 11
2.577620085270666
 21
94.27333393581376
 31
0.0
  0
LINE
  5
189F
330
175A
100
AcDbEntity
  8
Visible Edges(ISO)
100
AcDbLine
 10
2.577620085270666
 20
94.27333393581376
 30
0.0
 11
1.422071082303943
 21
94.27333393581376
 31
0.0
  0
LINE
  5
18A0
330
175A
100
AcDbEntity
  8
Visible Edges(ISO)
100
AcDbLine
 10
1.422071082303943
 20
94.27333393581376
 30
0.0
 11
2.141258923311028
 21
95.90564791203249
 31
0.0
  0
LINE
  5
18A1
330
175A
100
AcDbEntity
  8
Visible Edges(ISO)
100
AcDbLine
 10
2.141258923311028
 20
95.90564791203249
 30
0.0
 11
1.510959467147444
 21
97.38442740533969
 31
0.0
  0
LINE
  5
18A2
330
175A
100
AcDbEntity
  8
Visible Edges(ISO)
100
AcDbLine
 10
1.510959467147444
 20
97.38442740533969
 30
0.0
 11
2.731154568182262
 21
97.38442740533969
 31
0.0
  0
LINE
  5
18A3
330
175A
100
AcDbEntity
  8
Visible Edges(ISO)
100
AcDbLine
 10
2.731154568182262
 20
97.38442740533969
 30
0.0
 11
3.167515730141758
 21
96.37433212302608
 31
0.0
  0
LINE
  5
18A4
330
175A
100
AcDbEntity
  8
Visible Edges(ISO)
100
AcDbLine
 10
3.167515730141758
 20
96.37433212302608
 30
0.0
 11
3.603876892101169
 21
97.38442740533969
 31
0.0
  0
LINE
  5
18A5
330
175A
100
AcDbEntity
  8
Visible Edges(ISO)
100
AcDbLine
 10
3.603876892101169
 20
97.38442740533969
 30
0.0
 11
4.735183608292174
 21
97.38442740533969
 31
0.0
  0
LINE
  5
18A6
330
175A
100
AcDbEntity
  8
Visible Edges(ISO)
100
AcDbLine
 10
4.735183608292174
 20
97.38442740533969
 30
0.0
 11
4.104884152128533
 21
95.92989019880809
 31
0.0
  0
LINE
  5
18A7
330
175A
100
AcDbEntity
  8
Visible Edges(ISO)
100
AcDbLine
 10
4.104884152128533
 20
95.92989019880809
 30
0.0
 11
4.848314279911363
 21
94.27333393581376
 31
0.0
  0
LINE
  5
18A8
330
175A
100
AcDbEntity
  8
Visible Edges(ISO)
100
AcDbLine
 10
4.848314279911363
 20
94.27333393581376
 30
0.0
 11
3.563473080808535
 21
94.27333393581376
 31
0.0
  0
LINE
  5
18A9
330
175A
100
AcDbEntity
  8
Visible Edges(ISO)
100
AcDbLine
 10
3.563473080808535
 20
94.27333393581376
 30
0.0
 11
3.070546583039657
 21
95.37231760297112
 31
0.0
  0
LINE
  5
18AA
330
175A
100
AcDbEntity
  8
Visible Edges(ISO)
100
AcDbLine
 10
-14.03175244471372
 20
92.79903447693909
 30
0.0
 11
-14.03175244471372
 21
93.31222717200068
 31
0.0
  0
ARC
  5
18AB
330
175A
100
AcDbEntity
  8
Visible Edges(ISO)
100
AcDbCircle
 10
-14.03004940033833
 20
96.28524812897978
 30
0.0
 40
2.973021444758958
100
AcDbArc
 50
269.9671790929923
 51
89.96717909299231
  0
LINE
  5
18AC
330
175A
100
AcDbEntity
  8
Visible Edges(ISO)
100
AcDbLine
 10
-14.02834635596294
 20
99.25826908595878
 30
0.0
 11
-14.02834635596294
 21
99.77146206823761
 31
0.0
  0
ARC
  5
18AD
330
175A
100
AcDbEntity
  8
Visible Edges(ISO)
100
AcDbCircle
 10
-14.03004940033833
 20
96.28524827258837
 30
0.0
 40
3.486214211624951
100
AcDbArc
 50
269.9720105383693
 51
89.9720105383685
  0
ARC
  5
18AE
330
175A
100
AcDbEntity
  8
Visible Edges(ISO)
100
AcDbCircle
 10
6.074037735205536
 20
94.87085451144213
 30
0.0
 40
0.6299906345176045
100
AcDbArc
 50
169.6128402964387
 51
268.7621949374017
  0
LINE
  5
18AF
330
175A
100
AcDbEntity
  8
Visible Edges(ISO)
100
AcDbLine
 10
5.454371449299429
 20
94.98444101456277
 30
0.0
 11
5.454371449299429
 21
96.74604718691746
 31
0.0
  0
LINE
  5
18B0
330
175A
100
AcDbEntity
  8
Visible Edges(ISO)
100
AcDbLine
 10
5.454371449299429
 20
96.74604718691746
 30
0.0
 11
5.252352392836542
 21
96.74604718691746
 31
0.0
  0
LINE
  5
18B1
330
175A
100
AcDbEntity
  8
Visible Edges(ISO)
100
AcDbLine
 10
5.252352392836542
 20
96.74604718691746
 30
0.0
 11
5.252352392836542
 21
97.34402359404686
 31
0.0
  0
LINE
  5
18B2
330
175A
100
AcDbEntity
  8
Visible Edges(ISO)
100
AcDbLine
 10
5.252352392836542
 20
97.34402359404686
 30
0.0
 11
6.634162739041556
 21
98.1278575331221
 31
0.0
  0
LINE
  5
18B3
330
175A
100
AcDbEntity
  8
Visible Edges(ISO)
100
AcDbLine
 10
6.634162739041556
 20
98.1278575331221
 30
0.0
 11
6.634162739041556
 21
97.38442740533969
 31
0.0
  0
LINE
  5
18B4
330
175A
100
AcDbEntity
  8
Visible Edges(ISO)
100
AcDbLine
 10
6.634162739041556
 20
97.38442740533969
 30
0.0
 11
6.900827893572369
 21
97.38442740533969
 31
0.0
  0
LINE
  5
18B5
330
175A
100
AcDbEntity
  8
Visible Edges(ISO)
100
AcDbLine
 10
6.900827893572369
 20
97.38442740533969
 30
0.0
 11
6.900827893572369
 21
96.74604718691746
 31
0.0
  0
LINE
  5
18B6
330
175A
100
AcDbEntity
  8
Visible Edges(ISO)
100
AcDbLine
 10
6.900827893572369
 20
96.74604718691746
 30
0.0
 11
6.634162739041556
 21
96.74604718691746
 31
0.0
  0
LINE
  5
18B7
330
175A
100
AcDbEntity
  8
Visible Edges(ISO)
100
AcDbLine
 10
6.634162739041556
 20
96.74604718691746
 30
0.0
 11
6.634162739041755
 21
94.87131034294355
 31
0.0
  0
LINE
  5
18B8
330
175A
100
AcDbEntity
  8
Visible Edges(ISO)
100
AcDbLine
 10
6.634162739041755
 20
94.87131034294355
 30
0.0
 11
6.916989418089372
 21
94.87131034294355
 31
0.0
  0
LINE
  5
18B9
330
175A
100
AcDbEntity
  8
Visible Edges(ISO)
100
AcDbLine
 10
6.916989418089372
 20
94.87131034294355
 30
0.0
 11
6.916989418089372
 21
94.24101088677998
 31
0.0
  0
LINE
  5
18BA
330
175A
100
AcDbEntity
  8
Visible Edges(ISO)
100
AcDbLine
 10
6.916989418089372
 20
94.24101088677998
 30
0.0
 11
6.060428618688433
 21
94.24101088677998
 31
0.0
  0
LINE
  5
18BB
330
175A
100
AcDbEntity
  8
Visible Edges(ISO)
100
AcDbLine
 10
-11.98833720610554
 20
99.76017150934069
 30
0.0
 11
-11.11513014188124
 21
99.76017150934069
 31
0.0
  0
ARC
  5
18BC
330
175A
100
AcDbEntity
  8
Visible Edges(ISO)
100
AcDbCircle
 10
-14.03175244471372
 20
96.28524910453968
 30
0.0
 40
4.536713719948336
100
AcDbArc
 50
310.0155427753988
 51
49.99210360364132
  0
LINE
  5
18BD
330
175A
100
AcDbEntity
  8
Visible Edges(ISO)
100
AcDbLine
 10
-11.11466642385763
 20
92.81071596702416
 30
0.0
 11
-11.98767538328223
 21
92.81071596702416
 31
0.0
  0
ARC
  5
18BE
330
175A
100
AcDbEntity
  8
Visible Edges(ISO)
100
AcDbCircle
 10
-14.03175244471372
 20
96.28524910453968
 30
0.0
 40
4.03120720836374
100
AcDbArc
 50
300.468412070287
 51
59.54250091540298
  0
LINE
  5
18BF
330
175A
100
AcDbEntity
  8
Visible Edges(ISO)
100
AcDbLine
 10
8.613949492375866
 20
96.57635117948878
 30
0.0
 11
8.589707205600433
 21
96.49554355690378
 31
0.0
  0
LINE
  5
18C0
330
175A
100
AcDbEntity
  8
Visible Edges(ISO)
100
AcDbLine
 10
8.589707205600433
 20
96.49554355690378
 30
0.0
 11
8.581626443341946
 21
96.39857440980165
 31
0.0
  0
LINE
  5
18C1
330
175A
100
AcDbEntity
  8
Visible Edges(ISO)
100
AcDbLine
 10
8.581626443341946
 20
96.39857440980165
 30
0.0
 11
8.581626443341946
 21
96.13999001752933
 31
0.0
  0
LINE
  5
18C2
330
175A
100
AcDbEntity
  8
Visible Edges(ISO)
100
AcDbLine
 10
8.581626443341946
 20
96.13999001752933
 30
0.0
 11
9.260410473056452
 21
96.13999001752933
 31
0.0
  0
LINE
  5
18C3
330
175A
100
AcDbEntity
  8
Visible Edges(ISO)
100
AcDbLine
 10
9.260410473056452
 20
96.13999001752933
 30
0.0
 11
9.260410473056452
 21
96.35008983625013
 31
0.0
  0
LINE
  5
18C4
330
175A
100
AcDbEntity
  8
Visible Edges(ISO)
100
AcDbLine
 10
9.260410473056452
 20
96.35008983625013
 30
0.0
 11
9.252329710797653
 21
96.45513974561408
 31
0.0
  0
LINE
  5
18C5
330
175A
100
AcDbEntity
  8
Visible Edges(ISO)
100
AcDbLine
 10
9.252329710797653
 20
96.45513974561408
 30
0.0
 11
9.236168186281162
 21
96.54402813045482
 31
0.0
  0
LINE
  5
18C6
330
175A
100
AcDbEntity
  8
Visible Edges(ISO)
100
AcDbLine
 10
9.236168186281162
 20
96.54402813045482
 30
0.0
 11
9.203845137247185
 21
96.61675499078128
 31
0.0
  0
LINE
  5
18C7
330
175A
100
AcDbEntity
  8
Visible Edges(ISO)
100
AcDbLine
 10
9.203845137247185
 20
96.61675499078128
 30
0.0
 11
9.163441325954664
 21
96.68140108884927
 31
0.0
  0
LINE
  5
18C8
330
175A
100
AcDbEntity
  8
Visible Edges(ISO)
100
AcDbLine
 10
9.163441325954664
 20
96.68140108884927
 30
0.0
 11
9.106875990144942
 21
96.72180490014177
 31
0.0
  0
LINE
  5
18C9
330
175A
100
AcDbEntity
  8
Visible Edges(ISO)
100
AcDbLine
 10
9.106875990144942
 20
96.72180490014177
 30
0.0
 11
9.050310654335362
 21
96.75412794917594
 31
0.0
  0
LINE
  5
18CA
330
175A
100
AcDbEntity
  8
Visible Edges(ISO)
100
AcDbLine
 10
9.050310654335362
 20
96.75412794917594
 30
0.0
 11
8.985664556267437
 21
96.77028947369308
 31
0.0
  0
LINE
  5
18CB
330
175A
100
AcDbEntity
  8
Visible Edges(ISO)
100
AcDbLine
 10
8.985664556267437
 20
96.77028947369308
 30
0.0
 11
8.912937695940854
 21
96.77837023595158
 31
0.0
  0
LINE
  5
18CC
330
175A
100
AcDbEntity
  8
Visible Edges(ISO)
100
AcDbLine
 10
8.912937695940854
 20
96.77837023595158
 30
0.0
 11
8.832130073355671
 21
96.77028947369308
 31
0.0
  0
LINE
  5
18CD
330
175A
100
AcDbEntity
  8
Visible Edges(ISO)
100
AcDbLine
 10
8.832130073355671
 20
96.77028947369308
 30
0.0
 11
8.767483975287547
 21
96.74604718691746
 31
0.0
  0
LINE
  5
18CE
330
175A
100
AcDbEntity
  8
Visible Edges(ISO)
100
AcDbLine
 10
8.767483975287547
 20
96.74604718691746
 30
0.0
 11
8.70283787721928
 21
96.69756261336637
 31
0.0
  0
LINE
  5
18CF
330
175A
100
AcDbEntity
  8
Visible Edges(ISO)
100
AcDbLine
 10
8.70283787721928
 20
96.69756261336637
 30
0.0
 11
8.654353303668841
 21
96.6490780398157
 31
0.0
  0
LINE
  5
18D0
330
175A
100
AcDbEntity
  8
Visible Edges(ISO)
100
AcDbLine
 10
8.654353303668841
 20
96.6490780398157
 30
0.0
 11
8.613949492375866
 21
96.57635117948878
 31
0.0
  0
LINE
  5
18D1
330
175A
100
AcDbEntity
  8
Visible Edges(ISO)
100
AcDbLine
 10
-0.2748889919826638
 20
94.92787567875314
 30
0.0
 11
-0.2021621316560527
 21
95.01676406359667
 31
0.0
  0
LINE
  5
18D2
330
175A
100
AcDbEntity
  8
Visible Edges(ISO)
100
AcDbLine
 10
-0.2021621316560527
 20
95.01676406359667
 30
0.0
 11
-0.1860006071391353
 21
95.0733293994063
 31
0.0
  0
LINE
  5
18D3
330
175A
100
AcDbEntity
  8
Visible Edges(ISO)
100
AcDbLine
 10
-0.1860006071391353
 20
95.0733293994063
 30
0.0
 11
-0.1698390826220475
 21
95.12181397295723
 31
0.0
  0
LINE
  5
18D4
330
175A
100
AcDbEntity
  8
Visible Edges(ISO)
100
AcDbLine
 10
-0.1698390826220475
 20
95.12181397295723
 30
0.0
 11
-0.1617583203635604
 21
95.17837930876686
 31
0.0
  0
LINE
  5
18D5
330
175A
100
AcDbEntity
  8
Visible Edges(ISO)
100
AcDbLine
 10
-0.1617583203635604
 20
95.17837930876686
 30
0.0
 11
-0.1617583203635604
 21
96.37433212302576
 31
0.0
  0
LINE
  5
18D6
330
175A
100
AcDbEntity
  8
Visible Edges(ISO)
100
AcDbLine
 10
-0.1617583203635604
 20
96.37433212302576
 30
0.0
 11
-0.1698390826225591
 21
96.50362431916216
 31
0.0
  0
LINE
  5
18D7
330
175A
100
AcDbEntity
  8
Visible Edges(ISO)
100
AcDbLine
 10
-0.1698390826225591
 20
96.50362431916216
 30
0.0
 11
-0.2021621316554558
 21
96.61675499078128
 31
0.0
  0
LINE
  5
18D8
330
175A
100
AcDbEntity
  8
Visible Edges(ISO)
100
AcDbLine
 10
-0.2021621316554558
 20
96.61675499078128
 30
0.0
 11
-0.2344851806901431
 21
96.66523956433247
 31
0.0
  0
LINE
  5
18D9
330
175A
100
AcDbEntity
  8
Visible Edges(ISO)
100
AcDbLine
 10
-0.2344851806901431
 20
96.66523956433247
 30
0.0
 11
-0.2748889919826638
 21
96.71372413788333
 31
0.0
  0
LINE
  5
18DA
330
175A
100
AcDbEntity
  8
Visible Edges(ISO)
100
AcDbLine
 10
-0.2748889919826638
 20
96.71372413788333
 30
0.0
 11
-0.339535090050731
 21
96.75412794917583
 31
0.0
  0
LINE
  5
18DB
330
175A
100
AcDbEntity
  8
Visible Edges(ISO)
100
AcDbLine
 10
-0.339535090050731
 20
96.75412794917583
 30
0.0
 11
-0.4122619503773422
 21
96.77837023595158
 31
0.0
  0
LINE
  5
18DC
330
175A
100
AcDbEntity
  8
Visible Edges(ISO)
100
AcDbLine
 10
-0.4122619503773422
 20
96.77837023595158
 30
0.0
 11
-0.5900387200645412
 21
96.77837023595158
 31
0.0
  0
LINE
  5
18DD
330
175A
100
AcDbEntity
  8
Visible Edges(ISO)
100
AcDbLine
 10
-0.5900387200645412
 20
96.77837023595158
 30
0.0
 11
-0.6708463426496394
 21
96.75412794917583
 31
0.0
  0
LINE
  5
18DE
330
175A
100
AcDbEntity
  8
Visible Edges(ISO)
100
AcDbLine
 10
-0.6708463426496394
 20
96.75412794917583
 30
0.0
 11
-0.727411678459049
 21
96.71372413788333
 31
0.0
  0
LINE
  5
18DF
330
175A
100
AcDbEntity
  8
Visible Edges(ISO)
100
AcDbLine
 10
-0.727411678459049
 20
96.71372413788333
 30
0.0
 11
-0.767815489751655
 21
96.66523956433247
 31
0.0
  0
LINE
  5
18E0
330
175A
100
AcDbEntity
  8
Visible Edges(ISO)
100
AcDbLine
 10
-0.767815489751655
 20
96.66523956433247
 30
0.0
 11
-0.8163000633026626
 21
96.56018965497157
 31
0.0
  0
LINE
  5
18E1
330
175A
100
AcDbEntity
  8
Visible Edges(ISO)
100
AcDbLine
 10
-0.8163000633026626
 20
96.56018965497157
 30
0.0
 11
-0.8405423500782376
 21
96.45513974561096
 31
0.0
  0
LINE
  5
18E2
330
175A
100
AcDbEntity
  8
Visible Edges(ISO)
100
AcDbLine
 10
-0.8405423500782376
 20
96.45513974561096
 30
0.0
 11
-0.8405423500782376
 21
95.17837930876686
 31
0.0
  0
LINE
  5
18E3
330
175A
100
AcDbEntity
  8
Visible Edges(ISO)
100
AcDbLine
 10
-0.8405423500782376
 20
95.17837930876686
 30
0.0
 11
-0.8163000633026626
 21
95.0733293994063
 31
0.0
  0
LINE
  5
18E4
330
175A
100
AcDbEntity
  8
Visible Edges(ISO)
100
AcDbLine
 10
-0.8163000633026626
 20
95.0733293994063
 30
0.0
 11
-0.7880173953978443
 21
94.98848139569204
 31
0.0
  0
LINE
  5
18E5
330
175A
100
AcDbEntity
  8
Visible Edges(ISO)
100
AcDbLine
 10
-0.7880173953978443
 20
94.98848139569204
 30
0.0
 11
-0.727411678459049
 21
94.92787567875314
 31
0.0
  0
LINE
  5
18E6
330
175A
100
AcDbEntity
  8
Visible Edges(ISO)
100
AcDbLine
 10
-0.727411678459049
 20
94.92787567875314
 30
0.0
 11
-0.5900387200656497
 21
94.87939110520233
 31
0.0
  0
LINE
  5
18E7
330
175A
100
AcDbEntity
  8
Visible Edges(ISO)
100
AcDbLine
 10
-0.5900387200656497
 20
94.87939110520233
 30
0.0
 11
-0.5011503352192506
 21
94.87131034294373
 31
0.0
  0
LINE
  5
18E8
330
175A
100
AcDbEntity
  8
Visible Edges(ISO)
100
AcDbLine
 10
-0.5011503352192506
 20
94.87131034294373
 30
0.0
 11
-0.4122619503773422
 21
94.879391105202
 31
0.0
  0
LINE
  5
18E9
330
175A
100
AcDbEntity
  8
Visible Edges(ISO)
100
AcDbLine
 10
-0.4122619503773422
 20
94.879391105202
 30
0.0
 11
-0.339535090050731
 21
94.90363339197759
 31
0.0
  0
LINE
  5
18EA
330
175A
100
AcDbEntity
  8
Visible Edges(ISO)
100
AcDbLine
 10
-0.339535090050731
 20
94.90363339197759
 30
0.0
 11
-0.2748889919826638
 21
94.92787567875314
 31
0.0
  0
ARC
  5
18EB
330
175A
100
AcDbEntity
  8
Visible Edges(ISO)
100
AcDbCircle
 10
-4.118741811238152
 20
97.00187850126628
 30
0.0
 40
0.405612604520243
100
AcDbArc
 50
276.498429933283
 51
332.891877128818
  0
ARC
  5
18EC
330
175A
100
AcDbEntity
  8
Visible Edges(ISO)
100
AcDbCircle
 10
-4.097078491140962
 20
96.99078894454984
 30
0.0
 40
0.3812758482491654
100
AcDbArc
 50
332.8918771288053
 51
27.10812287102833
  0
ARC
  5
18ED
330
175A
100
AcDbEntity
  8
Visible Edges(ISO)
100
AcDbCircle
 10
-4.110973949757237
 20
96.9652527910145
 30
0.0
 40
0.4056126045202321
100
AcDbArc
 50
29.42526304057984
 51
90.36773873954897
  0
LINE
  5
18EE
330
175A
100
AcDbEntity
  8
Visible Edges(ISO)
100
AcDbLine
 10
-4.113577255709657
 20
97.37085704116958
 30
0.0
 11
-4.51728917769924
 21
97.3682658808226
 31
0.0
  0
LINE
  5
18EF
330
175A
100
AcDbEntity
  8
Visible Edges(ISO)
100
AcDbLine
 10
-4.51728917769924
 20
97.3682658808226
 30
0.0
 11
-4.51728917769924
 21
96.59887197501205
 31
0.0
  0
LINE
  5
18F0
330
175A
100
AcDbEntity
  8
Visible Edges(ISO)
100
AcDbLine
 10
-4.51728917769924
 20
96.59887197501205
 30
0.0
 11
-4.07283620436516
 21
96.59887197501229
 31
0.0
  0
LINE
  5
18F1
330
175A
100
AcDbEntity
  8
Visible Edges(ISO)
100
AcDbLine
 10
19.99999999999991
 20
-74.80000000000003
 30
0.0
 11
-20.00000000000003
 21
-74.80000000000003
 31
0.0
  0
LINE
  5
18F2
330
175A
100
AcDbEntity
  8
Visible Tangent Edges(ISO)
100
AcDbLine
 10
22.36796502436846
 20
80.61788887049681
 30
0.0
 11
22.26737757881005
 21
80.51730142493846
 31
0.0
  0
ELLIPSE
  5
18F3
330
175A
100
AcDbEntity
  8
Visible Tangent Edges(ISO)
100
AcDbEllipse
 10
22.26737757881005
 20
78.51737757881011
 30
0.0
 11
1.414213562372176
 21
-1.41421356237401
 31
0.0
210
0.0
220
0.0
230
1.0
 40
0.9999238504775703
 41
0.7854362396089999
 42
2.356156413982054
  0
LINE
  5
18F4
330
175A
100
AcDbEntity
  8
Visible Tangent Edges(ISO)
100
AcDbLine
 10
24.26730142493835
 20
78.51737757881011
 30
0.0
 11
24.36788887049676
 21
78.61796502436863
 31
0.0
  0
LINE
  5
18F5
330
175A
100
AcDbEntity
  8
Visible Tangent Edges(ISO)
100
AcDbLine
 10
-22.26737757881005
 20
80.51730142493846
 30
0.0
 11
-22.36796502436846
 21
80.61788887049681
 31
0.0
  0
LINE
  5
18F6
330
175A
100
AcDbEntity
  8
Visible Tangent Edges(ISO)
100
AcDbLine
 10
-24.36788887049685
 20
78.61796502436863
 30
0.0
 11
-24.26730142493835
 21
78.51737757881011
 31
0.0
  0
ELLIPSE
  5
18F7
330
175A
100
AcDbEntity
  8
Visible Tangent Edges(ISO)
100
AcDbEllipse
 10
-22.26737757881005
 20
78.51737757881011
 30
0.0
 11
1.414213562374013
 21
1.414213562372179
 31
0.0
210
0.0
220
0.0
230
1.0
 40
0.9999238504775703
 41
0.7854362396090357
 42
2.356156413982054
  0
LINE
  5
18F8
330
175A
100
AcDbEntity
  8
Visible Tangent Edges(ISO)
100
AcDbLine
 10
-24.26730142493835
 20
-78.51737757881003
 30
0.0
 11
-24.36788887049685
 21
-78.61796502436845
 31
0.0
  0
LINE
  5
18F9
330
175A
100
AcDbEntity
  8
Visible Tangent Edges(ISO)
100
AcDbLine
 10
22.26737757881005
 20
78.51737757881011
 30
0.0
 11
22.26737757881005
 21
80.51730142493857
 31
0.0
  0
LINE
  5
18FA
330
175A
100
AcDbEntity
  8
Visible Tangent Edges(ISO)
100
AcDbLine
 10
24.26730142493835
 20
78.51737757881011
 30
0.0
 11
22.26737757881005
 21
78.51737757881011
 31
0.0
  0
LINE
  5
18FB
330
175A
100
AcDbEntity
  8
Visible Tangent Edges(ISO)
100
AcDbLine
 10
24.36788887049684
 20
-78.61796502436845
 30
0.0
 11
24.26730142493835
 21
-78.51737757881003
 31
0.0
  0
ELLIPSE
  5
18FC
330
175A
100
AcDbEntity
  8
Visible Tangent Edges(ISO)
100
AcDbEllipse
 10
22.26737757881005
 20
-78.51737757881003
 30
0.0
 11
-1.414213562374023
 21
-1.414213562372176
 31
0.0
210
0.0
220
0.0
230
1.0
 40
0.9999238504775703
 41
0.7854362396090409
 42
2.356156413982059
  0
LINE
  5
18FD
330
175A
100
AcDbEntity
  8
Visible Tangent Edges(ISO)
100
AcDbLine
 10
22.26737757881005
 20
-80.51730142493836
 30
0.0
 11
22.36796502436846
 21
-80.61788887049685
 31
0.0
  0
LINE
  5
18FE
330
175A
100
AcDbEntity
  8
Visible Tangent Edges(ISO)
100
AcDbLine
 10
22.26737757881005
 20
-78.51737757881003
 30
0.0
 11
24.26730142493835
 21
-78.51737757881003
 31
0.0
  0
LINE
  5
18FF
330
175A
100
AcDbEntity
  8
Visible Tangent Edges(ISO)
100
AcDbLine
 10
22.26737757881005
 20
-80.51730142493836
 30
0.0
 11
22.26737757881005
 21
-78.51737757881003
 31
0.0
  0
LINE
  5
1900
330
175A
100
AcDbEntity
  8
Visible Tangent Edges(ISO)
100
AcDbLine
 10
-22.36796502436846
 20
-80.61788887049672
 30
0.0
 11
-22.26737757881005
 21
-80.51730142493836
 31
0.0
  0
ELLIPSE
  5
1901
330
175A
100
AcDbEntity
  8
Visible Tangent Edges(ISO)
100
AcDbEllipse
 10
-22.26737757881005
 20
-78.51737757881003
 30
0.0
 11
-1.414213562372182
 21
1.414213562374029
 31
0.0
210
0.0
220
0.0
230
1.0
 40
0.9999238504775703
 41
0.7854362396090579
 42
2.356156413982063
  0
LINE
  5
1902
330
175A
100
AcDbEntity
  8
Visible Tangent Edges(ISO)
100
AcDbLine
 10
-22.26737757881005
 20
-78.51737757881003
 30
0.0
 11
-22.26737757881005
 21
-80.51730142493836
 31
0.0
  0
LINE
  5
1903
330
175A
100
AcDbEntity
  8
Visible Tangent Edges(ISO)
100
AcDbLine
 10
-24.26730142493835
 20
-78.51737757881003
 30
0.0
 11
-22.26737757881005
 21
-78.51737757881003
 31
0.0
  0
LINE
  5
1904
330
175A
100
AcDbEntity
  8
Visible Tangent Edges(ISO)
100
AcDbLine
 10
-22.26737757881005
 20
78.51737757881011
 30
0.0
 11
-24.26730142493835
 21
78.51737757881011
 31
0.0
  0
LINE
  5
1905
330
175A
100
AcDbEntity
  8
Visible Tangent Edges(ISO)
100
AcDbLine
 10
-22.26737757881005
 20
80.51730142493846
 30
0.0
 11
-22.26737757881005
 21
78.51737757881011
 31
0.0
  0
LINE
  5
1906
330
175A
100
AcDbEntity
  8
Visible Tangent Edges(ISO)
100
AcDbLine
 10
22.26737757881005
 20
80.51730142493846
 30
0.0
 11
-22.26737757881005
 21
80.51730142493846
 31
0.0
  0
LINE
  5
1907
330
175A
100
AcDbEntity
  8
Visible Tangent Edges(ISO)
100
AcDbLine
 10
-24.26730142493835
 20
78.51737757881011
 30
0.0
 11
-24.26730142493835
 21
-78.51737757881003
 31
0.0
  0
LINE
  5
1908
330
175A
100
AcDbEntity
  8
Visible Tangent Edges(ISO)
100
AcDbLine
 10
24.26730142493835
 20
-78.51737757881003
 30
0.0
 11
24.26730142493835
 21
78.51737757881011
 31
0.0
  0
LINE
  5
1909
330
175A
100
AcDbEntity
  8
Visible Tangent Edges(ISO)
100
AcDbLine
 10
-22.26737757881005
 20
-80.51730142493836
 30
0.0
 11
22.26737757881005
 21
-80.51730142493836
 31
0.0
  0
LINE
  5
190A
330
175A
100
AcDbEntity
  8
Visible Tangent Edges(ISO)
100
AcDbLine
 10
22.26737757881005
 20
78.51737757881011
 30
0.0
 11
22.26737757881005
 21
-78.51737757881003
 31
0.0
  0
LINE
  5
190B
330
175A
100
AcDbEntity
  8
Visible Tangent Edges(ISO)
100
AcDbLine
 10
22.26737757881005
 20
-78.51737757881003
 30
0.0
 11
-22.26737757881005
 21
-78.51737757881003
 31
0.0
  0
LINE
  5
190C
330
175A
100
AcDbEntity
  8
Visible Tangent Edges(ISO)
100
AcDbLine
 10
-22.26737757881005
 20
-78.51737757881003
 30
0.0
 11
-22.26737757881005
 21
78.51737757881011
 31
0.0
  0
LINE
  5
190D
330
175A
100
AcDbEntity
  8
Visible Tangent Edges(ISO)
100
AcDbLine
 10
-22.26737757881005
 20
78.51737757881011
 30
0.0
 11
22.26737757881005
 21
78.51737757881011
 31
0.0
  0
CIRCLE
  5
190E
330
175A
100
AcDbEntity
  8
Visible Tangent Edges(ISO)
100
AcDbCircle
 10
-0.0000000000000568
 20
61.22074023069576
 30
0.0
 40
10.5
  0
LINE
  5
190F
330
175A
100
AcDbEntity
  8
Visible Edges(ISO)
100
AcDbLine
 10
-21.44999999999992
 20
46.22074023069564
 30
0.0
 11
19.99999999999991
 21
46.22074023069564
 31
0.0
  0
CIRCLE
  5
1910
330
175A
100
AcDbEntity
  8
Visible Edges(ISO)
100
AcDbCircle
 10
-0.0000000000000568
 20
61.22074023069564
 30
0.0
 40
10.325
  0
SPLINE
  5
1911
330
175A
100
AcDbEntity
  8
Visible Edges(ISO)
100
AcDbSpline
210
0.0
220
0.0
230
1.0
 70
    28
 71
     2
 72
     6
 73
     3
 74
     0
 42
0.0000000001
 43
0.0000000001
 40
0.3807113172039051
 40
0.3807113172039051
 40
0.3807113172039051
 40
0.7614226344078104
 40
0.7614226344078104
 40
0.7614226344078104
 10
-25.37083487540113
 20
99.75000000000017
 30
0.0
 41
1.0
 10
-24.50000000000006
 20
98.24166975080249
 30
0.0
 41
1.037954849302032
 10
-23.49444650053485
 20
96.50000000000018
 30
0.0
 41
1.0
  0
ARC
  5
1912
330
175A
100
AcDbEntity
  8
Visible Edges(ISO)
100
AcDbCircle
 10
-31.00000000000006
 20
96.50000000000018
 30
0.0
 40
6.500000000000037
100
AcDbArc
 50
329.9999999999999
 51
30.00000000000014
  0
SPLINE
  5
1913
330
175A
100
AcDbEntity
  8
Visible Edges(ISO)
100
AcDbSpline
210
0.0
220
0.0
230
1.0
 70
    28
 71
     2
 72
     6
 73
     3
 74
     0
 42
0.0000000001
 43
0.0000000001
 40
0.0
 40
0.0
 40
0.0
 40
0.3807113172039049
 40
0.3807113172039049
 40
0.3807113172039049
 10
-23.49444650053485
 20
96.50000000000018
 30
0.0
 41
1.0
 10
-24.50000000000006
 20
94.75833024919779
 30
0.0
 41
1.037954849302044
 10
-25.37083487540113
 20
93.25000000000011
 30
0.0
 41
1.0
  0
SPLINE
  5
1914
330
175A
100
AcDbEntity
  8
Visible Edges(ISO)
100
AcDbSpline
210
0.0
220
0.0
230
1.0
 70
    28
 71
     2
 72
     6
 73
     3
 74
     0
 42
0.0000000001
 43
0.0000000001
 40
0.0
 40
0.0
 40
0.0
 40
0.380711317203904
 40
0.380711317203904
 40
0.380711317203904
 10
-27.24722325026744
 20
90.00000000000017
 30
0.0
 41
1.0
 10
-29.25833024919774
 20
90.00000000000017
 30
0.0
 41
1.037954849302052
 10
-31.00000000000006
 20
90.00000000000017
 30
0.0
 41
1.0
  0
SPLINE
  5
1915
330
175A
100
AcDbEntity
  8
Visible Edges(ISO)
100
AcDbSpline
210
0.0
220
0.0
230
1.0
 70
    28
 71
     2
 72
     6
 73
     3
 74
     0
 42
0.0000000001
 43
0.0000000001
 40
0.3807113172039049
 40
0.3807113172039049
 40
0.3807113172039049
 40
0.7614226344078097
 40
0.7614226344078097
 40
0.7614226344078097
 10
-25.37083487540113
 20
93.25000000000011
 30
0.0
 41
1.0
 10
-26.24166975080235
 20
91.74166975080224
 30
0.0
 41
1.037954849302014
 10
-27.24722325026744
 20
90.00000000000017
 30
0.0
 41
1.0
  0
ARC
  5
1916
330
175A
100
AcDbEntity
  8
Visible Edges(ISO)
100
AcDbCircle
 10
-31.00000000000006
 20
96.50000000000018
 30
0.0
 40
6.500000000000039
100
AcDbArc
 50
270.0
 51
329.9999999999999
  0
SPLINE
  5
1917
330
175A
100
AcDbEntity
  8
Visible Edges(ISO)
100
AcDbSpline
210
0.0
220
0.0
230
1.0
 70
    28
 71
     2
 72
     6
 73
     3
 74
     0
 42
0.0000000001
 43
0.0000000001
 40
0.3807113172039051
 40
0.3807113172039051
 40
0.3807113172039051
 40
0.7614226344078105
 40
0.7614226344078105
 40
0.7614226344078105
 10
-31.00000000000006
 20
103.0000000000002
 30
0.0
 41
1.0
 10
-29.25833024919774
 20
103.0000000000002
 30
0.0
 41
1.037954849302055
 10
-27.24722325026744
 20
103.0000000000002
 30
0.0
 41
1.0
  0
ARC
  5
1918
330
175A
100
AcDbEntity
  8
Visible Edges(ISO)
100
AcDbCircle
 10
-31.00000000000006
 20
96.50000000000018
 30
0.0
 40
6.500000000000034
100
AcDbArc
 50
30.00000000000014
 51
90.0
  0
SPLINE
  5
1919
330
175A
100
AcDbEntity
  8
Visible Edges(ISO)
100
AcDbSpline
210
0.0
220
0.0
230
1.0
 70
    28
 71
     2
 72
     6
 73
     3
 74
     0
 42
0.0000000001
 43
0.0000000001
 40
0.0
 40
0.0
 40
0.0
 40
0.3807113172039051
 40
0.3807113172039051
 40
0.3807113172039051
 10
-27.24722325026744
 20
103.0000000000002
 30
0.0
 41
1.0
 10
-26.24166975080235
 20
101.2583302491978
 30
0.0
 41
1.037954849302045
 10
-25.37083487540113
 20
99.75000000000017
 30
0.0
 41
1.0
  0
SPLINE
  5
191A
330
175A
100
AcDbEntity
  8
Visible Edges(ISO)
100
AcDbSpline
210
0.0
220
0.0
230
1.0
 70
    28
 71
     2
 72
     6
 73
     3
 74
     0
 42
0.0000000001
 43
0.0000000001
 40
0.0
 40
0.0
 40
0.0
 40
0.3807113172039044
 40
0.3807113172039044
 40
0.3807113172039044
 10
-34.75277674973265
 20
90.00000000000017
 30
0.0
 41
1.0
 10
-35.75833024919774
 20
91.74166975080224
 30
0.0
 41
1.037954849302035
 10
-36.62916512459896
 20
93.25000000000011
 30
0.0
 41
1.0
  0
SPLINE
  5
191B
330
175A
100
AcDbEntity
  8
Visible Edges(ISO)
100
AcDbSpline
210
0.0
220
0.0
230
1.0
 70
    28
 71
     2
 72
     6
 73
     3
 74
     0
 42
0.0000000001
 43
0.0000000001
 40
0.380711317203904
 40
0.380711317203904
 40
0.380711317203904
 40
0.7614226344078081
 40
0.7614226344078081
 40
0.7614226344078081
 10
-31.00000000000006
 20
90.00000000000017
 30
0.0
 41
1.0
 10
-32.74166975080235
 20
90.00000000000017
 30
0.0
 41
1.037954849302052
 10
-34.75277674973257
 20
90.00000000000017
 30
0.0
 41
1.0
  0
ARC
  5
191C
330
175A
100
AcDbEntity
  8
Visible Edges(ISO)
100
AcDbCircle
 10
-31.00000000000006
 20
96.50000000000018
 30
0.0
 40
6.500000000000037
100
AcDbArc
 50
210.0000000000001
 51
270.0
  0
SPLINE
  5
191D
330
175A
100
AcDbEntity
  8
Visible Edges(ISO)
100
AcDbSpline
210
0.0
220
0.0
230
1.0
 70
    28
 71
     2
 72
     6
 73
     3
 74
     0
 42
0.0000000001
 43
0.0000000001
 40
0.3807113172039045
 40
0.3807113172039045
 40
0.3807113172039045
 40
0.7614226344078091
 40
0.7614226344078091
 40
0.7614226344078091
 10
-36.62916512459896
 20
99.75000000000017
 30
0.0
 41
1.0
 10
-35.75833024919774
 20
101.2583302491978
 30
0.0
 41
1.037954849302044
 10
-34.75277674973265
 20
103.0000000000002
 30
0.0
 41
1.0
  0
ARC
  5
191E
330
175A
100
AcDbEntity
  8
Visible Edges(ISO)
100
AcDbCircle
 10
-31.00000000000006
 20
96.50000000000018
 30
0.0
 40
6.500000000000037
100
AcDbArc
 50
90.0
 51
149.9999999999998
  0
SPLINE
  5
191F
330
175A
100
AcDbEntity
  8
Visible Edges(ISO)
100
AcDbSpline
210
0.0
220
0.0
230
1.0
 70
    28
 71
     2
 72
     6
 73
     3
 74
     0
 42
0.0000000001
 43
0.0000000001
 40
0.0
 40
0.0
 40
0.0
 40
0.3807113172039051
 40
0.3807113172039051
 40
0.3807113172039051
 10
-34.75277674973257
 20
103.0000000000002
 30
0.0
 41
1.0
 10
-32.74166975080235
 20
103.0000000000002
 30
0.0
 41
1.037954849302045
 10
-31.00000000000006
 20
103.0000000000002
 30
0.0
 41
1.0
  0
SPLINE
  5
1920
330
175A
100
AcDbEntity
  8
Visible Edges(ISO)
100
AcDbSpline
210
0.0
220
0.0
230
1.0
 70
    28
 71
     2
 72
     6
 73
     3
 74
     0
 42
0.0000000001
 43
0.0000000001
 40
0.0
 40
0.0
 40
0.0
 40
0.3807113172039045
 40
0.3807113172039045
 40
0.3807113172039045
 10
-38.50555349946516
 20
96.50000000000018
 30
0.0
 41
1.0
 10
-37.50000000000006
 20
98.24166975080249
 30
0.0
 41
1.037954849302042
 10
-36.62916512459896
 20
99.75000000000017
 30
0.0
 41
1.0
  0
SPLINE
  5
1921
330
175A
100
AcDbEntity
  8
Visible Edges(ISO)
100
AcDbSpline
210
0.0
220
0.0
230
1.0
 70
    28
 71
     2
 72
     6
 73
     3
 74
     0
 42
0.0000000001
 43
0.0000000001
 40
0.3807113172039044
 40
0.3807113172039044
 40
0.3807113172039044
 40
0.7614226344078091
 40
0.7614226344078091
 40
0.7614226344078091
 10
-36.62916512459896
 20
93.25000000000011
 30
0.0
 41
1.0
 10
-37.50000000000005
 20
94.75833024919779
 30
0.0
 41
1.037954849302054
 10
-38.50555349946516
 20
96.50000000000018
 30
0.0
 41
1.0
  0
ARC
  5
1922
330
175A
100
AcDbEntity
  8
Visible Edges(ISO)
100
AcDbCircle
 10
-31.00000000000006
 20
96.50000000000018
 30
0.0
 40
6.500000000000039
100
AcDbArc
 50
149.9999999999998
 51
210.0000000000001
  0
SPLINE
  5
1923
330
175A
100
AcDbEntity
  8
Visible Edges(ISO)
100
AcDbSpline
210
0.0
220
0.0
230
1.0
 70
    28
 71
     2
 72
     6
 73
     3
 74
     0
 42
0.0000000001
 43
0.0000000001
 40
0.3807113172039051
 40
0.3807113172039051
 40
0.3807113172039051
 40
0.7614226344078104
 40
0.7614226344078104
 40
0.7614226344078104
 10
25.37083487540116
 20
99.75000000000017
 30
0.0
 41
1.0
 10
26.24166975080223
 20
101.2583302491978
 30
0.0
 41
1.037954849302032
 10
27.24722325026747
 20
103.0000000000002
 30
0.0
 41
1.0
  0
ARC
  5
1924
330
175A
100
AcDbEntity
  8
Visible Edges(ISO)
100
AcDbCircle
 10
31.00000000000006
 20
96.50000000000018
 30
0.0
 40
6.500000000000023
100
AcDbArc
 50
90.0
 51
149.9999999999998
  0
SPLINE
  5
1925
330
175A
100
AcDbEntity
  8
Visible Edges(ISO)
100
AcDbSpline
210
0.0
220
0.0
230
1.0
 70
    28
 71
     2
 72
     6
 73
     3
 74
     0
 42
0.0000000001
 43
0.0000000001
 40
0.0
 40
0.0
 40
0.0
 40
0.3807113172039049
 40
0.3807113172039049
 40
0.3807113172039049
 10
27.24722325026747
 20
103.0000000000002
 30
0.0
 41
1.0
 10
29.25833024919774
 20
103.0000000000002
 30
0.0
 41
1.037954849302044
 10
31.00000000000006
 20
103.0000000000002
 30
0.0
 41
1.0
  0
SPLINE
  5
1926
330
175A
100
AcDbEntity
  8
Visible Edges(ISO)
100
AcDbSpline
210
0.0
220
0.0
230
1.0
 70
    28
 71
     2
 72
     6
 73
     3
 74
     0
 42
0.0000000001
 43
0.0000000001
 40
0.0
 40
0.0
 40
0.0
 40
0.380711317203904
 40
0.380711317203904
 40
0.380711317203904
 10
34.75277674973253
 20
103.0000000000002
 30
0.0
 41
1.0
 10
35.75833024919767
 20
101.2583302491978
 30
0.0
 41
1.037954849302052
 10
36.62916512459887
 20
99.75000000000017
 30
0.0
 41
1.0
  0
SPLINE
  5
1927
330
175A
100
AcDbEntity
  8
Visible Edges(ISO)
100
AcDbSpline
210
0.0
220
0.0
230
1.0
 70
    28
 71
     2
 72
     6
 73
     3
 74
     0
 42
0.0000000001
 43
0.0000000001
 40
0.3807113172039049
 40
0.3807113172039049
 40
0.3807113172039049
 40
0.7614226344078097
 40
0.7614226344078097
 40
0.7614226344078097
 10
31.00000000000006
 20
103.0000000000002
 30
0.0
 41
1.0
 10
32.74166975080225
 20
103.0000000000002
 30
0.0
 41
1.037954849302014
 10
34.75277674973253
 20
103.0000000000002
 30
0.0
 41
1.0
  0
ARC
  5
1928
330
175A
100
AcDbEntity
  8
Visible Edges(ISO)
100
AcDbCircle
 10
31.00000000000006
 20
96.50000000000018
 30
0.0
 40
6.500000000000026
100
AcDbArc
 50
30.00000000000014
 51
90.0
  0
SPLINE
  5
1929
330
175A
100
AcDbEntity
  8
Visible Edges(ISO)
100
AcDbSpline
210
0.0
220
0.0
230
1.0
 70
    28
 71
     2
 72
     6
 73
     3
 74
     0
 42
0.0000000001
 43
0.0000000001
 40
0.3807113172039051
 40
0.3807113172039051
 40
0.3807113172039051
 40
0.7614226344078105
 40
0.7614226344078105
 40
0.7614226344078105
 10
25.37083487540116
 20
93.25000000000011
 30
0.0
 41
1.0
 10
24.50000000000006
 20
94.75833024919779
 30
0.0
 41
1.037954849302055
 10
23.49444650053488
 20
96.50000000000018
 30
0.0
 41
1.0
  0
ARC
  5
192A
330
175A
100
AcDbEntity
  8
Visible Edges(ISO)
100
AcDbCircle
 10
31.00000000000006
 20
96.50000000000018
 30
0.0
 40
6.500000000000023
100
AcDbArc
 50
149.9999999999998
 51
210.0000000000001
  0
SPLINE
  5
192B
330
175A
100
AcDbEntity
  8
Visible Edges(ISO)
100
AcDbSpline
210
0.0
220
0.0
230
1.0
 70
    28
 71
     2
 72
     6
 73
     3
 74
     0
 42
0.0000000001
 43
0.0000000001
 40
0.0
 40
0.0
 40
0.0
 40
0.3807113172039051
 40
0.3807113172039051
 40
0.3807113172039051
 10
23.49444650053488
 20
96.50000000000018
 30
0.0
 41
1.0
 10
24.50000000000006
 20
98.24166975080249
 30
0.0
 41
1.037954849302045
 10
25.37083487540116
 20
99.75000000000017
 30
0.0
 41
1.0
  0
SPLINE
  5
192C
330
175A
100
AcDbEntity
  8
Visible Edges(ISO)
100
AcDbSpline
210
0.0
220
0.0
230
1.0
 70
    28
 71
     2
 72
     6
 73
     3
 74
     0
 42
0.0000000001
 43
0.0000000001
 40
0.0
 40
0.0
 40
0.0
 40
0.3807113172039044
 40
0.3807113172039044
 40
0.3807113172039044
 10
38.50555349946515
 20
96.50000000000018
 30
0.0
 41
1.0
 10
37.49999999999995
 20
94.75833024919779
 30
0.0
 41
1.037954849302035
 10
36.62916512459887
 20
93.25000000000011
 30
0.0
 41
1.0
  0
SPLINE
  5
192D
330
175A
100
AcDbEntity
  8
Visible Edges(ISO)
100
AcDbSpline
210
0.0
220
0.0
230
1.0
 70
    28
 71
     2
 72
     6
 73
     3
 74
     0
 42
0.0000000001
 43
0.0000000001
 40
0.380711317203904
 40
0.380711317203904
 40
0.380711317203904
 40
0.7614226344078081
 40
0.7614226344078081
 40
0.7614226344078081
 10
36.62916512459887
 20
99.75000000000017
 30
0.0
 41
1.0
 10
37.49999999999995
 20
98.24166975080249
 30
0.0
 41
1.037954849302052
 10
38.50555349946515
 20
96.50000000000018
 30
0.0
 41
1.0
  0
ARC
  5
192E
330
175A
100
AcDbEntity
  8
Visible Edges(ISO)
100
AcDbCircle
 10
31.00000000000006
 20
96.50000000000018
 30
0.0
 40
6.500000000000023
100
AcDbArc
 50
329.9999999999999
 51
29.99999999999832
  0
SPLINE
  5
192F
330
175A
100
AcDbEntity
  8
Visible Edges(ISO)
100
AcDbSpline
210
0.0
220
0.0
230
1.0
 70
    28
 71
     2
 72
     6
 73
     3
 74
     0
 42
0.0000000001
 43
0.0000000001
 40
0.3807113172039045
 40
0.3807113172039045
 40
0.3807113172039045
 40
0.7614226344078091
 40
0.7614226344078091
 40
0.7614226344078091
 10
31.00000000000006
 20
90.00000000000017
 30
0.0
 41
1.0
 10
29.25833024919774
 20
90.00000000000017
 30
0.0
 41
1.037954849302044
 10
27.24722325026747
 20
90.00000000000017
 30
0.0
 41
1.0
  0
ARC
  5
1930
330
175A
100
AcDbEntity
  8
Visible Edges(ISO)
100
AcDbCircle
 10
31.00000000000006
 20
96.50000000000018
 30
0.0
 40
6.500000000000023
100
AcDbArc
 50
210.0000000000001
 51
270.0
  0
SPLINE
  5
1931
330
175A
100
AcDbEntity
  8
Visible Edges(ISO)
100
AcDbSpline
210
0.0
220
0.0
230
1.0
 70
    28
 71
     2
 72
     6
 73
     3
 74
     0
 42
0.0000000001
 43
0.0000000001
 40
0.0
 40
0.0
 40
0.0
 40
0.3807113172039051
 40
0.3807113172039051
 40
0.3807113172039051
 10
27.24722325026747
 20
90.00000000000017
 30
0.0
 41
1.0
 10
26.24166975080223
 20
91.74166975080249
 30
0.0
 41
1.037954849302045
 10
25.37083487540116
 20
93.25000000000011
 30
0.0
 41
1.0
  0
SPLINE
  5
1932
330
175A
100
AcDbEntity
  8
Visible Edges(ISO)
100
AcDbSpline
210
0.0
220
0.0
230
1.0
 70
    28
 71
     2
 72
     6
 73
     3
 74
     0
 42
0.0000000001
 43
0.0000000001
 40
0.0
 40
0.0
 40
0.0
 40
0.3807113172039045
 40
0.3807113172039045
 40
0.3807113172039045
 10
34.75277674973253
 20
90.00000000000017
 30
0.0
 41
1.0
 10
32.74166975080225
 20
90.00000000000017
 30
0.0
 41
1.037954849302042
 10
31.00000000000006
 20
90.00000000000017
 30
0.0
 41
1.0
  0
SPLINE
  5
1933
330
175A
100
AcDbEntity
  8
Visible Edges(ISO)
100
AcDbSpline
210
0.0
220
0.0
230
1.0
 70
    28
 71
     2
 72
     6
 73
     3
 74
     0
 42
0.0000000001
 43
0.0000000001
 40
0.3807113172039044
 40
0.3807113172039044
 40
0.3807113172039044
 40
0.7614226344078091
 40
0.7614226344078091
 40
0.7614226344078091
 10
36.62916512459887
 20
93.25000000000011
 30
0.0
 41
1.0
 10
35.75833024919767
 20
91.74166975080249
 30
0.0
 41
1.037954849302054
 10
34.75277674973253
 20
90.00000000000017
 30
0.0
 41
1.0
  0
ARC
  5
1934
330
175A
100
AcDbEntity
  8
Visible Edges(ISO)
100
AcDbCircle
 10
31.00000000000006
 20
96.50000000000018
 30
0.0
 40
6.500000000000023
100
AcDbArc
 50
270.0
 51
329.9999999999999
  0
SPLINE
  5
1935
330
175A
100
AcDbEntity
  8
Visible Edges(ISO)
100
AcDbSpline
210
0.0
220
0.0
230
1.0
 70
    28
 71
     2
 72
     6
 73
     3
 74
     0
 42
0.0000000001
 43
0.0000000001
 40
0.3807113172039051
 40
0.3807113172039051
 40
0.3807113172039051
 40
0.7614226344078104
 40
0.7614226344078104
 40
0.7614226344078104
 10
36.62916512459887
 20
-99.75000000000006
 30
0.0
 41
1.0
 10
35.75833024919776
 20
-101.2583302491977
 30
0.0
 41
1.037954849302032
 10
34.75277674973266
 20
-103.0
 30
0.0
 41
1.0
  0
ARC
  5
1936
330
175A
100
AcDbEntity
  8
Visible Edges(ISO)
100
AcDbCircle
 10
31.00000000000006
 20
-96.50000000000005
 30
0.0
 40
6.500000000000023
100
AcDbArc
 50
270.0
 51
329.9999999999999
  0
SPLINE
  5
1937
330
175A
100
AcDbEntity
  8
Visible Edges(ISO)
100
AcDbSpline
210
0.0
220
0.0
230
1.0
 70
    28
 71
     2
 72
     6
 73
     3
 74
     0
 42
0.0000000001
 43
0.0000000001
 40
0.0
 40
0.0
 40
0.0
 40
0.3807113172039049
 40
0.3807113172039049
 40
0.3807113172039049
 10
34.75277674973253
 20
-103.0
 30
0.0
 41
1.0
 10
32.74166975080234
 20
-103.0
 30
0.0
 41
1.037954849302044
 10
31.00000000000006
 20
-103.0
 30
0.0
 41
1.0
  0
SPLINE
  5
1938
330
175A
100
AcDbEntity
  8
Visible Edges(ISO)
100
AcDbSpline
210
0.0
220
0.0
230
1.0
 70
    28
 71
     2
 72
     6
 73
     3
 74
     0
 42
0.0000000001
 43
0.0000000001
 40
0.0
 40
0.0
 40
0.0
 40
0.380711317203904
 40
0.380711317203904
 40
0.380711317203904
 10
27.24722325026747
 20
-103.0
 30
0.0
 41
1.0
 10
26.24166975080234
 20
-101.2583302491977
 30
0.0
 41
1.037954849302052
 10
25.37083487540116
 20
-99.75000000000006
 30
0.0
 41
1.0
  0
SPLINE
  5
1939
330
175A
100
AcDbEntity
  8
Visible Edges(ISO)
100
AcDbSpline
210
0.0
220
0.0
230
1.0
 70
    28
 71
     2
 72
     6
 73
     3
 74
     0
 42
0.0000000001
 43
0.0000000001
 40
0.3807113172039049
 40
0.3807113172039049
 40
0.3807113172039049
 40
0.7614226344078097
 40
0.7614226344078097
 40
0.7614226344078097
 10
31.00000000000006
 20
-103.0
 30
0.0
 41
1.0
 10
29.25833024919774
 20
-103.0
 30
0.0
 41
1.037954849302014
 10
27.24722325026747
 20
-103.0
 30
0.0
 41
1.0
  0
ARC
  5
193A
330
175A
100
AcDbEntity
  8
Visible Edges(ISO)
100
AcDbCircle
 10
31.00000000000006
 20
-96.50000000000005
 30
0.0
 40
6.500000000000023
100
AcDbArc
 50
210.0000000000001
 51
270.0
  0
SPLINE
  5
193B
330
175A
100
AcDbEntity
  8
Visible Edges(ISO)
100
AcDbSpline
210
0.0
220
0.0
230
1.0
 70
    28
 71
     2
 72
     6
 73
     3
 74
     0
 42
0.0000000001
 43
0.0000000001
 40
0.3807113172039051
 40
0.3807113172039051
 40
0.3807113172039051
 40
0.7614226344078105
 40
0.7614226344078105
 40
0.7614226344078105
 10
36.62916512459887
 20
-93.25000000000006
 30
0.0
 41
1.0
 10
37.50000000000007
 20
-94.7583302491977
 30
0.0
 41
1.037954849302055
 10
38.50555349946515
 20
-96.49999999999996
 30
0.0
 41
1.0
  0
ARC
  5
193C
330
175A
100
AcDbEntity
  8
Visible Edges(ISO)
100
AcDbCircle
 10
31.00000000000006
 20
-96.50000000000005
 30
0.0
 40
6.500000000000023
100
AcDbArc
 50
329.9999999999999
 51
30.00000000000014
  0
SPLINE
  5
193D
330
175A
100
AcDbEntity
  8
Visible Edges(ISO)
100
AcDbSpline
210
0.0
220
0.0
230
1.0
 70
    28
 71
     2
 72
     6
 73
     3
 74
     0
 42
0.0000000001
 43
0.0000000001
 40
0.0
 40
0.0
 40
0.0
 40
0.3807113172039051
 40
0.3807113172039051
 40
0.3807113172039051
 10
38.50555349946515
 20
-96.50000000000005
 30
0.0
 41
1.0
 10
37.50000000000007
 20
-98.24166975080236
 30
0.0
 41
1.037954849302045
 10
36.62916512459887
 20
-99.75000000000006
 30
0.0
 41
1.0
  0
SPLINE
  5
193E
330
175A
100
AcDbEntity
  8
Visible Edges(ISO)
100
AcDbSpline
210
0.0
220
0.0
230
1.0
 70
    28
 71
     2
 72
     6
 73
     3
 74
     0
 42
0.0000000001
 43
0.0000000001
 40
0.0
 40
0.0
 40
0.0
 40
0.3807113172039044
 40
0.3807113172039044
 40
0.3807113172039044
 10
23.49444650053493
 20
-96.49999999999996
 30
0.0
 41
1.0
 10
24.50000000000006
 20
-94.7583302491977
 30
0.0
 41
1.037954849302035
 10
25.37083487540116
 20
-93.25000000000006
 30
0.0
 41
1.0
  0
SPLINE
  5
193F
330
175A
100
AcDbEntity
  8
Visible Edges(ISO)
100
AcDbSpline
210
0.0
220
0.0
230
1.0
 70
    28
 71
     2
 72
     6
 73
     3
 74
     0
 42
0.0000000001
 43
0.0000000001
 40
0.380711317203904
 40
0.380711317203904
 40
0.380711317203904
 40
0.7614226344078081
 40
0.7614226344078081
 40
0.7614226344078081
 10
25.37083487540116
 20
-99.75000000000006
 30
0.0
 41
1.0
 10
24.50000000000006
 20
-98.24166975080236
 30
0.0
 41
1.037954849302052
 10
23.49444650053493
 20
-96.50000000000005
 30
0.0
 41
1.0
  0
ARC
  5
1940
330
175A
100
AcDbEntity
  8
Visible Edges(ISO)
100
AcDbCircle
 10
31.00000000000006
 20
-96.50000000000005
 30
0.0
 40
6.500000000000023
100
AcDbArc
 50
149.9999999999998
 51
210.0000000000001
  0
SPLINE
  5
1941
330
175A
100
AcDbEntity
  8
Visible Edges(ISO)
100
AcDbSpline
210
0.0
220
0.0
230
1.0
 70
    28
 71
     2
 72
     6
 73
     3
 74
     0
 42
0.0000000001
 43
0.0000000001
 40
0.3807113172039045
 40
0.3807113172039045
 40
0.3807113172039045
 40
0.7614226344078091
 40
0.7614226344078091
 40
0.7614226344078091
 10
31.00000000000006
 20
-90.00000000000005
 30
0.0
 41
1.0
 10
32.74166975080234
 20
-90.00000000000005
 30
0.0
 41
1.037954849302044
 10
34.75277674973253
 20
-90.00000000000005
 30
0.0
 41
1.0
  0
ARC
  5
1942
330
175A
100
AcDbEntity
  8
Visible Edges(ISO)
100
AcDbCircle
 10
31.00000000000006
 20
-96.50000000000005
 30
0.0
 40
6.500000000000023
100
AcDbArc
 50
30.00000000000014
 51
90.0
  0
SPLINE
  5
1943
330
175A
100
AcDbEntity
  8
Visible Edges(ISO)
100
AcDbSpline
210
0.0
220
0.0
230
1.0
 70
    28
 71
     2
 72
     6
 73
     3
 74
     0
 42
0.0000000001
 43
0.0000000001
 40
0.0
 40
0.0
 40
0.0
 40
0.3807113172039051
 40
0.3807113172039051
 40
0.3807113172039051
 10
34.75277674973266
 20
-90.00000000000005
 30
0.0
 41
1.0
 10
35.75833024919776
 20
-91.74166975080234
 30
0.0
 41
1.037954849302045
 10
36.62916512459887
 20
-93.25000000000006
 30
0.0
 41
1.0
  0
SPLINE
  5
1944
330
175A
100
AcDbEntity
  8
Visible Edges(ISO)
100
AcDbSpline
210
0.0
220
0.0
230
1.0
 70
    28
 71
     2
 72
     6
 73
     3
 74
     0
 42
0.0000000001
 43
0.0000000001
 40
0.0
 40
0.0
 40
0.0
 40
0.3807113172039045
 40
0.3807113172039045
 40
0.3807113172039045
 10
27.24722325026747
 20
-90.00000000000005
 30
0.0
 41
1.0
 10
29.25833024919774
 20
-90.00000000000005
 30
0.0
 41
1.037954849302042
 10
31.00000000000006
 20
-90.00000000000005
 30
0.0
 41
1.0
  0
SPLINE
  5
1945
330
175A
100
AcDbEntity
  8
Visible Edges(ISO)
100
AcDbSpline
210
0.0
220
0.0
230
1.0
 70
    28
 71
     2
 72
     6
 73
     3
 74
     0
 42
0.0000000001
 43
0.0000000001
 40
0.3807113172039044
 40
0.3807113172039044
 40
0.3807113172039044
 40
0.7614226344078091
 40
0.7614226344078091
 40
0.7614226344078091
 10
25.37083487540116
 20
-93.25000000000006
 30
0.0
 41
1.0
 10
26.24166975080234
 20
-91.74166975080234
 30
0.0
 41
1.037954849302054
 10
27.24722325026747
 20
-90.00000000000005
 30
0.0
 41
1.0
  0
ARC
  5
1946
330
175A
100
AcDbEntity
  8
Visible Edges(ISO)
100
AcDbCircle
 10
31.00000000000006
 20
-96.50000000000005
 30
0.0
 40
6.500000000000023
100
AcDbArc
 50
90.0
 51
149.9999999999998
  0
SPLINE
  5
1947
330
175A
100
AcDbEntity
  8
Visible Edges(ISO)
100
AcDbSpline
210
0.0
220
0.0
230
1.0
 70
    28
 71
     2
 72
     6
 73
     3
 74
     0
 42
0.0000000001
 43
0.0000000001
 40
0.3807113172039051
 40
0.3807113172039051
 40
0.3807113172039051
 40
0.7614226344078104
 40
0.7614226344078104
 40
0.7614226344078104
 10
-31.00000000000006
 20
-103.0
 30
0.0
 41
1.0
 10
-32.74166975080222
 20
-103.0
 30
0.0
 41
1.037954849302032
 10
-34.75277674973257
 20
-103.0
 30
0.0
 41
1.0
  0
ARC
  5
1948
330
175A
100
AcDbEntity
  8
Visible Edges(ISO)
100
AcDbCircle
 10
-31.00000000000006
 20
-96.50000000000005
 30
0.0
 40
6.500000000000023
100
AcDbArc
 50
210.0000000000001
 51
270.0
  0
SPLINE
  5
1949
330
175A
100
AcDbEntity
  8
Visible Edges(ISO)
100
AcDbSpline
210
0.0
220
0.0
230
1.0
 70
    28
 71
     2
 72
     6
 73
     3
 74
     0
 42
0.0000000001
 43
0.0000000001
 40
0.0
 40
0.0
 40
0.0
 40
0.3807113172039049
 40
0.3807113172039049
 40
0.3807113172039049
 10
-34.75277674973257
 20
-103.0
 30
0.0
 41
1.0
 10
-35.75833024919774
 20
-101.2583302491977
 30
0.0
 41
1.037954849302044
 10
-36.62916512459886
 20
-99.75000000000006
 30
0.0
 41
1.0
  0
SPLINE
  5
194A
330
175A
100
AcDbEntity
  8
Visible Edges(ISO)
100
AcDbSpline
210
0.0
220
0.0
230
1.0
 70
    28
 71
     2
 72
     6
 73
     3
 74
     0
 42
0.0000000001
 43
0.0000000001
 40
0.0
 40
0.0
 40
0.0
 40
0.380711317203904
 40
0.380711317203904
 40
0.380711317203904
 10
-38.50555349946516
 20
-96.49999999999996
 30
0.0
 41
1.0
 10
-37.49999999999995
 20
-94.7583302491977
 30
0.0
 41
1.037954849302052
 10
-36.62916512459886
 20
-93.25000000000006
 30
0.0
 41
1.0
  0
SPLINE
  5
194B
330
175A
100
AcDbEntity
  8
Visible Edges(ISO)
100
AcDbSpline
210
0.0
220
0.0
230
1.0
 70
    28
 71
     2
 72
     6
 73
     3
 74
     0
 42
0.0000000001
 43
0.0000000001
 40
0.3807113172039049
 40
0.3807113172039049
 40
0.3807113172039049
 40
0.7614226344078097
 40
0.7614226344078097
 40
0.7614226344078097
 10
-36.62916512459886
 20
-99.75000000000006
 30
0.0
 41
1.0
 10
-37.50000000000006
 20
-98.24166975080236
 30
0.0
 41
1.037954849302014
 10
-38.50555349946516
 20
-96.50000000000005
 30
0.0
 41
1.0
  0
ARC
  5
194C
330
175A
100
AcDbEntity
  8
Visible Edges(ISO)
100
AcDbCircle
 10
-31.00000000000006
 20
-96.50000000000005
 30
0.0
 40
6.500000000000023
100
AcDbArc
 50
149.9999999999998
 51
210.0000000000001
  0
SPLINE
  5
194D
330
175A
100
AcDbEntity
  8
Visible Edges(ISO)
100
AcDbSpline
210
0.0
220
0.0
230
1.0
 70
    28
 71
     2
 72
     6
 73
     3
 74
     0
 42
0.0000000001
 43
0.0000000001
 40
0.3807113172039051
 40
0.3807113172039051
 40
0.3807113172039051
 40
0.7614226344078105
 40
0.7614226344078105
 40
0.7614226344078105
 10
-25.37083487540113
 20
-99.75000000000006
 30
0.0
 41
1.0
 10
-26.24166975080235
 20
-101.2583302491977
 30
0.0
 41
1.037954849302055
 10
-27.24722325026744
 20
-103.0
 30
0.0
 41
1.0
  0
ARC
  5
194E
330
175A
100
AcDbEntity
  8
Visible Edges(ISO)
100
AcDbCircle
 10
-31.00000000000006
 20
-96.50000000000005
 30
0.0
 40
6.500000000000023
100
AcDbArc
 50
270.0
 51
329.9999999999999
  0
SPLINE
  5
194F
330
175A
100
AcDbEntity
  8
Visible Edges(ISO)
100
AcDbSpline
210
0.0
220
0.0
230
1.0
 70
    28
 71
     2
 72
     6
 73
     3
 74
     0
 42
0.0000000001
 43
0.0000000001
 40
0.0
 40
0.0
 40
0.0
 40
0.3807113172039051
 40
0.3807113172039051
 40
0.3807113172039051
 10
-27.24722325026744
 20
-103.0
 30
0.0
 41
1.0
 10
-29.25833024919774
 20
-103.0
 30
0.0
 41
1.037954849302045
 10
-31.00000000000006
 20
-103.0
 30
0.0
 41
1.0
  0
SPLINE
  5
1950
330
175A
100
AcDbEntity
  8
Visible Edges(ISO)
100
AcDbSpline
210
0.0
220
0.0
230
1.0
 70
    28
 71
     2
 72
     6
 73
     3
 74
     0
 42
0.0000000001
 43
0.0000000001
 40
0.0
 40
0.0
 40
0.0
 40
0.3807113172039044
 40
0.3807113172039044
 40
0.3807113172039044
 10
-34.75277674973257
 20
-90.00000000000005
 30
0.0
 41
1.0
 10
-32.74166975080222
 20
-90.00000000000005
 30
0.0
 41
1.037954849302035
 10
-31.00000000000006
 20
-90.00000000000005
 30
0.0
 41
1.0
  0
SPLINE
  5
1951
330
175A
100
AcDbEntity
  8
Visible Edges(ISO)
100
AcDbSpline
210
0.0
220
0.0
230
1.0
 70
    28
 71
     2
 72
     6
 73
     3
 74
     0
 42
0.0000000001
 43
0.0000000001
 40
0.380711317203904
 40
0.380711317203904
 40
0.380711317203904
 40
0.7614226344078081
 40
0.7614226344078081
 40
0.7614226344078081
 10
-36.62916512459886
 20
-93.25000000000006
 30
0.0
 41
1.0
 10
-35.75833024919776
 20
-91.74166975080234
 30
0.0
 41
1.037954849302052
 10
-34.75277674973257
 20
-90.00000000000005
 30
0.0
 41
1.0
  0
ARC
  5
1952
330
175A
100
AcDbEntity
  8
Visible Edges(ISO)
100
AcDbCircle
 10
-31.00000000000006
 20
-96.50000000000005
 30
0.0
 40
6.500000000000023
100
AcDbArc
 50
90.0
 51
149.9999999999998
  0
SPLINE
  5
1953
330
175A
100
AcDbEntity
  8
Visible Edges(ISO)
100
AcDbSpline
210
0.0
220
0.0
230
1.0
 70
    28
 71
     2
 72
     6
 73
     3
 74
     0
 42
0.0000000001
 43
0.0000000001
 40
0.3807113172039045
 40
0.3807113172039045
 40
0.3807113172039045
 40
0.7614226344078091
 40
0.7614226344078091
 40
0.7614226344078091
 10
-25.37083487540113
 20
-93.25000000000006
 30
0.0
 41
1.0
 10
-24.50000000000006
 20
-94.7583302491977
 30
0.0
 41
1.037954849302044
 10
-23.49444650053485
 20
-96.49999999999996
 30
0.0
 41
1.0
  0
ARC
  5
1954
330
175A
100
AcDbEntity
  8
Visible Edges(ISO)
100
AcDbCircle
 10
-31.00000000000006
 20
-96.50000000000005
 30
0.0
 40
6.500000000000023
100
AcDbArc
 50
329.9999999999999
 51
30.00000000000014
  0
SPLINE
  5
1955
330
175A
100
AcDbEntity
  8
Visible Edges(ISO)
100
AcDbSpline
210
0.0
220
0.0
230
1.0
 70
    28
 71
     2
 72
     6
 73
     3
 74
     0
 42
0.0000000001
 43
0.0000000001
 40
0.0
 40
0.0
 40
0.0
 40
0.3807113172039051
 40
0.3807113172039051
 40
0.3807113172039051
 10
-23.49444650053485
 20
-96.50000000000005
 30
0.0
 41
1.0
 10
-24.50000000000006
 20
-98.24166975080236
 30
0.0
 41
1.037954849302045
 10
-25.37083487540113
 20
-99.75000000000006
 30
0.0
 41
1.0
  0
SPLINE
  5
1956
330
175A
100
AcDbEntity
  8
Visible Edges(ISO)
100
AcDbSpline
210
0.0
220
0.0
230
1.0
 70
    28
 71
     2
 72
     6
 73
     3
 74
     0
 42
0.0000000001
 43
0.0000000001
 40
0.0
 40
0.0
 40
0.0
 40
0.3807113172039045
 40
0.3807113172039045
 40
0.3807113172039045
 10
-27.24722325026744
 20
-90.00000000000005
 30
0.0
 41
1.0
 10
-26.24166975080235
 20
-91.74166975080234
 30
0.0
 41
1.037954849302042
 10
-25.37083487540113
 20
-93.25000000000006
 30
0.0
 41
1.0
  0
SPLINE
  5
1957
330
175A
100
AcDbEntity
  8
Visible Edges(ISO)
100
AcDbSpline
210
0.0
220
0.0
230
1.0
 70
    28
 71
     2
 72
     6
 73
     3
 74
     0
 42
0.0000000001
 43
0.0000000001
 40
0.3807113172039044
 40
0.3807113172039044
 40
0.3807113172039044
 40
0.7614226344078091
 40
0.7614226344078091
 40
0.7614226344078091
 10
-31.00000000000006
 20
-90.00000000000005
 30
0.0
 41
1.0
 10
-29.25833024919774
 20
-90.00000000000005
 30
0.0
 41
1.037954849302054
 10
-27.24722325026744
 20
-90.00000000000005
 30
0.0
 41
1.0
  0
ARC
  5
1958
330
175A
100
AcDbEntity
  8
Visible Edges(ISO)
100
AcDbCircle
 10
-31.00000000000006
 20
-96.50000000000005
 30
0.0
 40
6.500000000000023
100
AcDbArc
 50
30.00000000000014
 51
90.0
  0
INSERT
  5
1959
330
175A
100
AcDbEntity
  8
0
100
AcDbBlockReference
 66
     1
  2
info
 10
-19.99999951288893
 20
-74.79999957841695
 30
0.0
  0
ATTRIB
  5
195A
330
1959
100
AcDbEntity
  8
0
100
AcDbText
 10
-10.53290656256945
 20
-71.90890434293766
 30
0.00000001
 40
5.0
  1
40
100
AcDbAttribute
  2
BRD
 70
     1
1001
AcDbAttr
1070
     0
1070
     1
  0
ATTRIB
  5
195B
330
1959
100
AcDbEntity
  8
0
100
AcDbText
 10
-10.53290656256945
 20
-80.24223767627086
 30
0.00000001
 40
5.0
  1
120
100
AcDbAttribute
  2
HJD
 70
     1
1001
AcDbAttr
1070
     0
1070
     1
  0
SEQEND
  5
195C
330
1959
100
AcDbEntity
  8
0
  0
LINE
  5
195D
330
175A
100
AcDbEntity
  8
0
100
AcDbLine
 10
-21.44999999999992
 20
45.19999999999998
 30
0.0
 11
21.45000000000004
 21
45.19999999999998
 31
0.0
  0
LINE
  5
195E
330
175A
100
AcDbEntity
  8
0
100
AcDbLine
 10
-0.0000000000000568
 20
-74.80000000000003
 30
0.0
 11
21.44999999999993
 21
-74.80000000000003
 31
0.0
  0
LINE
  5
195F
330
175A
100
AcDbEntity
  8
0
100
AcDbLine
 10
21.44999999999993
 20
-74.80000000000003
 30
0.0
 11
21.45000000000004
 21
46.22074023069564
 31
0.0
  0
LINE
  5
1960
330
175A
100
AcDbEntity
  8
0
100
AcDbLine
 10
21.45000000000004
 20
46.22074023069564
 30
0.0
 11
19.99999999999991
 21
46.22074023069564
 31
0.0
  0
LINE
  5
1961
330
175A
100
AcDbEntity
  8
0
100
AcDbLine
 10
-0.0000000000000568
 20
-74.80000000000003
 30
0.0
 11
-21.45000000000004
 21
-74.80000000000003
 31
0.0
  0
LINE
  5
1962
330
175A
100
AcDbEntity
  8
0
100
AcDbLine
 10
-21.45000000000004
 20
-74.80000000000003
 30
0.0
 11
-21.44999999999992
 21
46.22074023069564
 31
0.0
  0
LINE
  5
1963
330
175A
100
AcDbEntity
  8
AM_5
100
AcDbLine
 10
-19.99999951288893
 20
-75.79999957841694
 30
0.0
 11
-19.99999951288893
 21
-121.4552970318098
 31
0.0
  0
LINE
  5
1964
330
175A
100
AcDbEntity
  8
AM_5
100
AcDbLine
 10
19.99999999999991
 20
-75.80000000000002
 30
0.0
 11
19.99999999999991
 21
-121.4552970318098
 31
0.0
  0
LINE
  5
1965
330
175A
100
AcDbEntity
  8
AM_5
100
AcDbLine
 10
-17.49999951288893
 20
-120.4552970318098
 30
0.0
 11
17.49999999999991
 21
-120.4552970318098
 31
0.0
  0
SOLID
  5
1966
330
175A
100
AcDbEntity
  8
AM_5
100
AcDbTrace
 10
-17.49999951288893
 20
-120.0386303651431
 30
0.0
 11
-17.49999951288893
 21
-120.8719636984764
 31
0.0
 12
-19.99999951288893
 22
-120.4552970318098
 32
0.0
 13
-19.99999951288893
 23
-120.4552970318098
 33
0.0
  0
SOLID
  5
1967
330
175A
100
AcDbEntity
  8
AM_5
100
AcDbTrace
 10
17.49999999999991
 20
-120.0386303651431
 30
0.0
 11
17.49999999999991
 21
-120.8719636984764
 31
0.0
 12
19.99999999999991
 22
-120.4552970318098
 32
0.0
 13
19.99999999999991
 23
-120.4552970318098
 33
0.0
  0
MTEXT
  5
1968
330
175A
100
AcDbEntity
  8
AM_5
 62
     2
100
AcDbMText
 10
0.0000002435554904
 20
-117.0302970318098
 30
0.0
 40
3.5
 41
0.0
 71
     5
 72
     1
  1
40 [1.575"]
 73
     1
 44
1.0
1001
ACAD
1000
MTEXTBEGIN
1070
    73
1070
     1
1070
    44
1040
1.0
1070
    74
1070
     0
1000
MTEXTEND
  0
LINE
  5
1969
330
175A
100
AcDbEntity
  8
AM_5
100
AcDbLine
 10
-43.99999999999995
 20
-101.0000000000001
 30
0.0
 11
-43.99999999999995
 21
-137.0170476030928
 31
0.0
  0
LINE
  5
196A
330
175A
100
AcDbEntity
  8
AM_5
100
AcDbLine
 10
44.00000000000004
 20
-100.9999999999999
 30
0.0
 11
44.00000000000004
 21
-137.0170476030928
 31
0.0
  0
LINE
  5
196B
330
175A
100
AcDbEntity
  8
AM_5
100
AcDbLine
 10
-41.49999999999995
 20
-136.0170476030928
 30
0.0
 11
41.50000000000004
 21
-136.0170476030928
 31
0.0
  0
SOLID
  5
196C
330
175A
100
AcDbEntity
  8
AM_5
100
AcDbTrace
 10
-41.49999999999995
 20
-135.6003809364261
 30
0.0
 11
-41.49999999999995
 21
-136.4337142697594
 31
0.0
 12
-43.99999999999995
 22
-136.0170476030928
 32
0.0
 13
-43.99999999999995
 23
-136.0170476030928
 33
0.0
  0
SOLID
  5
196D
330
175A
100
AcDbEntity
  8
AM_5
100
AcDbTrace
 10
41.50000000000004
 20
-135.6003809364261
 30
0.0
 11
41.50000000000004
 21
-136.4337142697594
 31
0.0
 12
44.00000000000004
 22
-136.0170476030928
 32
0.0
 13
44.00000000000004
 23
-136.0170476030928
 33
0.0
  0
MTEXT
  5
196E
330
175A
100
AcDbEntity
  8
AM_5
 62
     2
100
AcDbMText
 10
0.0000000000000426
 20
-132.5920476030928
 30
0.0
 40
3.5
 41
0.0
 71
     5
 72
     1
  1
88 [3.465"]
 73
     1
 44
1.0
1001
ACAD
1000
MTEXTBEGIN
1070
    73
1070
     1
1070
    44
1040
1.0
1070
    74
1070
     0
1000
MTEXTEND
  0
LINE
  5
196F
330
175A
100
AcDbEntity
  8
AM_5
100
AcDbLine
 10
-20.99999951288893
 20
-74.79999957841695
 30
0.0
 11
-56.00345773872021
 21
-74.79999957841693
 31
0.0
  0
LINE
  5
1970
330
175A
100
AcDbEntity
  8
AM_5
100
AcDbLine
 10
-20.99999951288893
 20
45.19999999999998
 30
0.0
 11
-56.00345773872018
 21
45.19999999999998
 31
0.0
  0
LINE
  5
1971
330
175A
100
AcDbEntity
  8
AM_5
100
AcDbLine
 10
-55.0034577387202
 20
-72.29999957841693
 30
0.0
 11
-55.00345773872019
 21
42.69999999999998
 31
0.0
  0
SOLID
  5
1972
330
175A
100
AcDbEntity
  8
AM_5
100
AcDbTrace
 10
-55.42012440538687
 20
-72.29999957841693
 30
0.0
 11
-54.58679107205354
 21
-72.29999957841693
 31
0.0
 12
-55.0034577387202
 22
-74.79999957841693
 32
0.0
 13
-55.0034577387202
 23
-74.79999957841693
 33
0.0
  0
SOLID
  5
1973
330
175A
100
AcDbEntity
  8
AM_5
100
AcDbTrace
 10
-55.42012440538685
 20
42.69999999999998
 30
0.0
 11
-54.58679107205352
 21
42.69999999999998
 31
0.0
 12
-55.00345773872019
 22
45.19999999999998
 32
0.0
 13
-55.00345773872019
 23
45.19999999999998
 33
0.0
  0
MTEXT
  5
1974
330
175A
100
AcDbEntity
  8
AM_5
 62
     2
100
AcDbMText
 10
-58.42845773872021
 20
-14.79999978920841
 30
0.0
 40
3.5
 41
0.0
 71
     5
 72
     1
  1
120 [4.724"]
 11
0.0000000000000001
 21
1.0
 31
0.0
 73
     1
 44
1.0
1001
ACAD
1000
MTEXTBEGIN
1070
    73
1070
     1
1070
    44
1040
1.0
1070
    74
1070
     0
1000
MTEXTEND
  0
LINE
  5
1975
330
175A
100
AcDbEntity
  8
AM_5
100
AcDbLine
 10
-36.99999999999996
 20
108.0000000000001
 30
0.0
 11
-70.13243906776335
 21
108.0000000000001
 31
0.0
  0
LINE
  5
1976
330
175A
100
AcDbEntity
  8
AM_5
100
AcDbLine
 10
-36.99999999999918
 20
-108.0
 30
0.0
 11
-70.13243906776338
 21
-108.0
 31
0.0
  0
LINE
  5
1977
330
175A
100
AcDbEntity
  8
AM_5
100
AcDbLine
 10
-69.13243906776334
 20
105.5000000000001
 30
0.0
 11
-69.13243906776338
 21
-105.5
 31
0.0
  0
SOLID
  5
1978
330
175A
100
AcDbEntity
  8
AM_5
100
AcDbTrace
 10
-69.54910573443
 20
105.5000000000001
 30
0.0
 11
-68.71577240109667
 21
105.5000000000001
 31
0.0
 12
-69.13243906776334
 22
108.0000000000001
 32
0.0
 13
-69.13243906776334
 23
108.0000000000001
 33
0.0
  0
SOLID
  5
1979
330
175A
100
AcDbEntity
  8
AM_5
100
AcDbTrace
 10
-69.54910573443005
 20
-105.5
 30
0.0
 11
-68.71577240109671
 21
-105.5
 31
0.0
 12
-69.13243906776338
 22
-108.0
 32
0.0
 13
-69.13243906776338
 23
-108.0
 33
0.0
  0
MTEXT
  5
197A
330
175A
100
AcDbEntity
  8
AM_5
 62
     2
100
AcDbMText
 10
-72.55743906776338
 20
0.0000000000000568
 30
0.0
 40
3.5
 41
0.0
 71
     5
 72
     1
  1
216 [8.504"]
 11
0.0000000000000001
 21
1.0
 31
0.0
 73
     1
 44
1.0
1001
ACAD
1000
MTEXTBEGIN
1070
    73
1070
     1
1070
    44
1040
1.0
1070
    74
1070
     0
1000
MTEXTEND
  0
ENDBLK
  5
175C
330
175A
100
AcDbEntity
  8
0
100
AcDbBlockEnd
  0
ENDSEC
  0
SECTION
  2
ENTITIES
  0
INSERT
  5
197B
330
1A
100
AcDbEntity
  8
AM_0
100
AcDbBlockReference
  2
COMSEAL12
 10
73.95743947204339
 20
137.0170474397564
 30
0.0
  0
VIEWPORT
  5
22
102
{ACAD_XDICTIONARY
360
197E
102
}
330
17
100
AcDbEntity
 67
     1
  8
0
100
AcDbViewport
 10
7.900096624318575
 20
6.635154955787665
 30
0.0
 40
18.8944864125024
 41
11.87498859712033
 68
     1
 69
     1
 12
7.900096624318575
 22
6.635154955787665
 13
0.0
 23
0.0
 14
1.0
 24
1.0
 15
10.0
 25
10.0
 16
0.0
 26
0.0
 36
1.0
 17
0.0
 27
0.0
 37
0.0
 42
50.0
 43
0.0
 44
0.0
 45
11.87498859712033
 50
0.0
 51
0.0
 72
   100
 90
    32800
  1

281
     0
 71
     1
 74
     0
110
0.0
120
0.0
130
0.0
111
1.0
121
0.0
131
0.0
112
0.0
122
1.0
132
0.0
 79
     0
146
0.0
1001
GENIUS_GENSCREG_15
1000
PF
1040
1.0
1000
DF
1040
1.0
1000
MIN
1011
-1.547146581932626
1021
0.6976606572275
1031
0.0
1000
MAX
1011
17.34733983056977
1021
12.57264925434783
1031
0.0
1000
FLAGS
1070
     4
1001
GENIUS_GENODEF_13
1002
{
1000
HIER
1070
     0
1002
}
1002
{
1000
MANEDIT
1070
     0
1002
}
1002
{
1000
NOSEL
1070
     0
1002
}
1002
{
1000
BEHIND
1070
     0
1002
}
1002
{
1000
OTHER
1070
     0
1002
}
1002
{
1000
REACTOR
1002
}
1001
GENIUS_GENOBJ-N-SDF_13
1002
{
1000
OWNER
1000
GEN
1002
}
  0
ENDSEC
  0
SECTION
  2
OBJECTS
  0
DICTIONARY
  5
C
330
0
100
AcDbDictionary
281
     1
  3
ACAD_COLOR
350
3CA
  3
ACAD_GROUP
350
D
  3
ACAD_LAYOUT
350
167
  3
ACAD_MATERIAL
350
3C9
  3
ACAD_MLEADERSTYLE
350
A72
  3
ACAD_MLINESTYLE
350
E
  3
ACAD_PLOTSETTINGS
350
168
  3
ACAD_PLOTSTYLENAME
350
165
  3
ACAD_SCALELIST
350
A60
  3
ACAD_TABLESTYLE
350
650
  3
ACAD_VISUALSTYLE
350
A4F
  3
ACDB_RECOMPOSE_DATA
350
AF1
  3
ACDBVARIABLEDICTIONARY
350
5D
  3
ACMDICTIONARY
350
142
  3
AMG
350
171
  3
AMGSNAPSETTINGS
350
1F2
  3
ASE_INDEX_DICTIONARY
350
849
  3
DWGPROPS
350
197D
  0
DICTIONARY
  5
592
330
2
100
AcDbDictionary
280
     1
281
     1
  3
ACAD_LAYERFILTERS
360
C7C
  3
ACAD_LAYERSTATES
360
822
  3
ACLYDICTIONARY
360
C7B
  3
AMLAYER_GROUPCOLORS
360
593
  0
DICTIONARY
  5
AB7
330
F
100
AcDbDictionary
280
     1
281
     1
  3
ADSK_XREC_LAYER_RECONCILED
360
1395
  0
DICTIONARY
  5
AB9
330
5CF
100
AcDbDictionary
280
     1
281
     1
  3
ADSK_XREC_LAYER_RECONCILED
360
1396
  0
DICTIONARY
  5
139F
330
C7A
100
AcDbDictionary
280
     1
281
     1
  3
ADSK_XREC_LAYER_RECONCILED
360
13A0
  0
DICTIONARY
  5
13A1
330
D15
100
AcDbDictionary
280
     1
281
     1
  3
ADSK_XREC_LAYER_RECONCILED
360
13A2
  0
DICTIONARY
  5
13A3
330
D16
100
AcDbDictionary
280
     1
281
     1
  3
ADSK_XREC_LAYER_RECONCILED
360
13A4
  0
DICTIONARY
  5
12A
330
1A
100
AcDbDictionary
280
     1
281
     1
  3
ACAD_INDEX
360
12B
  3
ACAD_SORTENTS
360
16E2
  0
DICTIONARY
  5
197E
330
22
100
AcDbDictionary
280
     1
281
     1
  3
ACAD_XREC_ROUNDTRIP
360
197F
  0
DICTIONARY
  5
3CA
102
{ACAD_REACTORS
330
C
102
}
330
C
100
AcDbDictionary
281
     1
  0
DICTIONARY
  5
D
102
{ACAD_REACTORS
330
C
102
}
330
C
100
AcDbDictionary
281
     1
  0
DICTIONARY
  5
167
102
{ACAD_REACTORS
330
C
102
}
330
C
100
AcDbDictionary
281
     1
  3
Layout1
350
16A
  3
Model
350
169
  0
DICTIONARY
  5
3C9
102
{ACAD_REACTORS
330
C
102
}
330
C
100
AcDbDictionary
281
     1
  3
ByBlock
350
A3F
  3
ByLayer
350
A37
  3
Global
350
A47
  0
DICTIONARY
  5
A72
102
{ACAD_REACTORS
330
C
102
}
330
C
100
AcDbDictionary
281
     1
  3
Standard
350
A73
  0
DICTIONARY
  5
E
102
{ACAD_REACTORS
330
C
102
}
330
C
100
AcDbDictionary
281
     1
  3
STANDARD
350
13
  0
DICTIONARY
  5
168
102
{ACAD_REACTORS
330
C
102
}
330
C
100
AcDbDictionary
281
     1
  0
ACDBDICTIONARYWDFLT
  5
165
102
{ACAD_REACTORS
330
C
102
}
330
C
100
AcDbDictionary
281
     1
  3
Normal
350
166
100
AcDbDictionaryWithDefault
340
166
  0
DICTIONARY
  5
A60
102
{ACAD_REACTORS
330
C
102
}
330
C
100
AcDbDictionary
281
     1
  3
A0
350
A61
  3
A1
350
A62
  3
A2
350
A63
  3
A3
350
A64
  3
A4
350
A65
  3
A5
350
A66
  3
A6
350
A67
  3
A7
350
A68
  3
A8
350
A69
  3
A9
350
A6A
  3
B0
350
A6B
  3
B1
350
A6C
  3
B2
350
A6D
  3
B3
350
A6E
  3
B4
350
A6F
  3
B5
350
A70
  3
B6
350
A71
  0
DICTIONARY
  5
650
102
{ACAD_REACTORS
330
C
102
}
330
C
100
AcDbDictionary
281
     1
  3
Standard
350
651
  0
DICTIONARY
  5
A4F
102
{ACAD_REACTORS
330
C
102
}
330
C
100
AcDbDictionary
281
     1
  3
2dWireframe
350
A55
  3
3D Hidden
350
A57
  3
3dWireframe
350
A56
  3
Basic
350
A54
  3
Brighten
350
A5B
  3
ColorChange
350
A5F
  3
Conceptual
350
A58
  3
Dim
350
A5A
  3
Facepattern
350
A5E
  3
Flat
350
A50
  3
FlatWithEdges
350
A51
  3
Gouraud
350
A52
  3
GouraudWithEdges
350
A53
  3
Linepattern
350
A5D
  3
Realistic
350
A59
  3
Thicken
350
A5C
  0
XRECORD
  5
AF1
102
{ACAD_REACTORS
330
C
102
}
330
C
100
AcDbXrecord
280
     1
 90
        1
330
651
  0
DICTIONARY
  5
5D
102
{ACAD_REACTORS
330
C
102
}
330
C
100
AcDbDictionary
281
     1
  3
CANNOSCALE
350
AF4
  3
CMLEADERSTYLE
350
AF2
  3
CTABLESTYLE
350
66F
  3
DIMADEC
350
5E
  3
DIMASSOC
350
3C7
  3
INDEXCTL
350
128
  3
LAYEREVAL
350
AF6
  3
LAYERNOTIFY
350
AF7
  3
LIGHTINGUNITS
350
AF5
  3
MSLTSCALE
350
AF3
  3
SORTENTS
350
13A8
  0
DICTIONARY
  5
142
102
{ACAD_REACTORS
330
C
102
}
330
C
100
AcDbDictionary
281
     1
  3
ACMSTDDICTIONARY
350
143
  3
AMDTSECTSYM_ARROWCOLOR
350
47D
  0
DICTIONARY
  5
171
102
{ACAD_REACTORS
330
C
102
}
330
C
100
AcDbDictionary
281
     1
  3
AcMgSettings
350
172
  0
DICTIONARY
  5
1F2
102
{ACAD_REACTORS
330
C
102
}
330
C
100
AcDbDictionary
281
     1
  3
DIMENSION
350
C6F
  3
FEA
350
C70
  3
HATCH
350
C71
  3
SYMBOLS
350
C72
  0
DICTIONARY
  5
849
102
{ACAD_REACTORS
330
C
102
}
330
C
100
AcDbDictionary
281
     1
  3
ASEBlockHierarchyIndexRecord
350
84B
1001
DCO15
1040
1524370329.156
  0
XRECORD
  5
197D
102
{ACAD_REACTORS
330
C
102
}
330
C
100
AcDbXrecord
280
     1
  1
DWGPROPS COOKIE
  2

  3

  4

  6

  7

  8
se-jenboh
  9

300
AmdtFileType=84
301
=
302
=
303
=
304
=
305
=
306
=
307
=
308
=
309
=
 40
0.0079349074074074
 41
2456265.526868102
 42
2456266.605313264
  1

 90
        1
  0
DICTIONARY
  5
C7C
102
{ACAD_REACTORS
330
592
102
}
330
592
100
AcDbDictionary
281
     1
  0
DICTIONARY
  5
822
102
{ACAD_REACTORS
330
592
102
}
330
592
100
AcDbDictionary
281
     1
  0
DICTIONARY
  5
C7B
102
{ACAD_REACTORS
330
592
102
}
330
592
100
AcDbDictionary
281
     1
1001
ACAD
1000
<All
  0
DICTIONARY
  5
593
102
{ACAD_REACTORS
330
592
102
}
330
592
100
AcDbDictionary
280
     1
281
     1
  0
XRECORD
  5
1395
102
{ACAD_REACTORS
330
AB7
102
}
330
AB7
100
AcDbXrecord
280
     1
290
     1
  0
XRECORD
  5
1396
102
{ACAD_REACTORS
330
AB9
102
}
330
AB9
100
AcDbXrecord
280
     1
290
     1
  0
XRECORD
  5
13A0
102
{ACAD_REACTORS
330
139F
102
}
330
139F
100
AcDbXrecord
280
     1
290
     1
  0
XRECORD
  5
13A2
102
{ACAD_REACTORS
330
13A1
102
}
330
13A1
100
AcDbXrecord
280
     1
290
     1
  0
XRECORD
  5
13A4
102
{ACAD_REACTORS
330
13A3
102
}
330
13A3
100
AcDbXrecord
280
     1
290
     1
  0
DICTIONARY
  5
12B
102
{ACAD_REACTORS
330
12A
102
}
330
12A
100
AcDbDictionary
281
     1
  3
*A1
350
12C
  0
SORTENTSTABLE
  5
16E2
102
{ACAD_REACTORS
330
12A
102
}
330
12A
100
AcDbSortentsTable
330
1A
  0
XRECORD
  5
197F
102
{ACAD_REACTORS
330
197E
102
}
330
197E
100
AcDbXrecord
280
     1
102
SHADEPLOT
 70
     0
  0
LAYOUT
  5
16A
102
{ACAD_XDICTIONARY
360
824
102
}
102
{ACAD_REACTORS
330
167
102
}
330
167
100
AcDbPlotSettings
  1

  2
none_device
  4
Letter_(8.50_x_11.00_Inches)
  6

 40
6.349999904632567
 41
6.349999904632567
 42
6.350006103515625
 43
6.350006103515625
 44
215.8999938964844
 45
279.3999938964844
 46
0.0
 47
7.25904629660107
 48
0.0
 49
0.0
140
0.0
141
0.0
142
1.0
143
1.0
 70
   688
 72
     0
 73
     1
 74
     5
  7
@Layout.ctb
 75
     0
147
1.0
148
-74.57150970956639
149
-30.33168042120906
100
AcDbLayout
  1
Layout1
 70
     1
 71
     1
 10
-0.2500002402958907
 20
-0.2499999962453767
 11
10.74999951940821
 21
8.249999763458731
 12
0.0
 22
0.0
 32
0.0
 14
1.000000000000000E+20
 24
1.000000000000000E+20
 34
1.000000000000000E+20
 15
-1.000000000000000E+20
 25
-1.000000000000000E+20
 35
-1.000000000000000E+20
146
0.0
 13
0.0
 23
0.0
 33
0.0
 16
1.0
 26
0.0
 36
0.0
 17
0.0
 27
1.0
 37
0.0
 76
     0
330
17
331
22
1001
ACAD_PSEXT
1000
None
1000
None
1000
Not applicable
1000
The layout will not be plotted unless a new plotter configuration name is selected.
1070
     0
  0
LAYOUT
  5
169
102
{ACAD_XDICTIONARY
360
1980
102
}
102
{ACAD_REACTORS
330
167
102
}
330
167
100
AcDbPlotSettings
  1

  2
none_device
  4
Letter_(8.50_x_11.00_Inches)
  6

 40
6.349999904632567
 41
6.349999904632567
 42
6.350006103515625
 43
6.350006103515625
 44
215.8999938964844
 45
279.3999938964844
 46
38.1308720290886
 47
0.0
 48
0.0
 49
0.0
140
0.0
141
0.0
142
1.0
143
24.24127445441686
 70
 11956
 72
     0
 73
     1
 74
     0
  7
@Layout.ctb
 75
     0
147
0.0412519565289521
148
8019.824937415057
149
-189.2331007602539
100
AcDbLayout
  1
Model
 70
     1
 71
     0
 10
0.0
 20
0.0
 11
12.0
 21
9.0
 12
0.0
 22
0.0
 32
0.0
 14
0.0
 24
0.0
 34
0.0
 15
0.0
 25
0.0
 35
0.0
146
0.0
 13
0.0
 23
0.0
 33
0.0
 16
1.0
 26
0.0
 36
0.0
 17
0.0
 27
1.0
 37
0.0
 76
     0
330
1A
331
A35
1001
ACAD_PSEXT
1000
None
1000
None
1000
Not applicable
1000
The layout will not be plotted unless a new plotter configuration name is selected.
1070
     0
  0
MATERIAL
  5
A3F
102
{ACAD_XDICTIONARY
360
A40
102
}
102
{ACAD_REACTORS
330
3C9
102
}
330
3C9
100
AcDbMaterial
  1
ByBlock
 72
     0
 43
0.0008202099737533
 43
0.0
 43
0.0
 43
0.0
 43
0.0
 43
0.0008202099737533
 43
0.0
 43
0.0
 43
0.0
 43
0.0
 43
1.0
 43
0.0
 43
0.0
 43
0.0
 43
0.0
 43
1.0
 77
     0
 47
0.0008202099737533
 47
0.0
 47
0.0
 47
0.0
 47
0.0
 47
0.0008202099737533
 47
0.0
 47
0.0
 47
0.0
 47
0.0
 47
1.0
 47
0.0
 47
0.0
 47
0.0
 47
0.0
 47
1.0
171
     0
 49
0.0008202099737533
 49
0.0
 49
0.0
 49
0.0
 49
0.0
 49
0.0008202099737533
 49
0.0
 49
0.0
 49
0.0
 49
0.0
 49
1.0
 49
0.0
 49
0.0
 49
0.0
 49
0.0
 49
1.0
175
     0
142
0.0008202099737533
142
0.0
142
0.0
142
0.0
142
0.0
142
0.0008202099737533
142
0.0
142
0.0
142
0.0
142
0.0
142
1.0
142
0.0
142
0.0
142
0.0
142
0.0
142
1.0
179
     0
144
0.0008202099737533
144
0.0
144
0.0
144
0.0
144
0.0
144
0.0008202099737533
144
0.0
144
0.0
144
0.0
144
0.0
144
1.0
144
0.0
144
0.0
144
0.0
144
0.0
144
1.0
147
0.0008202099737533
147
0.0
147
0.0
147
0.0
147
0.0
147
0.0008202099737533
147
0.0
147
0.0
147
0.0
147
0.0
147
1.0
147
0.0
147
0.0
147
0.0
147
0.0
147
1.0
  0
MATERIAL
  5
A37
102
{ACAD_XDICTIONARY
360
A38
102
}
102
{ACAD_REACTORS
330
3C9
102
}
330
3C9
100
AcDbMaterial
  1
ByLayer
 72
     0
 43
0.0008202099737533
 43
0.0
 43
0.0
 43
0.0
 43
0.0
 43
0.0008202099737533
 43
0.0
 43
0.0
 43
0.0
 43
0.0
 43
1.0
 43
0.0
 43
0.0
 43
0.0
 43
0.0
 43
1.0
 77
     0
 47
0.0008202099737533
 47
0.0
 47
0.0
 47
0.0
 47
0.0
 47
0.0008202099737533
 47
0.0
 47
0.0
 47
0.0
 47
0.0
 47
1.0
 47
0.0
 47
0.0
 47
0.0
 47
0.0
 47
1.0
171
     0
 49
0.0008202099737533
 49
0.0
 49
0.0
 49
0.0
 49
0.0
 49
0.0008202099737533
 49
0.0
 49
0.0
 49
0.0
 49
0.0
 49
1.0
 49
0.0
 49
0.0
 49
0.0
 49
0.0
 49
1.0
175
     0
142
0.0008202099737533
142
0.0
142
0.0
142
0.0
142
0.0
142
0.0008202099737533
142
0.0
142
0.0
142
0.0
142
0.0
142
1.0
142
0.0
142
0.0
142
0.0
142
0.0
142
1.0
179
     0
144
0.0008202099737533
144
0.0
144
0.0
144
0.0
144
0.0
144
0.0008202099737533
144
0.0
144
0.0
144
0.0
144
0.0
144
1.0
144
0.0
144
0.0
144
0.0
144
0.0
144
1.0
147
0.0008202099737533
147
0.0
147
0.0
147
0.0
147
0.0
147
0.0008202099737533
147
0.0
147
0.0
147
0.0
147
0.0
147
1.0
147
0.0
147
0.0
147
0.0
147
0.0
147
1.0
  0
MATERIAL
  5
A47
102
{ACAD_XDICTIONARY
360
A48
102
}
102
{ACAD_REACTORS
330
3C9
102
}
330
3C9
100
AcDbMaterial
  1
Global
 72
     0
 43
0.0008202099737533
 43
0.0
 43
0.0
 43
0.0
 43
0.0
 43
0.0008202099737533
 43
0.0
 43
0.0
 43
0.0
 43
0.0
 43
1.0
 43
0.0
 43
0.0
 43
0.0
 43
0.0
 43
1.0
 77
     0
 47
0.0008202099737533
 47
0.0
 47
0.0
 47
0.0
 47
0.0
 47
0.0008202099737533
 47
0.0
 47
0.0
 47
0.0
 47
0.0
 47
1.0
 47
0.0
 47
0.0
 47
0.0
 47
0.0
 47
1.0
171
     0
 49
0.0008202099737533
 49
0.0
 49
0.0
 49
0.0
 49
0.0
 49
0.0008202099737533
 49
0.0
 49
0.0
 49
0.0
 49
0.0
 49
1.0
 49
0.0
 49
0.0
 49
0.0
 49
0.0
 49
1.0
175
     0
142
0.0008202099737533
142
0.0
142
0.0
142
0.0
142
0.0
142
0.0008202099737533
142
0.0
142
0.0
142
0.0
142
0.0
142
1.0
142
0.0
142
0.0
142
0.0
142
0.0
142
1.0
179
     0
144
0.0008202099737533
144
0.0
144
0.0
144
0.0
144
0.0
144
0.0008202099737533
144
0.0
144
0.0
144
0.0
144
0.0
144
1.0
144
0.0
144
0.0
144
0.0
144
0.0
144
1.0
147
0.0008202099737533
147
0.0
147
0.0
147
0.0
147
0.0
147
0.0008202099737533
147
0.0
147
0.0
147
0.0
147
0.0
147
1.0
147
0.0
147
0.0
147
0.0
147
0.0
147
1.0
  0
MLEADERSTYLE
  5
A73
102
{ACAD_REACTORS
330
A72
102
}
330
A72
100
AcDbMLeaderStyle
170
     2
171
     1
172
     0
 90
        2
 40
0.0
 41
0.0
173
     1
 91
-1056964608
340
14
 92
       -2
290
     1
 42
2.0
291
     1
 43
0.36
  3
Standard
 44
4.0
300

342
10
174
     1
178
     6
175
     1
176
     0
 93
-1056964608
 45
4.0
292
     0
297
     0
 46
4.0
 94
-1056964608
 47
1.0
 49
1.0
140
1.0
293
     1
141
0.0
294
     1
177
     0
142
1.0
295
     0
296
     0
143
0.125
1001
ACAD_MLEADERVER
1070
     2
  0
MLINESTYLE
  5
13
102
{ACAD_REACTORS
330
E
102
}
330
E
100
AcDbMlineStyle
  2
STANDARD
 70
     0
  3

 62
     0
 51
90.0
 52
90.0
 71
     2
 49
0.5
 62
   256
  6
BYLAYER
 49
-0.5
 62
   256
  6
BYLAYER
  0
ACDBPLACEHOLDER
  5
166
102
{ACAD_REACTORS
330
165
102
}
330
165
  0
SCALE
  5
A61
102
{ACAD_REACTORS
330
A60
102
}
330
A60
100
AcDbScale
 70
     0
300
1:1
140
1.0
141
1.0
290
     1
  0
SCALE
  5
A62
102
{ACAD_REACTORS
330
A60
102
}
330
A60
100
AcDbScale
 70
     0
300
1:2
140
1.0
141
2.0
290
     0
  0
SCALE
  5
A63
102
{ACAD_REACTORS
330
A60
102
}
330
A60
100
AcDbScale
 70
     0
300
1:4
140
1.0
141
4.0
290
     0
  0
SCALE
  5
A64
102
{ACAD_REACTORS
330
A60
102
}
330
A60
100
AcDbScale
 70
     0
300
1:5
140
1.0
141
5.0
290
     0
  0
SCALE
  5
A65
102
{ACAD_REACTORS
330
A60
102
}
330
A60
100
AcDbScale
 70
     0
300
1:8
140
1.0
141
8.0
290
     0
  0
SCALE
  5
A66
102
{ACAD_REACTORS
330
A60
102
}
330
A60
100
AcDbScale
 70
     0
300
1:10
140
1.0
141
10.0
290
     0
  0
SCALE
  5
A67
102
{ACAD_REACTORS
330
A60
102
}
330
A60
100
AcDbScale
 70
     0
300
1:16
140
1.0
141
16.0
290
     0
  0
SCALE
  5
A68
102
{ACAD_REACTORS
330
A60
102
}
330
A60
100
AcDbScale
 70
     0
300
1:20
140
1.0
141
20.0
290
     0
  0
SCALE
  5
A69
102
{ACAD_REACTORS
330
A60
102
}
330
A60
100
AcDbScale
 70
     0
300
1:30
140
1.0
141
30.0
290
     0
  0
SCALE
  5
A6A
102
{ACAD_REACTORS
330
A60
102
}
330
A60
100
AcDbScale
 70
     0
300
1:40
140
1.0
141
40.0
290
     0
  0
SCALE
  5
A6B
102
{ACAD_REACTORS
330
A60
102
}
330
A60
100
AcDbScale
 70
     0
300
1:50
140
1.0
141
50.0
290
     0
  0
SCALE
  5
A6C
102
{ACAD_REACTORS
330
A60
102
}
330
A60
100
AcDbScale
 70
     0
300
1:100
140
1.0
141
100.0
290
     0
  0
SCALE
  5
A6D
102
{ACAD_REACTORS
330
A60
102
}
330
A60
100
AcDbScale
 70
     0
300
2:1
140
2.0
141
1.0
290
     0
  0
SCALE
  5
A6E
102
{ACAD_REACTORS
330
A60
102
}
330
A60
100
AcDbScale
 70
     0
300
4:1
140
4.0
141
1.0
290
     0
  0
SCALE
  5
A6F
102
{ACAD_REACTORS
330
A60
102
}
330
A60
100
AcDbScale
 70
     0
300
8:1
140
8.0
141
1.0
290
     0
  0
SCALE
  5
A70
102
{ACAD_REACTORS
330
A60
102
}
330
A60
100
AcDbScale
 70
     0
300
10:1
140
10.0
141
1.0
290
     0
  0
SCALE
  5
A71
102
{ACAD_REACTORS
330
A60
102
}
330
A60
100
AcDbScale
 70
     0
300
100:1
140
100.0
141
1.0
290
     0
  0
TABLESTYLE
  5
651
102
{ACAD_XDICTIONARY
360
AED
102
}
102
{ACAD_REACTORS
330
650
102
}
330
650
100
AcDbTableStyle
  3
Standard
 70
     0
 71
     0
 40
1.5
 41
1.5
280
     0
281
     0
  7
STANDARD
140
4.5
170
     2
 62
     0
 63
     7
283
     0
274
    -2
284
     1
 64
     0
275
    -2
285
     1
 65
     0
276
    -2
286
     1
 66
     0
277
    -2
287
     1
 67
     0
278
    -2
288
     1
 68
     0
279
    -2
289
     1
 69
     0
  7
STANDARD
140
6.0
170
     5
 62
     0
 63
     7
283
     0
274
    -2
284
     1
 64
     0
275
    -2
285
     1
 65
     0
276
    -2
286
     1
 66
     0
277
    -2
287
     1
 67
     0
278
    -2
288
     1
 68
     0
279
    -2
289
     1
 69
     0
  7
STANDARD
140
4.5
170
     5
 62
     0
 63
     7
283
     0
274
    -2
284
     1
 64
     0
275
    -2
285
     1
 65
     0
276
    -2
286
     1
 66
     0
277
    -2
287
     1
 67
     0
278
    -2
288
     1
 68
     0
279
    -2
289
     1
 69
     0
  0
VISUALSTYLE
  5
A55
102
{ACAD_REACTORS
330
A4F
102
}
330
A4F
100
AcDbVisualStyle
  2
2dWireframe
 70
     4
 71
     0
 72
     2
 73
     0
 90
        0
 40
-0.6
 41
-30.0
 62
     5
 63
     7
 74
     1
 91
        4
 64
     7
 65
   257
 75
     1
175
     1
 42
1.0
 92
        0
 66
   257
 43
1.0
 76
     1
 77
     6
 78
     2
 67
     7
 79
     5
170
     0
171
     0
290
     0
174
     0
 93
        1
 44
0.0
173
     0
291
     0
 45
0.0
1001
ACAD
1000
AcDbSavedByObjectVersion
1070
     0
1000
AcDbSavedByObjectVersion
1070
     0
  0
VISUALSTYLE
  5
A57
102
{ACAD_REACTORS
330
A4F
102
}
330
A4F
100
AcDbVisualStyle
  2
3D Hidden
 70
     6
 71
     1
 72
     2
 73
     2
 90
        0
 40
-0.6
 41
-30.0
 62
     5
 63
     7
 74
     2
 91
        2
 64
     7
 65
   257
 75
     2
175
     1
 42
40.0
 92
        0
 66
   257
 43
1.0
 76
     1
 77
     6
 78
     2
 67
     7
 79
     3
170
     0
171
     0
290
     0
174
     0
 93
        1
 44
0.0
173
     0
291
     0
 45
0.0
1001
ACAD
1000
AcDbSavedByObjectVersion
1070
     0
1000
AcDbSavedByObjectVersion
1070
     0
  0
VISUALSTYLE
  5
A56
102
{ACAD_REACTORS
330
A4F
102
}
330
A4F
100
AcDbVisualStyle
  2
3dWireframe
 70
     5
 71
     0
 72
     2
 73
     0
 90
        0
 40
-0.6
 41
-30.0
 62
     5
 63
     7
 74
     1
 91
        4
 64
     7
 65
   257
 75
     1
175
     1
 42
1.0
 92
        0
 66
   257
 43
1.0
 76
     1
 77
     6
 78
     2
 67
     7
 79
     5
170
     0
171
     0
290
     0
174
     0
 93
        1
 44
0.0
173
     0
291
     0
 45
0.0
1001
ACAD
1000
AcDbSavedByObjectVersion
1070
     0
1000
AcDbSavedByObjectVersion
1070
     0
  0
VISUALSTYLE
  5
A54
102
{ACAD_REACTORS
330
A4F
102
}
330
A4F
100
AcDbVisualStyle
  2
Basic
 70
     7
 71
     1
 72
     0
 73
     1
 90
        0
 40
-0.6
 41
-30.0
 62
     5
 63
     7
 74
     0
 91
        4
 64
     7
 65
   257
 75
     1
175
     1
 42
1.0
 92
        8
 66
     7
 43
1.0
 76
     1
 77
     6
 78
     2
 67
     7
 79
     5
170
     0
171
     0
290
     0
174
     0
 93
        1
 44
0.0
173
     0
291
     1
 45
0.0
1001
ACAD
1000
AcDbSavedByObjectVersion
1070
     0
1000
AcDbSavedByObjectVersion
1070
     0
  0
VISUALSTYLE
  5
A5B
102
{ACAD_REACTORS
330
A4F
102
}
330
A4F
100
AcDbVisualStyle
  2
Brighten
 70
    12
 71
     2
 72
     2
 73
     0
 90
        0
 40
-0.6
 41
-30.0
 62
     5
 63
     7
 74
     1
 91
        4
 64
     7
 65
   257
 75
     1
175
     1
 42
1.0
 92
        8
 66
     7
 43
1.0
 76
     1
 77
     6
 78
     2
 67
     7
 79
     5
170
     0
171
     0
290
     0
174
     0
 93
        1
 44
50.0
173
     0
291
     1
 45
0.0
1001
ACAD
1000
AcDbSavedByObjectVersion
1070
     0
1000
AcDbSavedByObjectVersion
1070
     0
  0
VISUALSTYLE
  5
A5F
102
{ACAD_REACTORS
330
A4F
102
}
330
A4F
100
AcDbVisualStyle
  2
ColorChange
 70
    16
 71
     2
 72
     2
 73
     3
 90
        0
 40
-0.6
 41
-30.0
 62
     5
 63
     8
 74
     1
 91
        4
 64
     7
 65
   257
 75
     1
175
     1
 42
1.0
 92
        8
 66
     8
 43
1.0
 76
     1
 77
     6
 78
     2
 67
     7
 79
     5
170
     0
171
     0
290
     0
174
     0
 93
        1
 44
0.0
173
     0
291
     1
 45
0.0
1001
ACAD
1000
AcDbSavedByObjectVersion
1070
     0
1000
AcDbSavedByObjectVersion
1070
     0
  0
VISUALSTYLE
  5
A58
102
{ACAD_REACTORS
330
A4F
102
}
330
A4F
100
AcDbVisualStyle
  2
Conceptual
 70
     9
 71
     3
 72
     2
 73
     0
 90
        0
 40
-0.6
 41
-30.0
 62
     5
 63
     7
 74
     2
 91
        2
 64
     7
 65
   257
 75
     1
175
     1
 42
40.0
 92
        8
 66
     7
 43
1.0
 76
     1
 77
     6
 78
     2
 67
     7
 79
     3
170
     0
171
     0
290
     0
174
     0
 93
        1
 44
0.0
173
     0
291
     0
 45
0.0
1001
ACAD
1000
AcDbSavedByObjectVersion
1070
     0
1000
AcDbSavedByObjectVersion
1070
     0
  0
VISUALSTYLE
  5
A5A
102
{ACAD_REACTORS
330
A4F
102
}
330
A4F
100
AcDbVisualStyle
  2
Dim
 70
    11
 71
     2
 72
     2
 73
     0
 90
        0
 40
-0.6
 41
-30.0
 62
     5
 63
     7
 74
     1
 91
        4
 64
     7
 65
   257
 75
     1
175
     1
 42
1.0
 92
        8
 66
     7
 43
1.0
 76
     1
 77
     6
 78
     2
 67
     7
 79
     5
170
     0
171
     0
290
     0
174
     0
 93
        1
 44
-50.0
173
     0
291
     1
 45
0.0
1001
ACAD
1000
AcDbSavedByObjectVersion
1070
     0
1000
AcDbSavedByObjectVersion
1070
     0
  0
VISUALSTYLE
  5
A5E
102
{ACAD_REACTORS
330
A4F
102
}
330
A4F
100
AcDbVisualStyle
  2
Facepattern
 70
    15
 71
     2
 72
     2
 73
     0
 90
        0
 40
-0.6
 41
-30.0
 62
     5
 63
     7
 74
     1
 91
        4
 64
     7
 65
   257
 75
     1
175
     1
 42
1.0
 92
        8
 66
     7
 43
1.0
 76
     1
 77
     6
 78
     2
 67
     7
 79
     5
170
     0
171
     0
290
     0
174
     0
 93
        1
 44
0.0
173
     0
291
     1
 45
0.0
1001
ACAD
1000
AcDbSavedByObjectVersion
1070
     0
1000
AcDbSavedByObjectVersion
1070
     0
  0
VISUALSTYLE
  5
A50
102
{ACAD_REACTORS
330
A4F
102
}
330
A4F
100
AcDbVisualStyle
  2
Flat
 70
     0
 71
     2
 72
     1
 73
     1
 90
        2
 40
-0.6
 41
30.0
 62
     5
 63
     7
 74
     0
 91
        4
 64
     7
 65
   257
 75
     1
175
     1
 42
1.0
 92
        8
 66
     7
 43
1.0
 76
     1
 77
     6
 78
     2
 67
     7
 79
     5
170
     0
171
     0
290
     0
174
     0
 93
       13
 44
0.0
173
     0
291
     1
 45
0.0
1001
ACAD
1000
AcDbSavedByObjectVersion
1070
     0
1000
AcDbSavedByObjectVersion
1070
     0
  0
VISUALSTYLE
  5
A51
102
{ACAD_REACTORS
330
A4F
102
}
330
A4F
100
AcDbVisualStyle
  2
FlatWithEdges
 70
     1
 71
     2
 72
     1
 73
     1
 90
        2
 40
-0.6
 41
30.0
 62
     5
 63
     7
 74
     1
 91
        4
 64
     7
 65
   257
 75
     1
175
     1
 42
1.0
 92
        0
 66
   257
 43
1.0
 76
     1
 77
     6
 78
     2
 67
     7
 79
     5
170
     0
171
     0
290
     0
174
     0
 93
       13
 44
0.0
173
     0
291
     1
 45
0.0
1001
ACAD
1000
AcDbSavedByObjectVersion
1070
     0
1000
AcDbSavedByObjectVersion
1070
     0
  0
VISUALSTYLE
  5
A52
102
{ACAD_REACTORS
330
A4F
102
}
330
A4F
100
AcDbVisualStyle
  2
Gouraud
 70
     2
 71
     2
 72
     2
 73
     1
 90
        2
 40
-0.6
 41
30.0
 62
     5
 63
     7
 74
     0
 91
        4
 64
     7
 65
   257
 75
     1
175
     1
 42
1.0
 92
        0
 66
     7
 43
1.0
 76
     1
 77
     6
 78
     2
 67
     7
 79
     5
170
     0
171
     0
290
     0
174
     0
 93
       13
 44
0.0
173
     0
291
     1
 45
0.0
1001
ACAD
1000
AcDbSavedByObjectVersion
1070
     0
1000
AcDbSavedByObjectVersion
1070
     0
  0
VISUALSTYLE
  5
A53
102
{ACAD_REACTORS
330
A4F
102
}
330
A4F
100
AcDbVisualStyle
  2
GouraudWithEdges
 70
     3
 71
     2
 72
     2
 73
     1
 90
        2
 40
-0.6
 41
30.0
 62
     5
 63
     7
 74
     1
 91
        4
 64
     7
 65
   257
 75
     1
175
     1
 42
1.0
 92
        0
 66
   257
 43
1.0
 76
     1
 77
     6
 78
     2
 67
     7
 79
     5
170
     0
171
     0
290
     0
174
     0
 93
       13
 44
0.0
173
     0
291
     1
 45
0.0
1001
ACAD
1000
AcDbSavedByObjectVersion
1070
     0
1000
AcDbSavedByObjectVersion
1070
     0
  0
VISUALSTYLE
  5
A5D
102
{ACAD_REACTORS
330
A4F
102
}
330
A4F
100
AcDbVisualStyle
  2
Linepattern
 70
    14
 71
     2
 72
     2
 73
     0
 90
        0
 40
-0.6
 41
-30.0
 62
     5
 63
     7
 74
     1
 91
        4
 64
     7
 65
   257
 75
     7
175
     7
 42
1.0
 92
        8
 66
     7
 43
1.0
 76
     1
 77
     6
 78
     2
 67
     7
 79
     5
170
     0
171
     0
290
     0
174
     0
 93
        1
 44
0.0
173
     0
291
     1
 45
0.0
1001
ACAD
1000
AcDbSavedByObjectVersion
1070
     0
1000
AcDbSavedByObjectVersion
1070
     0
  0
VISUALSTYLE
  5
A59
102
{ACAD_REACTORS
330
A4F
102
}
330
A4F
100
AcDbVisualStyle
  2
Realistic
 70
     8
 71
     2
 72
     2
 73
     0
 90
        0
 40
-0.6
 41
-30.0
 62
     5
 63
     7
 74
     1
 91
        0
 64
     7
 65
   257
 75
     1
175
     1
 42
1.0
 92
        8
 66
     8
 43
1.0
 76
     1
 77
     6
 78
     2
 67
     7
 79
     5
170
     0
171
     0
290
     0
174
     0
 93
       13
 44
0.0
173
     0
291
     0
 45
0.0
1001
ACAD
1000
AcDbSavedByObjectVersion
1070
     0
1000
AcDbSavedByObjectVersion
1070
     0
  0
VISUALSTYLE
  5
A5C
102
{ACAD_REACTORS
330
A4F
102
}
330
A4F
100
AcDbVisualStyle
  2
Thicken
 70
    13
 71
     2
 72
     2
 73
     0
 90
        0
 40
-0.6
 41
-30.0
 62
     5
 63
     7
 74
     1
 91
        4
 64
     7
 65
   257
 75
     1
175
     1
 42
1.0
 92
       12
 66
     7
 43
1.0
 76
     1
 77
     6
 78
     2
 67
     7
 79
     5
170
     0
171
     0
290
     0
174
     0
 93
        1
 44
0.0
173
     0
291
     1
 45
0.0
1001
ACAD
1000
AcDbSavedByObjectVersion
1070
     0
1000
AcDbSavedByObjectVersion
1070
     0
  0
DICTIONARYVAR
  5
AF4
102
{ACAD_REACTORS
330
5D
102
}
330
5D
100
DictionaryVariables
280
     0
  1
1:1
  0
DICTIONARYVAR
  5
AF2
102
{ACAD_REACTORS
330
5D
102
}
330
5D
100
DictionaryVariables
280
     0
  1
STANDARD
  0
DICTIONARYVAR
  5
66F
102
{ACAD_REACTORS
330
5D
102
}
330
5D
100
DictionaryVariables
280
     0
  1
STANDARD
  0
DICTIONARYVAR
  5
5E
102
{ACAD_REACTORS
330
5D
102
}
330
5D
100
DictionaryVariables
280
     0
  1
0
  0
DICTIONARYVAR
  5
3C7
102
{ACAD_REACTORS
330
5D
102
}
330
5D
100
DictionaryVariables
280
     0
  1
2
  0
DICTIONARYVAR
  5
128
102
{ACAD_REACTORS
330
5D
102
}
330
5D
100
DictionaryVariables
280
     0
  1
1
  0
DICTIONARYVAR
  5
AF6
102
{ACAD_REACTORS
330
5D
102
}
330
5D
100
DictionaryVariables
280
     0
  1
1
  0
DICTIONARYVAR
  5
AF7
102
{ACAD_REACTORS
330
5D
102
}
330
5D
100
DictionaryVariables
280
     0
  1
15
  0
DICTIONARYVAR
  5
AF5
102
{ACAD_REACTORS
330
5D
102
}
330
5D
100
DictionaryVariables
280
     0
  1
0
  0
DICTIONARYVAR
  5
AF3
102
{ACAD_REACTORS
330
5D
102
}
330
5D
100
DictionaryVariables
280
     0
  1
0
  0
DICTIONARYVAR
  5
13A8
102
{ACAD_REACTORS
330
5D
102
}
330
5D
100
DictionaryVariables
280
     0
  1
127
  0
DICTIONARY
  5
143
102
{ACAD_REACTORS
330
142
102
}
330
142
100
AcDbDictionary
281
     1
  0
XRECORD
  5
47D
102
{ACAD_REACTORS
330
142
102
}
330
142
100
AcDbXrecord
280
     1
 90
-1056964608
  0
DICTIONARY
  5
172
102
{ACAD_REACTORS
330
171
102
}
330
171
100
AcDbDictionary
281
     1
  3
DWGSETTINGS
350
13C0
  3
TRANSSETTINGS
350
13C4
  0
ACAMGFILTERDAT
  5
C6F
102
{ACAD_REACTORS
330
1F2
102
}
330
1F2
100
AcAmgFilterDat
 70
    15
  1
DIMENSION,AMDT_*_DIM
  2
*
  3
*
  4
*
  5
*
290
     1
  0
ACAMGFILTERDAT
  5
C70
102
{ACAD_REACTORS
330
1F2
102
}
330
1F2
100
AcAmgFilterDat
 70
    15
  1
*
  2
AM_FEA-AM_*
  3
*
  4
*
  5
*
290
     1
  0
ACAMGFILTERDAT
  5
C71
102
{ACAD_REACTORS
330
1F2
102
}
330
1F2
100
AcAmgFilterDat
 70
    15
  1
HATCH
  2
*
  3
*
  4
*
  5
*
290
     1
  0
ACAMGFILTERDAT
  5
C72
102
{ACAD_REACTORS
330
1F2
102
}
330
1F2
100
AcAmgFilterDat
 70
    15
  1
ACMFCFRAME,ACMDATUMTARGET,ACMDATUMID,ACMWELDSYM,ACMSURFSYM,ACMFEATID,ACMPARTREF,ACMBALLOON
  2
*
  3
*
  4
*
  5
*
290
     1
  0
XRECORD
  5
84B
102
{ACAD_REACTORS
330
849
102
}
330
849
100
AcDbXrecord
280
     1
  0
LAYER_INDEX
  5
12C
102
{ACAD_REACTORS
330
12B
102
}
330
12B
100
AcDbIndex
 40
2456266.605313264
100
AcDbLayerIndex
  8
0
360
12D
 90
        0
  8
AM_0
360
59B
 90
        1
  8
AM_5
360
8F9
 90
        0
  8
Visible Edges(ISO)
360
AD1
 90
        0
  8
Visible Tangent Edges(ISO)
360
AD4
 90
        0
  8
Defpoints
360
AD5
 90
        0
  0
DICTIONARY
  5
824
330
16A
100
AcDbDictionary
280
     1
281
     1
  3
ACAD_XREC_ROUNDTRIP
360
1982
  3
ADSK_XREC_LAYOUTTHUMBNAIL
360
825
  0
DICTIONARY
  5
1980
330
169
100
AcDbDictionary
280
     1
281
     1
  3
ACAD_XREC_ROUNDTRIP
360
1981
  0
DICTIONARY
  5
A40
330
A3F
100
AcDbDictionary
280
     1
281
     1
  3
ACAD_XREC_ROUNDTRIP
360
13B2
  3
BUMPTILE
360
A42
  3
DIFFUSETILE
360
A41
  3
OPACITYTILE
360
A45
  3
REFLECTIONTILE
360
A44
  3
REFRACTIONTILE
360
A46
  3
SPECULARTILE
360
A43
  0
DICTIONARY
  5
A38
330
A37
100
AcDbDictionary
280
     1
281
     1
  3
ACAD_XREC_ROUNDTRIP
360
13B1
  3
BUMPTILE
360
A3A
  3
DIFFUSETILE
360
A39
  3
OPACITYTILE
360
A3D
  3
REFLECTIONTILE
360
A3C
  3
REFRACTIONTILE
360
A3E
  3
SPECULARTILE
360
A3B
  0
DICTIONARY
  5
A48
330
A47
100
AcDbDictionary
280
     1
281
     1
  3
ACAD_XREC_ROUNDTRIP
360
13B3
  3
BUMPTILE
360
A4A
  3
DIFFUSETILE
360
A49
  3
OPACITYTILE
360
A4D
  3
REFLECTIONTILE
360
A4C
  3
REFRACTIONTILE
360
A4E
  3
SPECULARTILE
360
A4B
  0
DICTIONARY
  5
AED
330
651
100
AcDbDictionary
280
     1
281
     1
  3
ACAD_ROUNDTRIP_2008_TABLESTYLE_CELLSTYLEMAP
360
197C
  3
ACAD_XREC_ROUNDTRIP
360
1983
  0
IDBUFFER
  5
12D
330
0
100
AcDbIdBuffer
  0
IDBUFFER
  5
59B
330
0
100
AcDbIdBuffer
330
197B
  0
IDBUFFER
  5
8F9
330
0
100
AcDbIdBuffer
  0
IDBUFFER
  5
AD1
330
0
100
AcDbIdBuffer
  0
IDBUFFER
  5
AD4
330
0
100
AcDbIdBuffer
  0
IDBUFFER
  5
AD5
330
0
100
AcDbIdBuffer
  0
XRECORD
  5
1982
102
{ACAD_REACTORS
330
824
102
}
330
824
100
AcDbXrecord
280
     1
102
SHADEPLOT
 70
     0
102
SHADEPLOTRESLEVEL
 70
     2
102
SHADEPLOTCUSTOMDPI
 70
   300
  0
XRECORD
  5
825
102
{ACAD_REACTORS
330
824
102
}
330
824
100
AcDbXrecord
280
     1
310
28000000B40000008B0000000100080000000000BC610000000000000000000000010000000000000000000000000000FFFFFF000000000000000000000000000000000000000000000000000000000000000000330000006600000099000000CC000000FF00000000330000333300006633000099330000CC330000FF3300
310
0000660000336600006666000099660000CC660000FF66000000990000339900006699000099990000CC990000FF99000000CC000033CC000066CC000099CC0000CCCC0000FFCC000000FF000033FF000066FF000099FF0000CCFF0000FFFF000000003300330033006600330099003300CC003300FF003300003333003333
310
33006633330099333300CC333300FF33330000663300336633006666330099663300CC663300FF66330000993300339933006699330099993300CC993300FF99330000CC330033CC330066CC330099CC3300CCCC3300FFCC330000FF330033FF330066FF330099FF3300CCFF3300FFFF330000006600330066006600660099
310
006600CC006600FF00660000336600333366006633660099336600CC336600FF33660000666600336666006666660099666600CC666600FF66660000996600339966006699660099996600CC996600FF99660000CC660033CC660066CC660099CC6600CCCC6600FFCC660000FF660033FF660066FF660099FF6600CCFF6600
310
FFFF660000009900330099006600990099009900CC009900FF00990000339900333399006633990099339900CC339900FF33990000669900336699006666990099669900CC669900FF66990000999900339999006699990099999900CC999900FF99990000CC990033CC990066CC990099CC9900CCCC9900FFCC990000FF99
310
0033FF990066FF990099FF9900CCFF9900FFFF99000000CC003300CC006600CC009900CC00CC00CC00FF00CC000033CC003333CC006633CC009933CC00CC33CC00FF33CC000066CC003366CC006666CC009966CC00CC66CC00FF66CC000099CC003399CC006699CC009999CC00CC99CC00FF99CC0000CCCC0033CCCC0066CC
310
CC0099CCCC00CCCCCC00FFCCCC0000FFCC0033FFCC0066FFCC0099FFCC00CCFFCC00FFFFCC000000FF003300FF006600FF009900FF00CC00FF00FF00FF000033FF003333FF006633FF009933FF00CC33FF00FF33FF000066FF003366FF006666FF009966FF00CC66FF00FF66FF000099FF003399FF006699FF009999FF00CC
310
99FF00FF99FF0000CCFF0033CCFF0066CCFF0099CCFF00CCCCFF00FFCCFF0000FFFF0033FFFF0066FFFF0099FFFF00CCFFFF00FFFFFF00000000000D0D0D001A1A1A00282828003535350043434300505050005D5D5D006B6B6B00787878008686860093939300A1A1A100AEAEAE00BBBBBB00C9C9C900D6D6D600E4E4E400
310
F1F1F100FFFFFF0000000000000000000000000000000000000000000000000000000000000000000000000000000000E2E2E2E2E2E2E2E2E2E2E2E2E2E2E2E2E2E2E2E2E2E2E2E2E2E2E2E2E2E2E2E2E2E2E2E2E2E2E2E2E2E2E2E2E2E2E2E2E2E2E2E2E2E2E2E2E2E2E2E2E2E2E2E2E2E2E2E2E2E2E2E2E2E2E2E2E2E2E2
310
E2E2E2E2E2E2E2E2E2E2E2E2E2E2E2E2E2E2E2E2E2E2E2E2E2E2E2E2E2E2E2E2E2E2E2E2E2E2E2E2E2E2E2E2E2E2E2E2E2E2E2E2E2E2E2E2E2E2E2E2E2E2E2E2E2E2E2E2E2E2E2E2E2E2E2E2E2E2E2E2E2E2E2E2E2E2E2E2E2E2E2E2E2E2E2E2E2E2E2E2E2E2E2E2E2E2E2E2E2E2E2E2E2E2E2E2E2E2E2E2E2E2E2E2E2E2E2
310
E2E2E2E2E2E2E2E2E2E2E2E2E2E2E2E2E2E2E2E2E2E2E2E2E2E2E2E2E2E2E2E2E2E2E2E2E2E2E2E2E2E2E2E2E2E2E2E2E2E2E2E2E2E2E2E2E2E2E2E2E2E2E2E2E2E2E2E2E2E2E2E2E2E2E2E2E2E2E2E2E2E2E2E2E2E2E2E2E2E2E2E2E2E2E2E2E2E2E2E2E2E2E2E2E2E2E2E2E2E2E2E2E2E2E2E2E2E2E2E2E2E2E2E2E2E2E2
310
E2E2E2E2E2E2E2E2E2E2E2E2E2E2E2E2E2E2E2E2E2E2E2E2E2E2E2E2E2E2E2E2E2E2E2E2E2E2E2E2E2E2E2E2E2E2E2E2E2E2E2E2E2E2E2E2E2E2E2E2E2E2E2E2E2E2E2E2E2E2E2E2E2E2E2E2E2E2E2E2E2E2E2E2E2E2E2E2E2E2E2E2E2E2E2E2E2E2E2E2E2E2E2E2E2E2E2E2E2E2E2E2E2E2E2E2E2E2E2E2E2E2E2E2E2E2E2
310
E2E2E2E2E2E2E2E2E2E2E2E2E2E2E2E2E2E2E2E2E2E2E2E2E2E2E2E2E2E2E2E2E2E2E2E2E2E2E2E2E2E2E2E2E2E2E2E2E2E2E2E2E2E2E2E2E2E2E2E2E2E2E2E2E2E2E2E2E2E2E2E2E2E2E2E2E2E2E2E2E2E2E2E2E2E2E2E2E2E2E2E2E2E2E2E2E2E2E2E2E2E2E2E2E2E2E2E2E2E2E2E2E2E2E2E2E2E2E2E2E2E2E2E2E2E2E2
310
E2E2E2E2E2E2E2E2E2E2E2E2E2E2E2E2E2E2E2E2E2E2E2E2E2E2E2E2E2E2E2E2E2E2E2E2E2E2E2E2E2E2E2E2E2E2E2E2E2E2E2E2E2E2E2E2E2E2E2E2E2E2E2E2E2E2E2E2E2E2E2E2E2E2E2E2E2E2E2E2E2E2E2E2E2E2E2E2E2E2E2E2E2E2E2E2E2E2E2E2E2E2E2E2E2E2E2E2E2E2E2E2E2E2E2E2E2E2E2E2E2E2E2E2E2E2E2
310
E2E2E2E2E2E2E2E2E2E2E2E2E2E2E2E2E2E2E2E2E2E2E2E2E2E2E2E2E2E2E2E2E2E2E2E2E2E2E2E2E2E2E2E2E2E2E2E2E2E2E2E2E2E2E2E2E2E2E2E2E2E2E2E2E2E2E2E2E2E2E2E2E2E2E2E2E2E2E2E2E2E2E2E2E2E2E2E2E2E2E2E2E2E2E2E2E2E2E2E2E2E2E2E2E2E2E2E2E2E2E2E2E2E2E2E2E2E2E2E2E2E2E2E2E2E2E2
310
E2E2E2E2E2E2E2E2E2E2E2E2E2E2E2E2E2E2E2E2E2E2E2E2E2E2E2E2E2E2E2E2E2E2E2E2E2E2E2E2E2E2E2E2E2E2E2E2E2E2E2E2E2E2E2E2E2E2E2E2E2E2E2E2E2E2E2E2E2E2E2E2E2E2E2E2E2E2E2E2E2E2E2E2E2E2E2E2E2E2E2E2E2E2E2E2E2E2E2E2E2E2E2E2E2E2E2E2E2E2E2E2E2E2E2E2E2E2E2E2E2E2E2E2E2E2E2
310
E2E2E2E2E2E2E2E2E2E2E2E2E2E2E2E2E2E2E2E2E2E2E2E2E2E2E2E2E2E2E2E2E2E2E2E2E2E2E2E2E2E2E2E2E2E2E2E2E2E2E2E2E2E2E2E2E2E2E2E2E2E2E2E2E2E2E2E2E2E2E2E2E2E2E2E2E2E2E2E2E2E2E2E2E2E2E2E2E2E2E2E2E2E2E2E2E2E2E2E2E2E2E2E2E2E2E2E2E2E2E2E2E2E2E2E2E2E2E2E2E2E2E2E2E2E2E2
310
E2E2E2E2E2E2E2E2E2E2E2E2E2E2E2E2E2E2E2E2E2E2E2E2E2E2E2E2E2E2E2E2E2E2E2E2E2E2E2E2E2E2E2E2E2E2E2E2E2E2E2E2E2E2E2E2E2E2E2E2E2E2E2E2E2E2E2E2E2E2E2E2E2E2E2E2E2E2E2E2E2E2E2E2E2E2E2E2E2E2E2E2E2E2E2E2E2E2E2E2E2E2E2E2E2E2E2E2E2E2E2E2E2E2E2E2E2E2E2E2E2E2E2E2E2E2E2
310
E2E2E2E2E2E2E2E2E2E2E2E2E2E2E2E2E2E2E2E2E2E2E2E2E2E2E2E2E2E2E2E2E2E2E2E2E2E2E2E2E2E2E2E2E2E2E2E2E2E2E2E2E2E2E2E2E2E2E2E2E2E2E2E2E2E2E2E2E2E2E2E2E2E2E2E2E2E2E2E2E2E2E2E2E2E2E2E2E2E2E2E2E2E2E2E2E2E2E2E2E2E2E2E2E2E2E2E2E2E2E2E2E2E2E2E2E2E2E2E2E2E2E2E2E2E2E2
310
E2E2E2E2E2E2E2E2E2E2E2E2E2E2E2E2E2E2E2E2E2E2E2E2E2E2E2E2E2E2E2E2E2E2E2E2E2E2E2E2E2E2E2E2E2E2E2E2E2E2E2E2E2E2E2E2E2E2E2E2E2E2E2E2E2E2E2E2E2E2E2E2E2E2E2E2E2E2E2E2E2E2E2E2E2E2E2E2E2E2E2E2E2E2E2E2E2E2E2E2E2E2E2E2E2E2E2E2E2E2E2E2E2E2E2E2E2E2E2E2E2E2E2E2E2E2E2
310
E2E2E2E2E2E2E2E2E2E2E2E2E2E2E2E2E2E2E2E2E2E2E2E2E2E2E2E2E2E2E2E2E2E2E2E2E2E2E2E2E2E2E2E2E2E2E2E2E2E2E2E2E2E2E2E2E2E2E2E2E2E2E2E2E2E2E2E2E2E2E2E2E2E2E2E2E2E2E2E2E2E2E2E2E2E2E2E2E2E2E2E2E2E2E2E2E2E2E2E2E2E2E2E2E2E2E2E2E2E2E2E2E2E2E2E2E2E2E2E2E2E2E2E2E2E2E2
310
E2E2E2E2E2E2E2E2E2E2E2E2E2E2E2E2E2E2E2E2E2E2E2E2E2E2E2E2E2E2E2E2E2E2E2E2E2E2E2E2E2E2E2E2E2E2E2E2E2E2E2E2E2E2E2E2E2E2E2E2E2E2E2E2E2E2E2E2E2E2E2E2E2E2E2E2E2E2E2E2E2E2E2E2E2E2E2E2E2E2E2E2E2E2E2E2E2E2E2E2E2E2E2E2E2E2E2E2E2E2E2E2E2E2E2E2E2E2E2E2E2E2E2E2E2E2E2
310
E2E2E2E2E2E2E2E2E2E2E2E2E2E2E2E2E2E2E2E2E2E2E2E2E2E2E2E2E2E2E2E2E2E2E2E2E2E2E2E2E2E2E2E2E2E2E2E2E2E2E2E2E2E2E2E2E2E2E2E2E2E2E2E2E2E2E2E2E2E2E2E2E2E2E2E2E2E2E2E2E2E2E2E2E2E2E2E2E2E2E2E2E2E2E2E2E2E2E2E2E2E2E2E2E2E2E2E2E2E2E2E2E2E2E2E2E2E2E2E2E2E2E2E2E2E2E2
310
E2E2E2E2E2E2E2E2E2E2E2E2E2E2E2E2E2E2E2E2E2E2E2E2E2E2E2E2E2E2E2E2E2E2E2E2E2E2E2E2E2E2E2E2E2E2E2E2E2E2E2E2E2E2E2E2E2E2E2E2E2E2E2E2E2E2E2E2E2E2E2E2E2E2E2E2E2E2E2E2E2E2E2E2E2E2E2E2E2E2E2E2E2E2E2E2E2E2E2E2E2E2E2E2E2E2E2E2E2E2E2E2E2E2E2E2E2E2E2E2E2E2E2E2E2E2E2
310
E2E2E2E2E2E2E2E2E2E2E2E2E2E2E2E2E2E2E2E2E2E2E2E2E2E2E2E2E2E2E2E2E2E2E2E2E2E2E2E2E2E2E2E2E2E2E2E2E2E2E2E2E2E2E2E2E2E2E2E2E2E2E2E2E2E2E2E2E2E2E2E2E2E2E2E2E2E2E2E2E2E2E2E2E2E2E2E2E2E2E2E2E2E2E2E2E2E2E2E2E2E2E2E2E2E2E2E2E2E2E2E2E2E2E2E2E2E2E2E2E2E2E2E2E2E2E2
310
E2E2E2E2E2E2E2E2E2E2E2E2E2E2E2E2E2E2E2E2E2E2E2E2E2E2E2E2E2E2E2E2E2E2E2E2E2E2E2E2E2E2E2E2E2E2E2E2E2E2E2E2E2E2E2E2E2E2E2E2E2E2E2E2E2E2E2E2E2E2E2E2E2E2E2E2E2E2E2E2E2E2E2E2E2E2E2E2E2E2E2E2E2E2E2E2E2E2E2E2E2E2E2E2E2E2E2E2E2E2E2E2E2E2E2E2E2E2E2E2E2E2E2E2E2E2E2
310
E2E2E2E2E2E2E2E2E2E2E2E2E2E2E2E2E2E2E2E2E2E2E2E2E2E2E2E2E2E2E2E2E2E2E2E2E2E2E2E2E2E2E2E2E2E2E2E2E2E2E2E2E2E2E2E2E2E2E2E2E2E2E2E2E2E2E2E2E2E2E2E2E2E2E2E2E2E2E2E2E2E2E2E2E2E2E2E2E2E2E2E2E2E2E2E2E2E2E2E2E2E2E2E2E2E2E2E2E2E2E2E2E2E2E2E2E2E2E2E2E2E2E2E2E2E2E2
310
E2E2E2E2E2E2E2E2E2E2E2E2E2E2E2E2E2E2E2E2E2E2E2E2E2E2E2E2E2E2E2E2E2E2E2E2E2E2E2E2E2E2E2E2E2E2E2E2E2E2E2E2E2E2E2E2E2E2E2E2E2E2E2E2E2E2E2E2E2E2E2E2E2E2E2E2E2E2E2E2E2E2E2E2E2E2E2E2E2E2E2E2E2E2E2E2E2E2E2E2E2E2E2E2E2E2E2E2E2E2E2E2E2E2E2E2E2E2E2E2E2E2E2E2E2E2E2
310
E2E2E2E2E2E2E2E2E2E2E2E2E2E2E2E2E2E2E2E2E2E2E2E2E2E2E2E2E2E2E2E2E2E2E2E2E2E2E2E2E2E2E2E2E2E2E2E2E2E2E2E2E2E2E2E2E2E2E2E2E2E2E2E2E2E2E2E2E2E2E2E2E2E2E2E2E2E2E2E2E2E2E2E2E2E2E2E2E2E2E2E2E2E2E2E2E2E2E2E2E2E2E2E2E2E2E2E2E2E2E2E2E2E2E2E2E2E2E2E2E2E2E2E2E2E2E2
310
E2E2E2E2E2E2E2E2E2E2E2E2E2E2E2E2E2E2E2E2E2E2E2E2E2E2E2E2E2E2E2E2E2E2E2E2E2E2E2E2E2E2E2E2E2E2E2E2E2E2E2E2E2E2E2E2E2E2E2E2E2E2E2E2E2E2E2E2E2E2E2E2E2E2E2E2E2E2E2E2E2E2E2E2E2E2E2E2E2E2E2E2E2E2E2E2E2E2E2E2E2E2E2E2E2E2E2E2E2E2E2E2E2E2E2E2E2E2E2E2E2E2E2E2E2E2E2
310
E2E2E2E2E2E2E2E2E2E2E2E2E2E2E2E2E2E2E2E2E2E2E2E2E2E2E2E2E2E2E2E2E2E2E2E2E2E2E2E2E2E2E2E2E2E2E2E2E2E2E2E2E2E2E2E2E2E2E2E2E2E2E2E2E2E2E2E2E2E2E2E2E2E2E2E2E2E2E2E2E2E2E2E2E2E2E2E2E2E2E2E2E2E2E2E2E2E2E2E2E2E2E2E2E2E2E2E2E2E2E2E2E2E2E2E2E2E2E2E2E2E2E2E2E2E2E2
310
E2E2E2E2E2E2E2E2E2E2E2E2E2E2E2E2E2E2E2E2E2E2E2E2E2E2E2E2E2E2E2E2E2E2E2E2E2E2E2E2E2E2E2E2E2E2E2E2E2E2E2E2E2E2E2E2E2E2E2E2E2E2E2E2E2E2E2E2E2E2E2E2E2E2E2E2E2E2E2E2E2E2E2E2E2E2E2E2E2E2E2E2E2E2E2E2E2E2E2E2E2E2E2E2E2E2E2E2E2E2E2E2E2E2E2E2E2E2E2E2E2E2E2E2E2E2E2
310
E2E2E2E2E2E2E2E2E2E2E2E2E2E2E2E2E2E2E2E2E2E2E2E2E2E2E2E2E2E2E2E2E2E2E2E2E2E2E2E2E2E2E2E2E2E2E2E2E2E2E2E2E2E2E2E2E2E2E2E2E2E2E2E2E2E2E2E2E2E2E2E2E2E2E2E2E2E2E2E2E2E2E2E2E2E2E2E2E2E2E2E2E2E2E2E2E2E2E2E2E2E2E2E2E2E2E2E2E2E2E2E2E2E2E2E2E2E2E2E2E2E2E2E2E2E2E2
310
E2E2E2E2E2E2E2E2E2E2E2E2E2E2E2E2E2E2E2E2E2E2E2E2E2E2E2E2E2E2E2E2E2E2E2E2E2E2E2E2E2E2E2E2E2E2E2E2E2E2E2E2E2E2E2E2E2E2E2E2E2E2E2E2E2E2E2E2E2E2E2E2E2E2E2E2E2E2E2E2E2E2E2E2E2E2E2E2E2E2E2E2E2E2E2E2E2E2E2E2E2E2E2E2E2E2E2E2E2E2E2E2E2E2E2E2E2E2E2E2E2E2E2E2E2E2E2
310
E2E2E2E2E2E2E2E2E2E2E2E2E2E2E2E2E2E2E2E2E2E2E2E2E2E2E2E2E2E2E2E2E2E2E2E2E2E2E2E2E2E2E2E2E2E2E2E2E2E2E2E2E2E2E2E2E2E2E2E2E2E2E2E2E2E2E2E2E2E2E2E2E2E2E2E2E2E2E2E2E2E2E2E2E2E2E2E2E2E2E2E2E2E2E2E2E2E2E2E2E2E2E2E2E2E2E2E2E2E2E2E2E2E2E2E2E2E2E2E2E2E2E2E2E2E2E2
310
E2E2E2E2E2E2E2E2E2E2E2E2E2E2E2E2E2E2E2E2E2E2E2E2E2E2E2E2E2E2E2E2E2E2E2E2E2E2E2E2E2E2E2E2E2E2E2E2E2E2E2E2E2E2E2E2E2E2E2E2E2E2E2E2E2E2E2E2E2E2E2E2E2E2E2E2E2E2E2E2E2E2E2E2E2E2E2E2E2E2E2E2E2E2E2E2E2E2E2E2E2E2E2E2E2E2E2E2E2E2E2E2E2E2E2E2E2E2E2E2E2E2E2E2E2E2E2
310
E2E2E2E2E2E2E2E2E2E2E2E2E2E2E2E2E2E2E2E2E2E2E2E2E2E2E2E2E2E2E2E2E2E2E2E2E2E2E2E2E2E2E2E2E2E2E2E2E2E2E2E2E2E2E2E2E2E2E2E2E2E2E2E2E2E2E2E2E2E2E2E2E2E2E2E2E2E2E2E2E2E2E2E2E2E2E2E2E2E2E2E2E2E2E2E2E2E2E2E2E2E2E2E2E2E2E2E2E2E2E2E2E2E2E2E2E2E2E2E2E2E2E2E2E2E2E2
310
E2E2E2E2E2E2E2E2E2E2E2E2E2E2E2E2E2E2E2E2E2E2E2E2E2E2E2E2E2E2E2E2E2E2E2E2E2E2E2E2E2E2E2E2E2E2E2E2E2E2E2E2E2E2E2E2E2E2E2E2E2E2E2E2E2E2E2E2E2E2E2E2E2E2E2E2E2E2E2E2E2E2E2E2E2E2E2E2E2E2E2E2E2E2E2E2E2E2E2E2E2E2E2E2E2E2E2E2E2E2E2E2E2E2E2E2E2E2E2E2E2E2E2E2E2E2E2
310
E2E2E2E2E2E2E2E2E2E2E2E2E2E2E2E2E2E2E2E2E2E2E2E2E2E2E2E2E2E2E2E2E2E2E2E2E2E2E2E2E2E2E2E2E2E2E2E2E2E2E2E2E2E2E2E2E2E2E2E2E2E2E2E2E2E2E2E2E2E2E2E2E2E2E2E2E2E2E2E2E2E2E2E2E2E2E2E2E2E2E2E2E2E2E2E2E2E2E2E2E2E2E2E2E2E2E2E2E2E2E2E2E2E2E2E2E2E2E2E2E2E2E2E2E2E2E2
310
E2E2E2E2E2E2E2E2E2E2E2E2E2E2E2E2E2E2E2E2E2E2E2E2E2E2E2E2E2E2E2E2E2E2E2E2E2E2E2E2E2E2E2E2E2E2E2E2E2E2E2E2E2E2E2E2E2E2E2E2E2E2E2E2E2E2E2E2E2E2E2E2E2E2E2E2E2E2E2E2E2E2E2E2E2E2E2E2E2E2E2E2E2E2E2E2E2E2E2E2E2E2E2E2E2E2E2E2E2E2E2E2E2E2E2E2E2E2E2E2E2E2E2E2E2E2E2
310
E2E2E2E2E2E2E2E2E2E2E2E2E2E2E2E2E2E2E2E2E2E2E2E2E2E2E2E2E2E2E2E2E2E2E2E2E2E2E2E2E2E2E2E2E2E2E2E2E2E2E2E2E2E2E2E2E2E2E2E2E2E2E2E2E2E2E2E2E2E2E2E2E2E2E2E2E2E2E2E2E2E2E2E2E2E2E2E2E2E2E2E2E2E2E2E2E2E2E2E2E2E2E2E2E2E2E2E2E2E2E2E2E2E2E2E2E2E2E2E2E2E2E2E2E2E2E2
310
E2E2E2E2E2E2E2E2E2E2E2E2E2E2E2E2E2E2E2E2E2E2E2E2E2E2E2E2E2E2E2E2E2E2E2E2E2E2E2E2E2E2E2E2E2E2E2E2E2E2E2E2E2E2E2E2E2E2E2E2E2E2E2E2E2E2E2E2E2E2E2E2E2E2E2E2E2E2E2E2E2E2E2E2E2E2E2E2E2E2E2E2E2E2E2E2E2E2E2E2E2E2E2E2E2E2E2E2E2E2E2E2E2E2E2E2E2E2E2E2E2E2E2E2E2E2E2
310
E2E2E2E2E2E2E2E2E2E2E2E2E2E2E2E2E2E2E2E2E2E2E2E2E2E2E2E2E2E2E2E2E2E2E2E2E2E2E2E2E2E2E2E2E2E2E2E2E2E2E2E2E2E2E2E2E2E2E2E2E2E2E2E2E2E2E2E2E2E2E2E2E2E2E2E2E2E2E2E2E2E2E2E2E2E2E2E2E2E2E2E2E2E2E2E2E2E2E2E2E2E2E2E2E2E2E2E2E2E2E2E2E2E2E2E2E2E2E2E2E2E2E2E2E2E2E2
310
E2E2E2E2E2E2E2E2E2E2E2E2E2E2E2E2E2E2E2E2E2E2E2E2E2E2E2E2E2E2E2E2E2E2E2E2E2E2E2E2E2E2E2E2E2E2E2E2E2E2E2E2E2E2E2E2E2E2E2E2E2E2E2E2E2E2E2E2E2E2E2E2E2E2E2E2E2E2E2E2E2E2E2E2E2E2E2E2E2E2E2E2E2E2E2E2E2E2E2E2E2E2E2E2E2E2E2E2E2E2E2E2E2E2E2E2E2E2E2E2E2E2E2E2E2E2E2
310
E2E2E2E2E2E2E2E2E2E2E2E2E2E2E2E2E2E2E2E2E2E2E2E2E2E2E2E2E2E2E2E2E2E2E2E2E2E2E2E2E2E2E2E2E2E2E2E2E2E2E2E2E2E2E2E2E2E2E2E2E2E2E2E2E2E2E2E2E2E2E2E2E2E2E2E2E2E2E2E2E2E2E2E2E2E2E2E2E2E2E2E2E2E2E2E2E2E2E2E2E2E2E2E2E2E2E2E2E2E2E2E2E2E2E2E2E2E2E2E2E2E2E2E2E2E2E2
310
E2E2E2E2E2E2E2E2E2E2E2E2E2E2E2E2E2E2E2E2E2E2E2E2E2E2E2E2E2E2E2E2E2E2E2E2E2E2E2E2E2E2E2E2E2E2E2E2E2E2E2E2E2E2E2E2E2E2E2E2E2E2E2E2E2E2E2E2E2E2E2E2E2E2E2E2E2E2E2E2E2E2E2E2E2E2E2E2E2E2E2E2E2E2E2E2E2E2E2E2E2E2E2E2E2E2E2E2E2E2E2E2E2E2E2E2E2E2E2E2E2E2E2E2E2E2E2
310
E2E2E2E2E2E2E2E2E2E2E2E2E2E2E2E2E2E2E2E2E2E2E2E2E2E2E2E2E2E2E2E2E2E2E2E2E2E2E2E2E2E2E2E2E2E2E2E2E2E2E2E2E2E2E2E2E2E2E2E2E2E2E2E2E2E2E2E2E2E2E2E2E2E2E2E2E2E2E2E2E2E2E2E2E2E2E2E2E2E2E2E2E2E2E2E2E2E2E2E2E2E2E2E2E2E2E2E2E2E2E2E2E2E2E2E2E2E2E2E2E2E2E2E2E2E2E2
310
E2E2E2E2E2E2E2E2E2E2E2E2E2E2E2E2E2E2E2E2E2E2E2E2E2E2E2E2E2E2E2E2E2E2E2E2E2E2E2E2E2E2E2E2E2E2E2E2E2E2E2E2E2E2E2E2E2E2E2E2E2E2E2E2E2E2E2E2E2E2E2E2E2E2E2E2E2E2E2E2E2E2E2E2E2E2E2E2E2E2E2E2E2E2E2E2E2E2E2E2E2E2E2E2E2E2E2E2E2E2E2E2E2E2E2E2E2E2E2E2E2E2E2E2E2E2E2
310
E2E2E2E2E2E2E2E2E2E2E2E2E2E2E2E2E2E2E2E2E2E2E2E2E2E2E2E2E2E2E2E2E2E2E2E2E2E2E2E2E2E2E2E2E2E2E2E2E2E2E2E2E2E2E2E2E2E2E2E2E2E2E2E2E2E2E2E2E2E2E2E2E2E2E2E2E2E2E2E2E2E2E2E2E2E2E2E2E2E2E2E2E2E2E2E2E2E2E2E2E2E2E2E2E2E2E2E2E2E2E2E2E2E2E2E2E2E2E2E2E2E2E2E2E2E2E2
310
E2E2E2E2E2E2E2E2E2E2E2E2E2E2E2E2E2E2E2E2E2E2E2E2E2E2E2E2E2E2E2E2E2E2E2E2E2E2E2E2E2E2E2E2E2E2E2E2E2E2E2E2E2E2E2E2E2E2E2E2E2E2E2E2E2E2E2E2E2E2E2E2E2E2E2E2E2E2E2E2E2E2E2E2E2E2E2E2E2E2E2E2E2E2E2E2E2E2E2E2E2E2E2E2E2E2E2E2E2E2E2E2E2E2E2E2E2E2E2E2E2E2E2E2E2E2E2
310
E2E2E2E2E2E2E2E2E2E2E2E2E2E2E2E2E2E2E2E2E2E2E2E2E2E2E2E2E2E2E2E2E2E2E2E2E2E2E2E2E2E2E2E2E2E2E2E2E2E2E2E2E2E2E2E2E2E2E2E2E2E2E2E2E2E2E2E2E2E2E2E2E2E2E2E2E2E2E2E2E2E2E2E2E2E2E2E2E2E2E2E2E2E2E2E2E2E2E2E2E2E2E2E2E2E2E2E2E2E2E2E2E2E2E2E2E2E2E2E2E2E2E2E2E2E2E2
310
E2E2E2E2E2E2E2E2E2E2E2E2E2E2E2E2E2E2E2E2E2E2E2E2E2E2E2E2E2E2E2E2E2E2E2E2E2E2E2E2E2E2E2E2E2E2E2E2E2E2E2E2E2E2E2E2E2E2E2E2E2E2E2E2E2E2E2E2E2E2E2E2E2E2E2E2E2E2E2E2E2E2E2E2E2E2E2E2E2E2E2E2E2E2E2E2E2E2E2E2E2E2E2E2E2E2E2E2E2E2E2E2E2E2E2E2E2E2E2E2E2E2E2E2E2E2E2
310
E2E2E2E2E2E2E2E2E2E2E2E2E2E2E2E2E2E2E2E2E2E2E2E2E2E2E2E2E2E2E2E2E2E2E2E2E2E2E2E2E2E2E2E2E2E2E2E2E2E2E2E2E2E2E2E2E2E2E2E2E2E2E2E2E2E2E2E2E2E2E2E2E2E2E2E2E2E2E2E2E2E2E2E2E2E2E2E2E2E2E2E2E2E2E2E2E2E2E2E2E2E2E2E2E2E2E2E2E2E2E2E2E2E2E2E2E2E2E2E2E2E2E2E2E2E2E2
310
E2E2E2E2E2E2E2E2E2E2E2E2E2E2E2E2E2E2E2E2E2E2E2E2E2E2E2E2E2E2E2E2E2E2E2E2E2E2E2E2E2E2E2E2E2E2E2E2E2E2E2E2E2E2E2E2E2E2E2E2E2E2E2E2E2E2E2E2E2E2E2E2E2E2E2E2E2E2E2E2E2E2E2E2E2E2E2E2E2E2E2E2E2E2E2E2E2E2E2E2E2E2E2E2E2E2E2E2E2E2E2E2E2E2E2E2E2E2E2E2E2E2E2E2E2E2E2
310
E2E2E2E2E2E2E2E2E2E2E2E2E2E2E2E2E2E2E2E2E2E2E2E2E2E2E2E2E2E2E2E2E2E2E2E2E2E2E2E2E2E2E2E2E2E2E2E2E2E2E2E2E2E2E2E2E2E2E2E2E2E2E2E2E2E2E2E2E2E2E2E2E2E2E2E2E2E2E2E2E2E2E2E2E2E2E2E2E2E2E2E2E2E2E2E2E2E2E2E2E2E2E2E2E2E2E2E2E2E2E2E2E2E2E2E2E2E2E2E2E2E2E2E2E2E2E2
310
E2E2E2E2E2E2E2E2E2E2E2E2E2E2E2E2E2E2E2E2E2E2E2E2E2E2E2E2E2E2E2E2E2E2E2E2E2E2E2E2E2E2E2E2E2E2E2E2E2E2E2E2E2E2E2E2E2E2E2E2E2E2E2E2E2E2E2E2E2E2E2E2E2E2E2E2E2E2E2E2E2E2E2E2E2E2E2E2E2E2E2E2E2E2E2E2E2E2E2E2E2E2E2E2E2E2E2E2E2E2E2E2E2E2E2E2E2E2E2E2E2E2E2E2E2E2E2
310
E2E2E2E2E2E2E2E2E2E2E2E2E2E2E2E2E2E2E2E2E2E2E2E2E2E2E2E2E2E2E2E2E2E2E2E2E2E2E2E2E2E2E2E2E2E2E2E2E2E2E2E2E2E2E2E2E2E2E2E2E2E2E2E2E2E2E2E2E2E2E2E2E2E2E2E2E2E2E2E2E2E2E2E2E2E2E2E2E2E2E2E2E2E2E2E2E2E2E2E2E2E2E2E2E2E2E2E2E2E2E2E2E2E2E2E2E2E2E2E2E2E2E2E2E2E2E2
310
E2E2E2E2E2E2E2E2E2E2E2E2E2E2E2E2E2E2E2E2E2E2E2E2E2E2E2E2E2E2E2E2E2E2E2E2E2E2E2E2E2E2E2E2E2E2E2E2E2E2E2E2E2E2E2E2E2E2E2E2E2E2E2E2E2E2E2E2E2E2E2E2E2E2E2E2E2E2E2E2E2E2E2E2E2E2E2E2E2E2E2E2E2E2E2E2E2E2E2E2E2E2E2E2E2E2E2E2E2E2E2E2E2E2E2E2E2E2E2E2E2E2E2E2E2E2E2
310
E2E2E2E2E2E2E2E2E2E2E2E2E2E2E2E2E2E2E2E2E2E2E2E2E2E2E2E2E2E2E2E2E2E2E2E2E2E2E2E2E2E2E2E2E2E2E2E2E2E2E2E2E2E2E2E2E2E2E2E2E2E2E2E2E2E2E2E2E2E2E2E2E2E2E2E2E2E2E2E2E2E2E2E2E2E2E2E2E2E2E2E2E2E2E2E2E2E2E2E2E2E2E2E2E2E2E2E2E2E2E2E2E2E2E2E2E2E2E2E2E2E2E2E2E2E2E2
310
E2E2E2E2E2E2E2E2E2E2E2E2E2E2E2E2E2E2E2E2E2E2E2E2E2E2E2E2E2E2E2E2E2E2E2E2E2E2E2E2E2E2E2E2E2E2E2E2E2E2E2E2E2E2E2E2E2E2E2E2E2E2E2E2E2E2E2E2E2E2E2E2E2E2E2E2E2E2E2E2E2E2E2E2E2E2E2E2E2E2E2E2E2E2E2E2E2E2E2E2E2E2E2E2E2E2E2E2E2E2E2E2E2E2E2E2E2E2E2E2E2E2E2E2E2E2E2
310
E2E2E2E2E2E2E2E2E2E2E2E2E2E2E2E2E2E2E2E2E2E2E2E2E2E2E2E2E2E2E2E2E2E2E2E2E2E2E2E2E2E2E2E2E2E2E2E2E2E2E2E2E2E2E2E2E2E2E2E2E2E2E2E2E2E2E2E2E2E2E2E2E2E2E2E2E2E2E2E2E2E2E2E2E2E2E2E2E2E2E2E2E2E2E2E2E2E2E2E2E2E2E2E2E2E2E2E2E2E2E2E2E2E2E2E2E2E2E2E2E2E2E2E2E2E2E2
310
E2E2E2E2E2E2E2E2E2E2E2E2E2E2E2E2E2E2E2E2E2E2E2E2E2E2E2E2E2E2E2E2E2E2E2E2E2E2E2E2E2E2E2E2E2E2E2E2E2E2E2E2E2E2E2E2E2E2E2E2E2E2E2E2E2E2E2E2E2E2E2E2E2E2E2E2E2E2E2E2E2E2E2E2E2E2E2E2E2E2E2E2E2E2E2E2E2E2E2E2E2E2E2E2E2E2E2E2E2E2E2E2E2E2E2E2E2E2E2E2E2E2E2E2E2E2E2
310
E2E2E2E2E2E2E2E2E2E2E2E2E2E2E2E2E2E2E2E2E2E2E2E2E2E2E2E2E2E2E2E2E2E2E2E2E2E2E2E2E2E2E2E2E2E2E2E2E2E2E2E2E2E2E2E2E2E2E2E2E2E2E2E2E2E2E2E2E2E2E2E2E2E2E2E2E2E2E2E2E2E2E2E2E2E2E2E2E2E2E2E2E2E2E2E2E2E2E2E2E2E2E2E2E2E2E2E2E2E2E2E2E2E2E2E2E2E2E2E2E2E2E2E2E2E2E2
310
E2E2E2E2E2E2E2E2E2E2E2E2E2E2E2E2E2E2E2E2E2E2E2E2E2E2E2E2E2E2E2E2E2E2E2E2E2E2E2E2E2E2E2E2E2E2E2E2E2E2E2E2E2E2E2E2E2E2E2E2E2E2E2E2E2E2E2E2E2E2E2E2E2E2E2E2E2E2E2E2E2E2E2E2E2E2E2E2E2E2E2E2E2E2E2E2E2E2E2E2E2E2E2E2E2E2E2E2E2E2E2E2E2E2E2E2E2E2E2E2E2E2E2E2E2E2E2
310
E2E2E2E2E2E2E2E2E2E2E2E2E2E2E2E2E2E2E2E2E2E2E2E2E2E2E2E2E2E2E2E2E2E2E2E2E2E2E2E2E2E2E2E2E2E2E2E2E2E2E2E2E2E2E2E2E2E2E2E2E2E2E2E2E2E2E2E2E2E2E2E2E2E2E2E2E2E2E2E2E2E2E2E2E2E2E2E2E2E2E2E2E2E2E2E2E2E2E2E2E2E2E2E2E2E2E2E2E2E2E2E2E2E2E2E2E2E2E2E2E2E2E2E2E2E2E2
310
E2E2E2E2E2E2E2E2E2E2E2E2E2E2E2E2E2E2E2E2E2E2E2E2E2E2E2E2E2E2E2E2E2E2E2E2E2E2E2E2E2E2E2E2E2E2E2E2E2E2E2E2E2E2E2E2E2E2E2E2E2E2E2E2E2E2E2E2E2E2E2E2E2E2E2E2E2E2E2E2E2E2E2E2E2E2E2E2E2E2E2E2E2E2E2E2E2E2E2E2E2E2E2E2E2E2E2E2E2E2E2E2E2E2E2E2E2E2E2E2E2E2E2E2E2E2E2
310
E2E2E2E2E2E2E2E2E2E2E2E2E2E2E2E2E2E2E2E2E2E2E2E2E2E2E2E2E2E2E2E2E2E2E2E2E2E2E2E2E2E2E2E2E2E2E2E2E2E2E2E2E2E2E2E2E2E2E2E2E2E2E2E2E2E2E2E2E2E2E2E2E2E2E2E2E2E2E2E2E2E2E2E2E2E2E2E2E2E2E2E2E2E2E2E2E2E2E2E2E2E2E2E2E2E2E2E2E2E2E2E2E2E2E2E2E2E2E2E2E2E2E2E2E2E2E2
310
E2E2E2E2E2E2E2E2E2E2E2E2E2E2E2E2E2E2E2E2E2E2E2E2E2E2E2E2E2E2E2E2E2E2E2E2E2E2E2E2E2E2E2E2E2E2E2E2E2E2E2E2E2E2E2E2E2E2E2E2E2E2E2E2E2E2E2E2E2E2E2E2E2E2E2E2E2E2E2E2E2E2E2E2E2E2E2E2E2E2E2E2E2E2E2E2E2E2E2E2E2E2E2E2E2E2E2E2E2E2E2E2E2E2E2E2E2E2E2E2E2E2E2E2E2E2E2
310
E2E2E2E2E2E2E2E2E2E2E2E2E2E2E2E2E2E2E2E2E2E2E2E2E2E2E2E2E2E2E2E2E2E2E2E2E2E2E2E2E2E2E2E2E2E2E2E2E2E2E2E2E2E2E2E2E2E2E2E2E2E2E2E2E2E2E2E2E2E2E2E2E2E2E2E2E2E2E2E2E2E2E2E2E2E2E2E2E2E2E2E2E2E2E2E2E2E2E2E2E2E2E2E2E2E2E2E2E2E2E2E2E2E2E2E2E2E2E2E2E2E2E2E2E2E2E2
310
E2E2E2E2E2E2E2E2E2E2E2E2E2E2E2E2E2E2E2E2E2E2E2E2E2E2E2E2E2E2E2E2E2E2E2E2E2E2E2E2E2E2E2E2E2E2E2E2E2E2E2E2E2E2E2E2E2E2E2E2E2E2E2E2E2E2E2E2E2E2E2E2E2E2E2E2E2E2E2E2E2E2E2E2E2E2E2E2E2E2E2E2E2E2E2E2E2E2E2E2E2E2E2E2E2E2E2E2E2E2E2E2E2E2E2E2E2E2E2E2E2E2E2E2E2E2E2
310
E2E2E2E2E2E2E2E2E2E2E2E2E2E2E2E2E2E2E2E2E2E2E2E2E2E2E2E2E2E2E2E2E2E2E2E2E2E2E2E2E2E2E2E2E2E2E2E2E2E2E2E2E2E2E2E2E2E2E2E2E2E2E2E2E2E2E2E2E2E2E2E2E2E2E2E2E2E2E2E2E2E2E2E2E2E2E2E2E2E2E2E2E2E2E2E2E2E2E2E2E2E2E2E2E2E2E2E2E2E2E2E2E2E2E2E2E2E2E2E2E2E2E2E2E2E2E2
310
E2E2E2E2E2E2E2E2E2E2E2E2E2E2E2E2E2E2E2E2E2E2E2E2E2E2E2E2E2E2E2E2E2E2E2E2E2E2E2E2E2E2E2E2E2E2E2E2E2E2E2E2E2E2E2E2E2E2E2E2E2E2E2E2E2E2E2E2E2E2E2E2E2E2E2E2E2E2E2E2E2E2E2E2E2E2E2E2E2E2E2E2E2E2E2E2E2E2E2E2E2E2E2E2E2E2E2E2E2E2E2E2E2E2E2E2E2E2E2E2E2E2E2E2E2E2E2
310
E2E2E2E2E2E2E2E2E2E2E2E2E2E2E2E2E2E2E2E2E2E2E2E2E2E2E2E2E2E2E2E2E2E2E2E2E2E2E2E2E2E2E2E2E2E2E2E2E2E2E2E2E2E2E2E2E2E2E2E2E2E2E2E2E2E2E2E2E2E2E2E2E2E2E2E2E2E2E2E2E2E2E2E2E2E2E2E2E2E2E2E2E2E2E2E2E2E2E2E2E2E2E2E2E2E2E2E2E2E2E2E2E2E2E2E2E2E2E2E2E2E2E2E2E2E2E2
310
E2E2E2E2E2E2E2E2E2E2E2E2E2E2E2E2E2E2E2E2E2E2E2E2E2E2E2E2E2E2E2E2E2E2E2E2E2E2E2E2E2E2E2E2E2E2E2E2E2E2E2E2E2E2E2E2E2E2E2E2E2E2E2E2E2E2E2E2E2E2E2E2E2E2E2E2E2E2E2E2E2E2E2E2E2E2E2E2E2E2E2E2E2E2E2E2E2E2E2E2E2E2E2E2E2E2E2E2E2E2E2E2E2E2E2E2E2E2E2E2E2E2E2E2E2E2E2
310
E2E2E2E2E2E2E2E2E2E2E2E2E2E2E2E2E2E2E2E2E2E2E2E2E2E2E2E2E2E2E2E2E2E2E2E2E2E2E2E2E2E2E2E2E2E2E2E2E2E2E2E2E2E2E2E2E2E2E2E2E2E2E2E2E2E2E2E2E2E2E2E2E2E2E2E2E2E2E2E2E2E2E2E2E2E2E2E2E2E2E2E2E2E2E2E2E2E2E2E2E2E2E2E2E2E2E2E2E2E2E2E2E2E2E2E2E2E2E2E2E2E2E2E2E2E2E2
310
E2E2E2E2E2E2E2E2E2E2E2E2E2E2E2E2E2E2E2E2E2E2E2E2E2E2E2E2E2E2E2E2E2E2E2E2E2E2E2E2E2E2E2E2E2E2E2E2E2E2E2E2E2E2E2E2E2E2E2E2E2E2E2E2E2E2E2E2E2E2E2E2E2E2E2E2E2E2E2E2E2E2E2E2E2E2E2E2E2E2E2E2E2E2E2E2E2E2E2E2E2E2E2E2E2E2E2E2E2E2E2E2E2E2E2E2E2E2E2E2E2E2E2E2E2E2E2
310
E2E2E2E2E2E2E2E2E2E2E2E2E2E2E2E2E2E2E2E2E2E2E2E2E2E2E2E2E2E2E2E2E2E2E2E2E2E2E2E2E2E2E2E2E2E2E2E2E2E2E2E2E2E2E2E2E2E2E2E2E2E2E2E2E2E2E2E2E2E2E2E2E2E2E2E2E2E2E2E2E2E2E2E2E2E2E2E2E2E2E2E2E2E2E2E2E2E2E2E2E2E2E2E2E2E2E2E2E2E2E2E2E2E2E2E2E2E2E2E2E2E2E2E2E2E2E2
310
E2E2E2E2E2E2E2E2E2E2E2E2E2E2E2E2E2E2E2E2E2E2E2E2E2E2E2E2E2E2E2E2E2E2E2E2E2E2E2E2E2E2E2E2E2E2E2E2E2E2E2E2E2E2E2E2E2E2E2E2E2E2E2E2E2E2E2E2E2E2E2E2E2E2E2E2E2E2E2E2E2E2E2E2E2E2E2E2E2E2E2E2E2E2E2E2E2E2E2E2E2E2E2E2E2E2E2E2E2E2E2E2E2E2E2E2E2E2E2E2E2E2E2E2E2E2E2
310
E2E2E2E2E2E2E2E2E2E2E2E2E2E2E2E2E2E2E2E2E2E2E2E2E2E2E2E2E2E2E2E2E2E2E2E2E2E2E2E2E2E2E2E2E2E2E2E2E2E2E2E2E2E2E2E2E2E2E2E2E2E2E2E2E2E2E2E2E2E2E2E2E2E2E2E2E2E2E2E2E2E2E2E2E2E2E2E2E2E2E2E2E2E2E2E2E2E2E2E2E2E2E2E2E2E2E2E2E2E2E2E2E2E2E2E2E2E2E2E2E2E2E2E2E2E2E2
310
E2E2E2E2E2E2E2E2E2E2E2E2E2E2E2E2E2E2E2E2E2E2E2E2E2E2E2E2E2E2E2E2E2E2E2E2E2E2E2E2E2E2E2E2E2E2E2E2E2E2E2E2E2E2E2E2E2E2E2E2E2E2E2E2E2E2E2E2E2E2E2E2E2E2E2E2E2E2E2E2E2E2E2E2E2E2E2E2E2E2E2E2E2E2E2E2E2E2E2E2E2E2E2E2E2E2E2E2E2E2E2E2E2E2E2E2E2E2E2E2E2E2E2E2E2E2E2
310
E2E2E2E2E2E2E2E2E2E2E2E2E2E2E2E2E2E2E2E2E2E2E2E2E2E2E2E2E2E2E2E2E2E2E2E2E2E2E2E2E2E2E2E2E2E2E2E2E2E2E2E2E2E2E2E2E2E2E2E2E2E2E2E2E2E2E2E2E2E2E2E2E2E2E2E2E2E2E2E2E2E2E2E2E2E2E2E2E2E2E2E2E2E2E2E2E2E2E2E2E2E2E2E2E2E2E2E2E2E2E2E2E2E2E2E2E2E2E2E2E2E2E2E2E2E2E2
310
E2E2E2E2E2E2E2E2E2E2E2E2E2E2E2E2E2E2E2E2E2E2E2E2E2E2E2E2E2E2E2E2E2E2E2E2E2E2E2E2E2E2E2E2E2E2E2E2E2E2E2E2E2E2E2E2E2E2E2E2E2E2E2E2E2E2E2E2E2E2E2E2E2E2E2E2E2E2E2E2E2E2E2E2E2E2E2E2E2E2E2E2E2E2E2E2E2E2E2E2E2E2E2E2E2E2E2E2E2E2E2E2E2E2E2E2E2E2E2E2E2E2E2E2E2E2E2
310
E2E2E2E2E2E2E2E2E2E2E2E2E2E2E2E2E2E2E2E2E2E2E2E2E2E2E2E2E2E2E2E2E2E2E2E2E2E2E2E2E2E2E2E2E2E2E2E2E2E2E2E2E2E2E2E2E2E2E2E2E2E2E2E2E2E2E2E2E2E2E2E2E2E2E2E2E2E2E2E2E2E2E2E2E2E2E2E2E2E2E2E2E2E2E2E2E2E2E2E2E2E2E2E2E2E2E2E2E2E2E2E2E2E2E2E2E2E2E2E2E2E2E2E2E2E2E2
310
E2E2E2E2E2E2E2E2E2E2E2E2E2E2E2E2E2E2E2E2E2E2E2E2E2E2E2E2E2E2E2E2E2E2E2E2E2E2E2E2E2E2E2E2E2E2E2E2E2E2E2E2E2E2E2E2E2E2E2E2E2E2E2E2E2E2E2E2E2E2E2E2E2E2E2E2E2E2E2E2E2E2E2E2E2E2E2E2E2E2E2E2E2E2E2E2E2E2E2E2E2E2E2E2E2E2E2E2E2E2E2E2E2E2E2E2E2E2E2E2E2E2E2E2E2E2E2
310
E2E2E2E2E2E2E2E2E2E2E2E2E2E2E2E2E2E2E2E2E2E2E2E2E2E2E2E2E2E2E2E2E2E2E2E2E2E2E2E2E2E2E2E2E2E2E2E2E2E2E2E2E2E2E2E2E2E2E2E2E2E2E2E2E2E2E2E2E2E2E2E2E2E2E2E2E2E2E2E2E2E2E2E2E2E2E2E2E2E2E2E2E2E2E2E2E2E2E2E2E2E2E2E2E2E2E2E2E2E2E2E2E2E2E2E2E2E2E2E2E2E2E2E2E2E2E2
310
E2E2E2E2E2E2E2E2E2E2E2E2E2E2E2E2E2E2E2E2E2E2E2E2E2E2E2E2E2E2E2E2E2E2E2E2E2E2E2E2E2E2E2E2E2E2E2E2E2E2E2E2E2E2E2E2E2E2E2E2E2E2E2E2E2E2E2E2E2E2E2E2E2E2E2E2E2E2E2E2E2E2E2E2E2E2E2E2E2E2E2E2E2E2E2E2E2E2E2E2E2E2E2E2E2E2E2E2E2E2E2E2E2E2E2E2E2E2E2E2E2E2E2E2E2E2E2
310
E2E2E2E2E2E2E2E2E2E2E2E2E2E2E2E2E2E2E2E2E2E2E2E2E2E2E2E2E2E2E2E2E2E2E2E2E2E2E2E2E2E2E2E2E2E2E2E2E2E2E2E2E2E2E2E2E2E2E2E2E2E2E2E2E2E2E2E2E2E2E2E2E2E2E2E2E2E2E2E2E2E2E2E2E2E2E2E2E2E2E2E2E2E2E2E2E2E2E2E2E2E2E2E2E2E2E2E2E2E2E2E2E2E2E2E2E2E2E2E2E2E2E2E2E2E2E2
310
E2E2E2E2E2E2E2E2E2E2E2E2E2E2E2E2E2E2E2E2E2E2E2E2E2E2E2E2E2E2E2E2E2E2E2E2E2E2E2E2E2E2E2E2E2E2E2E2E2E2E2E2E2E2E2E2E2E2E2E2E2E2E2E2E2E2E2E2E2E2E2E2E2E2E2E2E2E2E2E2E2E2E2E2E2E2E2E2E2E2E2E2E2E2E2E2E2E2E2E2E2E2E2E2E2E2E2E2E2E2E2E2E2E2E2E2E2E2E2E2E2E2E2E2E2E2E2
310
E2E2E2E2E2E2E2E2E2E2E2E2E2E2E2E2E2E2E2E2E2E2E2E2E2E2E2E2E2E2E2E2E2E2E2E2E2E2E2E2E2E2E2E2E2E2E2E2E2E2E2E2E2E2E2E2E2E2E2E2E2E2E2E2E2E2E2E2E2E2E2E2E2E2E2E2E2E2E2E2E2E2E2E2E2E2E2E2E2E2E2E2E2E2E2E2E2E2E2E2E2E2E2E2E2E2E2E2E2E2E2E2E2E2E2E2E2E2E2E2E2E2E2E2E2E2E2
310
E2E2E2E2E2E2E2E2E2E2E2E2E2E2E2E2E2E2E2E2E2E2E2E2E2E2E2E2E2E2E2E2E2E2E2E2E2E2E2E2E2E2E2E2E2E2E2E2E2E2E2E2E2E2E2E2E2E2E2E2E2E2E2E2E2E2E2E2E2E2E2E2E2E2E2E2E2E2E2E2E2E2E2E2E2E2E2E2E2E2E2E2E2E2E2E2E2E2E2E2E2E2E2E2E2E2E2E2E2E2E2E2E2E2E2E2E2E2E2E2E2E2E2E2E2E2E2
310
E2E2E2E2E2E2E2E2E2E2E2E2E2E2E2E2E2E2E2E2E2E2E2E2E2E2E2E2E2E2E2E2E2E2E2E2E2E2E2E2E2E2E2E2E2E2E2E2E2E2E2E2E2E2E2E2E2E2E2E2E2E2E2E2E2E2E2E2E2E2E2E2E2E2E2E2E2E2E2E2E2E2E2E2E2E2E2E2E2E2E2E2E2E2E2E2E2E2E2E2E2E2E2E2E2E2E2E2E2E2E2E2E2E2E2E2E2E2E2E2E2E2E2E2E2E2E2
310
E2E2E2E2E2E2E2E2E2E2E2E2E2E2E2E2E2E2E2E2E2E2E2E2E2E2E2E2E2E2E2E2E2E2E2E2E2E2E2E2E2E2E2E2E2E2E2E2E2E2E2E2E2E2E2E2E2E2E2E2E2E2E2E2E2E2E2E2E2E2E2E2E2E2E2E2E2E2E2E2E2E2E2E2E2E2E2E2E2E2E2E2E2E2E2E2E2E2E2E2E2E2E2E2E2E2E2E2E2E2E2E2E2E2E2E2E2E2E2E2E2E2E2E2E2E2E2
310
E2E2E2E2E2E2E2E2E2E2E2E2E2E2E2E2E2E2E2E2E2E2E2E2E2E2E2E2E2E2E2E2E2E2E2E2E2E2E2E2E2E2E2E2E2E2E2E2E2E2E2E2E2E2E2E2E2E2E2E2E2E2E2E2E2E2E2E2E2E2E2E2E2E2E2E2E2E2E2E2E2E2E2E2E2E2E2E2E2E2E2E2E2E2E2E2E2E2E2E2E2E2E2E2E2E2E2E2E2E2E2E2E2E2E2E2E2E2E2E2E2E2E2E2E2E2E2
310
E2E2E2E2E2E2E2E2E2E2E2E2E2E2E2E2E2E2E2E2E2E2E2E2E2E2E2E2E2E2E2E2E2E2E2E2E2E2E2E2E2E2E2E2E2E2E2E2E2E2E2E2E2E2E2E2E2E2E2E2E2E2E2E2E2E2E2E2E2E2E2E2E2E2E2E2E2E2E2E2E2E2E2E2E2E2E2E2E2E2E2E2E2E2E2E2E2E2E2E2E2E2E2E2E2E2E2E2E2E2E2E2E2E2E2E2E2E2E2E2E2E2E2E2E2E2E2
310
E2E2E2E2E2E2E2E2E2E2E2E2E2E2E2E2E2E2E2E2E2E2E2E2E2E2E2E2E2E2E2E2E2E2E2E2E2E2E2E2E2E2E2E2E2E2E2E2E2E2E2E2E2E2E2E2E2E2E2E2E2E2E2E2E2E2E2E2E2E2E2E2E2E2E2E2E2E2E2E2E2E2E2E2E2E2E2E2E2E2E2E2E2E2E2E2E2E2E2E2E2E2E2E2E2E2E2E2E2E2E2E2E2E2E2E2E2E2E2E2E2E2E2E2E2E2E2
310
E2E2E2E2E2E2E2E2E2E2E2E2E2E2E2E2E2E2E2E2E2E2E2E2E2E2E2E2E2E2E2E2E2E2E2E2E2E2E2E2E2E2E2E2E2E2E2E2E2E2E2E2E2E2E2E2E2E2E2E2E2E2E2E2E2E2E2E2E2E2E2E2E2E2E2E2E2E2E2E2E2E2E2E2E2E2E2E2E2E2E2E2E2E2E2E2E2E2E2E2E2E2E2E2E2E2E2E2E2E2E2E2E2E2E2E2E2E2E2E2E2E2E2E2E2E2E2
310
E2E2E2E2E2E2E2E2E2E2E2E2E2E2E2E2E2E2E2E2E2E2E2E2E2E2E2E2E2E2E2E2E2E2E2E2E2E2E2E2E2E2E2E2E2E2E2E2E2E2E2E2E2E2E2E2E2E2E2E2E2E2E2E2E2E2E2E2E2E2E2E2E2E2E2E2E2E2E2E2E2E2E2E2E2E2E2E2E2E2E2E2E2E2E2E2E2E2E2E2E2E2E2E2E2E2E2E2E2E2E2E2E2E2E2E2E2E2E2E2E2E2E2E2E2E2E2
310
E2E2E2E2E2E2E2E2E2E2E2E2E2E2E2E2E2E2E2E2E2E2E2E2E2E2E2E2E2E2E2E2E2E2E2E2E2E2E2E2E2E2E2E2E2E2E2E2E2E2E2E2E2E2E2E2E2E2E2E2E2E2E2E2E2E2E2E2E2E2E2E2E2E2E2E2E2E2E2E2E2E2E2E2E2E2E2E2E2E2E2E2E2E2E2E2E2E2E2E2E2E2E2E2E2E2E2E2E2E2E2E2E2E2E2E2E2E2E2E2E2E2E2E2E2E2E2
310
E2E2E2E2E2E2E2E2E2E2E2E2E2E2E2E2E2E2E2E2E2E2E2E2E2E2E2E2E2E2E2E2E2E2E2E2E2E2E2E2E2E2E2E2E2E2E2E2E2E2E2E2E2E2E2E2E2E2E2E2E2E2E2E2E2E2E2E2E2E2E2E2E2E2E2E2E2E2E2E2E2E2E2E2E2E2E2E2E2E2E2E2E2E2E2E2E2E2E2E2E2E2E2E2E2E2E2E2E2E2E2E2E2E2E2E2E2E2E2E2E2E2E2E2E2E2E2
310
E2E2E2E2E2E2E2E2E2E2E2E2E2E2E2E2E2E2E2E2E2E2E2E2E2E2E2E2E2E2E2E2E2E2E2E2E2E2E2E2E2E2E2E2E2E2E2E2E2E2E2E2E2E2E2E2E2E2E2E2E2E2E2E2E2E2E2E2E2E2E2E2E2E2E2E2E2E2E2E2E2E2E2E2E2E2E2E2E2E2E2E2E2E2E2E2E2E2E2E2E2E2E2E2E2E2E2E2E2E2E2E2E2E2E2E2E2E2E2E2E2E2E2E2E2E2E2
310
E2E2E2E2E2E2E2E2E2E2E2E2E2E2E2E2E2E2E2E2E2E2E2E2E2E2E2E2E2E2E2E2E2E2E2E2E2E2E2E2E2E2E2E2E2E2E2E2E2E2E2E2E2E2E2E2E2E2E2E2E2E2E2E2E2E2E2E2E2E2E2E2E2E2E2E2E2E2E2E2E2E2E2E2E2E2E2E2E2E2E2E2E2E2E2E2E2E2E2E2E2E2E2E2E2E2E2E2E2E2E2E2E2E2E2E2E2E2E2E2E2E2E2E2E2E2E2
310
E2E2E2E2E2E2E2E2E2E2E2E2E2E2E2E2E2E2E2E2E2E2E2E2E2E2E2E2E2E2E2E2E2E2E2E2E2E2E2E2E2E2E2E2E2E2E2E2E2E2E2E2E2E2E2E2E2E2E2E2E2E2E2E2E2E2E2E2E2E2E2E2E2E2E2E2E2E2E2E2E2E2E2E2E2E2E2E2E2E2E2E2E2E2E2E2E2E2E2E2E2E2E2E2E2E2E2E2E2E2E2E2E2E2E2E2E2E2E2E2E2E2E2E2E2E2E2
310
E2E2E2E2E2E2E2E2E2E2E2E2E2E2E2E2E2E2E2E2E2E2E2E2E2E2E2E2E2E2E2E2E2E2E2E2E2E2E2E2E2E2E2E2E2E2E2E2E2E2E2E2E2E2E2E2E2E2E2E2E2E2E2E2E2E2E2E2E2E2E2E2E2E2E2E2E2E2E2E2E2E2E2E2E2E2E2E2E2E2E2E2E2E2E2E2E2E2E2E2E2E2E2E2E2E2E2E2E2E2E2E2E2E2E2E2E2E2E2E2E2E2E2E2E2E2E2
310
E2E2E2E2E2E2E2E2E2E2E2E2E2E2E2E2E2E2E2E2E2E2E2E2E2E2E2E2E2E2E2E2E2E2E2E2E2E2E2E2E2E2E2E2E2E2E2E2E2E2E2E2E2E2E2E2E2E2E2E2E2E2E2E2E2E2E2E2E2E2E2E2E2E2E2E2E2E2E2E2E2E2E2E2E2E2E2E2E2E2E2E2E2E2E2E2E2E2E2E2E2E2E2E2E2E2E2E2E2E2E2E2E2E2E2E2E2E2E2E2E2E2E2E2E2E2E2
310
E2E2E2E2E2E2E2E2E2E2E2E2E2E2E2E2E2E2E2E2E2E2E2E2E2E2E2E2E2E2E2E2E2E2E2E2E2E2E2E2E2E2E2E2E2E2E2E2E2E2E2E2E2E2E2E2E2E2E2E2E2E2E2E2E2E2E2E2E2E2E2E2E2E2E2E2E2E2E2E2E2E2E2E2E2E2E2E2E2E2E2E2E2E2E2E2E2E2E2E2E2E2E2E2E2E2E2E2E2E2E2E2E2E2E2E2E2E2E2E2E2E2E2E2E2E2E2
310
E2E2E2E2E2E2E2E2E2E2E2E2E2E2E2E2E2E2E2E2E2E2E2E2E2E2E2E2E2E2E2E2E2E2E2E2E2E2E2E2E2E2E2E2E2E2E2E2E2E2E2E2E2E2E2E2E2E2E2E2E2E2E2E2E2E2E2E2E2E2E2E2E2E2E2E2E2E2E2E2E2E2E2E2E2E2E2E2E2E2E2E2E2E2E2E2E2E2E2E2E2E2E2E2E2E2E2E2E2E2E2E2E2E2E2E2E2E2E2E2E2E2E2E2E2E2E2
310
E2E2E2E2E2E2E2E2E2E2E2E2E2E2E2E2E2E2E2E2E2E2E2E2E2E2E2E2E2E2E2E2E2E2E2E2E2E2E2E2E2E2E2E2E2E2E2E2E2E2E2E2E2E2E2E2E2E2E2E2E2E2E2E2E2E2E2E2E2E2E2E2E2E2E2E2E2E2E2E2E2E2E2E2E2E2E2E2E2E2E2E2E2E2E2E2E2E2E2E2E2E2E2E2E2E2E2E2E2E2E2E2E2E2E2E2E2E2E2E2E2E2E2E2E2E2E2
310
E2E2E2E2E2E2E2E2E2E2E2E2E2E2E2E2E2E2E2E2E2E2E2E2E2E2E2E2E2E2E2E2E2E2E2E2E2E2E2E2E2E2E2E2E2E2E2E2E2E2E2E2E2E2E2E2E2E2E2E2E2E2E2E2E2E2E2E2E2E2E2E2E2E2E2E2E2E2E2E2E2E2E2E2E2E2E2E2E2E2E2E2E2E2E2E2E2E2E2E2E2E2E2E2E2E2E2E2E2E2E2E2E2E2E2E2E2E2E2E2E2E2E2E2E2E2E2
310
E2E2E2E2E2E2E2E2E2E2E2E2E2E2E2E2E2E2E2E2E2E2E2E2E2E2E2E2E2E2E2E2E2E2E2E2E2E2E2E2E2E2E2E2E2E2E2E2E2E2E2E2E2E2E2E2E2E2E2E2E2E2E2E2E2E2E2E2E2E2E2E2E2E2E2E2E2E2E2E2E2E2E2E2E2E2E2E2E2E2E2E2E2E2E2E2E2E2E2E2E2E2E2E2E2E2E2E2E2E2E2E2E2E2E2E2E2E2E2E2E2E2E2E2E2E2E2
310
E2E2E2E2E2E2E2E2E2E2E2E2E2E2E2E2E2E2E2E2E2E2E2E2E2E2E2E2E2E2E2E2E2E2E2E2E2E2E2E2E2E2E2E2E2E2E2E2E2E2E2E2E2E2E2E2E2E2E2E2E2E2E2E2E2E2E2E2E2E2E2E2E2E2E2E2E2E2E2E2E2E2E2E2E2E2E2E2E2E2E2E2E2E2E2E2E2E2E2E2E2E2E2E2E2E2E2E2E2E2E2E2E2E2E2E2E2E2E2E2E2E2E2E2E2E2E2
310
E2E2E2E2E2E2E2E2E2E2E2E2E2E2E2E2E2E2E2E2E2E2E2E2E2E2E2E2E2E2E2E2E2E2E2E2E2E2E2E2E2E2E2E2E2E2E2E2E2E2E2E2E2E2E2E2E2E2E2E2E2E2E2E2E2E2E2E2E2E2E2E2E2E2E2E2E2E2E2E2E2E2E2E2E2E2E2E2E2E2E2E2E2E2E2E2E2E2E2E2E2E2E2E2E2E2E2E2E2E2E2E2E2E2E2E2E2E2E2E2E2E2E2E2E2E2E2
310
E2E2E2E2E2E2E2E2E2E2E2E2E2E2E2E2E2E2E2E2E2E2E2E2E2E2E2E2E2E2E2E2E2E2E2E2E2E2E2E2E2E2E2E2E2E2E2E2E2E2E2E2E2E2E2E2E2E2E2E2E2E2E2E2E2E2E2E2E2E2E2E2E2E2E2E2E2E2E2E2E2E2E2E2E2E2E2E2E2E2E2E2E2E2E2E2E2E2E2E2E2E2E2E2E2E2E2E2E2E2E2E2E2E2E2E2E2E2E2E2E2E2E2E2E2E2E2
310
E2E2E2E2E2E2E2E2E2E2E2E2E2E2E2E2E2E2E2E2E2E2E2E2E2E2E2E2E2E2E2E2E2E2E2E2E2E2E2E2E2E2E2E2E2E2E2E2E2E2E2E2E2E2E2E2E2E2E2E2E2E2E2E2E2E2E2E2E2E2E2E2E2E2E2E2E2E2E2E2E2E2E2E2E2E2E2E2E2E2E2E2E2E2E2E2E2E2E2E2E2E2E2E2E2E2E2E2E2E2E2E2E2E2E2E2E2E2E2E2E2E2E2E2E2E2E2
310
E2E2E2E2E2E2E2E2E2E2E2E2E2E2E2E2E2E2E2E2E2E2E2E2E2E2E2E2E2E2E2E2E2E2E2E2E2E2E2E2E2E2E2E2E2E2E2E2E2E2E2E2E2E2E2E2E2E2E2E2E2E2E2E2E2E2E2E2E2E2E2E2E2E2E2E2E2E2E2E2E2E2E2E2E2E2E2E2E2E2E2E2E2E2E2E2E2E2E2E2E2E2E2E2E2E2E2E2E2E2E2E2E2E2E2E2E2E2E2E2E2E2E2E2E2E2E2
310
E2E2E2E2E2E2E2E2E2E2E2E2E2E2E2E2E2E2E2E2E2E2E2E2E2E2E2E2E2E2E2E2E2E2E2E2E2E2E2E2E2E2E2E2E2E2E2E2E2E2E2E2E2E2E2E2E2E2E2E2E2E2E2E2E2E2E2E2E2E2E2E2E2E2E2E2E2E2E2E2E2E2E2E2E2E2E2E2E2E2E2E2E2E2E2E2E2E2E2E2E2E2E2E2E2E2E2E2E2E2E2E2E2E2E2E2E2E2E2E2E2E2E2E2E2E2E2
310
E2E2E2E2E2E2E2E2E2E2E2E2E2E2E2E2E2E2E2E2E2E2E2E2E2E2E2E2E2E2E2E2E2E2E2E2E2E2E2E2E2E2E2E2E2E2E2E2E2E2E2E2E2E2E2E2E2E2E2E2E2E2E2E2E2E2E2E2E2E2E2E2E2E2E2E2E2E2E2E2E2E2E2E2E2E2E2E2E2E2E2E2E2E2E2E2E2E2E2E2E2E2E2E2E2E2E2E2E2E2E2E2E2E2E2E2E2E2E2E2E2E2E2E2E2E2E2
310
E2E2E2E2E2E2E2E2E2E2E2E2E2E2E2E2E2E2E2E2E2E2E2E2E2E2E2E2E2E2E2E2E2E2E2E2E2E2E2E2E2E2E2E2E2E2E2E2E2E2E2E2E2E2E2E2E2E2E2E2E2E2E2E2E2E2E2E2E2E2E2E2E2E2E2E2E2E2E2E2E2E2E2E2E2E2E2E2E2E2E2E2E2E2E2E2E2E2E2E2E2E2E2E2E2E2E2E2E2E2E2E2E2E2E2E2E2E2E2E2E2E2E2E2E2E2E2
310
E2E2E2E2E2E2E2E2E2E2E2E2E2E2E2E2E2E2E2E2E2E2E2E2E2E2E2E2E2E2E2E2E2E2E2E2E2E2E2E2E2E2E2E2E2E2E2E2E2E2E2E2E2E2E2E2E2E2E2E2E2E2E2E2E2E2E2E2E2E2E2E2E2E2E2E2E2E2E2E2E2E2E2E2E2E2E2E2E2E2E2E2E2E2E2E2E2E2E2E2E2E2E2E2E2E2E2E2E2E2E2E2E2E2E2E2E2E2E2E2E2E2E2E2E2E2E2
310
E2E2E2E2E2E2E2E2E2E2E2E2E2E2E2E2E2E2E2E2E2E2E2E2E2E2E2E2E2E2E2E2E2E2E2E2E2E2E2E2E2E2E2E2E2E2E2E2E2E2E2E2E2E2E2E2E2E2E2E2E2E2E2E2E2E2E2E2E2E2E2E2E2E2E2E2E2E2E2E2E2E2E2E2E2E2E2E2E2E2E2E2E2E2E2E2E2E2E2E2E2E2E2E2E2E2E2E2E2E2E2E2E2E2E2E2E2E2E2E2E2E2E2E2E2E2E2
310
E2E2E2E2E2E2E2E2E2E2E2E2E2E2E2E2E2E2E2E2E2E2E2E2E2E2E2E2E2E2E2E2E2E2E2E2E2E2E2E2E2E2E2E2E2E2E2E2E2E2E2E2E2E2E2E2E2E2E2E2E2E2E2E2E2E2E2E2E2E2E2E2E2E2E2E2E2E2E2E2E2E2E2E2E2E2E2E2E2E2E2E2E2E2E2E2E2E2E2E2E2E2E2E2E2E2E2E2E2E2E2E2E2E2E2E2E2E2E2E2E2E2E2E2E2E2E2
310
E2E2E2E2E2E2E2E2E2E2E2E2E2E2E2E2E2E2E2E2E2E2E2E2E2E2E2E2E2E2E2E2E2E2E2E2E2E2E2E2E2E2E2E2E2E2E2E2E2E2E2E2E2E2E2E2E2E2E2E2E2E2E2E2E2E2E2E2E2E2E2E2E2E2E2E2E2E2E2E2E2E2E2E2E2E2E2E2E2E2E2E2E2E2E2E2E2E2E2E2E2E2E2E2E2E2E2E2E2E2E2E2E2E2E2E2E2E2E2E2E2E2E2E2E2E2E2
310
E2E2E2E2E2E2E2E2E2E2E2E2E2E2E2E2E2E2E2E2E2E2E2E2E2E2E2E2E2E2E2E2E2E2E2E2E2E2E2E2E2E2E2E2E2E2E2E2E2E2E2E2E2E2E2E2E2E2E2E2E2E2E2E2E2E2E2E2E2E2E2E2E2E2E2E2E2E2E2E2E2E2E2E2E2E2E2E2E2E2E2E2E2E2E2E2E2E2E2E2E2E2E2E2E2E2E2E2E2E2E2E2E2E2E2E2E2E2E2E2E2E2E2E2E2E2E2
310
E2E2E2E2E2E2E2E2E2E2E2E2E2E2E2E2E2E2E2E2E2E2E2E2E2E2E2E2E2E2E2E2E2E2E2E2E2E2E2E2E2E2E2E2E2E2E2E2E2E2E2E2E2E2E2E2E2E2E2E2E2E2E2E2E2E2E2E2E2E2E2E2E2E2E2E2E2E2E2E2E2E2E2E2E2E2E2E2E2E2E2E2E2E2E2E2E2E2E2E2E2E2E2E2E2E2E2E2E2E2E2E2E2E2E2E2E2E2E2E2E2E2E2E2E2E2E2
310
E2E2E2E2E2E2E2E2E2E2E2E2E2E2E2E2E2E2E2E2E2E2E2E2E2E2E2E2E2E2E2E2E2E2E2E2E2E2E2E2E2E2E2E2E2E2E2E2E2E2E2E2E2E2E2E2E2E2E2E2E2E2E2E2E2E2E2E2E2E2E2E2E2E2E2E2E2E2E2E2E2E2E2E2E2E2E2E2E2E2E2E2E2E2E2E2E2E2E2E2E2E2E2E2E2E2E2E2E2E2E2E2E2E2E2E2E2E2E2E2E2E2E2E2E2E2E2
310
E2E2E2E2E2E2E2E2E2E2E2E2E2E2E2E2E2E2E2E2E2E2E2E2E2E2E2E2E2E2E2E2E2E2E2E2E2E2E2E2E2E2E2E2E2E2E2E2E2E2E2E2E2E2E2E2E2E2E2E2E2E2E2E2E2E2E2E2E2E2E2E2E2E2E2E2E2E2E2E2E2E2E2E2E2E2E2E2E2E2E2E2E2E2E2E2E2E2E2E2E2E2E2E2E2E2E2E2E2E2E2E2E2E2E2E2E2E2E2E2E2E2E2E2E2E2E2
310
E2E2E2E2E2E2E2E2E2E2E2E2E2E2E2E2E2E2E2E2E2E2E2E2E2E2E2E2E2E2E2E2E2E2E2E2E2E2E2E2E2E2E2E2E2E2E2E2E2E2E2E2E2E2E2E2E2E2E2E2E2E2E2E2E2E2E2E2E2E2E2E2E2E2E2E2E2E2E2E2E2E2E2E2E2E2E2E2E2E2E2E2E2E2E2E2E2E2E2E2E2E2E2E2E2E2E2E2E2E2E2E2E2E2E2E2E2E2E2E2E2E2E2E2E2E2E2
310
E2E2E2E2E2E2E2E2E2E2E2E2E2E2E2E2E2E2E2E2E2E2E2E2E2E2E2E2E2E2E2E2E2E2E2E2E2E2E2E2E2E2E2E2E2E2E2E2E2E2E2E2E2E2E2E2E2E2E2E2E2E2E2E2E2E2E2E2E2E2E2E2E2E2E2E2E2E2E2E2E2E2E2E2E2E2E2E2E2E2E2E2E2E2E2E2E2E2E2E2E2E2E2E2E2E2E2E2E2E2E2E2E2E2E2E2E2E2E2E2E2E2E2E2E2E2E2
310
E2E2E2E2E2E2E2E2E2E2E2E2E2E2E2E2E2E2E2E2E2E2E2E2E2E2E2E2E2E2E2E2E2E2E2E2E2E2E2E2E2E2E2E2E2E2E2E2E2E2E2E2E2E2E2E2E2E2E2E2E2E2E2E2E2E2E2E2E2E2E2E2E2E2E2E2E2E2E2E2E2E2E2E2E2E2E2E2E2E2E2E2E2E2E2E2E2E2E2E2E2E2E2E2E2E2E2E2E2E2E2E2E2E2E2E2E2E2E2E2E2E2E2E2E2E2E2
310
E2E2E2E2E2E2E2E2E2E2E2E2E2E2E2E2E2E2E2E2E2E2E2E2E2E2E2E2E2E2E2E2E2E2E2E2E2E2E2E2E2E2E2E2E2E2E2E2E2E2E2E2E2E2E2E2E2E2E2E2E2E2E2E2E2E2E2E2E2E2E2E2E2E2E2E2E2E2E2E2E2E2E2E2E2E2E2E2E2E2E2E2E2E2E2E2E2E2E2E2E2E2E2E2E2E2E2E2E2E2E2E2E2E2E2E2E2E2E2E2E2E2E2E2E2E2E2
310
E2E2E2E2E2E2E2E2E2E2E2E2E2E2E2E2E2E2E2E2E2E2E2E2E2E2E2E2E2E2E2E2E2E2E2E2E2E2E2E2E2E2E2E2E2E2E2E2E2E2E2E2E2E2E2E2E2E2E2E2E2E2E2E2E2E2E2E2E2E2E2E2E2E2E2E2E2E2E2E2E2E2E2E2E2E2E2E2E2E2E2E2E2E2E2E2E2E2E2E2E2E2E2E2E2E2E2E2E2E2E2E2E2E2E2E2E2E2E2E2E2E2E2E2E2E2E2
310
E2E2E2E2E2E2E2E2E2E2E2E2E2E2E2E2E2E2E2E2E2E2E2E2E2E2E2E2E2E2E2E2E2E2E2E2E2E2E2E2E2E2E2E2E2E2E2E2E2E2E2E2E2E2E2E2E2E2E2E2E2E2E2E2E2E2E2E2E2E2E2E2E2E2E2E2E2E2E2E2E2E2E2E2E2E2E2E2E2E2E2E2E2E2E2E2E2E2E2E2E2E2E2E2E2E2E2E2E2E2E2E2E2E2E2E2E2E2E2E2E2E2E2E2E2E2E2
310
E2E2E2E2E2E2E2E2E2E2E2E2E2E2E2E2E2E2E2E2E2E2E2E2E2E2E2E2E2E2E2E2E2E2E2E2E2E2E2E2E2E2E2E2E2E2E2E2E2E2E2E2E2E2E2E2E2E2E2E2E2E2E2E2E2E2E2E2E2E2E2E2E2E2E2E2E2E2E2E2E2E2E2E2E2E2E2E2E2E2E2E2E2E2E2E2E2E2E2E2E2E2E2E2E2E2E2E2E2E2E2E2E2E2E2E2E2E2E2E2E2E2E2E2E2E2E2
310
E2E2E2E2E2E2E2E2E2E2E2E2E2E2E2E2E2E2E2E2E2E2E2E2E2E2E2E2E2E2E2E2E2E2E2E2E2E2E2E2E2E2E2E2E2E2E2E2E2E2E2E2E2E2E2E2E2E2E2E2E2E2E2E2E2E2E2E2E2E2E2E2E2E2E2E2E2E2E2E2E2E2E2E2E2E2E2E2E2E2E2E2E2E2E2E2E2E2E2E2E2E2E2E2E2E2E2E2E2E2E2E2E2E2E2E2E2E2E2E2E2E2E2E2E2E2E2
310
E2E2E2E2E2E2E2E2E2E2E2E2E2E2E2E2E2E2E2E2E2E2E2E2E2E2E2E2E2E2E2E2E2E2E2E2E2E2E2E2E2E2E2E2E2E2E2E2E2E2E2E2E2E2E2E2E2E2E2E2E2E2E2E2E2E2E2E2E2E2E2E2E2E2E2E2E2E2E2E2E2E2E2E2E2E2E2E2E2E2E2E2E2E2E2E2E2E2E2E2E2E2E2E2E2E2E2E2E2E2E2E2E2E2E2E2E2E2E2E2E2E2E2E2E2E2E2
310
E2E2E2E2E2E2E2E2E2E2E2E2E2E2E2E2E2E2E2E2E2E2E2E2E2E2E2E2E2E2E2E2E2E2E2E2E2E2E2E2E2E2E2E2E2E2E2E2E2E2E2E2E2E2E2E2E2E2E2E2E2E2E2E2E2E2E2E2E2E2E2E2E2E2E2E2E2E2E2E2E2E2E2E2E2E2E2E2E2E2E2E2E2E2E2E2E2E2E2E2E2E2E2E2E2E2E2E2E2E2E2E2E2E2E2E2E2E2E2E2E2E2E2E2E2E2E2
310
E2E2E2E2E2E2E2E2E2E2E2E2E2E2E2E2E2E2E2E2E2E2E2E2E2E2E2E2E2E2E2E2E2E2E2E2E2E2E2E2E2E2E2E2E2E2E2E2E2E2E2E2E2E2E2E2E2E2E2E2E2E2E2E2E2E2E2E2E2E2E2E2E2E2E2E2E2E2E2E2E2E2E2E2E2E2E2E2E2E2E2E2E2E2E2E2E2E2E2E2E2E2E2E2E2E2E2E2E2E2E2E2E2E2E2E2E2E2E2E2E2E2E2E2E2E2E2
310
E2E2E2E2E2E2E2E2E2E2E2E2E2E2E2E2E2E2E2E2E2E2E2E2E2E2E2E2E2E2E2E2E2E2E2E2E2E2E2E2E2E2E2E2E2E2E2E2E2E2E2E2E2E2E2E2E2E2E2E2E2E2E2E2E2E2E2E2E2E2E2E2E2E2E2E2E2E2E2E2E2E2E2E2E2E2E2E2E2E2E2E2E2E2E2E2E2E2E2E2E2E2E2E2E2E2E2E2E2E2E2E2E2E2E2E2E2E2E2E2E2E2E2E2E2E2E2
310
E2E2E2E2E2E2E2E2E2E2E2E2E2E2E2E2E2E2E2E2E2E2E2E2E2E2E2E2E2E2E2E2E2E2E2E2E2E2E2E2E2E2E2E2E2E2E2E2E2E2E2E2E2E2E2E2E2E2E2E2E2E2E2E2E2E2E2E2E2E2E2E2E2E2E2E2E2E2E2E2E2E2E2E2E2E2E2E2E2E2E2E2E2E2E2E2E2E2E2E2E2E2E2E2E2E2E2E2E2E2E2E2E2E2E2E2E2E2E2E2E2E2E2E2E2E2E2
310
E2E2E2E2E2E2E2E2E2E2E2E2E2E2E2E2E2E2E2E2E2E2E2E2E2E2E2E2E2E2E2E2E2E2E2E2E2E2E2E2E2E2E2E2E2E2E2E2E2E2E2E2E2E2E2E2E2E2E2E2E2E2E2E2E2E2E2E2E2E2E2E2E2E2E2E2E2E2E2E2E2E2E2E2E2E2E2E2E2E2E2E2E2E2E2E2E2E2E2E2E2E2E2E2E2E2E2E2E2E2E2E2E2E2E2E2E2E2E2E2E2E2E2E2E2E2E2
310
E2E2E2E2E2E2E2E2E2E2E2E2E2E2E2E2E2E2E2E2E2E2E2E2E2E2E2E2E2E2E2E2E2E2E2E2E2E2E2E2E2E2E2E2E2E2E2E2E2E2E2E2E2E2E2E2E2E2E2E2E2E2E2E2E2E2E2E2E2E2E2E2E2E2E2E2E2E2E2E2E2E2E2E2E2E2E2E2E2E2E2E2E2E2E2E2E2E2E2E2E2E2E2E2E2E2E2E2E2E2E2E2E2E2E2E2E2E2E2E2E2E2E2E2E2E2E2
310
E2E2E2E2E2E2E2E2E2E2E2E2E2E2E2E2E2E2E2E2E2E2E2E2E2E2E2E2E2E2E2E2E2E2E2E2E2E2E2E2E2E2E2E2E2E2E2E2E2E2E2E2E2E2E2E2E2E2E2E2E2E2E2E2E2E2E2E2E2E2E2E2E2E2E2E2E2E2E2E2E2E2E2E2E2E2E2E2E2E2E2E2E2E2E2E2E2E2E2E2E2E2E2E2E2E2E2E2E2E2E2E2E2E2E2E2E2E2E2E2E2E2E2E2E2E2E2
310
E2E2E2E2E2E2E2E2E2E2E2E2E2E2E2E2E2E2E2E2E2E2E2E2E2E2E2E2E2E2E2E2E2E2E2E2E2E2E2E2E2E2E2E2E2E2E2E2E2E2E2E2E2E2E2E2E2E2E2E2E2E2E2E2E2E2E2E2E2E2E2E2E2E2E2E2E2E2E2E2E2E2E2E2E2E2E2E2E2E2E2E2E2E2E2E2E2E2E2E2E2E2E2E2E2E2E2E2E2E2E2E2E2E2E2E2E2E2E2E2E2E2E2E2E2E2E2
310
E2E2E2E2E2E2E2E2E2E2E2E2E2E2E2E2E2E2E2E2E2E2E2E2E2E2E2E2E2E2E2E2E2E2E2E2E2E2E2E2E2E2E2E2E2E2E2E2E2E2E2E2E2E2E2E2E2E2E2E2E2E2E2E2E2E2E2E2E2E2E2E2E2E2E2E2E2E2E2E2E2E2E2E2E2E2E2E2E2E2E2E2E2E2E2E2E2E2E2E2E2E2E2E2E2E2E2E2E2E2E2E2E2E2E2E2E2E2E2E2E2E2E2E2E2E2E2
310
E2E2E2E2E2E2E2E2E2E2E2E2E2E2E2E2E2E2E2E2E2E2E2E2E2E2E2E2E2E2E2E2E2E2E2E2E2E2E2E2E2E2E2E2E2E2E2E2E2E2E2E2E2E2E2E2E2E2E2E2E2E2E2E2E2E2E2E2E2E2E2E2E2E2E2E2E2E2E2E2E2E2E2E2E2E2E2E2E2E2E2E2E2E2E2E2E2E2E2E2E2E2E2E2E2E2E2E2E2E2E2E2E2E2E2E2E2E2E2E2E2E2E2E2E2E2E2
310
E2E2E2E2E2E2E2E2E2E2E2E2E2E2E2E2E2E2E2E2E2E2E2E2E2E2E2E2E2E2E2E2E2E2E2E2E2E2E2E2E2E2E2E2E2E2E2E2E2E2E2E2E2E2E2E2E2E2E2E2E2E2E2E2E2E2E2E2E2E2E2E2E2E2E2E2E2E2E2E2E2E2E2E2E2E2E2E2E2E2E2E2E2E2E2E2E2E2E2E2E2E2E2E2E2E2E2E2E2E2E2E2E2E2E2E2E2E2E2E2E2E2E2E2E2E2E2
310
E2E2E2E2E2E2E2E2E2E2E2E2E2E2E2E2E2E2E2E2E2E2E2E2E2E2E2E2E2E2E2E2E2E2E2E2E2E2E2E2E2E2E2E2E2E2E2E2E2E2E2E2E2E2E2E2E2E2E2E2E2E2E2E2E2E2E2E2E2E2E2E2E2E2E2E2E2E2E2E2E2E2E2E2E2E2E2E2E2E2E2E2E2E2E2E2E2E2E2E2E2E2E2E2E2E2E2E2E2E2E2E2E2E2E2E2E2E2E2E2E2E2E2E2E2E2E2
310
E2E2E2E2E2E2E2E2E2E2E2E2E2E2E2E2E2E2E2E2E2E2E2E2E2E2E2E2E2E2E2E2E2E2E2E2E2E2E2E2E2E2E2E2E2E2E2E2E2E2E2E2E2E2E2E2E2E2E2E2E2E2E2E2E2E2E2E2E2E2E2E2E2E2E2E2E2E2E2E2E2E2E2E2E2E2E2E2E2E2E2E2E2E2E2E2E2E2E2E2E2E2E2E2E2E2E2E2E2E2E2E2E2E2E2E2E2E2E2E2E2E2E2E2E2E2E2
310
E2E2E2E2E2E2E2E2E2E2E2E2E2E2E2E2E2E2E2E2E2E2E2E2E2E2E2E2E2E2E2E2E2E2E2E2E2E2E2E2E2E2E2E2E2E2E2E2E2E2E2E2E2E2E2E2E2E2E2E2E2E2E2E2E2E2E2E2E2E2E2E2E2E2E2E2E2E2E2E2E2E2E2E2E2E2E2E2E2E2E2E2E2E2E2E2E2E2E2E2E2E2E2E2E2E2E2E2E2E2E2E2E2E2E2E2E2E2E2E2E2E2E2E2E2E2E2
310
E2E2E2E2E2E2E2E2E2E2E2E2E2E2E2E2E2E2E2E2E2E2E2E2E2E2E2E2E2E2E2E2E2E2E2E2E2E2E2E2E2E2E2E2E2E2E2E2E2E2E2E2E2E2E2E2E2E2E2E2E2E2E2E2E2E2E2E2E2E2E2E2E2E2E2E2E2E2E2E2E2E2E2E2E2E2E2E2E2E2E2E2E2E2E2E2E2E2E2E2E2E2E2E2E2E2E2E2E2E2E2E2E2E2E2E2E2E2E2E2E2E2E2E2E2E2E2
310
E2E2E2E2E2E2E2E2E2E2E2E2E2E2E2E2E2E2E2E2E2E2E2E2E2E2E2E2E2E2E2E2E2E2E2E2E2E2E2E2E2E2E2E2E2E2E2E2E2E2E2E2E2E2E2E2E2E2E2E2E2E2E2E2E2E2E2E2E2E2E2E2E2E2E2E2E2E2E2E2E2E2E2E2E2E2E2E2E2E2E2E2E2E2E2E2E2E2E2E2E2E2E2E2E2E2E2E2E2E2E2E2E2E2E2E2E2E2E2E2E2E2E2E2E2E2E2
310
E2E2E2E2E2E2E2E2E2E2E2E2E2E2E2E2E2E2E2E2E2E2E2E2E2E2E2E2E2E2E2E2E2E2E2E2E2E2E2E2E2E2E2E2E2E2E2E2E2E2E2E2E2E2E2E2E2E2E2E2E2E2E2E2E2E2E2E2E2E2E2E2E2E2E2E2E2E2E2E2E2E2E2E2E2E2E2E2E2E2E2E2E2E2E2E2E2E2E2E2E2E2E2E2E2E2E2E2E2E2E2E2E2E2E2E2E2E2E2E2E2E2E2E2E2E2E2
310
E2E2E2E2E2E2E2E2E2E2E2E2E2E2E2E2E2E2E2E2E2E2E2E2E2E2E2E2E2E2E2E2E2E2E2E2E2E2E2E2E2E2E2E2E2E2E2E2E2E2E2E2E2E2E2E2E2E2E2E2E2E2E2E2E2E2E2E2E2E2E2E2E2E2E2E2E2E2E2E2E2E2E2E2E2E2E2E2E2E2E2E2E2E2E2E2E2E2E2E2E2E2E2E2E2E2E2E2E2E2E2E2E2E2E2E2E2E2E2E2E2E2E2E2E2E2E2
310
E2E2E2E2E2E2E2E2E2E2E2E2E2E2E2E2E2E2E2E2E2E2E2E2E2E2E2E2E2E2E2E2E2E2E2E2E2E2E2E2E2E2E2E2E2E2E2E2E2E2E2E2E2E2E2E2E2E2E2E2E2E2E2E2E2E2E2E2E2E2E2E2E2E2E2E2E2E2E2E2E2E2E2E2E2E2E2E2E2E2E2E2E2E2E2E2E2E2E2E2E2E2E2E2E2E2E2E2E2E2E2E2E2E2E2E2E2E2E2E2E2E2E2E2E2E2E2
310
E2E2E2E2E2E2E2E2E2E2E2E2E2E2E2E2E2E2E2E2E2E2E2E2E2E2E2E2E2E2E2E2E2E2E2E2E2E2E2E2E2E2E2E2E2E2E2E2E2E2E2E2E2E2E2E2E2E2E2E2E2E2E2E2E2E2E2E2E2E2E2E2E2E2E2E2E2E2E2E2E2E2E2E2E2E2E2E2E2E2E2E2E2E2E2E2E2E2E2E2E2E2E2E2E2E2E2E2E2E2E2E2E2E2E2E2E2E2E2E2E2E2E2E2E2E2E2
310
E2E2E2E2E2E2E2E2E2E2E2E2E2E2E2E2E2E2E2E2E2E2E2E2E2E2E2E2E2E2E2E2E2E2E2E2E2E2E2E2E2E2E2E2E2E2E2E2E2E2E2E2E2E2E2E2E2E2E2E2E2E2E2E2E2E2E2E2E2E2E2E2E2E2E2E2E2E2E2E2E2E2E2E2E2E2E2E2E2E2E2E2E2E2E2E2E2E2E2E2E2E2E2E2E2E2E2E2E2E2E2E2E2E2E2E2E2E2E2E2E2E2E2E2E2E2E2
310
E2E2E2E2E2E2E2E2E2E2E2E2E2E2E2E2E2E2E2E2E2E2E2E2E2E2E2E2E2E2E2E2E2E2E2E2E2E2E2E2E2E2E2E2E2E2E2E2E2E2E2E2E2E2E2E2E2E2E2E2E2E2E2E2E2E2E2E2E2E2E2E2E2E2E2E2E2E2E2E2E2E2E2E2E2E2E2E2E2E2E2E2E2E2E2E2E2E2E2E2E2E2E2E2E2E2E2E2E2E2E2E2E2E2E2E2E2E2E2E2E2E2E2E2E2E2E2
310
E2E2E2E2E2E2E2E2E2E2E2E2E2E2E2E2E2E2E2E2E2E2E2E2E2E2E2E2E2E2E2E2E2E2E2E2E2E2E2E2E2E2E2E2E2E2E2E2E2E2E2E2E2E2E2E2E2E2E2E2E2E2E2E2E2E2E2E2E2E2E2E2E2E2E2E2E2E2E2E2E2E2E2E2E2E2E2E2E2E2E2E2E2E2E2E2E2E2E2E2E2E2E2E2E2E2E2E2E2E2E2E2E2E2E2E2E2E2E2E2E2E2E2E2E2E2E2
310
E2E2E2E2E2E2E2E2E2E2E2E2E2E2E2E2E2E2E2E2E2E2E2E2E2E2E2E2E2E2E2E2E2E2E2E2E2E2E2E2E2E2E2E2E2E2E2E2E2E2E2E2E2E2E2E2E2E2E2E2E2E2E2E2E2E2E2E2E2E2E2E2E2E2E2E2E2E2E2E2E2E2E2E2E2E2E2E2E2E2E2E2E2E2E2E2E2E2E2E2E2E2E2E2E2E2E2E2E2E2E2E2E2E2E2E2E2E2E2E2E2E2E2E2E2E2E2
310
E2E2E2E2E2E2E2E2E2E2E2E2E2E2E2E2E2E2E2E2E2E2E2E2E2E2E2E2E2E2E2E2E2E2E2E2E2E2E2E2E2E2E2E2E2E2E2E2E2E2E2E2E2E2E2E2E2E2E2E2E2E2E2E2E2E2E2E2E2E2E2E2E2E2E2E2E2E2E2E2E2E2E2E2E2E2E2E2E2E2E2E2E2E2E2E2E2E2E2E2E2E2E2E2E2E2E2E2E2E2E2E2E2E2E2E2E2E2E2E2E2E2E2E2E2E2E2
310
E2E2E2E2E2E2E2E2E2E2E2E2E2E2E2E2E2E2E2E2E2E2E2E2E2E2E2E2E2E2E2E2E2E2E2E2E2E2E2E2E2E2E2E2E2E2E2E2E2E2E2E2E2E2E2E2E2E2E2E2E2E2E2E2E2E2E2E2E2E2E2E2E2E2E2E2E2E2E2E2E2E2E2E2E2E2E2E2E2E2E2E2E2E2E2E2E2E2E2E2E2E2E2E2E2E2E2E2E2E2E2E2E2E2E2E2E2E2E2E2E2E2E2E2E2E2E2
310
E2E2E2E2E2E2E2E2E2E2E2E2E2E2E2E2E2E2E2E2E2E2E2E2E2E2E2E2E2E2E2E2E2E2E2E2E2E2E2E2E2E2E2E2E2E2E2E2E2E2E2E2E2E2E2E2E2E2E2E2E2E2E2E2E2E2E2E2E2E2E2E2E2E2E2E2E2E2E2E2E2E2E2E2E2E2E2E2E2E2E2E2E2E2E2E2E2E2E2E2E2E2E2E2E2E2E2E2E2E2E2E2E2E2E2E2E2E2E2E2E2E2E2E2E2E2E2
310
E2E2E2E2E2E2E2E2E2E2E2E2E2E2E2E2E2E2E2E2E2E2E2E2E2E2E2E2E2E2E2E2E2E2E2E2E2E2E2E2E2E2E2E2E2E2E2E2E2E2E2E2E2E2E2E2E2E2E2E2E2E2E2E2E2E2E2E2E2E2E2E2E2E2E2E2E2E2E2E2E2E2E2E2E2E2E2E2E2E2E2E2E2E2E2E2E2E2E2E2E2E2E2E2E2E2E2E2E2E2E2E2E2E2E2E2E2E2E2E2E2E2E2E2E2E2E2
310
E2E2E2E2E2E2E2E2E2E2E2E2E2E2E2E2E2E2E2E2E2E2E2E2E2E2E2E2E2E2E2E2E2E2E2E2E2E2E2E2E2E2E2E2E2E2E2E2E2E2E2E2E2E2E2E2E2E2E2E2E2E2E2E2E2E2E2E2E2E2E2E2E2E2E2E2E2E2E2E2E2E2E2E2E2E2E2E2E2E2E2E2E2E2E2E2E2E2E2E2E2E2E2E2E2E2E2E2E2E2E2E2E2E2E2E2E2E2E2E2E2E2E2E2E2E2E2
310
E2E2E2E2E2E2E2E2E2E2E2E2E2E2E2E2E2E2E2E2E2E2E2E2E2E2E2E2E2E2E2E2E2E2E2E2E2E2E2E2E2E2E2E2E2E2E2E2E2E2E2E2E2E2E2E2E2E2E2E2E2E2E2E2E2E2E2E2E2E2E2E2E2E2E2E2E2E2E2E2E2E2E2E2E2E2E2E2E2E2E2E2E2E2E2E2E2E2E2E2E2E2E2E2E2E2E2E2E2E2E2E2E2E2E2E2E2E2E2E2E2E2E2E2E2E2E2
310
E2E2E2E2E2E2E2E2E2E2E2E2E2E2E2E2E2E2E2E2E2E2E2E2E2E2E2E2E2E2E2E2E2E2E2E2E2E2E2E2E2E2E2E2E2E2E2E2E2E2E2E2E2E2E2E2E2E2E2E2E2E2E2E2E2E2E2E2E2E2E2E2E2E2E2E2E2E2E2E2E2E2E2E2E2E2E2E2E2E2E2E2E2E2E2E2E2E2E2E2E2E2E2E2E2E2E2E2E2E2E2E2E2E2E2E2E2E2E2E2E2E2E2E2E2E2E2
310
E2E2E2E2E2E2E2E2E2E2E2E2E2E2E2E2E2E2E2E2E2E2E2E2E2E2E2E2E2E2E2E2E2E2E2E2E2E2E2E2E2E2E2E2E2E2E2E2E2E2E2E2E2E2E2E2E2E2E2E2E2E2E2E2E2E2E2E2E2E2E2E2E2E2E2E2E2E2E2E2E2E2E2E2E2E2E2E2E2E2E2E2E2E2E2E2E2E2E2E2E2E2E2E2E2E2E2E2E2E2E2E2E2E2E2E2E2E2E2E2E2E2E2E2E2E2E2
310
E2E2E2E2E2E2E2E2E2E2E2E2E2E2E2E2E2E2E2E2E2E2E2E2E2E2E2E2E2E2E2E2E2E2E2E2E2E2E2E2E2E2E2E2E2E2E2E2E2E2E2E2E2E2E2E2E2E2E2E2E2E2E2E2E2E2E2E2E2E2E2E2E2E2E2E2E2E2E2E2E2E2E2E2E2E2E2E2E2E2E2E2E2E2E2E2E2E2E2E2E2E2E2E2E2E2E2E2E2E2E2E2E2E2E2E2E2E2E2E2E2E2E2E2E2E2E2
310
E2E2E2E2E2E2E2E2E2E2E2E2E2E2E2E2E2E2E2E2E2E2E2E2E2E2E2E2E2E2E2E2E2E2E2E2E2E2E2E2E2E2E2E2E2E2E2E2E2E2E2E2E2E2E2E2E2E2E2E2E2E2E2E2E2E2E2E2E2E2E2E2E2E2E2E2E2E2E2E2E2E2E2E2E2E2E2E2E2E2E2E2E2E2E2E2E2E2E2E2E2E2E2E2E2E2E2E2E2E2E2E2E2E2E2E2E2E2E2E2E2E2E2E2E2E2E2
310
E2E2E2E2E2E2E2E2E2E2E2E2E2E2E2E2E2E2E2E2E2E2E2E2E2E2E2E2E2E2E2E2E2E2E2E2E2E2E2E2E2E2E2E2E2E2E2E2E2E2E2E2E2E2E2E2E2E2E2E2E2E2E2E2E2E2E2E2E2E2E2E2E2E2E2E2E2E2E2E2E2E2E2E2E2E2E2E2E2E2E2E2E2E2E2E2E2E2E2E2E2E2E2E2E2E2E2E2E2E2E2E2E2E2E2E2E2E2E2E2E2E2E2E2E2E2E2
310
E2E2E2E2E2E2E2E2E2E2E2E2E2E2E2E2E2E2E2E2E2E2E2E2E2E2E2E2E2E2E2E2E2E2E2E2E2E2E2E2E2E2E2E2E2E2E2E2E2E2E2E2E2E2E2E2E2E2E2E2E2E2E2E2E2E2E2E2E2E2E2E2E2E2E2E2E2E2E2E2E2E2E2E2E2E2E2E2E2E2E2E2E2E2E2E2E2E2E2E2E2E2E2E2E2E2E2E2E2E2E2E2E2E2E2E2E2E2E2E2E2E2E2E2E2E2E2
310
E2E2E2E2E2E2E2E2E2E2E2E2E2E2E2E2E2E2E2E2E2E2E2E2E2E2E2E2E2E2E2E2E2E2E2E2E2E2E2E2E2E2E2E2E2E2E2E2E2E2E2E2E2E2E2E2E2E2E2E2E2E2E2E2E2E2E2E2E2E2E2E2E2E2E2E2E2E2E2E2E2E2E2E2E2E2E2E2E2E2E2E2E2E2E2E2E2E2E2E2E2E2E2E2E2E2E2E2E2E2E2E2E2E2E2E2E2E2E2E2E2E2E2E2E2E2E2
310
E2E2E2E2E2E2E2E2E2E2E2E2E2E2E2E2E2E2E2E2E2E2E2E2E2E2E2E2E2E2E2E2E2E2E2E2E2E2E2E2E2E2E2E2E2E2E2E2E2E2E2E2E2E2E2E2E2E2E2E2E2E2E2E2E2E2E2E2E2E2E2E2E2E2E2E2E2E2E2E2E2E2E2E2E2E2E2E2E2E2E2E2E2E2E2E2E2E2E2E2E2E2E2E2E2E2E2E2E2E2E2E2E2E2E2E2E2E2E2E2E2E2E2E2E2E2E2
310
E2E2E2E2E2E2E2E2E2E2E2E2E2E2E2E2E2E2E2E2E2E2E2E2E2E2E2E2E2E2E2E2E2E2E2E2E2E2E2E2E2E2E2E2E2E2E2E2E2E2E2E2E2E2E2E2E2E2E2E2E2E2E2E2E2E2E2E2E2E2E2E2E2E2E2E2E2E2E2E2E2E2E2E2E2E2E2E2E2E2E2E2E2E2E2E2E2E2E2E2E2E2E2E2E2E2E2E2E2E2E2E2E2E2E2E2E2E2E2E2E2E2E2E2E2E2E2
310
E2E2E2E2E2E2E2E2E2E2E2E2E2E2E2E2E2E2E2E2E2E2E2E2E2E2E2E2E2E2E2E2E2E2E2E2E2E2E2E2E2E2E2E2E2E2E2E2E2E2E2E2E2E2E2E2E2E2E2E2E2E2E2E2E2E2E2E2E2E2E2E2E2E2E2E2E2E2E2E2E2E2E2E2E2E2E2E2E2E2E2E2E2E2E2E2E2E2E2E2E2E2E2E2E2E2E2E2E2E2E2E2E2E2E2E2E2E2E2E2E2E2E2E2E2E2E2
310
E2E2E2E2E2E2E2E2E2E2E2E2E2E2E2E2E2E2E2E2E2E2E2E2E2E2E2E2E2E2E2E2E2E2E2E2E2E2E2E2E2E2E2E2E2E2E2E2E2E2E2E2E2E2E2E2E2E2E2E2E2E2E2E2E2E2E2E2E2E2E2E2E2E2E2E2E2E2E2E2E2E2E2E2E2E2E2E2E2E2E2E2E2E2E2E2E2E2E2E2E2E2E2E2E2E2E2E2E2E2E2E2E2E2E2E2E2E2E2E2E2E2E2E2E2E2E2
310
E2E2E2E2E2E2E2E2E2E2E2E2E2E2E2E2E2E2E2E2E2E2E2E2E2E2E2E2E2E2E2E2E2E2E2E2E2E2E2E2E2E2E2E2E2E2E2E2E2E2E2E2E2E2E2E2E2E2E2E2E2E2E2E2E2E2E2E2E2E2E2E2E2E2E2E2E2E2E2E2E2E2E2E2E2E2E2E2E2E2E2E2E2E2E2E2E2E2E2E2E2E2E2E2E2E2E2E2E2E2E2E2E2E2E2E2E2E2E2E2E2E2E2E2E2E2E2
310
E2E2E2E2E2E2E2E2E2E2E2E2E2E2E2E2E2E2E2E2E2E2E2E2E2E2E2E2E2E2E2E2E2E2E2E2E2E2E2E2E2E2E2E2E2E2E2E2E2E2E2E2E2E2E2E2E2E2E2E2E2E2E2E2E2E2E2E2E2E2E2E2E2E2E2E2E2E2E2E2E2E2E2E2E2E2E2E2E2E2E2E2E2E2E2E2E2E2E2E2E2E2E2E2E2E2E2E2E2E2E2E2E2E2E2E2E2E2E2E2E2E2E2E2E2E2E2
310
E2E2E2E2E2E2E2E2E2E2E2E2E2E2E2E2E2E2E2E2E2E2E2E2E2E2E2E2E2E2E2E2E2E2E2E2E2E2E2E2E2E2E2E2E2E2E2E2E2E2E2E2E2E2E2E2E2E2E2E2E2E2E2E2E2E2E2E2E2E2E2E2E2E2E2E2E2E2E2E2E2E2E2E2E2E2E2E2E2E2E2E2E2E2E2E2E2E2E2E2E2E2E2E2E2E2E2E2E2E2E2E2E2E2E2E2E2E2E2E2E2E2E2E2E2E2E2
310
E2E2E2E2E2E2E2E2E2E2E2E2E2E2E2E2E2E2E2E2E2E2E2E2E2E2E2E2E2E2E2E2E2E2E2E2E2E2E2E2E2E2E2E2E2E2E2E2E2E2E2E2E2E2E2E2E2E2E2E2E2E2E2E2E2E2E2E2E2E2E2E2E2E2E2E2E2E2E2E2E2E2E2E2E2E2E2E2E2E2E2E2E2E2E2E2E2E2E2E2E2E2E2E2E2E2E2E2E2E2E2E2E2E2E2E2E2E2E2E2E2E2E2E2E2E2E2
310
E2E2E2E2E2E2E2E2E2E2E2E2E2E2E2E2E2E2E2E2E2E2E2E2E2E2E2E2E2E2E2E2E2E2E2E2E2E2E2E2E2E2E2E2E2E2E2E2E2E2E2E2E2E2E2E2E2E2E2E2E2E2E2E2E2E2E2E2E2E2E2E2E2E2E2E2E2E2E2E2E2E2E2E2E2E2E2E2E2E2E2E2E2E2E2E2E2E2E2E2E2E2E2E2E2E2E2E2E2E2E2E2E2E2E2E2E2E2E2E2E2E2E2E2E2E2E2
310
E2E2E2E2E2E2E2E2E2E2E2E2E2E2E2E2E2E2E2E2E2E2E2E2E2E2E2E2E2E2E2E2E2E2E2E2E2E2E2E2E2E2E2E2E2E2E2E2E2E2E2E2E2E2E2E2E2E2E2E2E2E2E2E2E2E2E2E2E2E2E2E2E2E2E2E2E2E2E2E2E2E2E2E2E2E2E2E2E2E2E2E2E2E2E2E2E2E2E2E2E2E2E2E2E2E2E2E2E2E2E2E2E2E2E2E2E2E2E2E2E2E2E2E2E2E2E2
310
E2E2E2E2E2E2E2E2E2E2E2E2E2E2E2E2E2E2E2E2E2E2E2E2E2E2E2E2E2E2E2E2E2E2E2E2E2E2E2E2E2E2E2E2E2E2E2E2E2E2E2E2E2E2E2E2E2E2E2E2E2E2E2E2E2E2E2E2E2E2E2E2E2E2E2E2E2E2E2E2E2E2E2E2E2E2E2E2E2E2E2E2E2E2E2E2E2E2E2E2E2E2E2E2E2E2E2E2E2E2E2E2E2E2E2E2E2E2E2E2E2E2E2E2E2E2E2
310
E2E2E2E2E2E2E2E2E2E2E2E2E2E2E2E2E2E2E2E2E2E2E2E2E2E2E2E2E2E2E2E2E2E2E2E2E2E2E2E2E2E2E2E2E2E2E2E2E2E2E2E2E2E2E2E2E2E2E2E2E2E2E2E2E2E2E2E2E2E2E2E2E2E2E2E2E2E2E2E2E2E2E2E2E2E2E2E2E2E2E2E2E2E2E2E2E2E2E2E2E2E2E2E2E2E2E2E2E2E2E2E2E2E2E2E2E2E2E2E2E2E2E2E2E2E2E2
310
E2E2E2E2E2E2E2E2E2E2E2E2E2E2E2E2E2E2E2E2E2E2E2E2E2E2E2E2E2E2E2E2E2E2E2E2E2E2E2E2E2E2E2E2E2E2E2E2E2E2E2E2E2E2E2E2E2E2E2E2E2E2E2E2E2E2E2E2E2E2E2E2E2E2E2E2E2E2E2E2E2E2E2E2E2E2E2E2E2E2E2E2E2E2E2E2E2E2E2E2E2E2E2E2E2E2E2E2E2E2E2E2E2E2E2E2E2E2E2E2E2E2E2E2E2E2E2
310
E2E2E2E2E2E2E2E2E2E2E2E2E2E2E2E2E2E2E2E2E2E2E2E2E2E2E2E2E2E2E2E2E2E2E2E2E2E2E2E2E2E2E2E2E2E2E2E2E2E2E2E2E2E2E2E2E2E2E2E2E2E2E2E2E2E2E2E2E2E2E2E2E2E2E2E2E2E2E2E2E2E2E2E2E2E2E2E2E2E2E2E2E2E2E2E2E2E2E2E2E2E2E2E2E2E2E2E2E2E2E2E2E2E2E2E2E2E2E2E2E2E2E2E2E2E2E2
310
E2E2E2E2E2E2E2E2E2E2E2E2E2E2E2E2E2E2E2E2E2E2E2E2E2E2E2E2E2E2E2E2E2E2E2E2E2E2E2E2E2E2E2E2E2E2E2E2E2E2E2E2E2E2E2E2E2E2E2E2E2E2E2E2E2E2E2E2E2E2E2E2E2E2E2E2E2E2E2E2E2E2E2E2E2E2E2E2E2E2E2E2E2E2E2E2E2E2E2E2E2E2E2E2E2E2E2E2E2E2E2E2E2E2E2E2E2E2E2E2E2E2E2E2E2E2E2
310
E2E2E2E2E2E2E2E2E2E2E2E2E2E2E2E2E2E2E2E2E2E2E2E2E2E2E2E2E2E2E2E2E2E2E2E2E2E2E2E2E2E2E2E2E2E2E2E2E2E2E2E2E2E2E2E2E2E2E2E2E2E2E2E2E2E2E2E2E2E2E2E2E2E2E2E2E2E2E2E2E2E2E2E2E2E2E2E2E2E2E2E2E2E2E2E2E2E2E2E2E2E2E2E2E2E2E2E2E2E2E2E2E2E2E2E2E2E2E2E2E2E2E2E2E2E2E2
310
E2E2E2E2E2E2E2E2E2E2E2E2E2E2E2E2E2E2E2E2E2E2E2E2E2E2E2E2E2E2E2E2E2E2E2E2E2E2E2E2E2E2E2E2E2E2E2E2E2E2E2E2E2E2E2E2E2E2E2E2E2E2E2E2E2E2E2E2E2E2E2E2E2E2E2E2E2E2E2E2E2E2E2E2E2E2E2E2E2E2E2E2E2E2E2E2E2E2E2E2E2E2E2E2E2E2E2E2E2E2E2E2E2E2E2E2E2E2E2E2E2E2E2E2E2E2E2
310
E2E2E2E2E2E2E2E2E2E2E2E2E2E2E2E2E2E2E2E2E2E2E2E2E2E2E2E2E2E2E2E2E2E2E2E2E2E2E2E2E2E2E2E2E2E2E2E2E2E2E2E2E2E2E2E2E2E2E2E2E2E2E2E2E2E2E2E2E2E2E2E2E2E2E2E2E2E2E2E2E2E2E2E2E2E2E2E2E2E2E2E2E2E2E2E2E2E2E2E2E2E2E2E2E2E2E2E2E2E2E2E2E2E2E2E2E2E2E2E2E2E2E2E2E2E2E2
310
E2E2E2E2E2E2E2E2E2E2E2E2E2E2E2E2E2E2E2E2E2E2E2E2E2E2E2E2E2E2E2E2E2E2E2E2E2E2E2E2E2E2E2E2E2E2E2E2E2E2E2E2E2E2E2E2E2E2E2E2E2E2E2E2E2E2E2E2E2E2E2E2E2E2E2E2E2E2E2E2E2E2E2E2E2E2E2E2E2E2E2E2E2E2E2E2E2E2E2E2E2E2E2E2E2E2E2E2E2E2E2E2E2E2E2E2E2E2E2E2E2E2E2E2E2E2E2
310
E2E2E2E2E2E2E2E2E2E2E2E2E2E2E2E2E2E2E2E2E2E2E2E2E2E2E2E2E2E2E2E2E2E2E2E2E2E2E2E2E2E2E2E2E2E2E2E2E2E2E2E2E2E2E2E2E2E2E2E2E2E2E2E2E2E2E2E2E2E2E2E2E2E2E2E2E2E2E2E2E2E2E2E2E2E2E2E2E2E2E2E2E2E2E2E2E2E2E2E2E2E2E2E2E2E2E2E2E2E2E2E2E2E2E2E2E2E2E2E2E2E2E2E2E2E2E2
310
E2E2E2E2E2E2E2E2E2E2E2E2E2E2E2E2E2E2E2E2E2E2E2E2E2E2E2E2E2E2E2E2E2E2E2E2E2E2E2E2E2E2E2E2E2E2E2E2E2E2E2E2E2E2E2E2E2E2E2E2E2E2E2E2E2E2E2E2E2E2E2E2E2E2E2E2E2E2E2E2E2E2E2E2E2E2E2E2E2E2E2E2E2E2E2E2E2E2E2E2E2E2E2E2E2E2E2E2E2E2E2E2E2E2E2E2E2E2E2E2E2E2E2E2E2E2E2
310
E2E2E2E2E2E2E2E2E2E2E2E2E2E2E2E2E2E2E2E2E2E2E2E2E2E2E2E2E2E2E2E2E2E2E2E2E2E2E2E2E2E2E2E2E2E2E2E2E2E2E2E2E2E2E2E2E2E2E2E2E2E2E2E2E2E2E2E2E2E2E2E2E2E2E2E2E2E2E2E2E2E2E2E2E2E2E2E2E2E2E2E2E2E2E2E2E2E2E2E2E2E2E2E2E2E2E2E2E2E2E2E2E2E2E2E2E2E2E2E2E2E2E2E2E2E2E2
310
E2E2E2E2E2E2E2E2E2E2E2E2E2E2E2E2E2E2E2E2E2E2E2E2E2E2E2E2E2E2E2E2E2E2E2E2E2E2E2E2E2E2E2E2E2E2E2E2E2E2E2E2E2E2E2E2E2E2E2E2E2E2E2E2E2E2E2E2E2E2E2E2E2E2E2E2E2E2E2E2E2E2E2E2E2E2E2E2E2E2E2E2E2E2E2E2E2E2E2E2E2E2E2E2E2E2E2E2E2E2E2E2E2E2E2E2E2E2E2E2E2E2E2E2E2E2E2
310
E2E2E2E2E2E2E2E2E2E2E2E2E2E2E2E2E2E2E2E2E2E2E2E2E2E2E2E2E2E2E2E2E2E2E2E2E2E2E2E2E2E2E2E2E2E2E2E2E2E2E2E2E2E2E2E2E2E2E2E2E2E2E2E2E2E2E2E2E2E2E2E2E2E2E2E2E2E2E2E2E2E2E2E2E2E2E2E2E2E2E2E2E2E2E2E2E2E2E2E2E2E2E2E2E2E2E2E2E2E2E2E2E2E2E2E2E2E2E2E2E2E2E2E2E2E2E2
310
E2E2E2E2E2E2E2E2E2E2E2E2E2E2E2E2E2E2E2E2E2E2E2E2E2E2E2E2E2E2E2E2E2E2E2E2E2E2E2E2E2E2E2E2E2E2E2E2E2E2E2E2E2E2E2E2E2E2E2E2E2E2E2E2E2E2E2E2E2E2E2E2E2E2E2E2E2E2E2E2E2E2E2E2E2E2E2E2E2E2E2E2E2E2E2E2E2E2E2E2E2E2E2E2E2E2E2E2E2E2E2E2E2E2E2E2E2E2E2E2E2E2E2E2E2E2E2
310
E2E2E2E2E2E2E2E2E2E2E2E2E2E2E2E2E2E2E2E2E2E2E2E2E2E2E2E2E2E2E2E2E2E2E2E2E2E2E2E2E2E2E2E2E2E2E2E2E2E2E2E2E2E2E2E2E2E2E2E2E2E2E2E2E2E2E2E2E2E2E2E2E2E2E2E2E2E2E2E2E2E2E2E2E2E2E2E2E2E2E2E2E2E2E2E2E2E2E2E2E2E2E2E2E2E2E2E2E2E2E2E2E2E2E2E2E2E2E2E2E2E2E2E2E2E2E2
310
E2E2E2E2E2E2E2E2E2E2E2E2E2E2E2E2E2E2E2E2E2E2E2E2E2E2E2E2E2E2E2E2E2E2E2E2E2E2E2E2E2E2E2E2E2E2E2E2E2E2E2E2E2E2E2E2E2E2E2E2E2E2E2E2E2E2E2E2E2E2E2E2E2E2E2E2E2E2E2E2E2E2E2E2E2E2E2E2E2E2E2E2E2E2E2E2E2E2E2E2E2E2E2E2E2E2E2E2E2E2E2E2E2E2E2E2E2E2E2E2E2E2E2E2E2E2E2
310
E2E2E2E2E2E2E2E2E2E2E2E2E2E2E2E2E2E2E2E2E2E2E2E2E2E2E2E2E2E2E2E2E2E2E2E2E2E2E2E2E2E2E2E2E2E2E2E2E2E2E2E2E2E2E2E2E2E2E2E2E2E2E2E2E2E2E2E2E2E2E2E2E2E2E2E2E2E2E2E2E2E2E2E2E2E2E2E2E2E2E2E2E2E2E2E2E2E2E2E2E2E2E2E2E2E2E2E2E2E2E2E2E2E2E2E2E2E2E2E2E2E2E2E2E2E2E2
310
E2E2E2E2E2E2E2E2E2E2E2E2E2E2E2E2E2E2E2E2E2E2E2E2E2E2E2E2E2E2E2E2E2E2E2E2E2E2E2E2E2E2E2E2E2E2E2E2E2E2E2E2E2E2E2E2E2E2E2E2E2E2E2E2E2E2E2E2E2E2E2E2E2E2E2E2E2E2E2E2E2E2E2E2E2E2E2E2E2E2E2E2E2E2E2E2E2E2E2E2E2E2E2E2E2E2E2E2E2E2E2E2E2E2E2E2E2E2E2E2E2E2E2E2E2E2E2
310
E2E2E2E2E2E2E2E2E2E2E2E2E2E2E2E2E2E2E2E2E2E2E2E2E2E2E2E2E2E2E2E2E2E2E2E2E2E2E2E2E2E2E2E2E2E2E2E2E2E2E2E2E2E2E2E2E2E2E2E2E2E2E2E2E2E2E2E2E2E2E2E2E2E2E2E2E2E2E2E2E2E2E2E2E2E2E2E2E2E2E2E2E2E2E2E2E2E2E2E2E2E2E2E2E2E2E2E2E2E2E2E2E2E2E2E2E2E2E2E2E2E2E2E2E2E2E2
310
E2E2E2E2E2E2E2E2E2E2E2E2E2E2E2E2E2E2E2E2E2E2E2E2E2E2E2E2E2E2E2E2E2E2E2E2E2E2E2E2E2E2E2E2E2E2E2E2E2E2E2E2E2E2E2E2E2E2E2E2E2E2E2E2E2E2E2E2E2E2E2E2E2E2E2E2E2E2E2E2E2E2E2E2E2E2E2E2E2E2E2E2E2E2E2E2E2E2E2E2E2E2E2E2E2E2E2E2E2E2E2E2E2E2E2E2E2E2E2E2E2E2E2E2E2E2E2
310
E2E2E2E2E2E2E2E2E2E2E2E2E2E2E2E2E2E2E2E2E2E2E2E2E2E2E2E2E2E2E2E2E2E2E2E2E2E2E2E2E2E2E2E2E2E2E2E2E2E2E2E2E2E2E2E2E2E2E2E2E2E2E2E2E2E2E2E2E2E2E2E2E2E2E2E2E2E2E2E2E2E2E2E2E2E2E2E2E2E2E2E2E2E2E2E2E2E2E2E2E2E2E2E2E2E2E2E2E2E2E2E2E2E2E2E2E2E2E2E2E2E2E2E2E2E2E2
310
E2E2E2E2E2E2E2E2E2E2E2E2E2E2E2E2E2E2E2E2E2E2E2E2E2E2E2E2E2E2E2E2E2E2E2E2E2E2E2E2E2E2E2E2E2E2E2E2E2E2E2E2E2E2E2E2E2E2E2E2E2E2E2E2E2E2E2E2E2E2E2E2E2E2E2E2E2E2E2E2E2E2E2E2E2E2E2E2E2E2E2E2E2E2E2E2E2E2E2E2E2E2E2E2E2E2E2E2E2E2E2E2E2E2E2E2E2E2E2E2E2E2E2E2E2E2E2
310
E2E2E2E2E2E2E2E2E2E2E2E2E2E2E2E2E2E2E2E2E2E2E2E2E2E2E2E2E2E2E2E2E2E2E2E2E2E2E2E2E2E2E2E2E2E2E2E2E2E2E2E2E2E2E2E2E2E2E2E2E2E2E2E2E2E2E2E2E2E2E2E2E2E2E2E2E2E2E2E2E2E2E2E2E2E2E2E2E2E2E2E2E2E2E2E2E2E2E2E2E2E2E2E2E2E2E2E2E2E2E2E2E2E2E2E2E2E2E2E2E2E2E2E2E2E2E2
310
E2E2E2E2E2E2E2E2E2E2E2E2E2E2E2E2E2E2E2E2E2E2E2E2E2E2E2E2E2E2E2E2E2E2E2E2E2E2E2E2E2E2E2E2E2E2E2E2E2
  0
XRECORD
  5
1981
102
{ACAD_REACTORS
330
1980
102
}
330
1980
100
AcDbXrecord
280
     1
102
SHADEPLOT
 70
     0
102
SHADEPLOTRESLEVEL
 70
     2
102
SHADEPLOTCUSTOMDPI
 70
   300
  0
XRECORD
  5
13B2
102
{ACAD_REACTORS
330
A40
102
}
330
A40
100
AcDbXrecord
280
     1
102
MATERIAL
148
0.0
149
0.0
149
0.0
 93
        0
 94
      127
282
     0
 72
     0
 77
     0
171
     0
175
     0
179
     0
273
     0
  0
XRECORD
  5
A42
102
{ACAD_REACTORS
330
A40
102
}
330
A40
100
AcDbXrecord
280
     1
270
     1
271
     1
  0
XRECORD
  5
A41
102
{ACAD_REACTORS
330
A40
102
}
330
A40
100
AcDbXrecord
280
     1
270
     1
271
     1
  0
XRECORD
  5
A45
102
{ACAD_REACTORS
330
A40
102
}
330
A40
100
AcDbXrecord
280
     1
270
     1
271
     1
  0
XRECORD
  5
A44
102
{ACAD_REACTORS
330
A40
102
}
330
A40
100
AcDbXrecord
280
     1
270
     1
271
     1
  0
XRECORD
  5
A46
102
{ACAD_REACTORS
330
A40
102
}
330
A40
100
AcDbXrecord
280
     1
270
     1
271
     1
  0
XRECORD
  5
A43
102
{ACAD_REACTORS
330
A40
102
}
330
A40
100
AcDbXrecord
280
     1
270
     1
271
     1
  0
XRECORD
  5
13B1
102
{ACAD_REACTORS
330
A38
102
}
330
A38
100
AcDbXrecord
280
     1
102
MATERIAL
148
0.0
149
0.0
149
0.0
 93
        0
 94
      127
282
     0
 72
     0
 77
     0
171
     0
175
     0
179
     0
273
     0
  0
XRECORD
  5
A3A
102
{ACAD_REACTORS
330
A38
102
}
330
A38
100
AcDbXrecord
280
     1
270
     1
271
     1
  0
XRECORD
  5
A39
102
{ACAD_REACTORS
330
A38
102
}
330
A38
100
AcDbXrecord
280
     1
270
     1
271
     1
  0
XRECORD
  5
A3D
102
{ACAD_REACTORS
330
A38
102
}
330
A38
100
AcDbXrecord
280
     1
270
     1
271
     1
  0
XRECORD
  5
A3C
102
{ACAD_REACTORS
330
A38
102
}
330
A38
100
AcDbXrecord
280
     1
270
     1
271
     1
  0
XRECORD
  5
A3E
102
{ACAD_REACTORS
330
A38
102
}
330
A38
100
AcDbXrecord
280
     1
270
     1
271
     1
  0
XRECORD
  5
A3B
102
{ACAD_REACTORS
330
A38
102
}
330
A38
100
AcDbXrecord
280
     1
270
     1
271
     1
  0
XRECORD
  5
13B3
102
{ACAD_REACTORS
330
A48
102
}
330
A48
100
AcDbXrecord
280
     1
102
MATERIAL
148
0.0
149
0.0
149
0.0
 93
        0
 94
      127
282
     0
 72
     0
 77
     0
171
     0
175
     0
179
     0
273
     0
  0
XRECORD
  5
A4A
102
{ACAD_REACTORS
330
A48
102
}
330
A48
100
AcDbXrecord
280
     1
270
     1
271
     1
  0
XRECORD
  5
A49
102
{ACAD_REACTORS
330
A48
102
}
330
A48
100
AcDbXrecord
280
     1
270
     1
271
     1
  0
XRECORD
  5
A4D
102
{ACAD_REACTORS
330
A48
102
}
330
A48
100
AcDbXrecord
280
     1
270
     1
271
     1
  0
XRECORD
  5
A4C
102
{ACAD_REACTORS
330
A48
102
}
330
A48
100
AcDbXrecord
280
     1
270
     1
271
     1
  0
XRECORD
  5
A4E
102
{ACAD_REACTORS
330
A48
102
}
330
A48
100
AcDbXrecord
280
     1
270
     1
271
     1
  0
XRECORD
  5
A4B
102
{ACAD_REACTORS
330
A48
102
}
330
A48
100
AcDbXrecord
280
     1
270
     1
271
     1
  0
CELLSTYLEMAP
  5
197C
102
{ACAD_REACTORS
330
AED
102
}
330
AED
100
AcDbCellStyleMap
 90
        3
300
CELLSTYLE
  1
TABLEFORMAT_BEGIN
 90
        5
170
     1
 91
        0
 92
    32768
 62
   257
 93
        1
300
CONTENTFORMAT
  1
CONTENTFORMAT_BEGIN
 90
        0
 91
        0
 92
        4
 93
        0
300

 40
0.0
140
1.0
 94
        5
 62
     0
340
10
144
6.0
309
CONTENTFORMAT_END
171
     1
301
MARGIN
  1
CELLMARGIN_BEGIN
 40
1.5
 40
1.5
 40
1.5
 40
1.5
 40
0.18
 40
0.18
309
CELLMARGIN_END
 94
        6
 95
        1
302
GRIDFORMAT
  1
GRIDFORMAT_BEGIN
 90
        0
 91
        1
 62
     0
 92
       -2
340
0
 93
        0
 40
0.045
309
GRIDFORMAT_END
 95
        2
302
GRIDFORMAT
  1
GRIDFORMAT_BEGIN
 90
        0
 91
        1
 62
     0
 92
       -2
340
0
 93
        0
 40
0.045
309
GRIDFORMAT_END
 95
        4
302
GRIDFORMAT
  1
GRIDFORMAT_BEGIN
 90
        0
 91
        1
 62
     0
 92
       -2
340
0
 93
        0
 40
0.045
309
GRIDFORMAT_END
 95
        8
302
GRIDFORMAT
  1
GRIDFORMAT_BEGIN
 90
        0
 91
        1
 62
     0
 92
       -2
340
0
 93
        0
 40
0.045
309
GRIDFORMAT_END
 95
       16
302
GRIDFORMAT
  1
GRIDFORMAT_BEGIN
 90
        0
 91
        1
 62
     0
 92
       -2
340
0
 93
        0
 40
0.045
309
GRIDFORMAT_END
 95
       32
302
GRIDFORMAT
  1
GRIDFORMAT_BEGIN
 90
        0
 91
        1
 62
     0
 92
       -2
340
0
 93
        0
 40
0.045
309
GRIDFORMAT_END
309
TABLEFORMAT_END
  1
CELLSTYLE_BEGIN
 90
        1
 91
        1
300
_TITLE
309
CELLSTYLE_END
300
CELLSTYLE
  1
TABLEFORMAT_BEGIN
 90
        5
170
     1
 91
        0
 92
        0
 62
   257
 93
        1
300
CONTENTFORMAT
  1
CONTENTFORMAT_BEGIN
 90
        0
 91
        0
 92
        4
 93
        0
300

 40
0.0
140
1.0
 94
        5
 62
     0
340
10
144
4.5
309
CONTENTFORMAT_END
171
     1
301
MARGIN
  1
CELLMARGIN_BEGIN
 40
1.5
 40
1.5
 40
1.5
 40
1.5
 40
0.18
 40
0.18
309
CELLMARGIN_END
 94
        6
 95
        1
302
GRIDFORMAT
  1
GRIDFORMAT_BEGIN
 90
        0
 91
        1
 62
     0
 92
       -2
340
0
 93
        0
 40
0.045
309
GRIDFORMAT_END
 95
        2
302
GRIDFORMAT
  1
GRIDFORMAT_BEGIN
 90
        0
 91
        1
 62
     0
 92
       -2
340
0
 93
        0
 40
0.045
309
GRIDFORMAT_END
 95
        4
302
GRIDFORMAT
  1
GRIDFORMAT_BEGIN
 90
        0
 91
        1
 62
     0
 92
       -2
340
0
 93
        0
 40
0.045
309
GRIDFORMAT_END
 95
        8
302
GRIDFORMAT
  1
GRIDFORMAT_BEGIN
 90
        0
 91
        1
 62
     0
 92
       -2
340
0
 93
        0
 40
0.045
309
GRIDFORMAT_END
 95
       16
302
GRIDFORMAT
  1
GRIDFORMAT_BEGIN
 90
        0
 91
        1
 62
     0
 92
       -2
340
0
 93
        0
 40
0.045
309
GRIDFORMAT_END
 95
       32
302
GRIDFORMAT
  1
GRIDFORMAT_BEGIN
 90
        0
 91
        1
 62
     0
 92
       -2
340
0
 93
        0
 40
0.045
309
GRIDFORMAT_END
309
TABLEFORMAT_END
  1
CELLSTYLE_BEGIN
 90
        2
 91
        1
300
_HEADER
309
CELLSTYLE_END
300
CELLSTYLE
  1
TABLEFORMAT_BEGIN
 90
        5
170
     1
 91
        0
 92
        0
 62
   257
 93
        1
300
CONTENTFORMAT
  1
CONTENTFORMAT_BEGIN
 90
        0
 91
        0
 92
        4
 93
        0
300

 40
0.0
140
1.0
 94
        2
 62
     0
340
10
144
4.5
309
CONTENTFORMAT_END
171
     1
301
MARGIN
  1
CELLMARGIN_BEGIN
 40
1.5
 40
1.5
 40
1.5
 40
1.5
 40
0.18
 40
0.18
309
CELLMARGIN_END
 94
        6
 95
        1
302
GRIDFORMAT
  1
GRIDFORMAT_BEGIN
 90
        0
 91
        1
 62
     0
 92
       -2
340
0
 93
        0
 40
0.045
309
GRIDFORMAT_END
 95
        2
302
GRIDFORMAT
  1
GRIDFORMAT_BEGIN
 90
        0
 91
        1
 62
     0
 92
       -2
340
0
 93
        0
 40
0.045
309
GRIDFORMAT_END
 95
        4
302
GRIDFORMAT
  1
GRIDFORMAT_BEGIN
 90
        0
 91
        1
 62
     0
 92
       -2
340
0
 93
        0
 40
0.045
309
GRIDFORMAT_END
 95
        8
302
GRIDFORMAT
  1
GRIDFORMAT_BEGIN
 90
        0
 91
        1
 62
     0
 92
       -2
340
0
 93
        0
 40
0.045
309
GRIDFORMAT_END
 95
       16
302
GRIDFORMAT
  1
GRIDFORMAT_BEGIN
 90
        0
 91
        1
 62
     0
 92
       -2
340
0
 93
        0
 40
0.045
309
GRIDFORMAT_END
 95
       32
302
GRIDFORMAT
  1
GRIDFORMAT_BEGIN
 90
        0
 91
        1
 62
     0
 92
       -2
340
0
 93
        0
 40
0.045
309
GRIDFORMAT_END
309
TABLEFORMAT_END
  1
CELLSTYLE_BEGIN
 90
        3
 91
        2
300
_DATA
309
CELLSTYLE_END
  0
XRECORD
  5
1983
102
{ACAD_REACTORS
330
AED
102
}
330
AED
100
AcDbXrecord
280
     1
102
ACAD_ROUNDTRIP_PRE2007_TABLESTYLE
 90
        4
 91
        0
  1

 92
        4
 93
        0
  2

 94
        4
 95
        0
  3

  0
ENDSEC
  0
EOF
