ISO-10303-21;
HEADER;
/* Generated by software containing ST-Developer
 * from STEP Tools, Inc. (www.steptools.com) 
 */

FILE_DESCRIPTION(
/* description */ (''),
/* implementation_level */ '2;1');

FILE_NAME(
/* name */ 
'C:\\Users\\se-linado\\OneDrive - Roxtec international AB\\Desktop\\SL
FRS 25\\SLFRS25.stp',
/* time_stamp */ '2023-12-04T09:18:21+01:00',
/* author */ ('se-linado'),
/* organization */ (''),
/* preprocessor_version */ 'ST-DEVELOPER v18.1',
/* originating_system */ 'Autodesk Inventor 2021',
/* authorisation */ '');

FILE_SCHEMA (('AUTOMOTIVE_DESIGN { 1 0 10303 214 3 1 1 }'));
ENDSEC;

DATA;
#10=MECHANICAL_DESIGN_GEOMETRIC_PRESENTATION_REPRESENTATION('',(#207,#208),
#403);
#11=SHAPE_REPRESENTATION_RELATIONSHIP('SRR','None',#410,#12);
#12=ADVANCED_BREP_SHAPE_REPRESENTATION('',(#13),#402);
#13=MANIFOLD_SOLID_BREP('Solid2',#222);
#14=FACE_BOUND('',#57,.T.);
#15=FACE_BOUND('',#58,.T.);
#16=FACE_BOUND('',#59,.T.);
#17=FACE_BOUND('',#60,.T.);
#18=FACE_BOUND('',#61,.T.);
#19=FACE_BOUND('',#64,.T.);
#20=FACE_BOUND('',#65,.T.);
#21=FACE_BOUND('',#66,.T.);
#22=FACE_BOUND('',#67,.T.);
#23=FACE_BOUND('',#68,.T.);
#24=FACE_BOUND('',#72,.T.);
#25=FACE_BOUND('',#75,.T.);
#26=PLANE('',#257);
#27=PLANE('',#261);
#28=PLANE('',#268);
#29=PLANE('',#271);
#30=CYLINDRICAL_SURFACE('',#245,5.25);
#31=CYLINDRICAL_SURFACE('',#248,5.25);
#32=CYLINDRICAL_SURFACE('',#251,5.25);
#33=CYLINDRICAL_SURFACE('',#254,5.25);
#34=CYLINDRICAL_SURFACE('',#259,48.);
#35=CYLINDRICAL_SURFACE('',#263,17.);
#36=CYLINDRICAL_SURFACE('',#265,12.75);
#37=CYLINDRICAL_SURFACE('',#270,17.);
#38=FACE_OUTER_BOUND('',#51,.T.);
#39=FACE_OUTER_BOUND('',#52,.T.);
#40=FACE_OUTER_BOUND('',#53,.T.);
#41=FACE_OUTER_BOUND('',#54,.T.);
#42=FACE_OUTER_BOUND('',#55,.T.);
#43=FACE_OUTER_BOUND('',#56,.T.);
#44=FACE_OUTER_BOUND('',#62,.T.);
#45=FACE_OUTER_BOUND('',#63,.T.);
#46=FACE_OUTER_BOUND('',#69,.T.);
#47=FACE_OUTER_BOUND('',#70,.T.);
#48=FACE_OUTER_BOUND('',#71,.T.);
#49=FACE_OUTER_BOUND('',#73,.T.);
#50=FACE_OUTER_BOUND('',#74,.T.);
#51=EDGE_LOOP('',(#154,#155,#156,#157));
#52=EDGE_LOOP('',(#158,#159,#160,#161));
#53=EDGE_LOOP('',(#162,#163,#164,#165));
#54=EDGE_LOOP('',(#166,#167,#168,#169));
#55=EDGE_LOOP('',(#170,#171,#172,#173));
#56=EDGE_LOOP('',(#174));
#57=EDGE_LOOP('',(#175));
#58=EDGE_LOOP('',(#176));
#59=EDGE_LOOP('',(#177));
#60=EDGE_LOOP('',(#178));
#61=EDGE_LOOP('',(#179));
#62=EDGE_LOOP('',(#180,#181,#182,#183));
#63=EDGE_LOOP('',(#184));
#64=EDGE_LOOP('',(#185));
#65=EDGE_LOOP('',(#186));
#66=EDGE_LOOP('',(#187));
#67=EDGE_LOOP('',(#188));
#68=EDGE_LOOP('',(#189));
#69=EDGE_LOOP('',(#190,#191,#192,#193));
#70=EDGE_LOOP('',(#194,#195,#196,#197));
#71=EDGE_LOOP('',(#198));
#72=EDGE_LOOP('',(#199));
#73=EDGE_LOOP('',(#200,#201,#202,#203));
#74=EDGE_LOOP('',(#204));
#75=EDGE_LOOP('',(#205));
#76=LINE('',#348,#85);
#77=LINE('',#354,#86);
#78=LINE('',#360,#87);
#79=LINE('',#366,#88);
#80=LINE('',#372,#89);
#81=LINE('',#380,#90);
#82=LINE('',#387,#91);
#83=LINE('',#392,#92);
#84=LINE('',#398,#93);
#85=VECTOR('',#278,21.2426406871193);
#86=VECTOR('',#285,5.25);
#87=VECTOR('',#292,5.25);
#88=VECTOR('',#299,5.25);
#89=VECTOR('',#306,5.25);
#90=VECTOR('',#317,48.);
#91=VECTOR('',#326,17.);
#92=VECTOR('',#331,12.75);
#93=VECTOR('',#340,17.);
#94=CIRCLE('',#243,21.2426406871193);
#95=CIRCLE('',#244,17.);
#96=CIRCLE('',#246,5.25);
#97=CIRCLE('',#247,5.25);
#98=CIRCLE('',#249,5.25);
#99=CIRCLE('',#250,5.25);
#100=CIRCLE('',#252,5.25);
#101=CIRCLE('',#253,5.25);
#102=CIRCLE('',#255,5.25);
#103=CIRCLE('',#256,5.25);
#104=CIRCLE('',#258,48.);
#105=CIRCLE('',#260,48.);
#106=CIRCLE('',#262,17.);
#107=CIRCLE('',#264,17.);
#108=CIRCLE('',#266,12.75);
#109=CIRCLE('',#267,12.75);
#110=CIRCLE('',#269,17.);
#111=VERTEX_POINT('',#345);
#112=VERTEX_POINT('',#347);
#113=VERTEX_POINT('',#351);
#114=VERTEX_POINT('',#353);
#115=VERTEX_POINT('',#357);
#116=VERTEX_POINT('',#359);
#117=VERTEX_POINT('',#363);
#118=VERTEX_POINT('',#365);
#119=VERTEX_POINT('',#369);
#120=VERTEX_POINT('',#371);
#121=VERTEX_POINT('',#375);
#122=VERTEX_POINT('',#378);
#123=VERTEX_POINT('',#382);
#124=VERTEX_POINT('',#385);
#125=VERTEX_POINT('',#389);
#126=VERTEX_POINT('',#391);
#127=VERTEX_POINT('',#395);
#128=EDGE_CURVE('',#111,#111,#94,.T.);
#129=EDGE_CURVE('',#111,#112,#76,.T.);
#130=EDGE_CURVE('',#112,#112,#95,.T.);
#131=EDGE_CURVE('',#113,#113,#96,.T.);
#132=EDGE_CURVE('',#113,#114,#77,.T.);
#133=EDGE_CURVE('',#114,#114,#97,.T.);
#134=EDGE_CURVE('',#115,#115,#98,.T.);
#135=EDGE_CURVE('',#115,#116,#78,.T.);
#136=EDGE_CURVE('',#116,#116,#99,.T.);
#137=EDGE_CURVE('',#117,#117,#100,.T.);
#138=EDGE_CURVE('',#117,#118,#79,.T.);
#139=EDGE_CURVE('',#118,#118,#101,.T.);
#140=EDGE_CURVE('',#119,#119,#102,.T.);
#141=EDGE_CURVE('',#119,#120,#80,.T.);
#142=EDGE_CURVE('',#120,#120,#103,.T.);
#143=EDGE_CURVE('',#121,#121,#104,.T.);
#144=EDGE_CURVE('',#122,#122,#105,.T.);
#145=EDGE_CURVE('',#122,#121,#81,.T.);
#146=EDGE_CURVE('',#123,#123,#106,.T.);
#147=EDGE_CURVE('',#124,#124,#107,.T.);
#148=EDGE_CURVE('',#124,#123,#82,.T.);
#149=EDGE_CURVE('',#125,#125,#108,.T.);
#150=EDGE_CURVE('',#125,#126,#83,.T.);
#151=EDGE_CURVE('',#126,#126,#109,.T.);
#152=EDGE_CURVE('',#127,#127,#110,.T.);
#153=EDGE_CURVE('',#112,#127,#84,.T.);
#154=ORIENTED_EDGE('',*,*,#128,.F.);
#155=ORIENTED_EDGE('',*,*,#129,.T.);
#156=ORIENTED_EDGE('',*,*,#130,.F.);
#157=ORIENTED_EDGE('',*,*,#129,.F.);
#158=ORIENTED_EDGE('',*,*,#131,.F.);
#159=ORIENTED_EDGE('',*,*,#132,.T.);
#160=ORIENTED_EDGE('',*,*,#133,.F.);
#161=ORIENTED_EDGE('',*,*,#132,.F.);
#162=ORIENTED_EDGE('',*,*,#134,.F.);
#163=ORIENTED_EDGE('',*,*,#135,.T.);
#164=ORIENTED_EDGE('',*,*,#136,.F.);
#165=ORIENTED_EDGE('',*,*,#135,.F.);
#166=ORIENTED_EDGE('',*,*,#137,.F.);
#167=ORIENTED_EDGE('',*,*,#138,.T.);
#168=ORIENTED_EDGE('',*,*,#139,.F.);
#169=ORIENTED_EDGE('',*,*,#138,.F.);
#170=ORIENTED_EDGE('',*,*,#140,.F.);
#171=ORIENTED_EDGE('',*,*,#141,.T.);
#172=ORIENTED_EDGE('',*,*,#142,.F.);
#173=ORIENTED_EDGE('',*,*,#141,.F.);
#174=ORIENTED_EDGE('',*,*,#143,.T.);
#175=ORIENTED_EDGE('',*,*,#128,.T.);
#176=ORIENTED_EDGE('',*,*,#133,.T.);
#177=ORIENTED_EDGE('',*,*,#136,.T.);
#178=ORIENTED_EDGE('',*,*,#139,.T.);
#179=ORIENTED_EDGE('',*,*,#142,.T.);
#180=ORIENTED_EDGE('',*,*,#144,.F.);
#181=ORIENTED_EDGE('',*,*,#145,.T.);
#182=ORIENTED_EDGE('',*,*,#143,.F.);
#183=ORIENTED_EDGE('',*,*,#145,.F.);
#184=ORIENTED_EDGE('',*,*,#144,.T.);
#185=ORIENTED_EDGE('',*,*,#146,.F.);
#186=ORIENTED_EDGE('',*,*,#131,.T.);
#187=ORIENTED_EDGE('',*,*,#134,.T.);
#188=ORIENTED_EDGE('',*,*,#137,.T.);
#189=ORIENTED_EDGE('',*,*,#140,.T.);
#190=ORIENTED_EDGE('',*,*,#147,.F.);
#191=ORIENTED_EDGE('',*,*,#148,.T.);
#192=ORIENTED_EDGE('',*,*,#146,.T.);
#193=ORIENTED_EDGE('',*,*,#148,.F.);
#194=ORIENTED_EDGE('',*,*,#149,.F.);
#195=ORIENTED_EDGE('',*,*,#150,.T.);
#196=ORIENTED_EDGE('',*,*,#151,.F.);
#197=ORIENTED_EDGE('',*,*,#150,.F.);
#198=ORIENTED_EDGE('',*,*,#152,.T.);
#199=ORIENTED_EDGE('',*,*,#149,.T.);
#200=ORIENTED_EDGE('',*,*,#130,.T.);
#201=ORIENTED_EDGE('',*,*,#153,.T.);
#202=ORIENTED_EDGE('',*,*,#152,.F.);
#203=ORIENTED_EDGE('',*,*,#153,.F.);
#204=ORIENTED_EDGE('',*,*,#147,.T.);
#205=ORIENTED_EDGE('',*,*,#151,.T.);
#206=CONICAL_SURFACE('',#242,21.2426406871193,0.785398163397448);
#207=STYLED_ITEM('',(#420),#209);
#208=STYLED_ITEM('',(#419),#13);
#209=ADVANCED_FACE('',(#38),#206,.T.);
#210=ADVANCED_FACE('',(#39),#30,.F.);
#211=ADVANCED_FACE('',(#40),#31,.F.);
#212=ADVANCED_FACE('',(#41),#32,.F.);
#213=ADVANCED_FACE('',(#42),#33,.F.);
#214=ADVANCED_FACE('',(#43,#14,#15,#16,#17,#18),#26,.F.);
#215=ADVANCED_FACE('',(#44),#34,.T.);
#216=ADVANCED_FACE('',(#45,#19,#20,#21,#22,#23),#27,.T.);
#217=ADVANCED_FACE('',(#46),#35,.T.);
#218=ADVANCED_FACE('',(#47),#36,.F.);
#219=ADVANCED_FACE('',(#48,#24),#28,.F.);
#220=ADVANCED_FACE('',(#49),#37,.T.);
#221=ADVANCED_FACE('',(#50,#25),#29,.T.);
#222=CLOSED_SHELL('',(#209,#210,#211,#212,#213,#214,#215,#216,#217,#218,
#219,#220,#221));
#223=DERIVED_UNIT_ELEMENT(#225,1.);
#224=DERIVED_UNIT_ELEMENT(#405,-3.);
#225=(
MASS_UNIT()
NAMED_UNIT(*)
SI_UNIT($,.GRAM.)
);
#226=DERIVED_UNIT((#223,#224));
#227=MEASURE_REPRESENTATION_ITEM('density measure',
POSITIVE_RATIO_MEASURE(1.),#226);
#228=PROPERTY_DEFINITION_REPRESENTATION(#233,#230);
#229=PROPERTY_DEFINITION_REPRESENTATION(#234,#231);
#230=REPRESENTATION('material name',(#232),#402);
#231=REPRESENTATION('density',(#227),#402);
#232=DESCRIPTIVE_REPRESENTATION_ITEM('Generic','Generic');
#233=PROPERTY_DEFINITION('material property','material name',#412);
#234=PROPERTY_DEFINITION('material property','density of part',#412);
#235=DATE_TIME_ROLE('creation_date');
#236=APPLIED_DATE_AND_TIME_ASSIGNMENT(#237,#235,(#412));
#237=DATE_AND_TIME(#238,#239);
#238=CALENDAR_DATE(2023,4,12);
#239=LOCAL_TIME(0,0,0.,#240);
#240=COORDINATED_UNIVERSAL_TIME_OFFSET(0,0,.BEHIND.);
#241=AXIS2_PLACEMENT_3D('placement',#343,#272,#273);
#242=AXIS2_PLACEMENT_3D('',#344,#274,#275);
#243=AXIS2_PLACEMENT_3D('',#346,#276,#277);
#244=AXIS2_PLACEMENT_3D('',#349,#279,#280);
#245=AXIS2_PLACEMENT_3D('',#350,#281,#282);
#246=AXIS2_PLACEMENT_3D('',#352,#283,#284);
#247=AXIS2_PLACEMENT_3D('',#355,#286,#287);
#248=AXIS2_PLACEMENT_3D('',#356,#288,#289);
#249=AXIS2_PLACEMENT_3D('',#358,#290,#291);
#250=AXIS2_PLACEMENT_3D('',#361,#293,#294);
#251=AXIS2_PLACEMENT_3D('',#362,#295,#296);
#252=AXIS2_PLACEMENT_3D('',#364,#297,#298);
#253=AXIS2_PLACEMENT_3D('',#367,#300,#301);
#254=AXIS2_PLACEMENT_3D('',#368,#302,#303);
#255=AXIS2_PLACEMENT_3D('',#370,#304,#305);
#256=AXIS2_PLACEMENT_3D('',#373,#307,#308);
#257=AXIS2_PLACEMENT_3D('',#374,#309,#310);
#258=AXIS2_PLACEMENT_3D('',#376,#311,#312);
#259=AXIS2_PLACEMENT_3D('',#377,#313,#314);
#260=AXIS2_PLACEMENT_3D('',#379,#315,#316);
#261=AXIS2_PLACEMENT_3D('',#381,#318,#319);
#262=AXIS2_PLACEMENT_3D('',#383,#320,#321);
#263=AXIS2_PLACEMENT_3D('',#384,#322,#323);
#264=AXIS2_PLACEMENT_3D('',#386,#324,#325);
#265=AXIS2_PLACEMENT_3D('',#388,#327,#328);
#266=AXIS2_PLACEMENT_3D('',#390,#329,#330);
#267=AXIS2_PLACEMENT_3D('',#393,#332,#333);
#268=AXIS2_PLACEMENT_3D('',#394,#334,#335);
#269=AXIS2_PLACEMENT_3D('',#396,#336,#337);
#270=AXIS2_PLACEMENT_3D('',#397,#338,#339);
#271=AXIS2_PLACEMENT_3D('',#399,#341,#342);
#272=DIRECTION('axis',(0.,0.,1.));
#273=DIRECTION('refdir',(1.,0.,0.));
#274=DIRECTION('center_axis',(0.,0.,1.));
#275=DIRECTION('ref_axis',(-1.,0.,0.));
#276=DIRECTION('center_axis',(0.,0.,1.));
#277=DIRECTION('ref_axis',(-1.,0.,0.));
#278=DIRECTION('',(-0.707106781186547,-8.65956056235493E-17,-0.707106781186548));
#279=DIRECTION('center_axis',(0.,0.,-1.));
#280=DIRECTION('ref_axis',(-1.,0.,0.));
#281=DIRECTION('center_axis',(0.,0.,-1.));
#282=DIRECTION('ref_axis',(-3.06161699786838E-16,-1.,0.));
#283=DIRECTION('center_axis',(0.,0.,-1.));
#284=DIRECTION('ref_axis',(-3.06161699786838E-16,-1.,0.));
#285=DIRECTION('',(0.,0.,-1.));
#286=DIRECTION('center_axis',(0.,0.,1.));
#287=DIRECTION('ref_axis',(-3.06161699786838E-16,-1.,0.));
#288=DIRECTION('center_axis',(0.,0.,-1.));
#289=DIRECTION('ref_axis',(-1.,2.4492935982947E-16,0.));
#290=DIRECTION('center_axis',(0.,0.,-1.));
#291=DIRECTION('ref_axis',(-1.,2.4492935982947E-16,0.));
#292=DIRECTION('',(0.,0.,-1.));
#293=DIRECTION('center_axis',(0.,0.,1.));
#294=DIRECTION('ref_axis',(-1.,2.4492935982947E-16,0.));
#295=DIRECTION('center_axis',(0.,0.,-1.));
#296=DIRECTION('ref_axis',(1.83697019872103E-16,1.,0.));
#297=DIRECTION('center_axis',(0.,0.,-1.));
#298=DIRECTION('ref_axis',(1.83697019872103E-16,1.,0.));
#299=DIRECTION('',(0.,0.,-1.));
#300=DIRECTION('center_axis',(0.,0.,1.));
#301=DIRECTION('ref_axis',(1.83697019872103E-16,1.,0.));
#302=DIRECTION('center_axis',(0.,0.,-1.));
#303=DIRECTION('ref_axis',(1.,-1.22464679914735E-16,0.));
#304=DIRECTION('center_axis',(0.,0.,-1.));
#305=DIRECTION('ref_axis',(1.,-1.22464679914735E-16,0.));
#306=DIRECTION('',(0.,0.,-1.));
#307=DIRECTION('center_axis',(0.,0.,1.));
#308=DIRECTION('ref_axis',(1.,-1.22464679914735E-16,0.));
#309=DIRECTION('center_axis',(0.,0.,1.));
#310=DIRECTION('ref_axis',(-1.,1.22464679914735E-16,0.));
#311=DIRECTION('center_axis',(0.,0.,-1.));
#312=DIRECTION('ref_axis',(1.,-1.22464679914735E-16,0.));
#313=DIRECTION('center_axis',(0.,0.,1.));
#314=DIRECTION('ref_axis',(1.,-1.22464679914735E-16,0.));
#315=DIRECTION('center_axis',(0.,0.,1.));
#316=DIRECTION('ref_axis',(1.,-1.22464679914735E-16,0.));
#317=DIRECTION('',(0.,0.,-1.));
#318=DIRECTION('center_axis',(0.,0.,1.));
#319=DIRECTION('ref_axis',(-1.,1.22464679914735E-16,0.));
#320=DIRECTION('center_axis',(0.,0.,1.));
#321=DIRECTION('ref_axis',(-1.,0.,0.));
#322=DIRECTION('center_axis',(0.,0.,1.));
#323=DIRECTION('ref_axis',(-1.,0.,0.));
#324=DIRECTION('center_axis',(0.,0.,1.));
#325=DIRECTION('ref_axis',(-1.,0.,0.));
#326=DIRECTION('',(0.,0.,-1.));
#327=DIRECTION('center_axis',(0.,0.,1.));
#328=DIRECTION('ref_axis',(-1.,0.,0.));
#329=DIRECTION('center_axis',(0.,0.,1.));
#330=DIRECTION('ref_axis',(-1.,0.,0.));
#331=DIRECTION('',(0.,0.,1.));
#332=DIRECTION('center_axis',(0.,0.,-1.));
#333=DIRECTION('ref_axis',(-1.,0.,0.));
#334=DIRECTION('center_axis',(0.,0.,1.));
#335=DIRECTION('ref_axis',(1.,0.,0.));
#336=DIRECTION('center_axis',(0.,0.,-1.));
#337=DIRECTION('ref_axis',(-1.,0.,0.));
#338=DIRECTION('center_axis',(0.,0.,1.));
#339=DIRECTION('ref_axis',(-1.,0.,0.));
#340=DIRECTION('',(0.,0.,-1.));
#341=DIRECTION('center_axis',(0.,0.,1.));
#342=DIRECTION('ref_axis',(1.,0.,0.));
#343=CARTESIAN_POINT('',(0.,0.,0.));
#344=CARTESIAN_POINT('Origin',(0.,0.,-9.5));
#345=CARTESIAN_POINT('',(21.2426406871193,2.6014731922918E-15,-9.5));
#346=CARTESIAN_POINT('Origin',(0.,0.,-9.5));
#347=CARTESIAN_POINT('',(17.,-2.0818995585505E-15,-13.7426406871193));
#348=CARTESIAN_POINT('',(21.2426406871193,2.6014731922918E-15,-9.5));
#349=CARTESIAN_POINT('Origin',(0.,0.,-13.7426406871193));
#350=CARTESIAN_POINT('Origin',(-36.,1.10218211923262E-14,-5.5));
#351=CARTESIAN_POINT('',(-36.,5.25000000000001,-5.5));
#352=CARTESIAN_POINT('Origin',(-36.,1.10218211923262E-14,-5.5));
#353=CARTESIAN_POINT('',(-36.,5.25000000000001,-9.5));
#354=CARTESIAN_POINT('',(-36.,5.25000000000001,-5.5));
#355=CARTESIAN_POINT('Origin',(-36.,1.10218211923262E-14,-9.5));
#356=CARTESIAN_POINT('Origin',(8.81745695386093E-15,36.,-5.5));
#357=CARTESIAN_POINT('',(5.25,36.,-5.5));
#358=CARTESIAN_POINT('Origin',(8.81745695386093E-15,36.,-5.5));
#359=CARTESIAN_POINT('',(5.25,36.,-9.5));
#360=CARTESIAN_POINT('',(5.25000000000001,36.,-5.5));
#361=CARTESIAN_POINT('Origin',(8.81745695386093E-15,36.,-9.5));
#362=CARTESIAN_POINT('Origin',(36.,-6.6130927153957E-15,-5.5));
#363=CARTESIAN_POINT('',(36.,-5.25,-5.5));
#364=CARTESIAN_POINT('Origin',(36.,-6.6130927153957E-15,-5.5));
#365=CARTESIAN_POINT('',(36.,-5.25,-9.5));
#366=CARTESIAN_POINT('',(36.,-5.25000000000001,-5.5));
#367=CARTESIAN_POINT('Origin',(36.,-6.6130927153957E-15,-9.5));
#368=CARTESIAN_POINT('Origin',(-4.40872847693046E-15,-36.,-5.5));
#369=CARTESIAN_POINT('',(-5.25,-36.,-5.5));
#370=CARTESIAN_POINT('Origin',(-4.40872847693046E-15,-36.,-5.5));
#371=CARTESIAN_POINT('',(-5.25,-36.,-9.5));
#372=CARTESIAN_POINT('',(-5.25,-36.,-5.5));
#373=CARTESIAN_POINT('Origin',(-4.40872847693046E-15,-36.,-9.5));
#374=CARTESIAN_POINT('Origin',(5.42418327354853E-15,-1.2335811384724E-15,
-9.5));
#375=CARTESIAN_POINT('',(-48.,-1.97215226305253E-29,-9.5));
#376=CARTESIAN_POINT('Origin',(0.,0.,-9.5));
#377=CARTESIAN_POINT('Origin',(0.,0.,-7.5));
#378=CARTESIAN_POINT('',(-48.,-1.97215226305253E-29,-5.5));
#379=CARTESIAN_POINT('Origin',(0.,0.,-5.5));
#380=CARTESIAN_POINT('',(-48.,-1.57772181044202E-29,-7.5));
#381=CARTESIAN_POINT('Origin',(5.42418327354853E-15,-1.2335811384724E-15,
-5.5));
#382=CARTESIAN_POINT('',(17.,2.0818995585505E-15,-5.5));
#383=CARTESIAN_POINT('Origin',(0.,0.,-5.5));
#384=CARTESIAN_POINT('Origin',(0.,0.,0.));
#385=CARTESIAN_POINT('',(17.,2.0818995585505E-15,17.5));
#386=CARTESIAN_POINT('Origin',(0.,0.,17.5));
#387=CARTESIAN_POINT('',(17.,2.0818995585505E-15,0.));
#388=CARTESIAN_POINT('Origin',(0.,0.,0.));
#389=CARTESIAN_POINT('',(12.75,1.56142466891288E-15,-17.5));
#390=CARTESIAN_POINT('Origin',(0.,0.,-17.5));
#391=CARTESIAN_POINT('',(12.75,1.56142466891288E-15,17.5));
#392=CARTESIAN_POINT('',(12.75,1.56142466891288E-15,0.));
#393=CARTESIAN_POINT('Origin',(0.,0.,17.5));
#394=CARTESIAN_POINT('Origin',(-1.04425478644796E-15,-4.35381578284375E-16,
-17.5));
#395=CARTESIAN_POINT('',(17.,2.0818995585505E-15,-17.5));
#396=CARTESIAN_POINT('Origin',(0.,0.,-17.5));
#397=CARTESIAN_POINT('Origin',(0.,0.,0.));
#398=CARTESIAN_POINT('',(17.,2.0818995585505E-15,0.));
#399=CARTESIAN_POINT('Origin',(-1.04425478644796E-15,-4.35381578284375E-16,
17.5));
#400=UNCERTAINTY_MEASURE_WITH_UNIT(LENGTH_MEASURE(0.01),#404,
'DISTANCE_ACCURACY_VALUE',
'Maximum model space distance between geometric entities at asserted c
onnectivities');
#401=UNCERTAINTY_MEASURE_WITH_UNIT(LENGTH_MEASURE(0.01),#404,
'DISTANCE_ACCURACY_VALUE',
'Maximum model space distance between geometric entities at asserted c
onnectivities');
#402=(
GEOMETRIC_REPRESENTATION_CONTEXT(3)
GLOBAL_UNCERTAINTY_ASSIGNED_CONTEXT((#400))
GLOBAL_UNIT_ASSIGNED_CONTEXT((#404,#406,#407))
REPRESENTATION_CONTEXT('','3D')
);
#403=(
GEOMETRIC_REPRESENTATION_CONTEXT(3)
GLOBAL_UNCERTAINTY_ASSIGNED_CONTEXT((#401))
GLOBAL_UNIT_ASSIGNED_CONTEXT((#404,#406,#407))
REPRESENTATION_CONTEXT('','3D')
);
#404=(
LENGTH_UNIT()
NAMED_UNIT(*)
SI_UNIT(.MILLI.,.METRE.)
);
#405=(
LENGTH_UNIT()
NAMED_UNIT(*)
SI_UNIT(.CENTI.,.METRE.)
);
#406=(
NAMED_UNIT(*)
PLANE_ANGLE_UNIT()
SI_UNIT($,.RADIAN.)
);
#407=(
NAMED_UNIT(*)
SI_UNIT($,.STERADIAN.)
SOLID_ANGLE_UNIT()
);
#408=SHAPE_DEFINITION_REPRESENTATION(#409,#410);
#409=PRODUCT_DEFINITION_SHAPE('',$,#412);
#410=SHAPE_REPRESENTATION('',(#241),#402);
#411=PRODUCT_DEFINITION_CONTEXT('part definition',#416,'design');
#412=PRODUCT_DEFINITION('SLFRS25_Shrinkwrap_1','SLFRS25_Shrinkwrap_1',#413,
#411);
#413=PRODUCT_DEFINITION_FORMATION('',$,#418);
#414=PRODUCT_RELATED_PRODUCT_CATEGORY('SLFRS25_Shrinkwrap_1',
'SLFRS25_Shrinkwrap_1',(#418));
#415=APPLICATION_PROTOCOL_DEFINITION('international standard',
'automotive_design',2009,#416);
#416=APPLICATION_CONTEXT(
'Core Data for Automotive Mechanical Design Process');
#417=PRODUCT_CONTEXT('part definition',#416,'mechanical');
#418=PRODUCT('SLFRS25_Shrinkwrap_1','SLFRS25_Shrinkwrap_1',$,(#417));
#419=PRESENTATION_STYLE_ASSIGNMENT((#421));
#420=PRESENTATION_STYLE_ASSIGNMENT((#422));
#421=SURFACE_STYLE_USAGE(.BOTH.,#427);
#422=SURFACE_STYLE_USAGE(.BOTH.,#428);
#423=SURFACE_STYLE_RENDERING_WITH_PROPERTIES($,#435,(#425));
#424=SURFACE_STYLE_RENDERING_WITH_PROPERTIES($,#436,(#426));
#425=SURFACE_STYLE_TRANSPARENT(0.);
#426=SURFACE_STYLE_TRANSPARENT(0.);
#427=SURFACE_SIDE_STYLE('',(#429,#423));
#428=SURFACE_SIDE_STYLE('',(#430,#424));
#429=SURFACE_STYLE_FILL_AREA(#431);
#430=SURFACE_STYLE_FILL_AREA(#432);
#431=FILL_AREA_STYLE('',(#433));
#432=FILL_AREA_STYLE('',(#434));
#433=FILL_AREA_STYLE_COLOUR('',#435);
#434=FILL_AREA_STYLE_COLOUR('',#436);
#435=COLOUR_RGB('',0.749019607843137,0.749019607843137,0.749019607843137);
#436=COLOUR_RGB('',0.745098039215686,0.737254901960784,0.729411764705882);
ENDSEC;
END-ISO-10303-21;
