  0
SECTION
  2
HEADER
  9
$ACADVER
  1
AC1027
  9
$ACADMAINTVER
 70
   125
  9
$DWGCODEPAGE
  3
ANSI_1252
  9
$LASTSAVEDBY
  1
se-milkar
  9
$CUSTOMPROPERTYTAG
  1
AmdtFileType
  9
$CUSTOMPROPERTY
  1
84
  9
$REQUIREDVERSIONS
160
                 0
  9
$INSBASE
 10
0.0
 20
0.0
 30
0.0
  9
$EXTMIN
 10
-142.273732789572
 20
-167.3597940534288
 30
-0.0015258207003583
  9
$EXTMAX
 10
112.544895132891
 20
140.5204174226261
 30
0.0000000349246037
  9
$LIMMIN
 10
0.0
 20
0.0
  9
$LIMMAX
 10
420.0
 20
297.0
  9
$ORTHOMODE
 70
     1
  9
$REGENMODE
 70
     1
  9
$FILLMODE
 70
     1
  9
$QTEXTMODE
 70
     0
  9
$MIRRTEXT
 70
     0
  9
$LTSCALE
 40
1.0
  9
$ATTMODE
 70
     1
  9
$TEXTSIZE
 40
3.5
  9
$TRACEWID
 40
1.0
  9
$TEXTSTYLE
  7
STANDARD
  9
$CLAYER
  8
AM_0
  9
$CELTYPE
  6
BYLAYER
  9
$CECOLOR
 62
   256
  9
$CELTSCALE
 40
1.0
  9
$DISPSILH
 70
     0
  9
$DIMSCALE
 40
1.0
  9
$DIMASZ
 40
2.5
  9
$DIMEXO
 40
1.0
  9
$DIMDLI
 40
10.0
  9
$DIMRND
 40
0.0
  9
$DIMDLE
 40
0.0
  9
$DIMEXE
 40
1.0
  9
$DIMTP
 40
0.1
  9
$DIMTM
 40
0.1
  9
$DIMTXT
 40
3.5
  9
$DIMCEN
 40
0.0
  9
$DIMTSZ
 40
0.0
  9
$DIMTOL
 70
     0
  9
$DIMLIM
 70
     0
  9
$DIMTIH
 70
     0
  9
$DIMTOH
 70
     0
  9
$DIMSE1
 70
     0
  9
$DIMSE2
 70
     0
  9
$DIMTAD
 70
     1
  9
$DIMZIN
 70
     8
  9
$DIMBLK
  1

  9
$DIMASO
 70
     1
  9
$DIMSHO
 70
     1
  9
$DIMPOST
  1

  9
$DIMAPOST
  1
"
  9
$DIMALT
 70
     0
  9
$DIMALTD
 70
     3
  9
$DIMALTF
 40
0.0393701
  9
$DIMLFAC
 40
1.0
  9
$DIMTOFL
 70
     1
  9
$DIMTVP
 40
0.0
  9
$DIMTIX
 70
     0
  9
$DIMSOXD
 70
     0
  9
$DIMSAH
 70
     0
  9
$DIMBLK1
  1

  9
$DIMBLK2
  1

  9
$DIMSTYLE
  2
AM_ISO
  9
$DIMCLRD
 70
   256
  9
$DIMCLRE
 70
   256
  9
$DIMCLRT
 70
     2
  9
$DIMTFAC
 40
0.71
  9
$DIMGAP
 40
1.5
  9
$DIMJUST
 70
     0
  9
$DIMSD1
 70
     0
  9
$DIMSD2
 70
     0
  9
$DIMTOLJ
 70
     0
  9
$DIMTZIN
 70
     8
  9
$DIMALTZ
 70
     0
  9
$DIMALTTZ
 70
     0
  9
$DIMUPT
 70
     0
  9
$DIMDEC
 70
     2
  9
$DIMTDEC
 70
     2
  9
$DIMALTU
 70
     2
  9
$DIMALTTD
 70
     3
  9
$DIMTXSTY
  7
STANDARD
  9
$DIMAUNIT
 70
     0
  9
$DIMADEC
 70
     0
  9
$DIMALTRND
 40
0.0
  9
$DIMAZIN
 70
     2
  9
$DIMDSEP
 70
    46
  9
$DIMATFIT
 70
     3
  9
$DIMFRAC
 70
     0
  9
$DIMLDRBLK
  1

  9
$DIMLUNIT
 70
     2
  9
$DIMLWD
 70
    -1
  9
$DIMLWE
 70
    -1
  9
$DIMTMOVE
 70
     0
  9
$DIMFXL
 40
1.0
  9
$DIMFXLON
 70
     0
  9
$DIMJOGANG
 40
0.7853981633974483
  9
$DIMTFILL
 70
     0
  9
$DIMTFILLCLR
 70
     0
  9
$DIMARCSYM
 70
     0
  9
$DIMLTYPE
  6

  9
$DIMLTEX1
  6

  9
$DIMLTEX2
  6

  9
$DIMTXTDIRECTION
 70
     0
  9
$LUNITS
 70
     2
  9
$LUPREC
 70
     2
  9
$SKETCHINC
 40
1.0
  9
$FILLETRAD
 40
2.5
  9
$AUNITS
 70
     0
  9
$AUPREC
 70
     0
  9
$MENU
  1
.
  9
$ELEVATION
 40
0.0
  9
$PELEVATION
 40
0.0
  9
$THICKNESS
 40
0.0
  9
$LIMCHECK
 70
     0
  9
$CHAMFERA
 40
2.5
  9
$CHAMFERB
 40
2.5
  9
$CHAMFERC
 40
20.0
  9
$CHAMFERD
 40
0.0
  9
$SKPOLY
 70
     1
  9
$TDCREATE
 40
2460775.734513889
  9
$TDUCREATE
 40
2460775.651180556
  9
$TDUPDATE
 40
2460775.743425926
  9
$TDUUPDATE
 40
2460775.660092593
  9
$TDINDWG
 40
0.0089236111
  9
$TDUSRTIMER
 40
0.0089236111
  9
$USRTIMER
 70
     1
  9
$ANGBASE
 50
0.0
  9
$ANGDIR
 70
     0
  9
$PDMODE
 70
     0
  9
$PDSIZE
 40
0.0
  9
$PLINEWID
 40
0.0
  9
$SPLFRAME
 70
     0
  9
$SPLINETYPE
 70
     6
  9
$SPLINESEGS
 70
     8
  9
$HANDSEED
  5
3BC2
  9
$SURFTAB1
 70
     6
  9
$SURFTAB2
 70
     6
  9
$SURFTYPE
 70
     6
  9
$SURFU
 70
     6
  9
$SURFV
 70
     6
  9
$UCSBASE
  2

  9
$UCSNAME
  2

  9
$UCSORG
 10
0.0
 20
0.0
 30
0.0
  9
$UCSXDIR
 10
1.0
 20
0.0
 30
0.0
  9
$UCSYDIR
 10
0.0
 20
1.0
 30
0.0
  9
$UCSORTHOREF
  2

  9
$UCSORTHOVIEW
 70
     0
  9
$UCSORGTOP
 10
0.0
 20
0.0
 30
0.0
  9
$UCSORGBOTTOM
 10
0.0
 20
0.0
 30
0.0
  9
$UCSORGLEFT
 10
0.0
 20
0.0
 30
0.0
  9
$UCSORGRIGHT
 10
0.0
 20
0.0
 30
0.0
  9
$UCSORGFRONT
 10
0.0
 20
0.0
 30
0.0
  9
$UCSORGBACK
 10
0.0
 20
0.0
 30
0.0
  9
$PUCSBASE
  2

  9
$PUCSNAME
  2

  9
$PUCSORG
 10
0.0
 20
0.0
 30
0.0
  9
$PUCSXDIR
 10
1.0
 20
0.0
 30
0.0
  9
$PUCSYDIR
 10
0.0
 20
1.0
 30
0.0
  9
$PUCSORTHOREF
  2

  9
$PUCSORTHOVIEW
 70
     0
  9
$PUCSORGTOP
 10
0.0
 20
0.0
 30
0.0
  9
$PUCSORGBOTTOM
 10
0.0
 20
0.0
 30
0.0
  9
$PUCSORGLEFT
 10
0.0
 20
0.0
 30
0.0
  9
$PUCSORGRIGHT
 10
0.0
 20
0.0
 30
0.0
  9
$PUCSORGFRONT
 10
0.0
 20
0.0
 30
0.0
  9
$PUCSORGBACK
 10
0.0
 20
0.0
 30
0.0
  9
$USERI1
 70
     0
  9
$USERI2
 70
     0
  9
$USERI3
 70
     0
  9
$USERI4
 70
     0
  9
$USERI5
 70
     0
  9
$USERR1
 40
0.0
  9
$USERR2
 40
0.0
  9
$USERR3
 40
0.0
  9
$USERR4
 40
0.0
  9
$USERR5
 40
0.0
  9
$WORLDVIEW
 70
     1
  9
$SHADEDGE
 70
     3
  9
$SHADEDIF
 70
    70
  9
$TILEMODE
 70
     1
  9
$MAXACTVP
 70
    48
  9
$PINSBASE
 10
0.0
 20
0.0
 30
0.0
  9
$PLIMCHECK
 70
     0
  9
$PEXTMIN
 10
1.000000000000000E+20
 20
1.000000000000000E+20
 30
1.000000000000000E+20
  9
$PEXTMAX
 10
-1.000000000000000E+20
 20
-1.000000000000000E+20
 30
-1.000000000000000E+20
  9
$PLIMMIN
 10
0.0
 20
0.0
  9
$PLIMMAX
 10
12.0
 20
9.0
  9
$UNITMODE
 70
     0
  9
$VISRETAIN
 70
     1
  9
$PLINEGEN
 70
     0
  9
$PSLTSCALE
 70
     1
  9
$TREEDEPTH
 70
  3020
  9
$CMLSTYLE
  2
STANDARD
  9
$CMLJUST
 70
     0
  9
$CMLSCALE
 40
1.0
  9
$PROXYGRAPHICS
 70
     1
  9
$MEASUREMENT
 70
     1
  9
$CELWEIGHT
370
    -1
  9
$ENDCAPS
280
     0
  9
$JOINSTYLE
280
     0
  9
$LWDISPLAY
290
     0
  9
$INSUNITS
 70
     4
  9
$HYPERLINKBASE
  1

  9
$STYLESHEET
  1
@Layout.ctb
  9
$XEDIT
290
     1
  9
$CEPSNTYPE
380
     0
  9
$PSTYLEMODE
290
     1
  9
$FINGERPRINTGUID
  2
{45BEE2F8-7005-BC4B-B497-AFB9F3B5A1BB}
  9
$VERSIONGUID
  2
{F259A1CF-83E9-3D4C-B6B8-D1577BCAC154}
  9
$EXTNAMES
290
     1
  9
$PSVPSCALE
 40
0.0
  9
$OLESTARTUP
290
     0
  9
$SORTENTS
280
   127
  9
$INDEXCTL
280
     1
  9
$HIDETEXT
280
     0
  9
$XCLIPFRAME
280
     0
  9
$HALOGAP
280
     0
  9
$OBSCOLOR
 70
   257
  9
$OBSLTYPE
280
     0
  9
$INTERSECTIONDISPLAY
280
     0
  9
$INTERSECTIONCOLOR
 70
   257
  9
$DIMASSOC
280
     2
  9
$PROJECTNAME
  1

  9
$CAMERADISPLAY
290
     0
  9
$LENSLENGTH
 40
50.0
  9
$CAMERAHEIGHT
 40
0.0
  9
$STEPSPERSEC
 40
2.0
  9
$STEPSIZE
 40
6.0
  9
$3DDWFPREC
 40
2.0
  9
$PSOLWIDTH
 40
0.25
  9
$PSOLHEIGHT
 40
4.0
  9
$LOFTANG1
 40
1.570796326794896
  9
$LOFTANG2
 40
1.570796326794896
  9
$LOFTMAG1
 40
0.0
  9
$LOFTMAG2
 40
0.0
  9
$LOFTPARAM
 70
     7
  9
$LOFTNORMALS
280
     1
  9
$LATITUDE
 40
37.795
  9
$LONGITUDE
 40
-122.394
  9
$NORTHDIRECTION
 40
0.0
  9
$TIMEZONE
 70
 -8000
  9
$LIGHTGLYPHDISPLAY
280
     1
  9
$TILEMODELIGHTSYNCH
280
     1
  9
$CMATERIAL
347
A37
  9
$SOLIDHIST
280
     1
  9
$SHOWHIST
280
     1
  9
$DWFFRAME
280
     2
  9
$DGNFRAME
280
     0
  9
$REALWORLDSCALE
290
     1
  9
$INTERFERECOLOR
 62
     1
  9
$INTERFEREOBJVS
345
A59
  9
$INTERFEREVPVS
346
CBF
  9
$CSHADOW
280
     0
  9
$SHADOWPLANELOCATION
 40
0.0
  0
ENDSEC
  0
SECTION
  2
CLASSES
  0
CLASS
  1
DICTIONARYVAR
  2
AcDbDictionaryVar
  3
ObjectDBX Classes
 90
        0
 91
       12
280
     0
281
     0
  0
CLASS
  1
ACMESTATEMGR
  2
AcMeStateMgr
  3
AcMeServices
 90
     1024
 91
        1
280
     0
281
     0
  0
CLASS
  1
ACMESCOPE
  2
AcMeScope
  3
AcMeServices
 90
     1024
 91
        1
280
     0
281
     0
  0
CLASS
  1
ACMECOMMANDHISTORY
  2
AcMeCommandHistory
  3
AcMeServices
 90
     1024
 91
        1
280
     0
281
     0
  0
CLASS
  1
ACRFINSADJUSTERMGR
  2
AcRfInsAdjusterMgr
  3
AcMeServices
 90
     1024
 91
        1
280
     0
281
     0
  0
CLASS
  1
ACMEDRAWINGMAN
  2
AcMeDrawingMan
  3
AcMeServices
 90
     1024
 91
        0
280
     0
281
     0
  0
CLASS
  1
AMATTR
  2
AcMeAttribute
  3
AcMeServices
 90
     1024
 91
        0
280
     0
281
     0
  0
CLASS
  1
ACMEBOMCOLUMN
  2
AcMeBOMColumn
  3
AcMeServices
 90
     1024
 91
        0
280
     0
281
     0
  0
CLASS
  1
ACMEBOMCONF
  2
AcMeBOMConf
  3
AcMeServices
 90
     1024
 91
        0
280
     0
281
     0
  0
CLASS
  1
ACMEBOMTABLE
  2
AcMeBOMTable
  3
AcMeServices
 90
     1024
 91
        0
280
     0
281
     0
  0
CLASS
  1
ACMEBOMENTRY
  2
AcMeBOMEntry
  3
AcMeServices
 90
     1024
 91
        0
280
     0
281
     0
  0
CLASS
  1
ACMEVIEW
  2
AcMeView
  3
AcMeServices
 90
     1024
 91
        0
280
     0
281
     0
  0
CLASS
  1
ACGREFMASTER
  2
AcGrefMaster
  3
AcAttribServices
 90
     1024
 91
        1
280
     0
281
     0
  0
CLASS
  1
AMIMASTER
  2
AmiMaster
  3
AmiServices
 90
     1024
 91
        1
280
     0
281
     0
  0
CLASS
  1
ACASGREFMASTER
  2
AcAsGrefMaster
  3
AutoSurfResolverServices
 90
     1024
 91
        2
280
     0
281
     0
  0
CLASS
  1
ADAPPL
  2
AcAdAppl
  3
DesignerAssemblies
 90
     1024
 91
        0
280
     0
281
     0
  0
CLASS
  1
DEPMGR
  2
AcAdDepMgr
  3
DesignerAssemblies
 90
     1024
 91
        0
280
     0
281
     0
  0
CLASS
  1
PARAMMGR
  2
AcAdParamMgr
  3
DesignerAssemblies
 90
     1024
 91
        0
280
     0
281
     0
  0
CLASS
  1
PARAMSCOPE
  2
AcAdParamScope
  3
DesignerAssemblies
 90
     1024
 91
        0
280
     0
281
     0
  0
CLASS
  1
ACIMSYSVARMAN
  2
AcImSysVarManager
  3
AcMeServices
 90
     1024
 91
        5
280
     0
281
     0
  0
CLASS
  1
ACIMINTSYSVAR
  2
AcImIntSysVar
  3
AcMeServices
 90
     1024
 91
       50
280
     0
281
     0
  0
CLASS
  1
ACIMREALSYSVAR
  2
AcImRealSysVar
  3
AcMeServices
 90
     1024
 91
       16
280
     0
281
     0
  0
CLASS
  1
ACIMSTRSYSVAR
  2
AcImStrSysVar
  3
AcMeServices
 90
     1024
 91
       14
280
     0
281
     0
  0
CLASS
  1
NAMEDAPPL
  2
AcAdNamedAppl
  3
DesignerAssemblies
 90
     1024
 91
        0
280
     0
281
     0
  0
CLASS
  1
ADHNTMPLT
  2
AdHoleNoteTemplateMgr
  3
DesignerServices
 90
     1024
 91
        0
280
     0
281
     0
  0
CLASS
  1
AM_HNTEMPLATE_MGR_NAME
  2
AdHoleNoteTemplateMgrName
  3
DesignerServices
 90
     1024
 91
        0
280
     0
281
     0
  0
CLASS
  1
ACADGREFMODULE
  2
AcAdGrefModule
  3
AdGrefServices
 90
     1024
 91
        2
280
     0
281
     0
  0
CLASS
  1
AM_DRAWING_MGR
  2
AcDmDwgMgr
  3
AcMechDwgViewMgmt
 90
     1024
 91
        0
280
     0
281
     0
  0
CLASS
  1
AM_DWG_DOCUMENT
  2
AcDmDwgDocument
  3
AcMechDwgViewMgmt
 90
     1024
 91
        0
280
     0
281
     0
  0
CLASS
  1
AM_DWG_SHEET
  2
AcDmSheet
  3
AcMechDwgViewMgmt
 90
     1024
 91
        0
280
     0
281
     0
  0
CLASS
  1
AM_VIEWDIMPARMAP
  2
AcDmViewDimParMap
  3
AcMechDwgViewMgmt
 90
     1024
 91
        0
280
     0
281
     0
  0
CLASS
  1
AM_DWGMGR_NAME
  2
AcDmDwgMgrName
  3
AcMechDwgViewMgmt
 90
     1024
 91
        0
280
     0
281
     0
  0
CLASS
  1
ACAMPROJECT
  2
AcAmProject
  3
DesignerAssemblies
 90
     1024
 91
        1
280
     0
281
     0
  0
CLASS
  1
ACAMGRCOMPSET
  2
AcAmGrCompSet
  3
DesignerAssemblies
 90
        0
 91
        0
280
     0
281
     0
  0
CLASS
  1
ACAMGRCOMPDEFSET
  2
AcAmGrCompDefSet
  3
DesignerAssemblies
 90
     1024
 91
        1
280
     0
281
     0
  0
CLASS
  1
ACAMGRCOMPDEF
  2
AcAmGrCompDef
  3
DesignerAssemblies
 90
     1024
 91
        1
280
     0
281
     0
  0
CLASS
  1
ACCMCONTEXT
  2
AcCmContext
  3
DesignerAssemblies
 90
     1024
 91
        1
280
     0
281
     0
  0
CLASS
  1
ACAMCOMPDEF
  2
AcAmCompDef
  3
DesignerAssemblies
 90
     1024
 91
        1
280
     0
281
     0
  0
CLASS
  1
ACAMCOMPDEFMGR
  2
AcAmCompDefMgr
  3
DesignerAssemblies
 90
     1024
 91
        1
280
     0
281
     0
  0
CLASS
  1
AMCONTEXTMGR
  2
AcAmContextMgr
  3
DesignerAssemblies
 90
     1024
 91
        1
280
     0
281
     0
  0
CLASS
  1
ACAMCONTEXTMODELER
  2
AcAmContextModeler
  3
DesignerAssemblies
 90
     1024
 91
        1
280
     0
281
     0
  0
CLASS
  1
ACDMVIEWGEOM
  2
AcDmViewGeometry
  3
AcMechDwgViewMgmt
 90
     1024
 91
        0
280
     0
281
     1
  0
CLASS
  1
CBROWSERAPPOBJECT
  2
CBrowserAppObject
  3
McadcomServices
 90
     1024
 91
        2
280
     0
281
     0
  0
CLASS
  1
IM_STATIC_MAN
  2
AcImStaticVarManager
  3
AcMeServices
 90
     1024
 91
        1
280
     0
281
     0
  0
CLASS
  1
ASAPP
  2
AcAsAppObject
  3
AutoSurfServices
 90
     1024
 91
        2
280
     0
281
     0
  0
CLASS
  1
ACIMDBLSTATICVAR
  2
AcImDblStaticVar
  3
AcMeServices
 90
     1024
 91
       22
280
     0
281
     0
  0
CLASS
  1
ACIMSTRSTATICVAR
  2
AcImStrStaticVar
  3
AcMeServices
 90
     1024
 91
       13
280
     0
281
     0
  0
CLASS
  1
ACIMINTSTATICVAR
  2
AcImIntStaticVar
  3
AcMeServices
 90
     1024
 91
       17
280
     0
281
     0
  0
CLASS
  1
CATALOGSTATE
  2
AcAmCatalogState
  3
DesignerAssemblies_arx
 90
     1024
 91
        0
280
     0
281
     0
  0
CLASS
  1
DM_PLACEHOLDER
  2
AcDmSelsetPlaceholder
  3
McadcomServices
 90
     1024
 91
        1
280
     0
281
     0
  0
CLASS
  1
LAYER_INDEX
  2
AcDbLayerIndex
  3
ObjectDBX Classes
 90
        0
 91
        1
280
     0
281
     0
  0
CLASS
  1
IDBUFFER
  2
AcDbIdBuffer
  3
ObjectDBX Classes
 90
        0
 91
       12
280
     0
281
     0
  0
CLASS
  1
ACMSTANDARDJIS
  2
AcmStandardJIS
  3
"Amdt_StdImp|Product Description: AutoCAD Mechanical|Company: Autodesk, Inc."
 90
     1024
 91
        0
280
     0
281
     0
  0
CLASS
  1
ACMSTANDARDANSI
  2
AcmStandardANSI
  3
"Amdt_StdImp|Product Description: AutoCAD Mechanical|Company: Autodesk, Inc."
 90
     1024
 91
        1
280
     0
281
     0
  0
CLASS
  1
ACMSTANDARDBSI
  2
AcmStandardBSI
  3
"Amdt_StdImp|Product Description: AutoCAD Mechanical|Company: Autodesk, Inc."
 90
     1024
 91
        0
280
     0
281
     0
  0
CLASS
  1
ACMSTANDARDDIN
  2
AcmStandardDIN
  3
"Amdt_StdImp|Product Description: AutoCAD Mechanical|Company: Autodesk, Inc."
 90
     1024
 91
        0
280
     0
281
     0
  0
CLASS
  1
ACMSTANDARDISO
  2
AcmStandardISO
  3
"Amdt_StdImp|Product Description: AutoCAD Mechanical|Company: Autodesk, Inc."
 90
     1024
 91
        1
280
     0
281
     0
  0
CLASS
  1
ACDBDICTIONARYWDFLT
  2
AcDbDictionaryWithDefault
  3
ObjectDBX Classes
 90
        0
 91
        1
280
     0
281
     0
  0
CLASS
  1
ACDBPLACEHOLDER
  2
AcDbPlaceHolder
  3
ObjectDBX Classes
 90
        0
 91
        1
280
     0
281
     0
  0
CLASS
  1
LAYOUT
  2
AcDbLayout
  3
ObjectDBX Classes
 90
        0
 91
        2
280
     0
281
     0
  0
CLASS
  1
ACME_DOCUMENT
  2
AcMeDbDoc
  3
AcMeServices
 90
     1024
 91
        1
280
     0
281
     0
  0
CLASS
  1
AMGSETTINGSOBJ
  2
AmgSettingsObj
  3
"AcadM|Product Description: AutoCAD Mechanical|Company: Autodesk, Inc."
 90
     1024
 91
        4
280
     0
281
     0
  0
CLASS
  1
AMGOBJPROPCFG
  2
AmgObjPropCfg
  3
"AmgLay|Product Description: AutoCAD Mechanical|Company: Autodesk, Inc."
 90
     1024
 91
        1
280
     0
281
     0
  0
CLASS
  1
ACDBENTITYCACHE
  2
AcMeEntityCache
  3
AcMeServices
 90
     1024
 91
        1
280
     0
281
     0
  0
CLASS
  1
GSMANAGER
  2
AcMeGSManager
  3
AcMeServices
 90
     1024
 91
        0
280
     0
281
     0
  0
CLASS
  1
AMDTINTERNALREACTOR
  2
AmdtInternalReactor
  3
AcMeServices
 90
     1024
 91
        0
280
     0
281
     0
  0
CLASS
  1
ACME_DATABASE
  2
AcMeDbDatabase
  3
AcMeServices
 90
     1024
 91
        4
280
     0
281
     0
  0
CLASS
  1
ACGREFACADMASTER
  2
AcGrefacadMaster
  3
AcGrefServices
 90
     1024
 91
        1
280
     0
281
     0
  0
CLASS
  1
AMDTMENUSTATEMGR
  2
AmdtMenuStateMgr
  3
McadcomServices
 90
     1024
 91
        1
280
     0
281
     0
  0
CLASS
  1
AMDTMCOMMENUSTATE
  2
AmdtMcomMenuState
  3
McadcomServices
 90
     1024
 91
        1
280
     0
281
     0
  0
CLASS
  1
MAPIADMODULE
  2
MApiAdModule
  3
MApiAdServices
 90
     1024
 91
        2
280
     0
281
     0
  0
CLASS
  1
AMDTDMMENUSTATE
  2
AmdtDmMenuState
  3
AcMechDwgViewMgmt
 90
     1024
 91
        0
280
     0
281
     0
  0
CLASS
  1
AMDTADMENUSTATE
  2
AmdtAdMenuState
  3
DesignerServices
 90
     1024
 91
        0
280
     0
281
     0
  0
CLASS
  1
AMDTAMMENUSTATE
  2
AmdtAmMenuState
  3
DesignerAssemblies_arx
 90
     1024
 91
        1
280
     0
281
     0
  0
CLASS
  1
ACMDATADICTIONARY
  2
AcmDataDictionary
  3
"AcmSymBB|Product Description: AutoCAD Mechanical|Company: Autodesk, Inc."
 90
     1024
 91
        1
280
     0
281
     0
  0
CLASS
  1
ACMDATAENTRYBLOCK
  2
AcmDataEntryBlock
  3
"AcmSymBB" "Product Description: AutoCAD Mechanical|Company: Autodesk, Inc."
 90
     1024
 91
        1
280
     0
281
     0
  0
CLASS
  1
ACMSURFSTANDARDJIS
  2
AcmSurfTextStdJIS
  3
"Amdt_StdImp|Product Description: AutoCAD Mechanical|Company: Autodesk, Inc."
 90
     1024
 91
        0
280
     0
281
     0
  0
CLASS
  1
ACMFCFSTANDARDJIS
  2
AcmFCFStdJIS
  3
"Amdt_StdImp|Product Description: AutoCAD Mechanical|Company: Autodesk, Inc."
 90
     1024
 91
        0
280
     0
281
     0
  0
CLASS
  1
ACMWELDSTANDARDJIS
  2
AcmWeldingStdJIS
  3
"Amdt_StdImp|Product Description: AutoCAD Mechanical|Company: Autodesk, Inc."
 90
     1024
 91
        0
280
     0
281
     0
  0
CLASS
  1
ACMIDSTANDARDJIS
  2
AcmIdStdJIS
  3
"Amdt_StdImp|Product Description: AutoCAD Mechanical|Company: Autodesk, Inc."
 90
     1024
 91
        0
280
     0
281
     0
  0
CLASS
  1
ACMDATUMSTANDARDJIS
  2
AcmDatumStdJIS
  3
"Amdt_StdImp|Product Description: AutoCAD Mechanical|Company: Autodesk, Inc."
 90
     1024
 91
        0
280
     0
281
     0
  0
CLASS
  1
ACMBOMSTANDARDJIS
  2
AcmBOMStdJIS
  3
"Amdt_StdImp|Product Description: AutoCAD Mechanical|Company: Autodesk, Inc."
 90
     1024
 91
        0
280
     0
281
     0
  0
CLASS
  1
ACMSURFSTANDARDANSI
  2
AcmSurfTextStdANSI
  3
"Amdt_StdImp|Product Description: AutoCAD Mechanical|Company: Autodesk, Inc."
 90
     1024
 91
        1
280
     0
281
     0
  0
CLASS
  1
ACMFCFSTANDARDANSI
  2
AcmFCFStdANSI
  3
"Amdt_StdImp|Product Description: AutoCAD Mechanical|Company: Autodesk, Inc."
 90
     1024
 91
        1
280
     0
281
     0
  0
CLASS
  1
ACMWELDSTANDARDANSI
  2
AcmWeldingStdANSI
  3
"Amdt_StdImp|Product Description: AutoCAD Mechanical|Company: Autodesk, Inc."
 90
     1024
 91
        1
280
     0
281
     0
  0
CLASS
  1
ACMIDSTANDARDANSI
  2
AcmIdStdANSI
  3
"Amdt_StdImp|Product Description: AutoCAD Mechanical|Company: Autodesk, Inc."
 90
     1024
 91
        1
280
     0
281
     0
  0
CLASS
  1
ACMDATUMSTANDARDANSI
  2
AcmDatumStdANSI
  3
"Amdt_StdImp|Product Description: AutoCAD Mechanical|Company: Autodesk, Inc."
 90
     1024
 91
        1
280
     0
281
     0
  0
CLASS
  1
ACMBOMSTANDARDANSI
  2
AcmBOMStdANSI
  3
"Amdt_StdImp|Product Description: AutoCAD Mechanical|Company: Autodesk, Inc."
 90
     1024
 91
        1
280
     0
281
     0
  0
CLASS
  1
ACMSURFSTANDARDBSI
  2
AcmSurfTextStdBSI
  3
"Amdt_StdImp|Product Description: AutoCAD Mechanical|Company: Autodesk, Inc."
 90
     1024
 91
        0
280
     0
281
     0
  0
CLASS
  1
ACMFCFSTANDARDBSI
  2
AcmFCFStdBSI
  3
"Amdt_StdImp|Product Description: AutoCAD Mechanical|Company: Autodesk, Inc."
 90
     1024
 91
        0
280
     0
281
     0
  0
CLASS
  1
ACMWELDSTANDARDBSI
  2
AcmWeldingStdBSI
  3
"Amdt_StdImp|Product Description: AutoCAD Mechanical|Company: Autodesk, Inc."
 90
     1024
 91
        0
280
     0
281
     0
  0
CLASS
  1
ACMIDSTANDARDBSI
  2
AcmIdStdBSI
  3
"Amdt_StdImp|Product Description: AutoCAD Mechanical|Company: Autodesk, Inc."
 90
     1024
 91
        0
280
     0
281
     0
  0
CLASS
  1
ACMDATUMSTANDARDBSI
  2
AcmDatumStdBSI
  3
"Amdt_StdImp|Product Description: AutoCAD Mechanical|Company: Autodesk, Inc."
 90
     1024
 91
        0
280
     0
281
     0
  0
CLASS
  1
ACMBOMSTANDARDBSI
  2
AcmBOMStdBSI
  3
"Amdt_StdImp|Product Description: AutoCAD Mechanical|Company: Autodesk, Inc."
 90
     1024
 91
        0
280
     0
281
     0
  0
CLASS
  1
AMDTEDGESTANDARDDIN
  2
AmdtEdgeStdDIN
  3
"Amdt_StdImp|Product Description: AutoCAD Mechanical|Company: Autodesk, Inc."
 90
     1024
 91
        0
280
     0
281
     0
  0
CLASS
  1
ACMSURFSTANDARDDIN
  2
AcmSurfTextStdDIN
  3
"Amdt_StdImp|Product Description: AutoCAD Mechanical|Company: Autodesk, Inc."
 90
     1024
 91
        0
280
     0
281
     0
  0
CLASS
  1
ACMFCFSTANDARDDIN
  2
AcmFCFStdDIN
  3
"Amdt_StdImp|Product Description: AutoCAD Mechanical|Company: Autodesk, Inc."
 90
     1024
 91
        0
280
     0
281
     0
  0
CLASS
  1
ACMWELDSTANDARDDIN
  2
AcmWeldingStdDIN
  3
"Amdt_StdImp|Product Description: AutoCAD Mechanical|Company: Autodesk, Inc."
 90
     1024
 91
        0
280
     0
281
     0
  0
CLASS
  1
ACMIDSTANDARDDIN
  2
AcmIdStdDIN
  3
"Amdt_StdImp|Product Description: AutoCAD Mechanical|Company: Autodesk, Inc."
 90
     1024
 91
        0
280
     0
281
     0
  0
CLASS
  1
ACMDATUMSTANDARDDIN
  2
AcmDatumStdDIN
  3
"Amdt_StdImp|Product Description: AutoCAD Mechanical|Company: Autodesk, Inc."
 90
     1024
 91
        0
280
     0
281
     0
  0
CLASS
  1
ACMBOMSTANDARDDIN
  2
AcmBOMStdDIN
  3
"Amdt_StdImp|Product Description: AutoCAD Mechanical|Company: Autodesk, Inc."
 90
     1024
 91
        0
280
     0
281
     0
  0
CLASS
  1
ACMSURFSTANDARDISO
  2
AcmSurfTextStdISO
  3
"Amdt_StdImp|Product Description: AutoCAD Mechanical|Company: Autodesk, Inc."
 90
     1024
 91
        1
280
     0
281
     0
  0
CLASS
  1
ACMFCFSTANDARDISO
  2
AcmFCFStdISO
  3
"Amdt_StdImp|Product Description: AutoCAD Mechanical|Company: Autodesk, Inc."
 90
     1024
 91
        1
280
     0
281
     0
  0
CLASS
  1
ACMWELDSTANDARDISO
  2
AcmWeldingStdISO
  3
"Amdt_StdImp|Product Description: AutoCAD Mechanical|Company: Autodesk, Inc."
 90
     1024
 91
        1
280
     0
281
     0
  0
CLASS
  1
ACMIDSTANDARDISO
  2
AcmIdStdISO
  3
"Amdt_StdImp|Product Description: AutoCAD Mechanical|Company: Autodesk, Inc."
 90
     1024
 91
        1
280
     0
281
     0
  0
CLASS
  1
ACMDATUMSTANDARDISO
  2
AcmDatumStdISO
  3
"Amdt_StdImp|Product Description: AutoCAD Mechanical|Company: Autodesk, Inc."
 90
     1024
 91
        1
280
     0
281
     0
  0
CLASS
  1
ACMBOMSTANDARDISO
  2
AcmBOMStdISO
  3
"Amdt_StdImp|Product Description: AutoCAD Mechanical|Company: Autodesk, Inc."
 90
     1024
 91
        1
280
     0
281
     0
  0
CLASS
  1
AMDTBROWSERDBTAB
  2
AmdtBrowserDbTab
  3
McadcomServices
 90
     1024
 91
        1
280
     0
281
     0
  0
CLASS
  1
ACAMGFILTERDAT
  2
AcAmgFilterDat
  3
"AcadM|Product Description: AutoCAD Mechanical|Company: Autodesk, Inc."
 90
     1024
 91
        4
280
     0
281
     0
  0
CLASS
  1
MAPIAMMOUDLE
  2
MApiAmModule
  3
MApiAmServices
 90
     1024
 91
        1
280
     0
281
     0
  0
CLASS
  1
AMDTMAPISURFMOUDULE
  2
AmdtMApiSurfModule
  3
MApiSurfServices
 90
     1024
 91
        2
280
     0
281
     0
  0
CLASS
  1
ACAMGLAYSTD
  2
AcAmgLayStd
  3
"AmgLay|Product Description: AutoCAD Mechanical|Company: Autodesk, Inc."
 90
     1024
 91
        2
280
     0
281
     0
  0
CLASS
  1
ACAMGDIMSTD
  2
AcAmgDimStd
  3
"AmgDim|Product Description: AutoCAD Mechanical|Company: Autodesk, Inc."
 90
     1024
 91
        2
280
     0
281
     0
  0
CLASS
  1
ACAMGTITLESTD
  2
AcAmgTitleStd
  3
"AmgTitle|Product Description: AutoCAD Mechanical|Company: Autodesk, Inc."
 90
     1024
 91
        2
280
     0
281
     0
  0
CLASS
  1
ACMDETAILSTANDARDJIS
  2
AmdtDetailSymStdJIS
  3
"Amdt_StdImp|Product Description: AutoCAD Mechanical|Company: Autodesk, Inc."
 90
     1024
 91
        0
280
     0
281
     0
  0
CLASS
  1
ACMSECTIONSTANDARDJIS
  2
AmdtSectionSymStdJIS
  3
"Amdt_StdImp|Product Description: AutoCAD Mechanical|Company: Autodesk, Inc."
 90
     1024
 91
        0
280
     0
281
     0
  0
CLASS
  1
ACMCENTERLINESTANDARDJIS
  2
AmdtCenterLineStdJIS
  3
"Amdt_StdImp|Product Description: AutoCAD Mechanical|Company: Autodesk, Inc."
 90
     1024
 91
        0
280
     0
281
     0
  0
CLASS
  1
ACMTHREADLINESTANDARDJIS
  2
AmdtThreadLineStdJIS
  3
"Amdt_StdImp|Product Description: AutoCAD Mechanical|Company: Autodesk, Inc."
 90
     1024
 91
        0
280
     0
281
     0
  0
CLASS
  1
ACMDETAILSTANDARDANSI
  2
AmdtDetailSymStdANSI
  3
"Amdt_StdImp|Product Description: AutoCAD Mechanical|Company: Autodesk, Inc."
 90
     1024
 91
        0
280
     0
281
     0
  0
CLASS
  1
ACMSECTIONSTANDARDANSI
  2
AmdtSectionSymStdANSI
  3
"Amdt_StdImp|Product Description: AutoCAD Mechanical|Company: Autodesk, Inc."
 90
     1024
 91
        0
280
     0
281
     0
  0
CLASS
  1
ACMCENTERLINESTANDARDANSI
  2
AmdtCenterLineStdANSI
  3
"Amdt_StdImp|Product Description: AutoCAD Mechanical|Company: Autodesk, Inc."
 90
     1024
 91
        1
280
     0
281
     0
  0
CLASS
  1
ACMTHREADLINESTANDARDANSI
  2
AmdtThreadLineStdANSI
  3
"Amdt_StdImp|Product Description: AutoCAD Mechanical|Company: Autodesk, Inc."
 90
     1024
 91
        1
280
     0
281
     0
  0
CLASS
  1
ACMDETAILSTANDARDBSI
  2
AmdtDetailSymStdBSI
  3
"Amdt_StdImp|Product Description: AutoCAD Mechanical|Company: Autodesk, Inc."
 90
     1024
 91
        0
280
     0
281
     0
  0
CLASS
  1
ACMSECTIONSTANDARDBSI
  2
AmdtSectionSymStdBSI
  3
"Amdt_StdImp|Product Description: AutoCAD Mechanical|Company: Autodesk, Inc."
 90
     1024
 91
        0
280
     0
281
     0
  0
CLASS
  1
ACMCENTERLINESTANDARDBSI
  2
AmdtCenterLineStdBSI
  3
"Amdt_StdImp|Product Description: AutoCAD Mechanical|Company: Autodesk, Inc."
 90
     1024
 91
        0
280
     0
281
     0
  0
CLASS
  1
ACMTHREADLINESTANDARDBSI
  2
AmdtThreadLineStdBSI
  3
"Amdt_StdImp|Product Description: AutoCAD Mechanical|Company: Autodesk, Inc."
 90
     1024
 91
        0
280
     0
281
     0
  0
CLASS
  1
ACMDETAILSTANDARDDIN
  2
AmdtDetailSymStdDIN
  3
"Amdt_StdImp|Product Description: AutoCAD Mechanical|Company: Autodesk, Inc."
 90
     1024
 91
        0
280
     0
281
     0
  0
CLASS
  1
ACMSECTIONSTANDARDDIN
  2
AmdtSectionSymStdDIN
  3
"Amdt_StdImp|Product Description: AutoCAD Mechanical|Company: Autodesk, Inc."
 90
     1024
 91
        0
280
     0
281
     0
  0
CLASS
  1
ACMCENTERLINESTANDARDDIN
  2
AmdtCenterLineStdDIN
  3
"Amdt_StdImp|Product Description: AutoCAD Mechanical|Company: Autodesk, Inc."
 90
     1024
 91
        0
280
     0
281
     0
  0
CLASS
  1
ACMTHREADLINESTANDARDDIN
  2
AmdtThreadLineStdDIN
  3
"Amdt_StdImp|Product Description: AutoCAD Mechanical|Company: Autodesk, Inc."
 90
     1024
 91
        0
280
     0
281
     0
  0
CLASS
  1
AMDTEDGESTANDARDISO
  2
AmdtEdgeStdISO
  3
"Amdt_StdImp|Product Description: AutoCAD Mechanical|Company: Autodesk, Inc."
 90
     1024
 91
        1
280
     0
281
     0
  0
CLASS
  1
ACMDETAILSTANDARDISO
  2
AmdtDetailSymStdISO
  3
"Amdt_StdImp|Product Description: AutoCAD Mechanical|Company: Autodesk, Inc."
 90
     1024
 91
        1
280
     0
281
     0
  0
CLASS
  1
ACMSECTIONSTANDARDISO
  2
AmdtSectionSymStdISO
  3
"Amdt_StdImp|Product Description: AutoCAD Mechanical|Company: Autodesk, Inc."
 90
     1024
 91
        1
280
     0
281
     0
  0
CLASS
  1
ACMCENTERLINESTANDARDISO
  2
AmdtCenterLineStdISO
  3
"Amdt_StdImp|Product Description: AutoCAD Mechanical|Company: Autodesk, Inc."
 90
     1024
 91
        1
280
     0
281
     0
  0
CLASS
  1
ACMTHREADLINESTANDARDISO
  2
AmdtThreadLineStdISO
  3
"Amdt_StdImp|Product Description: AutoCAD Mechanical|Company: Autodesk, Inc."
 90
     1024
 91
        1
280
     0
281
     0
  0
CLASS
  1
ACMNOTESTANDARDISO
  2
AmdtNoteStdISO
  3
"Amdt_StdImp|Product Description: AutoCAD Mechanical|Company: Autodesk, Inc."
 90
     1024
 91
        1
280
     0
281
     0
  0
CLASS
  1
ACAMGHOLECHARTSTDISO
  2
AcAmgHoleChartStdISO
  3
"AmgDim" "Product Description: AutoCAD Mechanical|Company: Autodesk, Inc."
 90
     1024
 91
        1
280
     0
281
     0
  0
CLASS
  1
ACMNOTESTANDARDANSI
  2
AmdtNoteStdANSI
  3
"Amdt_StdImp|Product Description: AutoCAD Mechanical|Company: Autodesk, Inc."
 90
     1024
 91
        1
280
     0
281
     0
  0
CLASS
  1
AMDTNOTETEMPLATEDB
  2
AmdtNoteTemplateDB
  3
"AcmSymBB" "Product Description: AutoCAD Mechanical|Company: Autodesk, Inc."
 90
     1024
 91
        8
280
     0
281
     0
  0
CLASS
  1
ACAMGHOLECHARTSTDANSI
  2
AcAmgHoleChartStdANSI
  3
"AmgDim" "Product Description: AutoCAD Mechanical|Company: Autodesk, Inc."
 90
     1024
 91
        1
280
     0
281
     0
  0
CLASS
  1
TABLESTYLE
  2
AcDbTableStyle
  3
ObjectDBX Classes
 90
     4095
 91
        1
280
     0
281
     0
  0
CLASS
  1
ACAD_TABLE
  2
AcDbTable
  3
ObjectDBX Classes
 90
     1025
 91
        0
280
     0
281
     1
  0
CLASS
  1
MATERIAL
  2
AcDbMaterial
  3
ObjectDBX Classes
 90
     1153
 91
        3
280
     0
281
     0
  0
CLASS
  1
VISUALSTYLE
  2
AcDbVisualStyle
  3
ObjectDBX Classes
 90
     4095
 91
       26
280
     0
281
     0
  0
CLASS
  1
SCALE
  2
AcDbScale
  3
ObjectDBX Classes
 90
     1153
 91
       17
280
     0
281
     0
  0
CLASS
  1
MLEADERSTYLE
  2
AcDbMLeaderStyle
  3
ACDB_MLEADERSTYLE_CLASS
 90
     4095
 91
        1
280
     0
281
     0
  0
CLASS
  1
ACRFATTGENMGR
  2
AcRfAttGeneralMgr
  3
AcAttribServices
 90
     1024
 91
        1
280
     0
281
     0
  0
CLASS
  1
ACRFOBJATTMGR
  2
AcRfObjAttGroupMgr
  3
AcAttribServices
 90
     1024
 91
        1
280
     0
281
     0
  0
CLASS
  1
ACRFMCADAPIATTHOLDER
  2
AcRfMCADAPIAttHolder
  3
AcAttribServices
 90
     1024
 91
        1
280
     0
281
     0
  0
CLASS
  1
AMDTSYSATTR
  2
AmdtSystemAttribute
  3
AcAttribServices
 90
     1024
 91
        5
280
     0
281
     0
  0
CLASS
  1
ACMTAPERSTANDARDISO
  2
AcmTaperStdISO
  3
"Amdt_StdImp|Product Description: AutoCAD Mechanical|Company: Autodesk, Inc."
 90
     1024
 91
        1
280
     0
281
     0
  0
CLASS
  1
ACMANOOTATIONVIEWSTANDARDISO
  2
AmdtAnViewStdISO
  3
"Amdt_StdImp|Product Description: AutoCAD Mechanical|Company: Autodesk, Inc."
 90
     1024
 91
        1
280
     0
281
     0
  0
CLASS
  1
ACMTAPERSTANDARDANSI
  2
AcmTaperStdANSI
  3
"Amdt_StdImp|Product Description: AutoCAD Mechanical|Company: Autodesk, Inc."
 90
     1024
 91
        1
280
     0
281
     0
  0
CLASS
  1
ACMANOOTATIONVIEWSTANDARDANSI
  2
AmdtAnViewStdANSI
  3
"Amdt_StdImp|Product Description: AutoCAD Mechanical|Company: Autodesk, Inc."
 90
     1024
 91
        1
280
     0
281
     0
  0
CLASS
  1
CELLSTYLEMAP
  2
AcDbCellStyleMap
  3
ObjectDBX Classes
 90
     1152
 91
        1
280
     0
281
     0
  0
CLASS
  1
CAMSSTRUCTBTNSTATE
  2
StructBtnState
  3
DesignerAssemblies_arx
 90
     1024
 91
        1
280
     0
281
     0
  0
CLASS
  1
ACDBSECTIONVIEWSTYLE
  2
AcDbSectionViewStyle
  3
ObjectDBX Classes
 90
     1025
 91
        6
280
     0
281
     0
  0
CLASS
  1
ACDBDETAILVIEWSTYLE
  2
AcDbDetailViewStyle
  3
ObjectDBX Classes
 90
     1025
 91
        5
280
     0
281
     0
  0
CLASS
  1
FIELD
  2
AcDbField
  3
ObjectDBX Classes
 90
     1152
 91
       17
280
     0
281
     0
  0
CLASS
  1
SORTENTSTABLE
  2
AcDbSortentsTable
  3
ObjectDBX Classes
 90
        0
 91
        2
280
     0
281
     0
  0
CLASS
  1
FIELDLIST
  2
AcDbFieldList
  3
ObjectDBX Classes
 90
     1152
 91
        1
280
     0
281
     0
  0
CLASS
  1
ACMSECTIONSTANDARDCUSTOM
  2
AmdtSectionSymStdCustom
  3
"Amdt_StdImp|Product Description: AutoCAD Mechanical|Company: Autodesk, Inc."
 90
     1024
 91
       10
280
     0
281
     0
  0
CLASS
  1
ACMDETAILTANDARDCUSTOM
  2
AmdtDetailSymStdCustom
  3
"Amdt_StdImp|Product Description: AutoCAD Mechanical|Company: Autodesk, Inc."
 90
     1024
 91
        8
280
     0
281
     0
  0
CLASS
  1
EXACXREFPANELOBJECT
  2
ExAcXREFPanelObject
  3
EXAC_ESW
 90
     1025
 91
        0
280
     0
281
     0
  0
CLASS
  1
NPOCOLLECTION
  2
AcDbImpNonPersistentObjectsCollection
  3
ObjectDBX Classes
 90
     1153
 91
        0
280
     0
281
     0
  0
CLASS
  1
ACAD_EVALUATION_GRAPH
  2
AcDbEvalGraph
  3
ObjectDBX Classes
 90
     1153
 91
        1
280
     0
281
     0
  0
CLASS
  1
ACAECUSTOBJ
  2
AcAeEditorObj
  3
AcAeEditorObj
 90
     1024
 91
        0
280
     0
281
     0
  0
CLASS
  1
ACDB_DYNAMICBLOCKPURGEPREVENTER_VERSION
  2
AcDbDynamicBlockPurgePreventer
  3
ObjectDBX Classes
 90
     1153
 91
        1
280
     0
281
     0
  0
CLASS
  1
PLOTSETTINGS
  2
AcDbPlotSettings
  3
ObjectDBX Classes
 90
        0
 91
        1
280
     0
281
     0
  0
CLASS
  1
DIMASSOC
  2
AcDbDimAssoc
  3
"AcDbDimAssoc|Product Desc:     AcDim ARX App For Dimension|Company:          Autodesk, Inc.|WEB Address:      www.autodesk.com"
 90
        0
 91
        5
280
     0
281
     0
  0
ENDSEC
  0
SECTION
  2
TABLES
  0
TABLE
  2
VPORT
  5
8
330
0
100
AcDbSymbolTable
 70
     1
1001
ACAD
1000
DbSaveVer
1071
      282
  0
VPORT
  5
A35
330
8
100
AcDbSymbolTableRecord
100
AcDbViewportTableRecord
  2
*Active
 70
     0
 10
0.0
 20
0.0
 11
1.0
 21
1.0
 12
-14.86441882834052
 22
-13.41968831540134
 13
0.0
 23
0.0
 14
2.5
 24
2.5
 15
10.0
 25
10.0
 16
0.0
 26
0.0
 36
1.0
 17
0.0
 27
0.0
 37
0.0
 40
309.8708162916329
 41
1.687162891046386
 42
50.0
 43
0.0
 44
0.0
 50
0.0
 51
0.0
 71
     0
 72
   100
 73
     1
 74
     1
 75
     0
 76
     0
 77
     0
 78
     0
281
     0
 65
     0
110
0.0
120
0.0
130
0.0
111
1.0
121
0.0
131
0.0
112
0.0
122
1.0
132
0.0
 79
     0
146
0.0
348
A55
 60
     3
 61
     5
292
     1
282
     1
141
0.0
142
0.0
 63
   250
421
  3355443
1001
ACAD_NAV_VCDISPLAY
1070
     3
  0
ENDTAB
  0
TABLE
  2
LTYPE
  5
5
330
0
100
AcDbSymbolTable
 70
    20
  0
LTYPE
  5
14
330
5
100
AcDbSymbolTableRecord
100
AcDbLinetypeTableRecord
  2
BYBLOCK
 70
     0
  3

 72
    65
 73
     0
 40
0.0
  0
LTYPE
  5
15
330
5
100
AcDbSymbolTableRecord
100
AcDbLinetypeTableRecord
  2
BYLAYER
 70
     0
  3

 72
    65
 73
     0
 40
0.0
  0
LTYPE
  5
16
330
5
100
AcDbSymbolTableRecord
100
AcDbLinetypeTableRecord
  2
CONTINUOUS
 70
     0
  3
Solid line
 72
    65
 73
     0
 40
0.0
  0
LTYPE
  5
BD
330
5
100
AcDbSymbolTableRecord
100
AcDbLinetypeTableRecord
  2
HIDDEN
 70
     0
  3
__ __ __ __ __ __ __ __ __ __ __ __ __ __ __ __
 72
    65
 73
     2
 40
0.375
 49
0.25
 74
     0
 49
-0.125
 74
     0
  0
LTYPE
  5
BF
330
5
100
AcDbSymbolTableRecord
100
AcDbLinetypeTableRecord
  2
PHANTOM2
 70
     0
  3
___ _ _ ___ _ _ ___ _ _ ___ _ _ ___ _ _ ___ _ _
 72
    65
 73
     6
 40
1.25
 49
0.625
 74
     0
 49
-0.125
 74
     0
 49
0.125
 74
     0
 49
-0.125
 74
     0
 49
0.125
 74
     0
 49
-0.125
 74
     0
  0
LTYPE
  5
CA
330
5
100
AcDbSymbolTableRecord
100
AcDbLinetypeTableRecord
  2
CENTER
 70
     0
  3
____ _ ____ _ ____ _ ____ _ ____ _ ____ _ ____ 
 72
    65
 73
     4
 40
2.0
 49
1.25
 74
     0
 49
-0.25
 74
     0
 49
0.25
 74
     0
 49
-0.25
 74
     0
  0
LTYPE
  5
14D
330
5
100
AcDbSymbolTableRecord
100
AcDbLinetypeTableRecord
  2
ACANSTGB
 70
     0
  3
__ . . __ . .
 72
    65
 73
     6
 40
0.35433070866
 49
0.15748031496
 74
     0
 49
-0.03937007874
 74
     0
 49
0.03937007874
 74
     0
 49
-0.03937007874
 74
     0
 49
0.03937007874
 74
     0
 49
-0.03937007874
 74
     0
  0
LTYPE
  5
14E
330
5
100
AcDbSymbolTableRecord
100
AcDbLinetypeTableRecord
  2
ACANSTGL
 70
     0
  3
_ _ _ _ _
 72
    65
 73
     2
 40
0.11811023622
 49
0.07874015748
 74
     0
 49
-0.03937007874
 74
     0
  0
LTYPE
  5
15B
330
5
100
AcDbSymbolTableRecord
100
AcDbLinetypeTableRecord
  2
ACISOWELD
 70
     0
  3
_ _ _ _ _
 72
    65
 73
     2
 40
2.0
 49
2.0
 74
     0
 49
-1.0
 74
     0
  0
LTYPE
  5
15C
330
5
100
AcDbSymbolTableRecord
100
AcDbLinetypeTableRecord
  2
ACISOTGB
 70
     0
  3
__ . . __ . .
 72
    65
 73
     6
 40
9.0
 49
4.0
 74
     0
 49
-1.0
 74
     0
 49
1.0
 74
     0
 49
-1.0
 74
     0
 49
1.0
 74
     0
 49
-1.0
 74
     0
  0
LTYPE
  5
15D
330
5
100
AcDbSymbolTableRecord
100
AcDbLinetypeTableRecord
  2
ACISOTGL
 70
     0
  3
_ _ _ _ _
 72
    65
 73
     2
 40
3.0
 49
2.0
 74
     0
 49
-1.0
 74
     0
  0
LTYPE
  5
175
330
5
100
AcDbSymbolTableRecord
100
AcDbLinetypeTableRecord
  2
AM_ISO02W050
 70
     0
  3
__ __ __ __ __ __ __ __ __ __ __ __ __ __ __
 72
    65
 73
     2
 40
7.5
 49
6.0
 74
     0
 49
-1.5
 74
     0
  0
LTYPE
  5
176
330
5
100
AcDbSymbolTableRecord
100
AcDbLinetypeTableRecord
  2
AM_ISO08W050
 70
     0
  3
____ . ____ . ____ . ____ . ____ . ____ . ____
 72
    65
 73
     4
 40
18.0
 49
12.0
 74
     0
 49
-1.5
 74
     0
 49
3.0
 74
     0
 49
-1.5
 74
     0
  0
LTYPE
  5
177
330
5
100
AcDbSymbolTableRecord
100
AcDbLinetypeTableRecord
  2
AM_ISO09W050
 70
     0
  3
_____ . . _____ . . _____ . . ____ .. ____
 72
    65
 73
     6
 40
22.5
 49
12.0
 74
     0
 49
-1.5
 74
     0
 49
3.0
 74
     0
 49
-1.5
 74
     0
 49
3.0
 74
     0
 49
-1.5
 74
     0
  0
LTYPE
  5
178
330
5
100
AcDbSymbolTableRecord
100
AcDbLinetypeTableRecord
  2
AM_ISO02W050x2
 70
     0
  3
 _ _ _ _ _ _ _ _ _ _ _ _
 72
    65
 73
     2
 40
3.75
 49
3.0
 74
     0
 49
-0.75
 74
     0
  0
LTYPE
  5
179
330
5
100
AcDbSymbolTableRecord
100
AcDbLinetypeTableRecord
  2
AM_ISO08W050x2
 70
     0
  3
__ . __ . __ . __ . __ . __
 72
    65
 73
     4
 40
9.0
 49
6.0
 74
     0
 49
-0.75
 74
     0
 49
1.5
 74
     0
 49
-0.75
 74
     0
  0
LTYPE
  5
17C
330
5
100
AcDbSymbolTableRecord
100
AcDbLinetypeTableRecord
  2
Amzigzag
 70
     0
  3
/\/-/\/-/\/-/\/-/\/-/\/
 72
    65
 73
     2
 40
11.0001
 49
0.0001
 74
     4
 75
   135
340
17B
 46
0.04
 50
0.0
 44
0.0
 45
0.0
 49
-11.0
 74
     0
  0
LTYPE
  5
2ED
330
5
100
AcDbSymbolTableRecord
100
AcDbLinetypeTableRecord
  2
Amconstr
 70
     0
  3
_______________________
 72
    65
 73
     2
 40
9999.0
 49
9999.0
 74
     0
 49
0.0
 74
     0
  0
LTYPE
  5
2F8
330
5
100
AcDbSymbolTableRecord
100
AcDbLinetypeTableRecord
  2
CENTER2
 70
     0
  3
Center (.5x) ___ _ ___ _ ___ _ ___ _ ___ _ ___
 72
    65
 73
     4
 40
1.125
 49
0.75
 74
     0
 49
-0.125
 74
     0
 49
0.125
 74
     0
 49
-0.125
 74
     0
  0
LTYPE
  5
2F9
330
5
100
AcDbSymbolTableRecord
100
AcDbLinetypeTableRecord
  2
HIDDEN2
 70
     0
  3
Hidden (.5x) _ _ _ _ _ _ _ _ _ _ _ _ _ _ _ _ _
 72
    65
 73
     2
 40
0.1875
 49
0.125
 74
     0
 49
-0.0625
 74
     0
  0
LTYPE
  5
2FA
330
5
100
AcDbSymbolTableRecord
100
AcDbLinetypeTableRecord
  2
Amzigzag2
 70
     0
  3
/\/-/\/-/\/-/\/-/\/-/\/
 72
    65
 73
     2
 40
0.4401
 49
0.0001
 74
     4
 75
   135
340
17B
 46
0.0016
 50
0.0
 44
0.0
 45
0.0
 49
-0.4400000000000001
 74
     0
  0
ENDTAB
  0
TABLE
  2
LAYER
  5
2
102
{ACAD_XDICTIONARY
360
592
102
}
330
0
100
AcDbSymbolTable
 70
    13
  0
LAYER
  5
F
102
{ACAD_XDICTIONARY
360
AB7
102
}
330
2
100
AcDbSymbolTableRecord
100
AcDbLayerTableRecord
  2
0
 70
     0
 62
     7
  6
CONTINUOUS
370
    -3
390
166
347
A47
348
0
  0
LAYER
  5
5CF
102
{ACAD_XDICTIONARY
360
AB9
102
}
330
2
100
AcDbSymbolTableRecord
100
AcDbLayerTableRecord
  2
AM_0
 70
     0
 62
     7
  6
CONTINUOUS
370
    50
390
166
347
A47
348
0
  0
LAYER
  5
3347
330
2
100
AcDbSymbolTableRecord
100
AcDbLayerTableRecord
  2
Defpoints
 70
     0
 62
     7
  6
CONTINUOUS
290
     0
370
    -3
390
166
347
A47
348
0
  0
LAYER
  5
39A5
102
{ACAD_XDICTIONARY
360
3BAD
102
}
330
2
100
AcDbSymbolTableRecord
100
AcDbLayerTableRecord
  2
DIM
 70
     0
 62
     3
  6
CONTINUOUS
370
    25
390
166
347
A47
348
0
1001
AcAecLayerStandard
1000

1000

  0
ENDTAB
  0
TABLE
  2
STYLE
  5
3
330
0
100
AcDbSymbolTable
 70
     9
  0
STYLE
  5
10
330
3
100
AcDbSymbolTableRecord
100
AcDbTextStyleTableRecord
  2
STANDARD
 70
     0
 40
0.0
 41
1.0
 50
0.0
 71
     0
 42
3.5
  3
ISOCP.SHX
  4

  0
STYLE
  5
14C
330
3
100
AcDbSymbolTableRecord
100
AcDbTextStyleTableRecord
  2
ACANSGDT
 70
     0
 40
0.0
 41
1.0
 50
0.0
 71
     0
 42
3.5
  3
amgdt.shx
  4

  0
STYLE
  5
159
330
3
100
AcDbSymbolTableRecord
100
AcDbTextStyleTableRecord
  2
ACISOTS
 70
     0
 40
1.0
 41
1.0
 50
0.0
 71
     0
 42
2.5
  3
isocp.shx
  4

  0
STYLE
  5
15A
330
3
100
AcDbSymbolTableRecord
100
AcDbTextStyleTableRecord
  2
ACISOGDT
 70
     0
 40
0.0
 41
1.0
 50
0.0
 71
     0
 42
2.5
  3
amgdt.shx
  4

  0
STYLE
  5
17B
330
3
100
AcDbSymbolTableRecord
100
AcDbTextStyleTableRecord
  2

 70
     1
 40
0.0
 41
1.0
 50
0.0
 71
     0
 42
3.5
  3
ltypeshp.shx
  4

  0
STYLE
  5
425
330
3
100
AcDbSymbolTableRecord
100
AcDbTextStyleTableRecord
  2
ACANSTS
 70
     0
 40
1.0
 41
1.0
 50
0.0
 71
     0
 42
3.5
  3
romans.shx
  4

  0
STYLE
  5
D0A
330
3
100
AcDbSymbolTableRecord
100
AcDbTextStyleTableRecord
  2
ISOCP
 70
     0
 40
0.0
 41
1.0
 50
0.0
 71
     0
 42
3.5
  3
isocp
  4

  0
ENDTAB
  0
TABLE
  2
VIEW
  5
6
330
0
100
AcDbSymbolTable
 70
     9
  0
VIEW
  5
1C8
330
6
100
AcDbSymbolTableRecord
100
AcDbViewTableRecord
  2
AMDTVIEW1
 70
     0
 40
329.0721649484536
 10
210.0
 20
164.5360824742268
 41
420.0
 11
0.0
 21
0.0
 31
1.0
 12
0.0
 22
0.0
 32
0.0
 42
50.0
 43
0.0
 44
0.0
 50
0.0
 71
     0
281
     0
 72
     0
 73
     0
348
A55
  0
VIEW
  5
1C9
330
6
100
AcDbSymbolTableRecord
100
AcDbViewTableRecord
  2
AMDTVIEW2
 70
     0
 40
329.0721649484536
 10
210.0
 20
164.5360824742268
 41
420.0
 11
0.0
 21
0.0
 31
1.0
 12
0.0
 22
0.0
 32
0.0
 42
50.0
 43
0.0
 44
0.0
 50
0.0
 71
     0
281
     0
 72
     0
 73
     0
348
A55
  0
VIEW
  5
1CA
330
6
100
AcDbSymbolTableRecord
100
AcDbViewTableRecord
  2
AMDTVIEW3
 70
     0
 40
329.0721649484536
 10
210.0
 20
164.5360824742268
 41
420.0
 11
0.0
 21
0.0
 31
1.0
 12
0.0
 22
0.0
 32
0.0
 42
50.0
 43
0.0
 44
0.0
 50
0.0
 71
     0
281
     0
 72
     0
 73
     0
348
A55
  0
VIEW
  5
FA2
330
6
100
AcDbSymbolTableRecord
100
AcDbViewTableRecord
  2
AM_VIEW1
 70
     0
 40
148.5
 10
116.6562170706006
 20
222.75
 41
233.3124341412013
 11
0.0
 21
0.0
 31
1.0
 12
0.0
 22
0.0
 32
0.0
 42
50.0
 43
0.0
 44
0.0
 50
0.0
 71
     0
281
     0
 72
     0
 73
     0
  0
VIEW
  5
FA3
330
6
100
AcDbSymbolTableRecord
100
AcDbViewTableRecord
  2
AM_VIEW2
 70
     0
 40
148.5
 10
303.3437829293994
 20
222.75
 41
233.3124341412013
 11
0.0
 21
0.0
 31
1.0
 12
0.0
 22
0.0
 32
0.0
 42
50.0
 43
0.0
 44
0.0
 50
0.0
 71
     0
281
     0
 72
     0
 73
     0
  0
VIEW
  5
FA4
330
6
100
AcDbSymbolTableRecord
100
AcDbViewTableRecord
  2
AM_VIEW3
 70
     0
 40
148.5
 10
116.6562170706006
 20
74.25
 41
233.3124341412013
 11
0.0
 21
0.0
 31
1.0
 12
0.0
 22
0.0
 32
0.0
 42
50.0
 43
0.0
 44
0.0
 50
0.0
 71
     0
281
     0
 72
     0
 73
     0
  0
VIEW
  5
FA5
330
6
100
AcDbSymbolTableRecord
100
AcDbViewTableRecord
  2
AM_VIEW4
 70
     0
 40
148.5
 10
303.3437829293994
 20
74.25
 41
233.3124341412013
 11
0.0
 21
0.0
 31
1.0
 12
0.0
 22
0.0
 32
0.0
 42
50.0
 43
0.0
 44
0.0
 50
0.0
 71
     0
281
     0
 72
     0
 73
     0
  0
VIEW
  5
FA6
330
6
100
AcDbSymbolTableRecord
100
AcDbViewTableRecord
  2
AM_VIEW5
 70
     0
 40
148.5
 10
210.0
 20
148.5
 41
233.3124341412013
 11
0.0
 21
0.0
 31
1.0
 12
0.0
 22
0.0
 32
0.0
 42
50.0
 43
0.0
 44
0.0
 50
0.0
 71
     0
281
     0
 72
     0
 73
     0
  0
VIEW
  5
FA7
330
6
100
AcDbSymbolTableRecord
100
AcDbViewTableRecord
  2
AM_VIEW6
 70
     0
 40
296.99703
 10
210.0
 20
148.5
 41
466.6202020337196
 11
0.0
 21
0.0
 31
1.0
 12
0.0
 22
0.0
 32
0.0
 42
50.0
 43
0.0
 44
0.0
 50
0.0
 71
     0
281
     0
 72
     0
 73
     0
  0
ENDTAB
  0
TABLE
  2
UCS
  5
7
330
0
100
AcDbSymbolTable
 70
     0
  0
ENDTAB
  0
TABLE
  2
APPID
  5
9
330
0
100
AcDbSymbolTable
 70
    42
  0
APPID
  5
11
330
9
100
AcDbSymbolTableRecord
100
AcDbRegAppTableRecord
  2
ACAD
 70
     0
  0
APPID
  5
CD
330
9
100
AcDbSymbolTableRecord
100
AcDbRegAppTableRecord
  2
AD_DRAW
 70
     0
  0
APPID
  5
E7
330
9
100
AcDbSymbolTableRecord
100
AcDbRegAppTableRecord
  2
DESIGNERASSEMBLIES
 70
     0
  0
APPID
  5
EB
330
9
100
AcDbSymbolTableRecord
100
AcDbRegAppTableRecord
  2
MCAD_NO_VIS
 70
     0
  0
APPID
  5
122
330
9
100
AcDbSymbolTableRecord
100
AcDbRegAppTableRecord
  2
ASURF_PCURVE_APPNAME
 70
     0
  0
APPID
  5
17F
330
9
100
AcDbSymbolTableRecord
100
AcDbRegAppTableRecord
  2
ACAD_TEMP_GRAPHIC
 70
     0
  0
APPID
  5
189
330
9
100
AcDbSymbolTableRecord
100
AcDbRegAppTableRecord
  2
ACATTRIBSERVICES
 70
     0
  0
APPID
  5
1C4
330
9
100
AcDbSymbolTableRecord
100
AcDbRegAppTableRecord
  2
ACADM_DIM_EDIT
 70
     0
  0
APPID
  5
1D5
330
9
100
AcDbSymbolTableRecord
100
AcDbRegAppTableRecord
  2
GENIUS_GENDIM_13
 70
     0
  0
APPID
  5
1D6
330
9
100
AcDbSymbolTableRecord
100
AcDbRegAppTableRecord
  2
GENIUS_GENDTOL_13
 70
     0
  0
APPID
  5
1D7
330
9
100
AcDbSymbolTableRecord
100
AcDbRegAppTableRecord
  2
GENIUS_GE3DTOL_13
 70
     0
  0
APPID
  5
2E9
330
9
100
AcDbSymbolTableRecord
100
AcDbRegAppTableRecord
  2
AMG_3D2D_5.0
 70
     0
  0
APPID
  5
3C0
330
9
100
AcDbSymbolTableRecord
100
AcDbRegAppTableRecord
  2
AMDT_DM_ADJ
 70
     0
  0
APPID
  5
82F
330
9
100
AcDbSymbolTableRecord
100
AcDbRegAppTableRecord
  2
ACAD_PSEXT
 70
     0
  0
APPID
  5
84A
330
9
100
AcDbSymbolTableRecord
100
AcDbRegAppTableRecord
  2
DCO15
 70
     0
  0
APPID
  5
892
330
9
100
AcDbSymbolTableRecord
100
AcDbRegAppTableRecord
  2
ACAD_DSTYLE_DIMTEXT_FILL
 70
     0
  0
APPID
  5
A74
330
9
100
AcDbSymbolTableRecord
100
AcDbRegAppTableRecord
  2
ACAD_MLEADERVER
 70
     0
  0
APPID
  5
AB1
330
9
100
AcDbSymbolTableRecord
100
AcDbRegAppTableRecord
  2
AcAecLayerStandard
 70
     0
  0
APPID
  5
CE6
330
9
100
AcDbSymbolTableRecord
100
AcDbRegAppTableRecord
  2
ACAD_NAV_VCDISPLAY
 70
     0
  0
APPID
  5
D0F
330
9
100
AcDbSymbolTableRecord
100
AcDbRegAppTableRecord
  2
ACAD_DSTYLE_DIMARC_LENGTH_SYMBOL
 70
     0
  0
APPID
  5
D10
330
9
100
AcDbSymbolTableRecord
100
AcDbRegAppTableRecord
  2
ACAD_DSTYLE_DIMJOGGED_JOGANGLE_SYMBOL
 70
     0
  0
APPID
  5
D11
330
9
100
AcDbSymbolTableRecord
100
AcDbRegAppTableRecord
  2
ACAD_EXEMPT_FROM_CAD_STANDARDS
 70
     0
  0
APPID
  5
D91
330
9
100
AcDbSymbolTableRecord
100
AcDbRegAppTableRecord
  2
GENIUS_GENTRA_14
 70
     0
  0
APPID
  5
D92
330
9
100
AcDbSymbolTableRecord
100
AcDbRegAppTableRecord
  2
ACAD_DSTYLE_DIMBREAK
 70
     0
  0
APPID
  5
D93
330
9
100
AcDbSymbolTableRecord
100
AcDbRegAppTableRecord
  2
ACAD_DSTYLE_DIMJAG
 70
     0
  0
APPID
  5
D94
330
9
100
AcDbSymbolTableRecord
100
AcDbRegAppTableRecord
  2
ACAD_DSTYLE_DIMTALN
 70
     0
  0
APPID
  5
F9C
330
9
100
AcDbSymbolTableRecord
100
AcDbRegAppTableRecord
  2
GENIUS_GENOBJ-N-TIT_13
 70
     0
  0
APPID
  5
F9D
330
9
100
AcDbSymbolTableRecord
100
AcDbRegAppTableRecord
  2
GENIUS_GENOLIS_13
 70
     0
  0
APPID
  5
F9E
330
9
100
AcDbSymbolTableRecord
100
AcDbRegAppTableRecord
  2
GENIUS_GENODEF_13
 70
     0
  0
APPID
  5
F9F
330
9
100
AcDbSymbolTableRecord
100
AcDbRegAppTableRecord
  2
GENIUS_GENOENT_13
 70
     0
  0
APPID
  5
FA0
330
9
100
AcDbSymbolTableRecord
100
AcDbRegAppTableRecord
  2
GENIUS_GENTITLE_13
 70
     0
  0
APPID
  5
FA1
330
9
100
AcDbSymbolTableRecord
100
AcDbRegAppTableRecord
  2
GENIUS_GENOREF_13
 70
     0
  0
APPID
  5
FA8
330
9
100
AcDbSymbolTableRecord
100
AcDbRegAppTableRecord
  2
GENIUS_GENSCREG_15
 70
     0
  0
APPID
  5
FA9
330
9
100
AcDbSymbolTableRecord
100
AcDbRegAppTableRecord
  2
GENIUS_GENOBJ-N-SDF_13
 70
     0
  0
APPID
  5
14AF
330
9
100
AcDbSymbolTableRecord
100
AcDbRegAppTableRecord
  2
ACAD_OBJECT_CHANGE_GUID
 70
     0
  0
APPID
  5
16D9
330
9
100
AcDbSymbolTableRecord
100
AcDbRegAppTableRecord
  2
ACAUTHENVIRON
 70
     0
  0
APPID
  5
18D6
330
9
100
AcDbSymbolTableRecord
100
AcDbRegAppTableRecord
  2
AcDbDynamicBlockTrueName
 70
     0
  0
APPID
  5
18D7
330
9
100
AcDbSymbolTableRecord
100
AcDbRegAppTableRecord
  2
AcDbDynamicBlockGUID
 70
     0
  0
APPID
  5
2A26
330
9
100
AcDbSymbolTableRecord
100
AcDbRegAppTableRecord
  2
PE_URL
 70
     0
  0
APPID
  5
3778
330
9
100
AcDbSymbolTableRecord
100
AcDbRegAppTableRecord
  2
AcDbBlockRepETag
 70
     0
  0
APPID
  5
38A6
330
9
100
AcDbSymbolTableRecord
100
AcDbRegAppTableRecord
  2
ACAD_DSTYLE_DIMINSPECT
 70
     0
  0
APPID
  5
38B9
330
9
100
AcDbSymbolTableRecord
100
AcDbRegAppTableRecord
  2
AcadAnnoMonitorAlertIconDisabled
 70
     0
  0
ENDTAB
  0
TABLE
  2
DIMSTYLE
  5
A
330
0
100
AcDbSymbolTable
 70
    16
100
AcDbDimStyleTable
 71
     2
340
344
340
31B
  0
DIMSTYLE
105
31C
330
A
100
AcDbSymbolTableRecord
100
AcDbDimStyleTableRecord
  2
AM_ANSI$3
 70
     0
  4
mm
 41
0.1
 42
0.05
 43
0.5
 44
0.1
 47
0.1
 48
0.1
 78
     7
 79
     2
140
0.12
141
0.0
146
0.71
147
0.06
176
   256
177
   256
178
     2
274
     4
284
     7
288
     1
289
     0
340
10
371
    -1
372
    -1
  0
DIMSTYLE
105
31D
330
A
100
AcDbSymbolTableRecord
100
AcDbDimStyleTableRecord
  2
AM_ANSI$4
 70
     0
  4
mm
 41
0.1
 42
0.05
 43
0.5
 44
0.1
 47
0.1
 48
0.1
 78
     7
 79
     2
140
0.12
141
0.0
146
0.71
147
0.06
176
   256
177
   256
178
     2
274
     4
284
     7
288
     1
289
     0
340
10
371
    -1
372
    -1
  0
DIMSTYLE
105
31E
330
A
100
AcDbSymbolTableRecord
100
AcDbDimStyleTableRecord
  2
AM_ANSI$7
 70
     0
  4
mm
 41
0.1
 42
0.05
 43
0.5
 44
0.1
 47
0.1
 48
0.1
 78
     7
 79
     2
140
0.24
141
0.0
146
0.71
147
0.06
176
   256
177
   256
178
     2
274
     4
284
     7
340
10
371
    -1
372
    -1
  0
DIMSTYLE
105
31F
330
A
100
AcDbSymbolTableRecord
100
AcDbDimStyleTableRecord
  2
AM_ANSI$SF
 70
     0
  4
mm
 41
0.1
 42
0.05
 43
0.5
 44
0.1
 47
0.1
 48
0.1
 75
     1
 76
     1
 78
     7
 79
     2
140
0.12
141
0.0
146
0.71
147
0.06
176
   256
177
   256
178
     2
274
     4
284
     7
340
10
371
    -1
372
    -1
  0
DIMSTYLE
105
320
330
A
100
AcDbSymbolTableRecord
100
AcDbDimStyleTableRecord
  2
AM_ANSI$SH
 70
     0
  4
mm
 41
0.1
 42
0.05
 43
0.5
 44
0.1
 47
0.1
 48
0.1
 75
     1
 76
     1
 78
     7
 79
     2
140
0.12
141
0.0
146
0.71
147
0.06
173
     1
176
   256
177
   256
178
     2
274
     4
284
     7
340
10
343
2F4
371
    -1
372
    -1
  0
DIMSTYLE
105
344
330
A
100
AcDbSymbolTableRecord
100
AcDbDimStyleTableRecord
  2
AM_ISO
 70
     0
  4
"
 41
2.5
 42
1.0
 43
10.0
 44
1.0
 47
0.1
 48
0.1
 73
     0
 74
     0
 77
     1
 78
     8
 79
     2
140
3.5
141
0.0
143
0.0393701
146
0.71
147
1.5
171
     3
172
     1
176
   256
177
   256
178
     2
271
     2
272
     2
274
     3
283
     0
284
     8
340
10
371
    -1
372
    -1
  0
DIMSTYLE
105
345
330
A
100
AcDbSymbolTableRecord
100
AcDbDimStyleTableRecord
  2
AM_ISO$3
 70
     0
  4
"
 41
2.5
 42
1.0
 43
10.0
 44
1.0
 47
0.1
 48
0.1
 73
     0
 77
     1
 78
     8
 79
     2
140
3.5
141
0.0
143
0.0393701
146
0.71
147
1.5
176
   256
177
   256
178
     2
271
     2
272
     3
274
     4
283
     0
284
     8
288
     1
289
     0
340
10
371
    -1
372
    -1
  0
DIMSTYLE
105
346
330
A
100
AcDbSymbolTableRecord
100
AcDbDimStyleTableRecord
  2
AM_ISO$4
 70
     0
  4
"
 41
2.5
 42
1.0
 43
10.0
 44
1.0
 47
0.1
 48
0.1
 73
     0
 77
     1
 78
     8
 79
     2
140
3.5
141
0.0
143
0.0393701
146
0.71
147
1.5
176
   256
177
   256
178
     2
271
     2
272
     3
274
     4
283
     0
284
     8
288
     1
289
     0
340
10
371
    -1
372
    -1
  0
DIMSTYLE
105
347
330
A
100
AcDbSymbolTableRecord
100
AcDbDimStyleTableRecord
  2
AM_ISO$6
 70
     0
  4
"
 41
2.5
 42
1.0
 43
10.0
 44
1.0
 47
0.1
 48
0.1
 73
     0
 74
     0
 78
     8
 79
     2
140
3.5
141
0.0
143
0.0393701
146
0.71
147
1.5
172
     1
176
   256
177
   256
178
     2
271
     2
272
     3
274
     4
283
     0
284
     8
340
10
371
    -1
372
    -1
  0
DIMSTYLE
105
348
330
A
100
AcDbSymbolTableRecord
100
AcDbDimStyleTableRecord
  2
AM_ISO$7
 70
     0
  4
"
 41
2.5
 42
1.0
 43
10.0
 44
1.0
 47
0.1
 48
0.1
 73
     0
 74
     0
 77
     1
 78
     8
 79
     2
140
5.0
141
0.0
143
0.0393701
146
0.71
147
1.5
172
     1
176
   256
177
   256
178
     2
271
     2
272
     3
274
     4
283
     0
284
     8
340
10
371
    -1
372
    -1
  0
DIMSTYLE
105
349
330
A
100
AcDbSymbolTableRecord
100
AcDbDimStyleTableRecord
  2
AM_ISO$SF
 70
     0
  4
"
 41
2.5
 42
1.0
 43
10.0
 44
1.0
 47
0.1
 48
0.1
 73
     0
 74
     0
 75
     1
 76
     1
 77
     1
 78
     8
 79
     2
140
3.5
141
0.0
143
0.0393701
146
0.71
147
1.5
172
     1
176
   256
177
   256
178
     2
271
     2
272
     3
274
     4
283
     0
284
     8
340
10
371
    -1
372
    -1
  0
DIMSTYLE
105
34A
330
A
100
AcDbSymbolTableRecord
100
AcDbDimStyleTableRecord
  2
AM_ISO$SH
 70
     0
  4
"
 41
2.5
 42
1.0
 43
10.0
 44
1.0
 47
0.1
 48
0.1
 73
     0
 74
     0
 75
     1
 76
     1
 77
     1
 78
     8
 79
     2
140
3.5
141
0.0
143
0.0393701
144
2.0
146
0.71
147
1.5
172
     1
173
     1
176
   256
177
   256
178
     2
271
     2
272
     3
274
     4
283
     0
284
     8
340
10
343
2F4
371
    -1
372
    -1
  0
DIMSTYLE
105
31B
330
A
100
AcDbSymbolTableRecord
100
AcDbDimStyleTableRecord
  2
AM_ANSI
 70
     0
  4
mm
 41
0.1
 42
0.05
 43
0.5
 44
0.1
 47
0.1
 48
0.1
 78
     7
 79
     2
140
0.12
141
0.0
146
0.71
147
0.06
176
   256
177
   256
178
     2
274
     4
284
     7
340
10
371
    -1
372
    -1
  0
DIMSTYLE
105
D0D
330
A
100
AcDbSymbolTableRecord
100
AcDbDimStyleTableRecord
  2
STANDARD
 70
     0
 41
3.5
 42
2.0
 43
10.0
 44
1.0
 46
2.0
 73
     0
 74
     0
 77
     1
 78
     8
140
3.5
141
0.0
143
25.39999999999999
145
1.0
147
1.0
172
     1
175
     1
176
   256
177
   256
178
     3
271
     2
272
     2
284
     8
340
D0A
  0
ENDTAB
  0
TABLE
  2
BLOCK_RECORD
  5
1
330
0
100
AcDbSymbolTable
 70
    25
  0
BLOCK_RECORD
  5
1A
102
{ACAD_XDICTIONARY
360
12A
102
}
330
1
100
AcDbSymbolTableRecord
100
AcDbBlockTableRecord
  2
*MODEL_SPACE
340
169
 70
     0
280
     1
281
     0
  0
BLOCK_RECORD
  5
2CA3
330
1
100
AcDbSymbolTableRecord
100
AcDbBlockTableRecord
  2
*Paper_Space
340
2CA4
 70
     0
280
     1
281
     0
  0
BLOCK_RECORD
  5
2F4
330
1
100
AcDbSymbolTableRecord
100
AcDbBlockTableRecord
  2
GENAXEH
340
0
 70
     0
280
     1
281
     0
  0
BLOCK_RECORD
  5
D74
330
1
100
AcDbSymbolTableRecord
100
AcDbBlockTableRecord
  2
_ACMFILLED15
340
0
310
2800000020000000200000000100080000000000000400000000000000000000000000000000000000000000000080000080000000808000800000008000800080800000C0C0C000C0DCC000F0CAA6000020400000206000002080000020A0000020C0000020E00000400000004020000040400000406000004080000040A0
310
000040C0000040E00000600000006020000060400000606000006080000060A0000060C0000060E00000800000008020000080400000806000008080000080A0000080C0000080E00000A0000000A0200000A0400000A0600000A0800000A0A00000A0C00000A0E00000C0000000C0200000C0400000C0600000C0800000C0
310
A00000C0C00000C0E00000E0000000E0200000E0400000E0600000E0800000E0A00000E0C00000E0E00040000000400020004000400040006000400080004000A0004000C0004000E00040200000402020004020400040206000402080004020A0004020C0004020E000404000004040200040404000404060004040800040
310
40A0004040C0004040E00040600000406020004060400040606000406080004060A0004060C0004060E00040800000408020004080400040806000408080004080A0004080C0004080E00040A0000040A0200040A0400040A0600040A0800040A0A00040A0C00040A0E00040C0000040C0200040C0400040C0600040C08000
310
40C0A00040C0C00040C0E00040E0000040E0200040E0400040E0600040E0800040E0A00040E0C00040E0E00080000000800020008000400080006000800080008000A0008000C0008000E00080200000802020008020400080206000802080008020A0008020C0008020E00080400000804020008040400080406000804080
310
008040A0008040C0008040E00080600000806020008060400080606000806080008060A0008060C0008060E00080800000808020008080400080806000808080008080A0008080C0008080E00080A0000080A0200080A0400080A0600080A0800080A0A00080A0C00080A0E00080C0000080C0200080C0400080C0600080C0
310
800080C0A00080C0C00080C0E00080E0000080E0200080E0400080E0600080E0800080E0A00080E0C00080E0E000C0000000C0002000C0004000C0006000C0008000C000A000C000C000C000E000C0200000C0202000C0204000C0206000C0208000C020A000C020C000C020E000C0400000C0402000C0404000C0406000C0
310
408000C040A000C040C000C040E000C0600000C0602000C0604000C0606000C0608000C060A000C060C000C060E000C0800000C0802000C0804000C0806000C0808000C080A000C080C000C080E000C0A00000C0A02000C0A04000C0A06000C0A08000C0A0A000C0A0C000C0A0E000C0C00000C0C02000C0C04000C0C06000
310
C0C08000C0C0A000F0FBFF00A4A0A000808080000000FF0000FF000000FFFF00FF000000FF00FF00FFFF0000FFFFFF0000000000000000000000000000000000000000000000000000000000000000000000000000000000000000000000000000000000000000000000000000000000000000000000000000000000000000
310
00000000000000000000000000000000000000000000000000000000000000000000000000000000000000000000000000000000000000000000000000000000000000000000000000000000000000000000000000000000000000000000000000000000000000000000000000000000000000000000000000000000000000
310
00000000000000000000000000000000000000000000000000000000000000000000000000000000000000000000000000000000000000000000000000000000000000000000000000000000000000000000000000000000000000000000000000000000000000000000000000000000000000000000000000000000000000
310
00000000000000000000000000000000000000000000000000000000000000000000000000000000000000000000000000000000FFFFFFFF00000000000000000000000000000000000000000000000000000000FFFFFFFFFFFFFFFFFFFFFF000000000000000000000000000000000000000000FFFFFFFFFFFFFFFFFFFFFF
310
FFFFFFFFFFFFFFFF00000000000000000000000000FFFFFFFFFFFFFFFFFFFFFFFFFFFFFFFFFFFFFFFFFFFFFFFFFFFF000000000000FFFFFFFFFFFFFFFFFFFFFFFFFFFFFFFFFFFFFFFFFFFFFFFFFFFFFFFFFFFF0000FFFFFFFFFFFFFFFFFFFFFFFFFFFFFFFFFFFFFFFFFFFFFFFFFF00000000000000FFFFFFFFFFFFFFFFFFFF
310
FFFFFFFFFF0000000000000000000000000000000000FFFFFFFFFF00000000000000000000000000000000000000000000000000000000000000000000000000000000000000000000000000000000000000000000000000000000000000000000000000000000000000000000000000000000000000000000000000000000
310
00000000000000000000000000000000000000000000000000000000000000000000000000000000000000000000000000000000000000000000000000000000000000000000000000000000000000000000000000000000000000000000000000000000000000000000000000000000000000000000000000000000000000
310
00000000000000000000000000000000000000000000000000000000000000000000000000000000000000000000000000000000000000000000000000000000000000000000000000000000000000000000000000000000000000000000000000000000000000000000000000000000000000000000000000000000000000
310
0000000000000000000000000000000000000000000000000000000000000000000000000000000000000000000000000000000000000000
 70
     0
280
     1
281
     0
  0
BLOCK_RECORD
  5
D78
330
1
100
AcDbSymbolTableRecord
100
AcDbBlockTableRecord
  2
_ACMFILLED30
340
0
 70
     0
280
     1
281
     0
  0
BLOCK_RECORD
  5
360D
330
1
100
AcDbSymbolTableRecord
100
AcDbBlockTableRecord
  2
info
340
0
310
2800000020000000200000000100080000000000000400000000000000000000000000000000000000000000000080000080000000808000800000008000800080800000C0C0C000C0DCC000F0CAA6000020400000206000002080000020A0000020C0000020E00000400000004020000040400000406000004080000040A0
310
000040C0000040E00000600000006020000060400000606000006080000060A0000060C0000060E00000800000008020000080400000806000008080000080A0000080C0000080E00000A0000000A0200000A0400000A0600000A0800000A0A00000A0C00000A0E00000C0000000C0200000C0400000C0600000C0800000C0
310
A00000C0C00000C0E00000E0000000E0200000E0400000E0600000E0800000E0A00000E0C00000E0E00040000000400020004000400040006000400080004000A0004000C0004000E00040200000402020004020400040206000402080004020A0004020C0004020E000404000004040200040404000404060004040800040
310
40A0004040C0004040E00040600000406020004060400040606000406080004060A0004060C0004060E00040800000408020004080400040806000408080004080A0004080C0004080E00040A0000040A0200040A0400040A0600040A0800040A0A00040A0C00040A0E00040C0000040C0200040C0400040C0600040C08000
310
40C0A00040C0C00040C0E00040E0000040E0200040E0400040E0600040E0800040E0A00040E0C00040E0E00080000000800020008000400080006000800080008000A0008000C0008000E00080200000802020008020400080206000802080008020A0008020C0008020E00080400000804020008040400080406000804080
310
008040A0008040C0008040E00080600000806020008060400080606000806080008060A0008060C0008060E00080800000808020008080400080806000808080008080A0008080C0008080E00080A0000080A0200080A0400080A0600080A0800080A0A00080A0C00080A0E00080C0000080C0200080C0400080C0600080C0
310
800080C0A00080C0C00080C0E00080E0000080E0200080E0400080E0600080E0800080E0A00080E0C00080E0E000C0000000C0002000C0004000C0006000C0008000C000A000C000C000C000E000C0200000C0202000C0204000C0206000C0208000C020A000C020C000C020E000C0400000C0402000C0404000C0406000C0
310
408000C040A000C040C000C040E000C0600000C0602000C0604000C0606000C0608000C060A000C060C000C060E000C0800000C0802000C0804000C0806000C0808000C080A000C080C000C080E000C0A00000C0A02000C0A04000C0A06000C0A08000C0A0A000C0A0C000C0A0E000C0C00000C0C02000C0C04000C0C06000
310
C0C08000C0C0A000F0FBFF00A4A0A000808080000000FF0000FF000000FFFF00FF000000FF00FF00FFFF0000FFFFFF00FFFFFFFFFFFFFFFFFFFFFFFFFFFFFFFFFFFFFFFFFFFFFFFFFFFFFFFFFFFFFFFFFFFFFFFFFFFFFFFFFFFFFFFFFFFFFFFFFFFFFFFFFFFFFFFFFFFFFFFFFFFFFFFFFFFFFFFFFFFFFFFFFFFFFFFFFFFFFF
310
FFFFFFFFFFFFFFFFFFFFFFFFFFFFFFFFFFFFFFFFFFFFFFFFFFFFFFFFFFFFFFFFFFFFFFFFFFFFFFFFFFFFFFFFFFFFFFFFFFFFFFFFFFFFFFFFFFFFFFFF00FFFFFFFFFFFFFFFFFFFFFFFFFFFFFFFFFFFFFFFFFFFFFFFFFFFFFFFFFFFF00FFFFFFFFFFFFFFFFFFFFFFFFFFFFFFFFFFFFFFFFFFFFFFFFFFFFFFFFFFFF00FFFFFFFF
310
FFFFFFFFFFFFFFFFFFFFFFFFFFFFFFFFFFFF0000000000FFFFFF00FFFFFFFF00FFFFFF00FFFF000000FFFF0000000000FFFFFFFFFFFFFF000000FFFFFFFFFF00FFFFFF00FF00FFFFFF00FFFFFF00FFFF00FFFFFFFFFFFFFF0000FFFFFFFFFF00FFFFFF00FFFFFFFFFF00FFFFFF00FFFF00FFFFFFFFFFFF00FF00FFFFFFFFFF
310
0000000000FFFFFFFFFF00FFFFFF00FFFF00FFFFFFFFFF00FFFFFF00FFFFFFFF00FFFFFF00FFFFFFFFFF00FFFFFF00FFFF00FFFFFFFF00FFFFFFFF00FFFFFFFF00FFFFFF00FFFFFFFFFF00FFFFFF00FFFF00FF00FF00FFFFFFFFFF00FFFFFFFF00FFFFFF00FFFFFFFFFF00FF0000000000FFFFFF00FFFFFFFFFFFFFF00FFFF
310
FFFFFFFFFFFFFFFFFFFFFFFFFFFFFFFFFFFFFFFF00FF00FFFFFFFFFF00FFFFFFFFFFFFFFFFFFFFFFFFFFFFFFFFFFFFFFFFFFFFFFFFFFFF00FFFFFFFF00FFFFFFFFFFFFFFFFFFFFFFFFFFFFFFFFFFFFFFFFFFFFFFFFFFFFFF00FFFFFF00FFFFFFFFFFFFFFFFFFFFFFFFFFFFFFFFFFFFFFFFFFFFFFFFFFFFFFFF00FF00FFFFFF
310
FFFF00000000FFFF00FFFFFF00FF0000000000FFFFFFFFFFFFFFFF0000FFFFFFFFFFFF00FFFF00FF00FFFF00FFFFFFFF00FFFF00FFFFFFFFFFFF000000FFFFFFFFFFFF00FFFF00FF00FF00FFFFFFFFFF00FFFF00FF0000000000FFFFFF00FFFFFFFFFF000000FFFF00000000FFFFFFFF00FFFF00FFFFFFFFFFFFFFFFFFFF00
310
FFFFFFFF00FFFF00FF00FFFFFF00FFFFFF00FFFF00FFFFFFFFFFFFFFFFFFFFFF00FFFFFF00FFFF00FF00FFFFFF00FFFFFF00FFFF00FFFFFFFFFFFFFFFFFFFFFFFF00FF00000000FFFF00000000FFFF0000000000FFFFFFFFFFFFFFFFFFFFFFFFFFFFFFFFFFFFFFFFFFFFFFFFFFFFFFFFFFFFFFFFFFFFFFFFFFFFFFFFFFFFFF
310
FFFFFFFFFFFFFFFFFFFFFFFFFFFFFFFFFFFFFFFFFFFFFFFFFFFFFFFFFFFFFFFFFFFFFFFFFFFFFFFFFFFFFFFFFFFFFFFFFFFFFFFFFFFFFFFFFFFFFFFFFFFFFFFFFFFFFFFFFFFFFFFFFFFFFFFFFFFFFFFFFFFFFFFFFFFFFFFFFFFFFFFFFFFFFFFFFFFFFFFFFFFFFFFFFFFFFFFFFFFFFFFFFFFFFFFFFFFFFFFFFFFFFFFFFFFFFF
310
FFFFFFFFFFFFFFFFFFFFFFFFFFFFFFFFFFFFFFFFFFFFFFFFFFFFFFFFFFFFFFFFFFFFFFFFFFFFFFFFFFFFFFFFFFFFFFFFFFFFFFFFFFFFFFFF
102
{BLKREFS
331
3ADC
331
3AE4
102
}
 70
     4
280
     1
281
     0
  0
BLOCK_RECORD
  5
3678
102
{ACAD_XDICTIONARY
360
3679
102
}
330
1
100
AcDbSymbolTableRecord
100
AcDbBlockTableRecord
  2
Logga
340
0
102
{BLKREFS
331
3B3E
331
3B8D
102
}
 70
     0
280
     1
281
     0
1001
AcDbDynamicBlockGUID
1000
{06D45BAE-DCC7-49F0-9B5C-432255E462F3}
  0
BLOCK_RECORD
  5
3A07
330
1
100
AcDbSymbolTableRecord
100
AcDbBlockTableRecord
  2
HD72
340
0
310
28000000200000002000000001002000000000000010000001000000010000000000000000000000302821FF302821FF302821FF302821FF302821FF302821FF302821FF302821FF302821FF302821FF302821FF302821FF302821FF302821FF302821FF302821FF302821FF302821FF302821FF302821FF302821FF302821
310
FF302821FF302821FF302821FF302821FF302821FF302821FF302821FF302821FF302821FF302821FF302821FF302821FF302821FF302821FF302821FF302821FF302821FF00FF00FF302821FF302821FF302821FF302821FF302821FF302821FF302821FF302821FF302821FF302821FF302821FF302821FF302821FF3028
310
21FF302821FF302821FF302821FF302821FF302821FF00FF00FF302821FF302821FF302821FF302821FF302821FF302821FF302821FF302821FF302821FF302821FF302821FF00FF00FF00FF00FF00FF00FF00FF00FF00FF00FF00FF00FF00FF00FF00FF00FF00FF00FF00FFFFFF00FFFFFF00FFFFFF00FF00FF00FF00FF00
310
FF00FF00FF00FF00FF00FF00FF00FF00FF00FF00FF00FF00FF00FF302821FF302821FF302821FF302821FF302821FF302821FF302821FF302821FF302821FF302821FF302821FF00FF00FF302821FF00FF00FF302821FF302821FF00FFFFFF00FFFFFF00FFFFFF302821FF302821FF00FF00FF302821FF302821FF302821FF
310
302821FF302821FF302821FF302821FF302821FF302821FF00FF00FF302821FF302821FF302821FF302821FF302821FF302821FF302821FF302821FF00FF00FF00FF00FF00FF00FF00FF00FF00FF00FF00FF00FFFFFFFFFFFFFFFFFFFFFFFFFFFFFFFFFFFFFFFFFFFFFFFFFFFFFFFFFF00FF00FFFFFFFFFFFFFFFFFFFFFFFF
310
FFFFFFFFFFFFFFFFFFFFFFFFFFFFFFFFFFFFFFFFFFFFFFFFFF00FF00FF302821FF302821FF302821FF302821FF302821FF302821FF302821FF302821FF00FF00FF302821FF302821FF00FF00FFFFFFFFFF00FF00FFFFFFFFFFFFFFFFFFFFFFFFFFFFFFFFFFFFFFFFFFFFFFFFFFFFFFFFFF00FF00FFFFFFFFFFFFFFFFFFFFFF
310
FFFFFFFFFFFFFFFFFFFFFFFFFFFFFFFFFFFFFFFFFFFFFFFFFFFF00FF00FF302821FF302821FF302821FF302821FF302821FF302821FF302821FF302821FF00FF00FF302821FF302821FFFFFFFFFF302821FF00FF00FF302821FFFFFFFFFFFFFFFFFFFFFFFFFFFFFFFFFF302821FF302821FF00FF00FF302821FF302821FFFF
310
FFFFFFFFFFFFFFFFFFFFFF302821FF302821FF302821FFFFFFFFFFFFFFFFFF302821FF302821FF302821FF302821FF302821FF302821FF302821FF302821FF00FF00FF00FF00FF00FF00FF00FF00FF00FF00FF00FF00FFFFFFFFFFFFFFFFFFFFFFFFFFFFFFFFFFFFFFFFFFFFFFFFFFFFFFFFFFFFFFFFFFFFFFFFFFFFFFFFFF
310
FFFFFFFFFFFFFFFFFFFFFFFFFFFFFFFFFFFFFFFF302821FFFFFFFFFFFFFFFFFF302821FF302821FF302821FF302821FF302821FF302821FF302821FF302821FF00FF00FF00FF00FF302821FFFFFFFFFF302821FFFFFFFFFF302821FF302821FF302821FF302821FF302821FF302821FF302821FFFFFFFFFF302821FF302821
310
FF302821FF302821FF302821FF302821FFFFFFFFFF302821FFFFFFFFFFFFFFFFFF302821FF302821FF302821FF302821FF302821FF302821FF302821FF302821FF00FF00FF00FF00FF302821FFFFFFFFFF302821FFFFFFFFFF302821FF302821FF302821FF302821FF302821FF302821FF302821FFFFFFFFFF302821FF3028
310
21FF302821FF302821FF302821FF302821FFFFFFFFFF302821FFFFFFFFFFFFFFFFFF302821FF302821FF302821FF302821FF302821FF302821FF302821FF302821FF00FF00FF00FF00FF302821FFFFFFFFFF302821FFFFFFFFFF302821FF302821FF302821FF302821FF302821FF302821FF302821FFFFFFFFFF302821FF30
310
2821FF302821FF302821FF302821FF302821FFFFFFFFFF302821FFFFFFFFFFFFFFFFFF302821FF302821FF302821FF302821FF302821FF302821FF302821FF302821FF00FF00FF00FF00FF302821FFFFFFFFFF302821FFFFFFFFFF302821FF302821FF302821FF302821FF302821FF302821FF302821FFFFFFFFFF302821FF
310
302821FF302821FF302821FF302821FF302821FFFFFFFFFF302821FFFFFFFFFFFFFFFFFF302821FF302821FF302821FF302821FF302821FF302821FF302821FF302821FF00FF00FF00FF00FF302821FFFFFFFFFF302821FFFFFFFFFF302821FF302821FF302821FF302821FF302821FF302821FF302821FFFFFFFFFF302821
310
FF302821FF302821FF302821FF302821FF302821FFFFFFFFFF302821FFFFFFFFFFFFFFFFFF302821FF302821FF302821FF302821FF302821FF302821FF302821FF302821FF00FF00FF00FF00FF302821FFFFFFFFFF302821FFFFFFFFFF302821FF302821FF302821FF302821FF302821FF302821FF302821FFFFFFFFFF3028
310
21FF302821FF302821FF302821FF302821FF302821FFFFFFFFFF302821FFFFFFFFFFFFFFFFFF302821FF302821FF302821FF302821FF302821FF302821FF302821FF302821FF00FF00FF00FFFFFF302821FFFFFFFFFF302821FFFFFFFFFF302821FF302821FF302821FF302821FF302821FF302821FF302821FFFFFFFFFF30
310
2821FF302821FF302821FF302821FF302821FF302821FFFFFFFFFF302821FFFFFFFFFFFFFFFFFF302821FF302821FF302821FF302821FF302821FF302821FF302821FF302821FF00FF00FF00FFFFFF302821FFFFFFFFFF302821FFFFFFFFFF302821FF302821FF302821FF302821FF302821FF302821FF302821FFFFFFFFFF
310
302821FF302821FF302821FF302821FF302821FF302821FFFFFFFFFF302821FFFFFFFFFFFFFFFFFF302821FF302821FF302821FF302821FF302821FF302821FF302821FF302821FF00FFFFFF00FFFFFF302821FFFFFFFFFF302821FFFFFFFFFF302821FF302821FF302821FF302821FF302821FF302821FF302821FFFFFFFF
310
FF302821FF302821FF302821FF302821FF302821FF302821FFFFFFFFFF302821FFFFFFFFFFFFFFFFFF302821FF302821FF302821FF302821FF302821FF302821FF302821FF302821FF00FFFFFF00FF00FF302821FFFFFFFFFF302821FFFFFFFFFF302821FF302821FF302821FF302821FF302821FF302821FF302821FFFFFF
310
FFFF302821FF302821FF302821FF302821FF302821FF302821FFFFFFFFFF302821FFFFFFFFFFFFFFFFFF302821FF302821FF302821FF302821FF302821FF302821FF302821FF302821FF00FFFFFF00FF00FF302821FFFFFFFFFF302821FFFFFFFFFF302821FF302821FF302821FF302821FF302821FF302821FF302821FFFF
310
FFFFFF302821FF302821FF302821FF302821FF302821FF302821FFFFFFFFFF302821FFFFFFFFFFFFFFFFFF302821FF302821FF302821FF302821FF302821FF302821FF302821FF302821FF00FF00FF00FF00FF302821FFFFFFFFFF302821FFFFFFFFFF302821FF302821FF302821FF302821FF302821FF302821FF302821FF
310
FFFFFFFF302821FF302821FF302821FF302821FF302821FF302821FFFFFFFFFF302821FFFFFFFFFFFFFFFFFF302821FF302821FF302821FF302821FF302821FF302821FF302821FF302821FF00FF00FF00FF00FF302821FFFFFFFFFF302821FFFFFFFFFF302821FF302821FF302821FF302821FF302821FF302821FF302821
310
FFFFFFFFFF302821FF302821FF302821FF302821FF302821FF302821FFFFFFFFFF302821FFFFFFFFFFFFFFFFFF302821FF302821FF302821FF302821FF302821FF302821FF302821FF302821FF00FF00FF00FF00FF302821FFFFFFFFFF302821FFFFFFFFFF302821FF302821FF302821FF302821FF302821FF302821FF3028
310
21FFFFFFFFFF302821FF302821FF302821FF302821FF302821FF302821FFFFFFFFFF302821FFFFFFFFFFFFFFFFFF302821FF302821FF302821FF302821FF302821FF302821FF302821FF302821FF00FF00FF00FF00FF302821FFFFFFFFFF302821FFFFFFFFFF302821FF302821FF302821FF302821FF302821FF302821FF30
310
2821FFFFFFFFFF302821FF302821FF302821FF302821FF302821FF302821FFFFFFFFFFFFFFFFFFFFFFFFFFFFFFFFFF302821FF302821FF302821FF302821FF302821FF302821FF302821FF302821FF00FF00FF00FF00FF00FF00FF00FF00FF00FF00FF00FF00FFFFFFFFFFFFFFFFFFFFFFFFFFFFFFFFFFFFFFFFFFFFFFFFFF
310
FFFFFFFFFFFFFFFFFFFFFFFFFFFFFFFFFFFFFFFFFFFFFFFFFFFFFFFFFFFFFFFFFFFFFFFFFFFFFFFFFFFFFFFFFFFFFFFF302821FF302821FF302821FF302821FF302821FF302821FF302821FF302821FF00FF00FF302821FF302821FFFFFFFFFF302821FFFFFFFFFFFFFFFFFFFFFFFFFFFFFFFFFFFFFFFFFFFFFFFFFFFFFFFF
310
FFFFFFFFFFFFFFFFFFFFFFFFFFFFFFFFFFFFFFFFFFFFFFFFFFFFFFFFFFFFFFFFFFFFFFFFFFFFFFFFFFFFFFFFFFFFFFFFFF302821FF302821FF302821FF302821FF302821FF302821FF302821FF302821FF00FF00FF302821FF302821FFFFFFFFFF302821FFFFFFFFFFFFFFFFFFFFFFFFFFFFFFFFFFFFFFFFFFFFFFFFFFFFFF
310
FFFFFFFFFFFFFFFFFFFFFFFFFFFFFFFFFFFFFFFFFFFFFFFFFFFFFFFFFFFFFFFFFFFFFFFFFFFFFFFFFFFFFFFFFFFFFFFFFFFF302821FF302821FF302821FF302821FF302821FF302821FF302821FF302821FF00FF00FF302821FF302821FFFFFFFFFF302821FFFFFFFFFFFFFFFFFFFFFFFFFFFFFFFFFFFFFFFFFFFFFFFFFFFF
310
FFFFFFFFFFFFFFFFFFFFFFFFFFFFFFFFFFFFFFFFFFFFFFFFFFFFFFFFFFFFFFFFFFFFFF302821FFFFFFFFFFFFFFFFFFFFFFFFFF302821FF302821FF302821FF302821FF302821FF302821FF302821FF302821FF00FF00FF302821FF302821FFFFFFFFFF302821FFFFFFFFFFFFFFFFFFFFFFFFFFFFFFFFFFFFFFFFFFFFFFFFFF
310
FFFFFFFFFFFFFFFFFFFFFFFFFFFFFFFFFFFFFFFFFFFFFFFFFFFFFFFFFFFFFFFFFFFFFFFFFFFFFFFFFFFFFFFFFFFFFFFFFFFFFFFF302821FF302821FF302821FF302821FF302821FF302821FF302821FF302821FF00FF00FF302821FF302821FFFFFFFFFFFFFFFFFF302821FF302821FF302821FF302821FF302821FF302821
310
FF302821FF302821FF302821FF302821FF302821FF302821FF302821FF302821FF302821FF302821FF302821FFFFFFFFFFFFFFFFFF302821FF302821FF302821FF302821FF302821FF302821FF302821FF302821FF00FF00FF302821FF302821FFFFFFFFFFFFFFFFFFFFFFFFFFFFFFFFFFFFFFFFFFFFFFFFFFFFFFFFFFFFFF
310
FFFFFFFFFFFFFFFFFFFFFFFFFFFFFFFFFFFFFFFFFFFFFFFFFFFFFFFFFFFFFFFFFFFFFFFFFFFFFFFFFFFFFFFFFFFFFFFFFFFFFFFFFFFF302821FF302821FF302821FF302821FF302821FF302821FF302821FF302821FF00FF00FF00FF00FF00FF00FF00FF00FF00FF00FFFFFFFFFFFFFFFFFFFFFFFFFFFFFFFFFFFFFFFFFFFF
310
FFFFFFFFFFFFFFFFFFFFFFFFFFFFFFFFFFFFFFFFFFFFFFFFFFFFFFFFFFFFFFFFFFFFFFFFFFFFFFFFFFFFFFFFFFFFFFFFFFFFFF302821FF302821FF302821FF302821FF302821FF302821FF302821FF302821FF302821FF302821FF302821FF302821FF302821FF302821FF302821FF302821FF302821FF302821FF302821FF
310
302821FF302821FF302821FF302821FF302821FF302821FF302821FF302821FF302821FF302821FF302821FF302821FF302821FF302821FF302821FF302821FF302821FF302821FF
102
{BLKREFS
331
3BAA
102
}
 70
     4
280
     1
281
     0
  0
ENDTAB
  0
ENDSEC
  0
SECTION
  2
BLOCKS
  0
BLOCK
  5
1B
330
1A
100
AcDbEntity
  8
0
100
AcDbBlockBegin
  2
*MODEL_SPACE
 70
     0
 10
0.0
 20
0.0
 30
0.0
  3
*MODEL_SPACE
  1

  0
ENDBLK
  5
1C
330
1A
100
AcDbEntity
  8
0
100
AcDbBlockEnd
  0
BLOCK
  5
2CA5
330
2CA3
100
AcDbEntity
 67
     1
  8
0
100
AcDbBlockBegin
  2
*Paper_Space
 70
     0
 10
0.0
 20
0.0
 30
0.0
  3
*Paper_Space
  1

  0
ENDBLK
  5
2CA6
330
2CA3
100
AcDbEntity
 67
     1
  8
0
100
AcDbBlockEnd
  0
BLOCK
  5
C49
330
2F4
100
AcDbEntity
  8
0
100
AcDbBlockBegin
  2
GENAXEH
 70
     0
 10
0.0
 20
0.0
 30
0.0
  3
GENAXEH
  1

  0
LINE
  5
C4A
330
2F4
100
AcDbEntity
  8
0
100
AcDbLine
 10
-1.0
 20
0.0
 30
0.0
 11
1.0
 21
0.0
 31
0.0
  0
ENDBLK
  5
C4B
330
2F4
100
AcDbEntity
  8
0
100
AcDbBlockEnd
  0
BLOCK
  5
D75
330
D74
100
AcDbEntity
  8
0
100
AcDbBlockBegin
  2
_ACMFILLED15
 70
     0
 10
0.0
 20
0.0
 30
0.0
  3
_ACMFILLED15
  1

  0
TRACE
  5
D76
330
D74
100
AcDbEntity
  8
AM_0
 62
     0
100
AcDbTrace
 10
-1.0
 20
-0.131652497
 30
0.0
 11
-1.0
 21
0.131652497
 31
0.0
 12
0.0
 22
0.0
 32
0.0
 13
0.0
 23
0.0
 33
0.0
  0
ENDBLK
  5
D77
330
D74
100
AcDbEntity
  8
0
100
AcDbBlockEnd
  0
BLOCK
  5
D79
330
D78
100
AcDbEntity
  8
0
100
AcDbBlockBegin
  2
_ACMFILLED30
 70
     0
 10
0.0
 20
0.0
 30
0.0
  3
_ACMFILLED30
  1

  0
TRACE
  5
D7A
330
D78
100
AcDbEntity
  8
AM_0
 62
     0
100
AcDbTrace
 10
-1.0
 20
-0.26794919
 30
0.0
 11
-1.0
 21
0.26794919
 31
0.0
 12
0.0
 22
0.0
 32
0.0
 13
0.0
 23
0.0
 33
0.0
  0
ENDBLK
  5
D7B
330
D78
100
AcDbEntity
  8
0
100
AcDbBlockEnd
  0
BLOCK
  5
360E
330
360D
100
AcDbEntity
  8
0
100
AcDbBlockBegin
  2
info
 70
     2
 10
0.0
 20
0.0
 30
0.0
  3
info
  1

  0
POINT
  5
360F
330
360D
100
AcDbEntity
  8
0
100
AcDbPoint
 10
0.0
 20
0.0
 30
0.0
  0
ATTDEF
  5
3610
330
360D
100
AcDbEntity
  8
0
100
AcDbText
 10
9.467092950319427
 20
2.891095235479383
 30
0.00000001
 40
5.0
  1

100
AcDbAttributeDefinition
280
     0
  3
bredd
  2
BRD
 70
     1
280
     1
  0
ATTDEF
  5
3611
330
360D
100
AcDbEntity
  8
0
100
AcDbText
 10
9.467092950319427
 20
-5.442238097853946
 30
0.00000001
 40
5.0
  1

100
AcDbAttributeDefinition
280
     0
  3
Höjd
  2
HJD
 70
     1
280
     1
  0
ENDBLK
  5
3612
330
360D
100
AcDbEntity
  8
0
100
AcDbBlockEnd
  0
BLOCK
  5
367A
330
3678
100
AcDbEntity
  8
0
100
AcDbBlockBegin
  2
Logga
 70
     0
 10
0.0
 20
0.0
 30
0.0
  3
Logga
  1

  0
LINE
  5
367B
330
3678
100
AcDbEntity
  8
AM_0
100
AcDbLine
 10
-13.791322
 20
-3.956398
 30
0.0
 11
-11.471823
 21
-3.956398
 31
0.0
  0
LINE
  5
367C
330
3678
100
AcDbEntity
  8
AM_0
100
AcDbLine
 10
-11.471823
 20
-3.956398
 30
0.0
 11
-11.471823
 21
-0.8902770000000002
 31
0.0
  0
LINE
  5
367D
330
3678
100
AcDbEntity
  8
AM_0
100
AcDbLine
 10
-11.471823
 20
-0.890277
 30
0.0
 11
-10.944222
 21
-0.890277
 31
0.0
  0
SPLINE
  5
367E
330
3678
100
AcDbEntity
  8
AM_0
100
AcDbSpline
210
0.0
220
0.0
230
1.0
 70
     8
 71
     3
 72
     8
 73
     4
 74
     0
 42
0.000000001
 43
0.0000000001
 40
0.0
 40
0.0
 40
0.0
 40
0.0
 40
2.232405004121289
 40
2.232405004121289
 40
2.232405004121289
 40
2.232405004121289
 10
-10.94422245536
 20
-0.8902771485124999
 30
0.0
 10
-10.03830989835
 20
-0.8902771485124999
 30
0.0
 10
-9.931234804757
 20
-1.348240527698
 30
0.0
 10
-9.918848350235998
 20
-2.204329080771
 30
0.0
  0
ARC
  5
367F
330
3678
100
AcDbEntity
  8
AM_0
100
AcDbCircle
 10
-2.093998
 20
-2.289298
 30
0.0
 40
7.825311999999997
100
AcDbArc
 50
179.377859
 51
192.300535
  0
LINE
  5
3680
330
3678
100
AcDbEntity
  8
AM_0
100
AcDbLine
 10
-9.739668999999999
 20
-3.956398
 30
0.0
 11
-7.390303999999997
 21
-3.956398
 31
0.0
  0
SPLINE
  5
3681
330
3678
100
AcDbEntity
  8
AM_0
100
AcDbSpline
210
0.0
220
0.0
230
1.0
 70
     8
 71
     3
 72
     8
 73
     4
 74
     0
 42
0.000000001
 43
0.0000000001
 40
0.0
 40
0.0
 40
0.0
 40
0.0
 40
1.895550873493704
 40
1.895550873493704
 40
1.895550873493704
 40
1.895550873493704
 10
-7.390304141466
 20
-3.956398323782
 30
0.0
 10
-7.559545517451
 20
-3.508430066847
 30
0.0
 10
-7.619263743023997
 20
-2.931036767137998
 30
0.0
 10
-7.619263743023997
 20
-2.094831027324
 30
0.0
  0
SPLINE
  5
3682
330
3678
100
AcDbEntity
  8
AM_0
100
AcDbSpline
210
0.0
220
0.0
230
1.0
 70
     8
 71
     3
 72
     8
 73
     4
 74
     0
 42
0.000000001
 43
0.0000000001
 40
0.0
 40
0.0
 40
0.0
 40
0.0
 40
3.020201903217613
 40
3.020201903217613
 40
3.020201903217613
 40
3.020201903217613
 10
-7.619263743023997
 20
-2.094831027324
 30
0.0
 10
-7.619263743023997
 20
-1.397976179502997
 30
0.0
 10
-7.629227237688
 20
-0.3925290637042
 30
0.0
 10
-8.923364729100999
 20
-0.1436550213
 30
0.0
  0
SPLINE
  5
3683
330
3678
100
AcDbEntity
  8
AM_0
100
AcDbSpline
210
0.0
220
0.0
230
1.0
 70
     8
 71
     3
 72
     8
 73
     4
 74
     0
 42
0.000000001
 43
0.0000000001
 40
0.0
 40
0.0
 40
0.0
 40
0.0
 40
1.868627134587065
 40
1.868627134587065
 40
1.868627134587065
 40
1.868627134587065
 10
-8.206607988915999
 20
0.1549863004958
 30
0.0
 10
-8.017464720567
 20
0.2943497409708
 30
0.0
 10
-7.599361850661
 20
0.7224161055417
 30
0.0
 10
-7.599361850661
 20
1.757728608367995
 30
0.0
  0
SPLINE
  5
3684
330
3678
100
AcDbEntity
  8
AM_0
100
AcDbSpline
210
0.0
220
0.0
230
1.0
 70
     8
 71
     3
 72
     8
 73
     4
 74
     0
 42
0.000000001
 43
0.0000000001
 40
0.0
 40
0.0
 40
0.0
 40
0.0
 40
3.606251704910268
 40
3.606251704910268
 40
3.606251704910268
 40
3.606251704910268
 10
-7.599361850661
 20
1.757728608367995
 30
0.0
 10
-7.599361850661
 20
3.36047091624
 30
0.0
 10
-8.355934924054999
 20
3.698941119727997
 30
0.0
 10
-9.530610867355999
 20
3.698941119727997
 30
0.0
  0
LINE
  5
3685
330
3678
100
AcDbEntity
  8
AM_0
100
AcDbLine
 10
-9.530611
 20
3.698941
 30
0.0
 11
-13.791322
 21
3.698941
 31
0.0
  0
LINE
  5
3686
330
3678
100
AcDbEntity
  8
AM_0
100
AcDbLine
 10
-13.791322
 20
3.698941
 30
0.0
 11
-13.791322
 21
-3.956397999999998
 31
0.0
  0
LINE
  5
3687
330
3678
100
AcDbEntity
  8
AM_0
100
AcDbLine
 10
22.533433
 20
-1.487571999999999
 30
0.0
 11
22.533433
 21
-2.015185999999999
 31
0.0
  0
SPLINE
  5
3688
330
3678
100
AcDbEntity
  8
AM_0
100
AcDbSpline
210
0.0
220
0.0
230
1.0
 70
     8
 71
     3
 72
     8
 73
     4
 74
     0
 42
0.000000001
 43
0.0000000001
 40
0.5276134718360002
 40
0.5276134718360002
 40
0.5276134718360002
 40
0.5276134718360002
 40
1.712035796955824
 40
1.712035796955824
 40
1.712035796955824
 40
1.712035796955824
 10
22.53343332735
 20
-2.015185812421997
 30
0.0
 10
22.53343332735
 20
-2.662260832368998
 30
0.0
 10
22.07550157575
 20
-2.781722380480998
 30
0.0
 10
21.87640736122
 20
-2.781722380480998
 30
0.0
  0
SPLINE
  5
3689
330
3678
100
AcDbEntity
  8
AM_0
100
AcDbSpline
210
0.0
220
0.0
230
1.0
 70
     8
 71
     3
 72
     8
 73
     4
 74
     0
 42
0.000000001
 43
0.0000000001
 40
1.712035796955824
 40
1.712035796955824
 40
1.712035796955824
 40
1.712035796955824
 40
2.262912137656883
 40
2.262912137656883
 40
2.262912137656883
 40
2.262912137656883
 10
21.87640736122
 20
-2.781722380480998
 30
0.0
 10
21.44834099665
 20
-2.781722380480998
 30
0.0
 10
21.20941790043
 20
-2.483068510203
 30
0.0
 10
21.20941790043
 20
-2.005234866239999
 30
0.0
  0
LINE
  5
368A
330
3678
100
AcDbEntity
  8
AM_0
100
AcDbLine
 10
21.209418
 20
-2.005234999999998
 30
0.0
 11
21.209418
 21
0.145035
 31
0.0
  0
SPLINE
  5
368B
330
3678
100
AcDbEntity
  8
AM_0
100
AcDbSpline
210
0.0
220
0.0
230
1.0
 70
     8
 71
     3
 72
     8
 73
     4
 74
     0
 42
0.000000001
 43
0.0000000001
 40
4.413182358210782
 40
4.413182358210782
 40
4.413182358210782
 40
4.413182358210782
 40
4.731761144414734
 40
4.731761144414734
 40
4.731761144414734
 40
4.731761144414734
 10
21.20941790043
 20
0.1450353543139
 30
0.0
 10
21.20941790043
 20
0.9712901479458
 30
0.0
 10
21.77684770548
 20
0.9712901479458
 30
0.0
 10
21.87640736122
 20
0.9712901479458
 30
0.0
  0
SPLINE
  5
368C
330
3678
100
AcDbEntity
  8
AM_0
100
AcDbSpline
210
0.0
220
0.0
230
1.0
 70
     8
 71
     3
 72
    14
 73
    10
 74
     0
 42
0.000000001
 43
0.0000000001
 40
4.731761144414734
 40
4.731761144414734
 40
4.731761144414734
 40
4.731761144414734
 40
4.935049273029183
 40
5.138337401643799
 40
5.359093794934431
 40
5.579850188225231
 40
5.787501874366532
 40
5.995153560507831
 40
6.408373321438459
 40
6.408373321438459
 40
6.408373321438459
 40
6.408373321438459
 10
21.87640736122
 20
0.9712901479458
 30
0.0
 10
21.94582394594
 20
0.9649192457545
 30
0.0
 10
22.08102166235
 20
0.9346782145758998
 30
0.0
 10
22.27659929627
 20
0.8312115611862999
 30
0.0
 10
22.42334815411
 20
0.6944140634151001
 30
0.0
 10
22.50570459284
 20
0.5073433573040002
 30
0.0
 10
22.53470010931
 20
0.289880095427
 30
0.0
 10
22.53267732522
 20
0.01619471046115
 30
0.0
 10
22.53343332735
 20
-0.1940320659072
 30
0.0
 10
22.53343332735
 20
-0.3328108381305999
 30
0.0
  0
LINE
  5
368D
330
3678
100
AcDbEntity
  8
AM_0
100
AcDbLine
 10
22.533433
 20
-0.332811
 30
0.0
 11
24.85292
 21
-0.332811
 31
0.0
  0
LINE
  5
368E
330
3678
100
AcDbEntity
  8
AM_0
100
AcDbLine
 10
24.85292
 20
-0.332811
 30
0.0
 11
24.85292
 21
0.7522810000000001
 31
0.0
  0
SPLINE
  5
368F
330
3678
100
AcDbEntity
  8
AM_0
100
AcDbSpline
210
0.0
220
0.0
230
1.0
 70
     8
 71
     3
 72
     8
 73
     4
 74
     0
 42
0.000000001
 43
0.0000000001
 40
9.812952151718461
 40
9.812952151718461
 40
9.812952151718461
 40
9.812952151718461
 40
11.58480509394876
 40
11.58480509394876
 40
11.58480509394876
 40
11.58480509394876
 10
24.85291982693
 20
0.7522814925694
 30
0.0
 10
24.85291982693
 20
2.006602650771998
 30
0.0
 10
24.16602847377
 20
2.215647811484998
 30
0.0
 10
23.33977368014
 20
2.215647811484998
 30
0.0
  0
LINE
  5
3690
330
3678
100
AcDbEntity
  8
AM_0
100
AcDbLine
 10
23.339774
 20
2.215647999999998
 30
0.0
 11
20.791315
 21
2.215647999999998
 31
0.0
  0
SPLINE
  5
3691
330
3678
100
AcDbEntity
  8
AM_0
100
AcDbSpline
210
0.0
220
0.0
230
1.0
 70
     8
 71
     3
 72
     8
 73
     4
 74
     0
 42
0.000000001
 43
0.0000000001
 40
14.13326374356875
 40
14.13326374356875
 40
14.13326374356875
 40
14.13326374356875
 40
15.61873792813236
 40
15.61873792813236
 40
15.61873792813236
 40
15.61873792813236
 10
20.79131503052
 20
2.215647811484998
 30
0.0
 10
19.80576980709
 20
2.215647811484998
 30
0.0
 10
18.88991885237
 20
2.165880532092999
 30
0.0
 10
18.88991885237
 20
0.7522814925694
 30
0.0
  0
LINE
  5
3692
330
3678
100
AcDbEntity
  8
AM_0
100
AcDbLine
 10
18.889919
 20
0.7522810000000001
 30
0.0
 11
18.889919
 21
-2.55275
 31
0.0
  0
SPLINE
  5
3693
330
3678
100
AcDbEntity
  8
AM_0
100
AcDbSpline
210
0.0
220
0.0
230
1.0
 70
     8
 71
     3
 72
     8
 73
     4
 74
     0
 42
0.000000001
 43
0.0000000001
 40
18.92376965114176
 40
18.92376965114176
 40
18.92376965114176
 40
18.92376965114176
 40
20.62488229984145
 40
20.62488229984145
 40
20.62488229984145
 40
20.62488229984145
 10
18.88991885237
 20
-2.55275023044
 30
0.0
 10
18.88991885237
 20
-3.787156947796998
 30
0.0
 10
19.54695736699
 20
-4.016129097837
 30
0.0
 10
20.45284482704
 20
-4.016129097837
 30
0.0
  0
SPLINE
  5
3694
330
3678
100
AcDbEntity
  8
AM_0
100
AcDbSpline
210
0.0
220
0.0
230
1.0
 70
     8
 71
     3
 72
    13
 73
     9
 74
     0
 42
0.000000001
 43
0.0000000001
 40
20.62488229984145
 40
20.62488229984145
 40
20.62488229984145
 40
20.62488229984145
 40
20.83986811296711
 40
20.94736101952989
 40
21.0548539260927
 40
21.16396415207407
 40
21.27307437805543
 40
21.49129483001809
 40
21.49129483001809
 40
21.49129483001809
 40
21.49129483001809
 10
20.45284482704
 20
-4.016129097837
 30
0.0
 10
20.89417911985
 20
-4.016129097837
 30
0.0
 10
21.55637272448
 20
-4.016417285402998
 30
0.0
 10
22.43852886902
 20
-4.015648785228997
 30
0.0
 10
23.10539546077
 20
-4.017965848469998
 30
0.0
 10
23.76815886496
 20
-4.009150290388998
 30
0.0
 10
24.53167970249
 20
-3.8030488288
 30
0.0
 10
24.85291982693
 20
-3.254574277110998
 30
0.0
 10
24.85291982693
 20
-2.55275023044
 30
0.0
  0
LINE
  5
3695
330
3678
100
AcDbEntity
  8
AM_0
100
AcDbLine
 10
24.85292
 20
-2.55275
 30
0.0
 11
24.85292
 21
-1.487571999999999
 31
0.0
  0
LINE
  5
3696
330
3678
100
AcDbEntity
  8
AM_0
100
AcDbLine
 10
24.85292
 20
-1.487571999999999
 30
0.0
 11
22.533433
 21
-1.487571999999999
 31
0.0
  0
ARC
  5
3697
330
3678
100
AcDbEntity
  8
AM_0
100
AcDbCircle
 10
14.953007
 20
-2.125621999999999
 30
0.0
 40
0.646465
100
AcDbArc
 50
268.172546
 51
360.964051
  0
SPLINE
  5
3698
330
3678
100
AcDbEntity
  8
AM_0
100
AcDbSpline
210
0.0
220
0.0
230
1.0
 70
     8
 71
     3
 72
     8
 73
     4
 74
     0
 42
0.000000001
 43
0.0000000001
 40
1.03982544417179
 40
1.03982544417179
 40
1.03982544417179
 40
1.03982544417179
 40
1.576618956321949
 40
1.576618956321949
 40
1.576618956321949
 40
1.576618956321949
 10
14.93239116522
 20
-2.771758885816999
 30
0.0
 10
14.32514502696
 20
-2.771758885816999
 30
0.0
 10
14.26541425291
 20
-2.264059854825999
 30
0.0
 10
14.26541425291
 20
-1.945504092184999
 30
0.0
  0
LINE
  5
3699
330
3678
100
AcDbEntity
  8
AM_0
100
AcDbLine
 10
14.265414
 20
-1.945503999999995
 30
0.0
 11
14.265414
 21
-1.517437999999999
 31
0.0
  0
LINE
  5
369A
330
3678
100
AcDbEntity
  8
AM_0
100
AcDbLine
 10
14.265414
 20
-1.517437999999999
 30
0.0
 11
17.91888
 21
-1.517437999999999
 31
0.0
  0
LINE
  5
369B
330
3678
100
AcDbEntity
  8
AM_0
100
AcDbLine
 10
17.91888
 20
-1.517437999999999
 30
0.0
 11
17.91888
 21
0.762245
 31
0.0
  0
SPLINE
  5
369C
330
3678
100
AcDbEntity
  8
AM_0
100
AcDbSpline
210
0.0
220
0.0
230
1.0
 70
     8
 71
     3
 72
     8
 73
     4
 74
     0
 42
0.000000001
 43
0.0000000001
 40
7.937833456900247
 40
7.937833456900247
 40
7.937833456900247
 40
7.937833456900247
 40
9.682226025530953
 40
9.682226025530953
 40
9.682226025530953
 40
9.682226025530953
 10
17.91887967407
 20
0.7622449872333
 30
0.0
 10
17.91887967407
 20
1.926969984352998
 30
0.0
 10
17.30167004115
 20
2.215647811484998
 30
0.0
 10
16.37585559177
 20
2.215647811484998
 30
0.0
  0
LINE
  5
369D
330
3678
100
AcDbEntity
  8
AM_0
100
AcDbLine
 10
16.375856
 20
2.215647999999998
 30
0.0
 11
13.568572
 21
2.215647999999998
 31
0.0
  0
SPLINE
  5
369E
330
3678
100
AcDbEntity
  8
AM_0
100
AcDbSpline
210
0.0
220
0.0
230
1.0
 70
     8
 71
     3
 72
     8
 73
     4
 74
     0
 42
0.000000001
 43
0.0000000001
 40
12.48950966373095
 40
12.48950966373095
 40
12.48950966373095
 40
12.48950966373095
 40
14.06454808304571
 40
14.06454808304571
 40
14.06454808304571
 40
14.06454808304571
 10
13.56857195357
 20
2.215647811484998
 30
0.0
 10
12.54321039692
 20
2.215647811484998
 30
0.0
 10
11.94591520485
 20
1.897092048842998
 30
0.0
 10
11.94591520485
 20
0.7622449872333
 30
0.0
  0
LINE
  5
369F
330
3678
100
AcDbEntity
  8
AM_0
100
AcDbLine
 10
11.945915
 20
0.762245
 30
0.0
 11
11.945915
 21
-2.55275
 31
0.0
  0
SPLINE
  5
36A0
330
3678
100
AcDbEntity
  8
AM_0
100
AcDbSpline
210
0.0
220
0.0
230
1.0
 70
     8
 71
     3
 72
     8
 73
     4
 74
     0
 42
0.000000001
 43
0.0000000001
 40
17.37954330071901
 40
17.37954330071901
 40
17.37954330071901
 40
17.37954330071901
 40
18.81595483228277
 40
18.81595483228277
 40
18.81595483228277
 40
18.81595483228277
 10
11.94591520485
 20
-2.55275023044
 30
0.0
 10
11.94591520485
 20
-3.797120442460998
 30
0.0
 10
12.63280655801
 20
-4.016129097837
 30
0.0
 10
13.45906135164
 20
-4.016129097837
 30
0.0
  0
LINE
  5
36A1
330
3678
100
AcDbEntity
  8
AM_0
100
AcDbLine
 10
13.459061
 20
-4.016129
 30
0.0
 11
16.405721
 21
-4.016129
 31
0.0
  0
SPLINE
  5
36A2
330
3678
100
AcDbEntity
  8
AM_0
100
AcDbSpline
210
0.0
220
0.0
230
1.0
 70
     8
 71
     3
 72
     8
 73
     4
 74
     0
 42
0.000000001
 43
0.0000000001
 40
21.76261445944279
 40
21.76261445944279
 40
21.76261445944279
 40
21.76261445944279
 40
23.04455806528604
 40
23.04455806528604
 40
23.04455806528604
 40
23.04455806528604
 10
16.4057209788
 20
-4.016129097837
 30
0.0
 10
17.33153542818
 20
-4.016129097837
 30
0.0
 10
17.91887967407
 20
-3.687609840532
 30
0.0
 10
17.91887967407
 20
-2.562701176621999
 30
0.0
  0
LINE
  5
36A3
330
3678
100
AcDbEntity
  8
AM_0
100
AcDbLine
 10
17.91888
 20
-2.562700999999999
 30
0.0
 11
17.91888
 21
-2.114745
 31
0.0
  0
LINE
  5
36A4
330
3678
100
AcDbEntity
  8
AM_0
100
AcDbLine
 10
17.91888
 20
-2.114745
 30
0.0
 11
15.599381
 21
-2.114745
 31
0.0
  0
LINE
  5
36A5
330
3678
100
AcDbEntity
  8
AM_0
100
AcDbLine
 10
14.265414
 20
-0.283031
 30
0.0
 11
14.265414
 21
0.2246809999999999
 31
0.0
  0
SPLINE
  5
36A6
330
3678
100
AcDbEntity
  8
AM_0
100
AcDbSpline
210
0.0
220
0.0
230
1.0
 70
     8
 71
     3
 72
     8
 73
     4
 74
     0
 42
0.000000001
 43
0.0000000001
 40
0.5077115794722003
 40
0.5077115794722003
 40
0.5077115794722003
 40
0.5077115794722003
 40
0.8980446109172831
 40
0.8980446109172831
 40
0.8980446109172831
 40
0.8980446109172831
 10
14.26541425291
 20
0.2246805692152999
 30
0.0
 10
14.26541425291
 20
0.6825997723319
 30
0.0
 10
14.53419018767
 20
0.9712901479458
 30
0.0
 10
14.91248927285
 20
0.9712901479458
 30
0.0
  0
SPLINE
  5
36A7
330
3678
100
AcDbEntity
  8
AM_0
100
AcDbSpline
210
0.0
220
0.0
230
1.0
 70
     8
 71
     3
 72
     8
 73
     4
 74
     0
 42
0.000000001
 43
0.0000000001
 40
0.8980446109172831
 40
0.8980446109172831
 40
0.8980446109172831
 40
0.8980446109172831
 40
1.278385601219993
 40
1.278385601219993
 40
1.278385601219993
 40
1.278385601219993
 10
14.91248927285
 20
0.9712901479458
 30
0.0
 10
15.30072675573
 20
0.9712901479458
 30
0.0
 10
15.59938062601
 20
0.7323796002056
 30
0.0
 10
15.59938062601
 20
0.1251209134681
 30
0.0
  0
LINE
  5
36A8
330
3678
100
AcDbEntity
  8
AM_0
100
AcDbLine
 10
15.599381
 20
0.125121
 30
0.0
 11
15.599381
 21
-0.2830309999999999
 31
0.0
  0
LINE
  5
36A9
330
3678
100
AcDbEntity
  8
AM_0
100
AcDbLine
 10
15.599381
 20
-0.283031
 30
0.0
 11
14.265414
 21
-0.283031
 31
0.0
  0
LINE
  5
36AA
330
3678
100
AcDbEntity
  8
AM_0
100
AcDbLine
 10
10.983836
 20
-2.771758999999998
 30
0.0
 11
10.43632
 21
-2.771758999999998
 31
0.0
  0
LINE
  5
36AB
330
3678
100
AcDbEntity
  8
AM_0
100
AcDbLine
 10
10.43632
 20
-2.771758999999998
 30
0.0
 11
10.43632
 21
0.911559
 31
0.0
  0
LINE
  5
36AC
330
3678
100
AcDbEntity
  8
AM_0
100
AcDbLine
 10
10.43632
 20
0.911559
 30
0.0
 11
10.963934
 21
0.911559
 31
0.0
  0
LINE
  5
36AD
330
3678
100
AcDbEntity
  8
AM_0
100
AcDbLine
 10
10.963934
 20
0.911559
 30
0.0
 11
10.963934
 21
2.15593
 31
0.0
  0
LINE
  5
36AE
330
3678
100
AcDbEntity
  8
AM_0
100
AcDbLine
 10
10.963934
 20
2.15593
 30
0.0
 11
10.43632
 21
2.15593
 31
0.0
  0
LINE
  5
36AF
330
3678
100
AcDbEntity
  8
AM_0
100
AcDbLine
 10
10.43632
 20
2.15593
 30
0.0
 11
10.43632
 21
3.619295999999998
 31
0.0
  0
LINE
  5
36B0
330
3678
100
AcDbEntity
  8
AM_0
100
AcDbLine
 10
10.43632
 20
3.619295999999998
 30
0.0
 11
7.718619999999997
 21
2.086247999999998
 31
0.0
  0
LINE
  5
36B1
330
3678
100
AcDbEntity
  8
AM_0
100
AcDbLine
 10
7.718619999999997
 20
2.086247999999998
 30
0.0
 11
7.718619999999997
 21
0.9016079999999998
 31
0.0
  0
LINE
  5
36B2
330
3678
100
AcDbEntity
  8
AM_0
100
AcDbLine
 10
7.718619999999997
 20
0.9016079999999998
 30
0.0
 11
8.116820999999998
 21
0.9016079999999998
 31
0.0
  0
LINE
  5
36B3
330
3678
100
AcDbEntity
  8
AM_0
100
AcDbLine
 10
8.116820999999998
 20
0.9016079999999998
 30
0.0
 11
8.116820999999998
 21
-2.55275
 31
0.0
  0
SPLINE
  5
36B4
330
3678
100
AcDbEntity
  8
AM_0
100
AcDbSpline
210
0.0
220
0.0
230
1.0
 70
     8
 71
     3
 72
     8
 73
     4
 74
     0
 42
0.000000001
 43
0.0000000001
 40
16.15127335850313
 40
16.15127335850313
 40
16.15127335850313
 40
16.15127335850313
 40
18.15153187656178
 40
18.15153187656178
 40
18.15153187656178
 40
18.15153187656178
 10
8.116821230394
 20
-2.55275023044
 30
0.0
 10
8.116821230394
 20
-3.677658894349999
 30
0.0
 10
8.694201981620999
 20
-4.016129097837
 30
0.0
 10
9.550322162280998
 20
-4.016129097837
 30
0.0
  0
LINE
  5
36B5
330
3678
100
AcDbEntity
  8
AM_0
100
AcDbLine
 10
9.550321999999999
 20
-4.016129
 30
0.0
 11
10.983836
 21
-4.016129
 31
0.0
  0
LINE
  5
36B6
330
3678
100
AcDbEntity
  8
AM_0
100
AcDbLine
 10
10.983836
 20
-4.016129
 30
0.0
 11
10.983836
 21
-2.771758999999998
 31
0.0
  0
LINE
  5
36B7
330
3678
100
AcDbEntity
  8
AM_0
100
AcDbLine
 10
1.609567
 20
-0.740963
 30
0.0
 11
0.1959679999999999
 21
-3.956398
 31
0.0
  0
LINE
  5
36B8
330
3678
100
AcDbEntity
  8
AM_0
100
AcDbLine
 10
0.195968
 20
-3.956398
 30
0.0
 11
2.465688
 21
-3.956398
 31
0.0
  0
LINE
  5
36B9
330
3678
100
AcDbEntity
  8
AM_0
100
AcDbLine
 10
2.465688
 20
-3.956398
 30
0.0
 11
3.441269
 21
-1.786225999999999
 31
0.0
  0
LINE
  5
36BA
330
3678
100
AcDbEntity
  8
AM_0
100
AcDbLine
 10
3.441269
 20
-1.786225999999999
 30
0.0
 11
4.4069
 21
-3.956398
 31
0.0
  0
LINE
  5
36BB
330
3678
100
AcDbEntity
  8
AM_0
100
AcDbLine
 10
4.4069
 20
-3.956398
 30
0.0
 11
6.925505999999997
 21
-3.956398
 31
0.0
  0
LINE
  5
36BC
330
3678
100
AcDbEntity
  8
AM_0
100
AcDbLine
 10
6.925505999999997
 20
-3.956398
 30
0.0
 11
5.462126999999997
 21
-0.6911830000000001
 31
0.0
  0
LINE
  5
36BD
330
3678
100
AcDbEntity
  8
AM_0
100
AcDbLine
 10
5.462126999999997
 20
-0.6911830000000001
 30
0.0
 11
6.706484999999998
 21
2.15593
 31
0.0
  0
LINE
  5
36BE
330
3678
100
AcDbEntity
  8
AM_0
100
AcDbLine
 10
6.706484999999998
 20
2.15593
 30
0.0
 11
4.486544999999996
 21
2.15593
 31
0.0
  0
LINE
  5
36BF
330
3678
100
AcDbEntity
  8
AM_0
100
AcDbLine
 10
4.486544999999996
 20
2.15593
 30
0.0
 11
3.620461999999998
 21
0.174901
 31
0.0
  0
LINE
  5
36C0
330
3678
100
AcDbEntity
  8
AM_0
100
AcDbLine
 10
3.620461999999998
 20
0.174901
 30
0.0
 11
2.774291999999998
 21
2.15593
 31
0.0
  0
LINE
  5
36C1
330
3678
100
AcDbEntity
  8
AM_0
100
AcDbLine
 10
2.774291999999998
 20
2.15593
 30
0.0
 11
0.3651970000000002
 21
2.15593
 31
0.0
  0
LINE
  5
36C2
330
3678
100
AcDbEntity
  8
AM_0
100
AcDbLine
 10
0.365197
 20
2.15593
 30
0.0
 11
1.609567
 21
-0.7409630000000003
 31
0.0
  0
SPLINE
  5
36C3
330
3678
100
AcDbEntity
  8
AM_0
100
AcDbSpline
210
0.0
220
0.0
230
1.0
 70
     9
 71
     3
 72
    57
 73
    53
 74
     0
 42
0.000000001
 43
0.0000000001
 40
0.0
 40
0.0
 40
0.0
 40
0.0
 40
0.2577779694855936
 40
0.5319049297689543
 40
0.6713567722788121
 40
0.8217123941152294
 40
0.9988567966900175
 40
1.103457410477783
 40
1.221634105872751
 40
1.339808583102432
 40
1.444407277427301
 40
1.621548741575493
 40
1.771902585963855
 40
1.911353567344903
 40
2.185480158433235
 40
2.31944411117462
 40
2.443366091822138
 40
2.713595777953448
 40
2.983825464084758
 40
3.25405515021515
 40
3.524284836346458
 40
3.794514522476851
 40
4.064744208608161
 40
4.334973894738554
 40
4.470088737804664
 40
4.537646159336806
 40
4.605203580869862
 40
4.688896693869703
 40
4.804026504203936
 40
5.084483383777667
 40
5.236980643191081
 40
5.398424063957867
 40
5.580837470506128
 40
5.686178370753602
 40
5.804437036806525
 40
5.922697919445517
 40
6.028040725632168
 40
6.210456985684745
 40
6.371902061807284
 40
6.524400108679825
 40
6.804857349114655
 40
6.91998717318433
 40
7.003680286570037
 40
7.071237708103097
 40
7.138795129636151
 40
7.273909972701347
 40
7.544139658832659
 40
7.814369344963052
 40
8.084599031094361
 40
8.625058403356062
 40
8.895286583937425
 40
9.165517775617763
 40
9.165517775617763
 40
9.165517775617763
 40
9.165517775617763
 10
-2.915389995257998
 20
-1.965405984548999
 30
0.0
 10
-2.915564651879
 20
-2.050832575422
 30
0.0
 10
-2.916518563934997
 20
-2.226970742188
 30
0.0
 10
-2.967821261016998
 20
-2.449472914988
 30
0.0
 10
-3.075010242588998
 20
-2.605962923519999
 30
0.0
 10
-3.200587772132998
 20
-2.701143599736999
 30
0.0
 10
-3.338030311435998
 20
-2.748410994761999
 30
0.0
 10
-3.469243825366
 20
-2.768538815683998
 30
0.0
 10
-3.582378700693998
 20
-2.773467015
 30
0.0
 10
-3.695513050601995
 20
-2.768538896691
 30
0.0
 10
-3.826723847570998
 20
-2.748410664405
 30
0.0
 10
-3.964166046911
 20
-2.701145366768999
 30
0.0
 10
-4.089734289845996
 20
-2.605956836732
 30
0.0
 10
-4.196951131371998
 20
-2.449500372155998
 30
0.0
 10
-4.238614651853
 20
-2.267834376350998
 30
0.0
 10
-4.249207725554997
 20
-2.092074022084
 30
0.0
 10
-4.249447825123
 20
-1.916848483262
 30
0.0
 10
-4.249324586313997
 20
-1.696640973371998
 30
0.0
 10
-4.249364900578997
 20
-1.427836959568999
 30
0.0
 10
-4.249354021541
 20
-1.159060587536
 30
0.0
 10
-4.249357223427
 20
-0.890276835417
 30
0.0
 10
-4.249355294921
 20
-0.6214949618710001
 30
0.0
 10
-4.249359807059997
 20
-0.3527129541197
 30
0.0
 10
-4.249346373686
 20
-0.1287268295339
 30
0.0
 10
-4.249370258869998
 20
0.02806105089593
 30
0.0
 10
-4.249331999515
 20
0.1176579158983
 30
0.0
 10
-4.249458874284997
 20
0.1901939509246
 30
0.0
 10
-4.248791025695997
 20
0.2785605808942
 30
0.0
 10
-4.236486096273996
 20
0.4369302416989
 30
0.0
 10
-4.193039917381
 20
0.6169715968386999
 30
0.0
 10
-4.090588490221
 20
0.7876139393924002
 30
0.0
 10
-3.967443790170996
 20
0.9008690783496
 30
0.0
 10
-3.828317770049998
 20
0.9613767715569998
 30
0.0
 10
-3.695850719509
 20
0.9870199522296999
 30
0.0
 10
-3.582378719207997
 20
0.9933986034015999
 30
0.0
 10
-3.468906092650998
 20
0.9870199369466
 30
0.0
 10
-3.336436690662997
 20
0.9613768158104999
 30
0.0
 10
-3.197308290491998
 20
0.9008693364911
 30
0.0
 10
-3.074161113174997
 20
0.7876142689670002
 30
0.0
 10
-2.971707667217
 20
0.6169719929012
 30
0.0
 10
-2.928260512609996
 20
0.4369303561028002
 30
0.0
 10
-2.915955349318998
 20
0.2785605867449
 30
0.0
 10
-2.915287487564
 20
0.1901939509064
 30
0.0
 10
-2.915414363671997
 20
0.1176579158083
 30
0.0
 10
-2.915376109429997
 20
0.02806105159497
 30
0.0
 10
-2.915399932113997
 20
-0.1287268379917
 30
0.0
 10
-2.915387008894
 20
-0.3527128880353
 30
0.0
 10
-2.915389419211996
 20
-0.6214952028425002
 30
0.0
 10
-2.915397241337
 20
-0.979869515873
 30
0.0
 10
-2.915341576962998
 20
-1.338257860489999
 30
0.0
 10
-2.91547291562
 20
-1.696604692101995
 30
0.0
 10
-2.915206900996997
 20
-1.875852445512999
 30
0.0
 10
-2.915389995257998
 20
-1.965405984548999
 30
0.0
  0
SPLINE
  5
36C4
330
3678
100
AcDbEntity
  8
AM_0
100
AcDbSpline
210
0.0
220
0.0
230
1.0
 70
     8
 71
     3
 72
    10
 73
     6
 74
     0
 42
0.000000001
 43
0.0000000001
 40
0.0
 40
0.0
 40
0.0
 40
0.0
 40
1.109343076169902
 40
1.719831138587928
 40
2.583042791390259
 40
2.583042791390259
 40
2.583042791390259
 40
2.583042791390259
 10
-4.995978495573999
 20
2.215647811484998
 30
0.0
 10
-5.347067118562
 20
2.215647811484998
 30
0.0
 10
-5.944997912275997
 20
2.186351430346999
 30
0.0
 10
-6.519443858256
 20
1.533128361814998
 30
0.0
 10
-6.568842867936997
 20
1.045388056788999
 30
0.0
 10
-6.568842867936997
 20
0.7721959334153004
 30
0.0
  0
LINE
  5
36C5
330
3678
100
AcDbEntity
  8
AM_0
100
AcDbLine
 10
-6.568842999999997
 20
0.7721960000000001
 30
0.0
 11
-6.568842999999997
 21
-2.542799
 31
0.0
  0
SPLINE
  5
36C6
330
3678
100
AcDbEntity
  8
AM_0
100
AcDbSpline
210
0.0
220
0.0
230
1.0
 70
     8
 71
     3
 72
    10
 73
     6
 74
     0
 42
0.000000001
 43
0.0000000001
 40
0.0
 40
0.0
 40
0.0
 40
0.0
 40
0.821718948508272
 40
1.411385254213954
 40
2.590146977405218
 40
2.590146977405218
 40
2.590146977405218
 40
2.590146977405218
 10
-6.568842867936997
 20
-2.542799284257998
 30
0.0
 10
-6.568842867936997
 20
-2.802012747646998
 30
0.0
 10
-6.531935289205
 20
-3.260268296417998
 30
0.0
 10
-6.028226921490999
 20
-3.965668989461998
 30
0.0
 10
-5.397674905857999
 20
-4.016129097837
 30
0.0
 10
-5.025831334119998
 20
-4.016129097837
 30
0.0
  0
LINE
  5
36C7
330
3678
100
AcDbEntity
  8
AM_0
100
AcDbLine
 10
-5.025831
 20
-4.016129
 30
0.0
 11
-2.138901999999998
 21
-4.016129
 31
0.0
  0
SPLINE
  5
36C8
330
3678
100
AcDbEntity
  8
AM_0
100
AcDbSpline
210
0.0
220
0.0
230
1.0
 70
     8
 71
     3
 72
    10
 73
     6
 74
     0
 42
0.000000001
 43
0.0000000001
 40
0.0
 40
0.0
 40
0.0
 40
0.0
 40
1.241828041480724
 40
1.818803923075918
 40
2.552581987957609
 40
2.552581987957609
 40
2.552581987957609
 40
2.552581987957609
 10
-2.138902481016998
 20
-4.016129097837
 30
0.0
 10
-1.747024374216
 20
-4.016129097837
 30
0.0
 10
-1.096264283341999
 20
-3.917624603949
 30
0.0
 10
-0.6364626974473
 20
-3.206559298895998
 30
0.0
 10
-0.5958909472008001
 20
-2.784305284178
 30
0.0
 10
-0.5958909472008001
 20
-2.55275023044
 30
0.0
  0
LINE
  5
36C9
330
3678
100
AcDbEntity
  8
AM_0
100
AcDbLine
 10
-0.595891
 20
-2.55275
 30
0.0
 11
-0.595891
 21
0.7622450000000001
 31
0.0
  0
SPLINE
  5
36CA
330
3678
100
AcDbEntity
  8
AM_0
100
AcDbSpline
210
0.0
220
0.0
230
1.0
 70
     8
 71
     3
 72
     9
 73
     5
 74
     0
 42
0.000000001
 43
0.0000000001
 40
0.0
 40
0.0
 40
0.0
 40
0.0
 40
1.384083709232956
 40
2.686633407893391
 40
2.686633407893391
 40
2.686633407893391
 40
2.686633407893391
 10
-0.5958909472008001
 20
0.7622449872333
 30
0.0
 10
-0.5958909472008001
 20
1.169262902115999
 30
0.0
 10
-0.7879252461084001
 20
2.112676671422998
 30
0.0
 10
-1.716044964066998
 20
2.215647811484998
 30
0.0
 10
-2.099086147807998
 20
2.215647811484998
 30
0.0
  0
LINE
  5
36CB
330
3678
100
AcDbEntity
  8
AM_0
100
AcDbLine
 10
-2.099085999999998
 20
2.215647999999998
 30
0.0
 11
-4.995978
 21
2.215647999999998
 31
0.0
  0
LINE
  5
36CC
330
3678
100
AcDbEntity
  8
AM_0
100
AcDbLine
 10
-11.471823
 20
0.6228690000000002
 30
0.0
 11
-11.471823
 21
2.126063999999999
 31
0.0
  0
SPLINE
  5
36CD
330
3678
100
AcDbEntity
  8
AM_0
100
AcDbSpline
210
0.0
220
0.0
230
1.0
 70
     8
 71
     3
 72
    32
 73
    28
 74
     0
 42
0.000000001
 43
0.0000000001
 40
1.503195200606599
 40
1.503195200606599
 40
1.503195200606599
 40
1.503195200606599
 40
1.834406863358323
 40
2.165618526110129
 40
2.496830188861693
 40
2.66243602023768
 40
2.828041851613662
 40
2.944949836977656
 40
3.061857822341247
 40
3.295673793069231
 40
3.412581778433223
 40
3.529489763797214
 40
3.646397749160805
 40
3.704851741843001
 40
3.763305734524799
 40
3.825763853967694
 40
3.888221973410193
 40
4.013138212295586
 40
4.138054451180983
 40
4.262970690066376
 40
4.512803167837565
 40
4.637719406722959
 40
4.762635645608356
 40
4.855517887065133
 40
4.948400128522308
 40
5.134164611435862
 40
5.505693577263766
 40
5.505693577263766
 40
5.505693577263766
 40
5.505693577263766
 10
-11.47182337872
 20
2.126064198882998
 30
0.0
 10
-11.41541272383999
 20
2.126064198882998
 30
0.0
 10
-11.30269815784
 20
2.126064194465997
 30
0.0
 10
-11.13298584637
 20
2.126064214344999
 30
0.0
 10
-10.99342693566
 20
2.126064153601999
 30
0.0
 10
-10.87761680108
 20
2.126064277298
 30
0.0
 10
-10.80952684799
 20
2.126063936606
 30
0.0
 10
-10.71908051287
 20
2.126064864421
 30
0.0
 10
-10.55269709644
 20
2.114705818781
 30
0.0
 10
-10.34454827151
 20
2.069312506258
 30
0.0
 10
-10.15028032291
 20
1.955703873615996
 30
0.0
 10
-10.02710588692
 20
1.828146138289
 30
0.0
 10
-9.955583608279001
 20
1.678539302558998
 30
0.0
 10
-9.924401144322999
 20
1.530680496903999
 30
0.0
 10
-9.916041329924
 20
1.396357927041999
 30
0.0
 10
-9.924498360749
 20
1.259036771702999
 30
0.0
 10
-9.95572220016
 20
1.101049566384
 30
0.0
 10
-10.02828889702
 20
0.9411945899842999
 30
0.0
 10
-10.15495111558
 20
0.8048990884779
 30
0.0
 10
-10.35849953547
 20
0.6835082077743
 30
0.0
 10
-10.58567573896
 20
0.6350054423454
 30
0.0
 10
-10.7838693801
 20
0.6228682710112004
 30
0.0
 10
-10.88874292587
 20
0.6228691381104002
 30
0.0
 10
-10.96602161321
 20
0.6228689663195
 30
0.0
 10
-11.06318455127
 20
0.6228690165375001
 30
0.0
 10
-11.2309936622
 20
0.6228689845806003
 30
0.0
 10
-11.37559325351
 20
0.6228689982764001
 30
0.0
 10
-11.47182337872
 20
0.6228689982764001
 30
0.0
  0
SPLINE
  5
36CE
330
3678
100
AcDbEntity
  8
AM_0
100
AcDbSpline
210
0.0
220
0.0
230
1.0
 70
     8
 71
     3
 72
    19
 73
    15
 74
     0
 42
0.000000001
 43
0.0000000001
 40
0.0
 40
0.0
 40
0.0
 40
0.0
 40
1.860727446573354
 40
2.791091169859272
 40
3.721454893146708
 40
4.650437715650004
 40
5.579420538153299
 40
6.508403360658108
 40
7.437386183161406
 40
8.403548637119321
 40
9.369711091077238
 40
11.30203599899307
 40
13.23436090691042
 40
15.16668581482625
 40
15.16668581482625
 40
15.16668581482625
 40
15.16668581482625
 10
-31.14949946722
 20
4.768485881299
 30
0.0
 10
-30.51410739208
 20
4.770930672621997
 30
0.0
 10
-29.58188143595
 20
4.584875562389997
 30
0.0
 10
-28.47901163375
 20
4.001016065531
 30
0.0
 10
-27.7414578015
 20
3.401565531100998
 30
0.0
 10
-27.13649799822
 20
2.668495096301
 30
0.0
 10
-26.69390961898
 20
1.843432597957999
 30
0.0
 10
-26.41877314855
 20
0.9493776615460999
 30
0.0
 10
-26.32217383115
 20
-0.01122067116471
 30
0.0
 10
-26.42210781752
 20
-0.9715836185167001
 30
0.0
 10
-26.80127745631
 20
-2.168264266461
 30
0.0
 10
-27.6837301698
 20
-3.454444354145
 30
0.0
 10
-29.23582276847
 20
-4.501427109825
 30
0.0
 10
-30.49254601868
 20
-4.768184717731998
 30
0.0
 10
-31.14970024293
 20
-4.768184717731998
 30
0.0
  0
LINE
  5
36CF
330
3678
100
AcDbEntity
  8
AM_0
100
AcDbLine
 10
-31.1497
 20
-4.768184999999999
 30
0.0
 11
-31.149499
 21
4.768486
 31
0.0
  0
ARC
  5
36D0
330
3678
100
AcDbEntity
  8
AM_0
100
AcDbCircle
 10
-31.178352
 20
0.000289
 30
0.0
 40
10.056584
100
AcDbArc
 50
317.217221
 51
402.7827789999998
  0
LINE
  5
36D1
330
3678
100
AcDbEntity
  8
AM_0
100
AcDbLine
 10
-23.797482
 20
-6.830352
 30
0.0
 11
-17.480037
 21
-6.830803999999997
 31
0.0
  0
LINE
  5
36D2
330
3678
100
AcDbEntity
  8
AM_0
100
AcDbLine
 10
-17.480037
 20
-6.830803999999997
 30
0.0
 11
-17.480037
 21
6.830803999999997
 31
0.0
  0
LINE
  5
36D3
330
3678
100
AcDbEntity
  8
AM_0
100
AcDbLine
 10
-17.480037
 20
6.830803999999997
 30
0.0
 11
-23.797482
 21
6.830928999999997
 31
0.0
  0
ARC
  5
36D4
330
3678
100
AcDbEntity
  8
AM_0
100
AcDbCircle
 10
-31.120081
 20
0.000489
 30
0.0
 40
5.822947
100
AcDbArc
 50
269.708552
 51
450.291448
  0
LINE
  5
36D5
330
3678
100
AcDbEntity
  8
AM_0
100
AcDbLine
 10
-31.1497
 20
5.823361
 30
0.0
 11
-31.1497
 21
6.830928999999997
 31
0.0
  0
ARC
  5
36D6
330
3678
100
AcDbEntity
  8
AM_0
100
AcDbCircle
 10
-31.134071
 20
0.000289
 30
0.0
 40
6.830658999999998
100
AcDbArc
 50
269.868901
 51
450.131099
  0
LINE
  5
36D7
330
3678
100
AcDbEntity
  8
AM_0
100
AcDbLine
 10
-31.1497
 20
-6.830352
 30
0.0
 11
-31.1497
 21
-5.822383
 31
0.0
  0
ARC
  5
36D8
330
3678
100
AcDbEntity
  8
AM_0
100
AcDbCircle
 10
-31.141847
 20
-0.004247
 30
0.0
 40
7.928371
100
AcDbArc
 50
300.573038
 51
419.5541129999998
  0
LINE
  5
36D9
330
3678
100
AcDbEntity
  8
AM_0
100
AcDbLine
 10
-27.109189
 20
-6.830427
 30
0.0
 11
-25.395054
 21
-6.830427
 31
0.0
  0
SPLINE
  5
36DA
330
3678
100
AcDbEntity
  8
AM_0
100
AcDbSpline
210
0.0
220
0.0
230
1.0
 70
     8
 71
     3
 72
    13
 73
     9
 74
     0
 42
0.000000001
 43
0.0000000001
 40
17.99401173598714
 40
17.99401173598714
 40
17.99401173598714
 40
17.99401173598714
 40
21.90939784913723
 40
23.86709090571228
 40
25.82478396228733
 40
27.78948786142934
 40
29.75419176057135
 40
33.68359955885537
 40
33.68359955885537
 40
33.68359955885537
 40
33.68359955885537
 10
-25.39505426258
 20
-6.830427337446
 30
0.0
 10
-24.39305449125
 20
-5.979267262319997
 30
0.0
 10
-23.20917487321
 20
-4.399273297875999
 30
0.0
 10
-22.37808595879
 20
-1.951722506380999
 30
0.0
 10
-22.15383916452
 20
0.006809411740822
 30
0.0
 10
-22.36350209817
 20
1.9649911702
 30
0.0
 10
-23.19246531921
 20
4.411918369054999
 30
0.0
 10
-24.3852663438
 20
5.98553557749
 30
0.0
 10
-25.39505426258
 20
6.830866534313999
 30
0.0
  0
LINE
  5
36DB
330
3678
100
AcDbEntity
  8
AM_0
100
AcDbLine
 10
-25.395054
 20
6.830866999999997
 30
0.0
 11
-27.124348
 21
6.830866999999997
 31
0.0
  0
ARC
  5
36DC
330
3678
100
AcDbEntity
  8
AM_0
100
AcDbCircle
 10
-9.183578
 20
1.490320999999999
 30
0.0
 40
1.654565999999999
100
AcDbArc
 50
279.048452
 51
306.190281
  0
LINE
  5
36DD
330
3678
100
AcDbEntity
  8
AM_0
100
AcDbLine
 10
22.533433
 20
-1.487571999999999
 30
0.0
 11
22.533433
 21
-2.015185999999999
 31
0.0
  0
SPLINE
  5
36DE
330
3678
100
AcDbEntity
  8
AM_0
100
AcDbSpline
210
0.0
220
0.0
230
1.0
 70
     8
 71
     3
 72
     8
 73
     4
 74
     0
 42
0.000000001
 43
0.0000000001
 40
0.0
 40
0.0
 40
0.0
 40
0.0
 40
1.319426617515827
 40
1.319426617515827
 40
1.319426617515827
 40
1.319426617515827
 10
22.53343332735
 20
-2.015185812421997
 30
0.0
 10
22.53343332735
 20
-2.662260832368998
 30
0.0
 10
22.07550157575
 20
-2.781722380480998
 30
0.0
 10
21.87640736122
 20
-2.781722380480998
 30
0.0
  0
SPLINE
  5
36DF
330
3678
100
AcDbEntity
  8
AM_0
100
AcDbSpline
210
0.0
220
0.0
230
1.0
 70
     8
 71
     3
 72
     8
 73
     4
 74
     0
 42
0.000000001
 43
0.0000000001
 40
0.0
 40
0.0
 40
0.0
 40
0.0
 40
1.288363575607537
 40
1.288363575607537
 40
1.288363575607537
 40
1.288363575607537
 10
21.87640736122
 20
-2.781722380480998
 30
0.0
 10
21.44834099665
 20
-2.781722380480998
 30
0.0
 10
21.20941790043
 20
-2.483068510203
 30
0.0
 10
21.20941790043
 20
-2.005234866239999
 30
0.0
  0
LINE
  5
36E0
330
3678
100
AcDbEntity
  8
AM_0
100
AcDbLine
 10
21.209418
 20
-2.005234999999998
 30
0.0
 11
21.209418
 21
0.145035
 31
0.0
  0
SPLINE
  5
36E1
330
3678
100
AcDbEntity
  8
AM_0
100
AcDbSpline
210
0.0
220
0.0
230
1.0
 70
     8
 71
     3
 72
     8
 73
     4
 74
     0
 42
0.000000001
 43
0.0000000001
 40
0.0
 40
0.0
 40
0.0
 40
0.0
 40
1.493244254421899
 40
1.493244254421899
 40
1.493244254421899
 40
1.493244254421899
 10
21.20941790043
 20
0.1450353543139
 30
0.0
 10
21.20941790043
 20
0.9712901479458
 30
0.0
 10
21.77684770548
 20
0.9712901479458
 30
0.0
 10
21.87640736122
 20
0.9712901479458
 30
0.0
  0
SPLINE
  5
36E2
330
3678
100
AcDbEntity
  8
AM_0
100
AcDbSpline
210
0.0
220
0.0
230
1.0
 70
     8
 71
     3
 72
    14
 73
    10
 74
     0
 42
0.000000001
 43
0.0000000001
 40
0.0
 40
0.0
 40
0.0
 40
0.0
 40
0.2032881286144495
 40
0.4065762572290669
 40
0.6273326505196986
 40
0.8480890438104975
 40
1.055740729951796
 40
1.263392416093096
 40
1.676612177023725
 40
1.676612177023725
 40
1.676612177023725
 40
1.676612177023725
 10
21.87640736122
 20
0.9712901479458
 30
0.0
 10
21.94582394594
 20
0.9649192457545
 30
0.0
 10
22.08102166235
 20
0.9346782145758998
 30
0.0
 10
22.27659929627
 20
0.8312115611862999
 30
0.0
 10
22.42334815411
 20
0.6944140634151001
 30
0.0
 10
22.50570459284
 20
0.5073433573040002
 30
0.0
 10
22.53470010931
 20
0.289880095427
 30
0.0
 10
22.53267732522
 20
0.01619471046115
 30
0.0
 10
22.53343332735
 20
-0.1940320659072
 30
0.0
 10
22.53343332735
 20
-0.3328108381305999
 30
0.0
  0
LINE
  5
36E3
330
3678
100
AcDbEntity
  8
AM_0
100
AcDbLine
 10
22.533433
 20
-0.332811
 30
0.0
 11
24.85292
 21
-0.332811
 31
0.0
  0
LINE
  5
36E4
330
3678
100
AcDbEntity
  8
AM_0
100
AcDbLine
 10
24.85292
 20
-0.332811
 30
0.0
 11
24.85292
 21
0.7522810000000001
 31
0.0
  0
SPLINE
  5
36E5
330
3678
100
AcDbEntity
  8
AM_0
100
AcDbSpline
210
0.0
220
0.0
230
1.0
 70
     8
 71
     3
 72
     8
 73
     4
 74
     0
 42
0.000000001
 43
0.0000000001
 40
0.0
 40
0.0
 40
0.0
 40
0.0
 40
2.798572894906523
 40
2.798572894906523
 40
2.798572894906523
 40
2.798572894906523
 10
24.85291982693
 20
0.7522814925694
 30
0.0
 10
24.85291982693
 20
2.006602650771998
 30
0.0
 10
24.16602847377
 20
2.215647811484998
 30
0.0
 10
23.33977368014
 20
2.215647811484998
 30
0.0
  0
LINE
  5
36E6
330
3678
100
AcDbEntity
  8
AM_0
100
AcDbLine
 10
23.339774
 20
2.215647999999998
 30
0.0
 11
20.791315
 21
2.215647999999998
 31
0.0
  0
SPLINE
  5
36E7
330
3678
100
AcDbEntity
  8
AM_0
100
AcDbSpline
210
0.0
220
0.0
230
1.0
 70
     8
 71
     3
 72
     8
 73
     4
 74
     0
 42
0.000000001
 43
0.0000000001
 40
0.0
 40
0.0
 40
0.0
 40
0.0
 40
3.316346396269707
 40
3.316346396269707
 40
3.316346396269707
 40
3.316346396269707
 10
20.79131503052
 20
2.215647811484998
 30
0.0
 10
19.80576980709
 20
2.215647811484998
 30
0.0
 10
18.88991885237
 20
2.165880532092999
 30
0.0
 10
18.88991885237
 20
0.7522814925694
 30
0.0
  0
LINE
  5
36E8
330
3678
100
AcDbEntity
  8
AM_0
100
AcDbLine
 10
18.889919
 20
0.7522810000000001
 30
0.0
 11
18.889919
 21
-2.55275
 31
0.0
  0
SPLINE
  5
36E9
330
3678
100
AcDbEntity
  8
AM_0
100
AcDbSpline
210
0.0
220
0.0
230
1.0
 70
     8
 71
     3
 72
     8
 73
     4
 74
     0
 42
0.000000001
 43
0.0000000001
 40
0.0
 40
0.0
 40
0.0
 40
0.0
 40
2.836087146032003
 40
2.836087146032003
 40
2.836087146032003
 40
2.836087146032003
 10
18.88991885237
 20
-2.55275023044
 30
0.0
 10
18.88991885237
 20
-3.787156947796998
 30
0.0
 10
19.54695736699
 20
-4.016129097837
 30
0.0
 10
20.45284482704
 20
-4.016129097837
 30
0.0
  0
SPLINE
  5
36EA
330
3678
100
AcDbEntity
  8
AM_0
100
AcDbSpline
210
0.0
220
0.0
230
1.0
 70
     8
 71
     3
 72
    13
 73
     9
 74
     0
 42
0.000000001
 43
0.0000000001
 40
0.0
 40
0.0
 40
0.0
 40
0.0
 40
1.350757195331699
 40
2.026135792997274
 40
2.701514390662853
 40
3.387054616251872
 40
4.072594841840889
 40
5.443675293018386
 40
5.443675293018386
 40
5.443675293018386
 40
5.443675293018386
 10
20.45284482704
 20
-4.016129097837
 30
0.0
 10
20.89417911985
 20
-4.016129097837
 30
0.0
 10
21.55637272448
 20
-4.016417285402998
 30
0.0
 10
22.43852886902
 20
-4.015648785228997
 30
0.0
 10
23.10539546077
 20
-4.017965848469998
 30
0.0
 10
23.76815886496
 20
-4.009150290388998
 30
0.0
 10
24.53167970249
 20
-3.8030488288
 30
0.0
 10
24.85291982693
 20
-3.254574277110998
 30
0.0
 10
24.85291982693
 20
-2.55275023044
 30
0.0
  0
LINE
  5
36EB
330
3678
100
AcDbEntity
  8
AM_0
100
AcDbLine
 10
24.85292
 20
-2.55275
 30
0.0
 11
24.85292
 21
-1.487571999999999
 31
0.0
  0
LINE
  5
36EC
330
3678
100
AcDbEntity
  8
AM_0
100
AcDbLine
 10
24.85292
 20
-1.487571999999999
 30
0.0
 11
22.533433
 21
-1.487571999999999
 31
0.0
  0
ARC
  5
36ED
330
3678
100
AcDbEntity
  8
AM_0
100
AcDbCircle
 10
14.953007
 20
-2.125621999999999
 30
0.0
 40
0.646465
100
AcDbArc
 50
268.172546
 51
360.964051
  0
SPLINE
  5
36EE
330
3678
100
AcDbEntity
  8
AM_0
100
AcDbSpline
210
0.0
220
0.0
230
1.0
 70
     8
 71
     3
 72
     8
 73
     4
 74
     0
 42
0.000000001
 43
0.0000000001
 40
0.0
 40
0.0
 40
0.0
 40
0.0
 40
1.43700251850412
 40
1.43700251850412
 40
1.43700251850412
 40
1.43700251850412
 10
14.93239116522
 20
-2.771758885816999
 30
0.0
 10
14.32514502696
 20
-2.771758885816999
 30
0.0
 10
14.26541425291
 20
-2.264059854825999
 30
0.0
 10
14.26541425291
 20
-1.945504092184999
 30
0.0
  0
LINE
  5
36EF
330
3678
100
AcDbEntity
  8
AM_0
100
AcDbLine
 10
14.265414
 20
-1.945503999999995
 30
0.0
 11
14.265414
 21
-1.517437999999999
 31
0.0
  0
LINE
  5
36F0
330
3678
100
AcDbEntity
  8
AM_0
100
AcDbLine
 10
14.265414
 20
-1.517437999999999
 30
0.0
 11
17.91888
 21
-1.517437999999999
 31
0.0
  0
LINE
  5
36F1
330
3678
100
AcDbEntity
  8
AM_0
100
AcDbLine
 10
17.91888
 20
-1.517437999999999
 30
0.0
 11
17.91888
 21
0.762245
 31
0.0
  0
SPLINE
  5
36F2
330
3678
100
AcDbEntity
  8
AM_0
100
AcDbSpline
210
0.0
220
0.0
230
1.0
 70
     8
 71
     3
 72
     8
 73
     4
 74
     0
 42
0.000000001
 43
0.0000000001
 40
0.0
 40
0.0
 40
0.0
 40
0.0
 40
2.771922318934052
 40
2.771922318934052
 40
2.771922318934052
 40
2.771922318934052
 10
17.91887967407
 20
0.7622449872333
 30
0.0
 10
17.91887967407
 20
1.926969984352998
 30
0.0
 10
17.30167004115
 20
2.215647811484998
 30
0.0
 10
16.37585559177
 20
2.215647811484998
 30
0.0
  0
LINE
  5
36F3
330
3678
100
AcDbEntity
  8
AM_0
100
AcDbLine
 10
16.375856
 20
2.215647999999998
 30
0.0
 11
13.568572
 21
2.215647999999998
 31
0.0
  0
SPLINE
  5
36F4
330
3678
100
AcDbEntity
  8
AM_0
100
AcDbSpline
210
0.0
220
0.0
230
1.0
 70
     8
 71
     3
 72
     8
 73
     4
 74
     0
 42
0.000000001
 43
0.0000000001
 40
0.0
 40
0.0
 40
0.0
 40
0.0
 40
2.83714238191931
 40
2.83714238191931
 40
2.83714238191931
 40
2.83714238191931
 10
13.56857195357
 20
2.215647811484998
 30
0.0
 10
12.54321039692
 20
2.215647811484998
 30
0.0
 10
11.94591520485
 20
1.897092048842998
 30
0.0
 10
11.94591520485
 20
0.7622449872333
 30
0.0
  0
LINE
  5
36F5
330
3678
100
AcDbEntity
  8
AM_0
100
AcDbLine
 10
11.945915
 20
0.762245
 30
0.0
 11
11.945915
 21
-2.55275
 31
0.0
  0
SPLINE
  5
36F6
330
3678
100
AcDbEntity
  8
AM_0
100
AcDbSpline
210
0.0
220
0.0
230
1.0
 70
     8
 71
     3
 72
     8
 73
     4
 74
     0
 42
0.000000001
 43
0.0000000001
 40
0.0
 40
0.0
 40
0.0
 40
0.0
 40
2.791585838273396
 40
2.791585838273396
 40
2.791585838273396
 40
2.791585838273396
 10
11.94591520485
 20
-2.55275023044
 30
0.0
 10
11.94591520485
 20
-3.797120442460998
 30
0.0
 10
12.63280655801
 20
-4.016129097837
 30
0.0
 10
13.45906135164
 20
-4.016129097837
 30
0.0
  0
LINE
  5
36F7
330
3678
100
AcDbEntity
  8
AM_0
100
AcDbLine
 10
13.459061
 20
-4.016129
 30
0.0
 11
16.405721
 21
-4.016129
 31
0.0
  0
SPLINE
  5
36F8
330
3678
100
AcDbEntity
  8
AM_0
100
AcDbSpline
210
0.0
220
0.0
230
1.0
 70
     8
 71
     3
 72
     8
 73
     4
 74
     0
 42
0.000000001
 43
0.0000000001
 40
0.0
 40
0.0
 40
0.0
 40
0.0
 40
2.723700204727976
 40
2.723700204727976
 40
2.723700204727976
 40
2.723700204727976
 10
16.4057209788
 20
-4.016129097837
 30
0.0
 10
17.33153542818
 20
-4.016129097837
 30
0.0
 10
17.91887967407
 20
-3.687609840532
 30
0.0
 10
17.91887967407
 20
-2.562701176621999
 30
0.0
  0
LINE
  5
36F9
330
3678
100
AcDbEntity
  8
AM_0
100
AcDbLine
 10
17.91888
 20
-2.562700999999999
 30
0.0
 11
17.91888
 21
-2.114745
 31
0.0
  0
LINE
  5
36FA
330
3678
100
AcDbEntity
  8
AM_0
100
AcDbLine
 10
17.91888
 20
-2.114745
 30
0.0
 11
15.599381
 21
-2.114745
 31
0.0
  0
LINE
  5
36FB
330
3678
100
AcDbEntity
  8
AM_0
100
AcDbLine
 10
14.265414
 20
-0.283031
 30
0.0
 11
14.265414
 21
0.2246809999999999
 31
0.0
  0
SPLINE
  5
36FC
330
3678
100
AcDbEntity
  8
AM_0
100
AcDbSpline
210
0.0
220
0.0
230
1.0
 70
     8
 71
     3
 72
     8
 73
     4
 74
     0
 42
0.000000001
 43
0.0000000001
 40
0.0
 40
0.0
 40
0.0
 40
0.0
 40
1.230657936504289
 40
1.230657936504289
 40
1.230657936504289
 40
1.230657936504289
 10
14.26541425291
 20
0.2246805692152999
 30
0.0
 10
14.26541425291
 20
0.6825997723319
 30
0.0
 10
14.53419018767
 20
0.9712901479458
 30
0.0
 10
14.91248927285
 20
0.9712901479458
 30
0.0
  0
SPLINE
  5
36FD
330
3678
100
AcDbEntity
  8
AM_0
100
AcDbSpline
210
0.0
220
0.0
230
1.0
 70
     8
 71
     3
 72
     8
 73
     4
 74
     0
 42
0.000000001
 43
0.0000000001
 40
0.0
 40
0.0
 40
0.0
 40
0.0
 40
1.377951897845939
 40
1.377951897845939
 40
1.377951897845939
 40
1.377951897845939
 10
14.91248927285
 20
0.9712901479458
 30
0.0
 10
15.30072675573
 20
0.9712901479458
 30
0.0
 10
15.59938062601
 20
0.7323796002056
 30
0.0
 10
15.59938062601
 20
0.1251209134681
 30
0.0
  0
LINE
  5
36FE
330
3678
100
AcDbEntity
  8
AM_0
100
AcDbLine
 10
15.599381
 20
0.125121
 30
0.0
 11
15.599381
 21
-0.2830309999999999
 31
0.0
  0
LINE
  5
36FF
330
3678
100
AcDbEntity
  8
AM_0
100
AcDbLine
 10
15.599381
 20
-0.283031
 30
0.0
 11
14.265414
 21
-0.283031
 31
0.0
  0
LINE
  5
3700
330
3678
100
AcDbEntity
  8
AM_0
100
AcDbLine
 10
10.983836
 20
-2.771758999999998
 30
0.0
 11
10.43632
 21
-2.771758999999998
 31
0.0
  0
LINE
  5
3701
330
3678
100
AcDbEntity
  8
AM_0
100
AcDbLine
 10
10.43632
 20
-2.771758999999998
 30
0.0
 11
10.43632
 21
0.911559
 31
0.0
  0
LINE
  5
3702
330
3678
100
AcDbEntity
  8
AM_0
100
AcDbLine
 10
10.43632
 20
0.911559
 30
0.0
 11
10.963934
 21
0.911559
 31
0.0
  0
LINE
  5
3703
330
3678
100
AcDbEntity
  8
AM_0
100
AcDbLine
 10
10.963934
 20
0.911559
 30
0.0
 11
10.963934
 21
2.15593
 31
0.0
  0
LINE
  5
3704
330
3678
100
AcDbEntity
  8
AM_0
100
AcDbLine
 10
10.963934
 20
2.15593
 30
0.0
 11
10.43632
 21
2.15593
 31
0.0
  0
LINE
  5
3705
330
3678
100
AcDbEntity
  8
AM_0
100
AcDbLine
 10
10.43632
 20
2.15593
 30
0.0
 11
10.43632
 21
3.619295999999998
 31
0.0
  0
LINE
  5
3706
330
3678
100
AcDbEntity
  8
AM_0
100
AcDbLine
 10
10.43632
 20
3.619295999999998
 30
0.0
 11
7.718619999999997
 21
2.086247999999998
 31
0.0
  0
LINE
  5
3707
330
3678
100
AcDbEntity
  8
AM_0
100
AcDbLine
 10
7.718619999999997
 20
2.086247999999998
 30
0.0
 11
7.718619999999997
 21
0.9016079999999998
 31
0.0
  0
LINE
  5
3708
330
3678
100
AcDbEntity
  8
AM_0
100
AcDbLine
 10
7.718619999999997
 20
0.9016079999999998
 30
0.0
 11
8.116820999999998
 21
0.9016079999999998
 31
0.0
  0
LINE
  5
3709
330
3678
100
AcDbEntity
  8
AM_0
100
AcDbLine
 10
8.116820999999998
 20
0.9016079999999998
 30
0.0
 11
8.116820999999998
 21
-2.55275
 31
0.0
  0
SPLINE
  5
370A
330
3678
100
AcDbEntity
  8
AM_0
100
AcDbSpline
210
0.0
220
0.0
230
1.0
 70
     8
 71
     3
 72
     8
 73
     4
 74
     0
 42
0.000000001
 43
0.0000000001
 40
0.0
 40
0.0
 40
0.0
 40
0.0
 40
2.650305028619594
 40
2.650305028619594
 40
2.650305028619594
 40
2.650305028619594
 10
8.116821230394
 20
-2.55275023044
 30
0.0
 10
8.116821230394
 20
-3.677658894349999
 30
0.0
 10
8.694201981620999
 20
-4.016129097837
 30
0.0
 10
9.550322162280998
 20
-4.016129097837
 30
0.0
  0
LINE
  5
370B
330
3678
100
AcDbEntity
  8
AM_0
100
AcDbLine
 10
9.550321999999999
 20
-4.016129
 30
0.0
 11
10.983836
 21
-4.016129
 31
0.0
  0
LINE
  5
370C
330
3678
100
AcDbEntity
  8
AM_0
100
AcDbLine
 10
10.983836
 20
-4.016129
 30
0.0
 11
10.983836
 21
-2.771758999999998
 31
0.0
  0
LINE
  5
370D
330
3678
100
AcDbEntity
  8
AM_0
100
AcDbLine
 10
-11.471823
 20
0.6228690000000002
 30
0.0
 11
-11.471823
 21
2.126063999999999
 31
0.0
  0
SPLINE
  5
370E
330
3678
100
AcDbEntity
  8
AM_0
100
AcDbSpline
210
0.0
220
0.0
230
1.0
 70
     8
 71
     3
 72
    32
 73
    28
 74
     0
 42
0.000000001
 43
0.0000000001
 40
0.0
 40
0.0
 40
0.0
 40
0.0
 40
0.3312116627517261
 40
0.6624233255035322
 40
0.9936349882550979
 40
1.159240819631081
 40
1.324846651007064
 40
1.441754636371054
 40
1.558662621734645
 40
1.79247859246263
 40
1.909386577826623
 40
2.026294563190615
 40
2.143202548554206
 40
2.201656541236403
 40
2.260110533918199
 40
2.322568653361094
 40
2.385026772803593
 40
2.509943011688988
 40
2.634859250574383
 40
2.759775489459777
 40
3.009607967230965
 40
3.134524206116361
 40
3.259440445001756
 40
3.352322686458533
 40
3.445204927915709
 40
3.630969410829258
 40
4.002498376657166
 40
4.002498376657166
 40
4.002498376657166
 40
4.002498376657166
 10
-11.47182337872
 20
2.126064198882998
 30
0.0
 10
-11.41541272383999
 20
2.126064198882998
 30
0.0
 10
-11.30269815784
 20
2.126064194465997
 30
0.0
 10
-11.13298584637
 20
2.126064214344999
 30
0.0
 10
-10.99342693566
 20
2.126064153601999
 30
0.0
 10
-10.87761680108
 20
2.126064277298
 30
0.0
 10
-10.80952684799
 20
2.126063936606
 30
0.0
 10
-10.71908051287
 20
2.126064864421
 30
0.0
 10
-10.55269709644
 20
2.114705818781
 30
0.0
 10
-10.34454827151
 20
2.069312506258
 30
0.0
 10
-10.15028032291
 20
1.955703873615996
 30
0.0
 10
-10.02710588692
 20
1.828146138289
 30
0.0
 10
-9.955583608279001
 20
1.678539302558998
 30
0.0
 10
-9.924401144322999
 20
1.530680496903999
 30
0.0
 10
-9.916041329924
 20
1.396357927041999
 30
0.0
 10
-9.924498360749
 20
1.259036771702999
 30
0.0
 10
-9.95572220016
 20
1.101049566384
 30
0.0
 10
-10.02828889702
 20
0.9411945899842999
 30
0.0
 10
-10.15495111558
 20
0.8048990884779
 30
0.0
 10
-10.35849953547
 20
0.6835082077743
 30
0.0
 10
-10.58567573896
 20
0.6350054423454
 30
0.0
 10
-10.7838693801
 20
0.6228682710112004
 30
0.0
 10
-10.88874292587
 20
0.6228691381104002
 30
0.0
 10
-10.96602161321
 20
0.6228689663195
 30
0.0
 10
-11.06318455127
 20
0.6228690165375001
 30
0.0
 10
-11.2309936622
 20
0.6228689845806003
 30
0.0
 10
-11.37559325351
 20
0.6228689982764001
 30
0.0
 10
-11.47182337872
 20
0.6228689982764001
 30
0.0
  0
SPLINE
  5
370F
330
3678
100
AcDbEntity
  8
AM_0
100
AcDbSpline
210
0.0
220
0.0
230
1.0
 70
     8
 71
     3
 72
    19
 73
    15
 74
     0
 42
0.000000001
 43
0.0000000001
 40
0.0
 40
0.0
 40
0.0
 40
0.0
 40
1.860727446573354
 40
2.791091169859272
 40
3.721454893146708
 40
4.650437715650004
 40
5.579420538153299
 40
6.508403360658108
 40
7.437386183161406
 40
8.403548637119321
 40
9.369711091077238
 40
11.30203599899307
 40
13.23436090691042
 40
15.16668581482625
 40
15.16668581482625
 40
15.16668581482625
 40
15.16668581482625
 10
-31.14949946722
 20
4.768485881299
 30
0.0
 10
-30.51410739208
 20
4.770930672621997
 30
0.0
 10
-29.58188143595
 20
4.584875562389997
 30
0.0
 10
-28.47901163375
 20
4.001016065531
 30
0.0
 10
-27.7414578015
 20
3.401565531100998
 30
0.0
 10
-27.13649799822
 20
2.668495096301
 30
0.0
 10
-26.69390961898
 20
1.843432597957999
 30
0.0
 10
-26.41877314855
 20
0.9493776615460999
 30
0.0
 10
-26.32217383115
 20
-0.01122067116471
 30
0.0
 10
-26.42210781752
 20
-0.9715836185167001
 30
0.0
 10
-26.80127745631
 20
-2.168264266461
 30
0.0
 10
-27.6837301698
 20
-3.454444354145
 30
0.0
 10
-29.23582276847
 20
-4.501427109825
 30
0.0
 10
-30.49254601868
 20
-4.768184717731998
 30
0.0
 10
-31.14970024293
 20
-4.768184717731998
 30
0.0
  0
LINE
  5
3710
330
3678
100
AcDbEntity
  8
AM_0
100
AcDbLine
 10
-31.1497
 20
-4.768184999999999
 30
0.0
 11
-31.149499
 21
4.768486
 31
0.0
  0
ARC
  5
3711
330
3678
100
AcDbEntity
  8
AM_0
100
AcDbCircle
 10
-31.178352
 20
0.000289
 30
0.0
 40
10.056584
100
AcDbArc
 50
317.217221
 51
402.7827789999998
  0
LINE
  5
3712
330
3678
100
AcDbEntity
  8
AM_0
100
AcDbLine
 10
-23.797482
 20
-6.830352
 30
0.0
 11
-17.480037
 21
-6.830803999999997
 31
0.0
  0
LINE
  5
3713
330
3678
100
AcDbEntity
  8
AM_0
100
AcDbLine
 10
-17.480037
 20
-6.830803999999997
 30
0.0
 11
-17.480037
 21
6.830803999999997
 31
0.0
  0
LINE
  5
3714
330
3678
100
AcDbEntity
  8
AM_0
100
AcDbLine
 10
-17.480037
 20
6.830803999999997
 30
0.0
 11
-23.797482
 21
6.830928999999997
 31
0.0
  0
ARC
  5
3715
330
3678
100
AcDbEntity
  8
AM_0
100
AcDbCircle
 10
-31.120081
 20
0.000489
 30
0.0
 40
5.822947
100
AcDbArc
 50
269.708552
 51
450.291448
  0
LINE
  5
3716
330
3678
100
AcDbEntity
  8
AM_0
100
AcDbLine
 10
-31.1497
 20
5.823361
 30
0.0
 11
-31.1497
 21
6.830928999999997
 31
0.0
  0
ARC
  5
3717
330
3678
100
AcDbEntity
  8
AM_0
100
AcDbCircle
 10
-31.134071
 20
0.000289
 30
0.0
 40
6.830658999999998
100
AcDbArc
 50
269.868901
 51
450.131099
  0
LINE
  5
3718
330
3678
100
AcDbEntity
  8
AM_0
100
AcDbLine
 10
-31.1497
 20
-6.830352
 30
0.0
 11
-31.1497
 21
-5.822383
 31
0.0
  0
ARC
  5
3719
330
3678
100
AcDbEntity
  8
AM_0
100
AcDbCircle
 10
-31.141847
 20
-0.004247
 30
0.0
 40
7.928371
100
AcDbArc
 50
300.573038
 51
419.5541129999998
  0
LINE
  5
371A
330
3678
100
AcDbEntity
  8
AM_0
100
AcDbLine
 10
-27.109189
 20
-6.830427
 30
0.0
 11
-25.395054
 21
-6.830427
 31
0.0
  0
SPLINE
  5
371B
330
3678
100
AcDbEntity
  8
AM_0
100
AcDbSpline
210
0.0
220
0.0
230
1.0
 70
     8
 71
     3
 72
    13
 73
     9
 74
     0
 42
0.000000001
 43
0.0000000001
 40
0.0
 40
0.0
 40
0.0
 40
0.0
 40
3.915386113150091
 40
5.873079169725137
 40
7.830772226300182
 40
9.795476125442194
 40
11.76018002458421
 40
15.68958782286823
 40
15.68958782286823
 40
15.68958782286823
 40
15.68958782286823
 10
-25.39505426258
 20
-6.830427337446
 30
0.0
 10
-24.39305449125
 20
-5.979267262319997
 30
0.0
 10
-23.20917487321
 20
-4.399273297875999
 30
0.0
 10
-22.37808595879
 20
-1.951722506380999
 30
0.0
 10
-22.15383916452
 20
0.006809411740822
 30
0.0
 10
-22.36350209817
 20
1.9649911702
 30
0.0
 10
-23.19246531921
 20
4.411918369054999
 30
0.0
 10
-24.3852663438
 20
5.98553557749
 30
0.0
 10
-25.39505426258
 20
6.830866534313999
 30
0.0
  0
LINE
  5
371C
330
3678
100
AcDbEntity
  8
AM_0
100
AcDbLine
 10
-25.395054
 20
6.830866999999997
 30
0.0
 11
-27.124348
 21
6.830866999999997
 31
0.0
  0
ENDBLK
  5
371D
330
3678
100
AcDbEntity
  8
0
100
AcDbBlockEnd
  0
BLOCK
  5
3A08
330
3A07
100
AcDbEntity
  8
0
100
AcDbBlockBegin
  2
HD72
 70
     0
 10
0.0
 20
0.0
 30
0.0
  3
HD72
  1

  0
ARC
  5
3A0A
330
3A07
100
AcDbEntity
  8
AM_0
100
AcDbCircle
 10
-97.49999999999994
 20
125.5
 30
0.0
 40
15.00000000000001
100
AcDbArc
 50
90.0
 51
180.0
  0
ARC
  5
3A0B
330
3A07
100
AcDbEntity
  8
AM_0
100
AcDbCircle
 10
97.50000000000007
 20
125.5
 30
0.0
 40
14.99999999999998
100
AcDbArc
 50
0.0
 51
90.0
  0
ARC
  5
3A0C
330
3A07
100
AcDbEntity
  8
AM_0
100
AcDbCircle
 10
-97.50000000000007
 20
-125.4999999999999
 30
0.0
 40
15.0
100
AcDbArc
 50
180.0
 51
270.0
  0
ARC
  5
3A0D
330
3A07
100
AcDbEntity
  8
AM_0
100
AcDbCircle
 10
97.5
 20
-125.5
 30
0.0
 40
15.00000000000001
100
AcDbArc
 50
270.0
 51
0.0
  0
LINE
  5
3A0E
330
3A07
100
AcDbEntity
  8
AM_0
100
AcDbLine
 10
97.50000000000007
 20
140.5
 30
0.0
 11
-97.49999999999994
 21
140.5
 31
0.0
  0
LINE
  5
3A0F
330
3A07
100
AcDbEntity
  8
AM_0
100
AcDbLine
 10
-97.50000000000007
 20
-140.4999999999999
 30
0.0
 11
97.5
 21
-140.5
 31
0.0
  0
LINE
  5
3A10
330
3A07
100
AcDbEntity
  8
AM_0
100
AcDbLine
 10
112.5
 20
-125.5
 30
0.0
 11
112.5
 21
125.5
 31
0.0
  0
LINE
  5
3A11
330
3A07
100
AcDbEntity
  8
AM_0
100
AcDbLine
 10
-112.5
 20
125.5
 30
0.0
 11
-112.5
 21
-125.5
 31
0.0
  0
ARC
  5
3A12
330
3A07
100
AcDbEntity
  8
AM_0
100
AcDbCircle
 10
-34.50000000000006
 20
127.5
 30
0.0
 40
3.199999999999966
100
AcDbArc
 50
69.63586519356919
 51
110.3641348064308
  0
ARC
  5
3A13
330
3A07
100
AcDbEntity
  8
AM_0
100
AcDbCircle
 10
34.49999999999994
 20
-127.5
 30
0.0
 40
3.19999999999993
100
AcDbArc
 50
249.6358651937991
 51
290.364134806201
  0
ARC
  5
3A14
330
3A07
100
AcDbEntity
  8
AM_0
100
AcDbCircle
 10
-99.50000000000001
 20
127.5
 30
0.0
 40
3.199999999999981
100
AcDbArc
 50
37.5271057638396
 51
232.472894236163
  0
ARC
  5
3A15
330
3A07
100
AcDbEntity
  8
AM_0
100
AcDbCircle
 10
-99.50000000000006
 20
-127.4999999999999
 30
0.0
 40
3.200000000000001
100
AcDbArc
 50
127.5271057638741
 51
322.4728942360861
  0
ARC
  5
3A16
330
3A07
100
AcDbEntity
  8
AM_0
100
AcDbCircle
 10
99.50000000000006
 20
0.0000000000000568
 30
0.0
 40
3.199999999999948
100
AcDbArc
 50
339.6358651938093
 51
20.36413480619068
  0
ARC
  5
3A17
330
3A07
100
AcDbEntity
  8
AM_0
100
AcDbCircle
 10
99.50000000000001
 20
-127.5
 30
0.0
 40
3.200000000000002
100
AcDbArc
 50
217.5271057639555
 51
52.47289423604445
  0
ARC
  5
3A18
330
3A07
100
AcDbEntity
  8
AM_0
100
AcDbCircle
 10
-99.50000000000001
 20
0.0000000000001137
 30
0.0
 40
3.20000000000002
100
AcDbArc
 50
159.6358651935547
 51
200.3641348064453
  0
ARC
  5
3A19
330
3A07
100
AcDbEntity
  8
AM_0
100
AcDbCircle
 10
99.50000000000001
 20
127.5
 30
0.0
 40
3.199999999999985
100
AcDbArc
 50
307.5271057639184
 51
142.4728942361213
  0
ARC
  5
3A1A
330
3A07
100
AcDbEntity
  8
AM_0
100
AcDbCircle
 10
-34.50000000000006
 20
-127.5
 30
0.0
 40
3.199999999999966
100
AcDbArc
 50
249.6358651938021
 51
290.364134806201
  0
ARC
  5
3A1B
330
3A07
100
AcDbEntity
  8
AM_0
100
AcDbCircle
 10
34.49999999999994
 20
127.5
 30
0.0
 40
3.199999999999966
100
AcDbArc
 50
69.63586519356919
 51
110.3641348064308
  0
LINE
  5
3A1C
330
3A07
100
AcDbEntity
  8
AM_0
100
AcDbLine
 10
-87.49999999999932
 20
61.49999999999749
 30
0.0
 11
-87.49999999999932
 21
63.4999999999975
 31
0.0
  0
LINE
  5
3A1D
330
3A07
100
AcDbEntity
  8
AM_0
100
AcDbLine
 10
-87.49999999999932
 20
61.49999999999749
 30
0.0
 11
-83.49999999999937
 21
61.49999999999749
 31
0.0
  0
LINE
  5
3A1E
330
3A07
100
AcDbEntity
  8
AM_0
100
AcDbLine
 10
-83.49999999999937
 20
63.4999999999975
 30
0.0
 11
-83.49999999999937
 21
61.49999999999749
 31
0.0
  0
LINE
  5
3A1F
330
3A07
100
AcDbEntity
  8
AM_0
100
AcDbLine
 10
-83.49999999999937
 20
115.4999999999975
 30
0.0
 11
-83.49999999999937
 21
74.49999999999744
 31
0.0
  0
LINE
  5
3A20
330
3A07
100
AcDbEntity
  8
AM_0
100
AcDbLine
 10
-83.49999999999937
 20
68.49999999999744
 30
0.0
 11
-83.49999999999937
 21
63.49999999999761
 31
0.0
  0
LINE
  5
3A21
330
3A07
100
AcDbEntity
  8
AM_0
100
AcDbLine
 10
-83.49999999999937
 20
115.4999999999975
 30
0.0
 11
-87.49999999999927
 21
115.4999999999975
 31
0.0
  0
LINE
  5
3A22
330
3A07
100
AcDbEntity
  8
AM_0
100
AcDbLine
 10
-87.49999999999932
 20
63.49999999999761
 30
0.0
 11
-87.49999999999927
 21
115.4999999999975
 31
0.0
  0
LINE
  5
3A23
330
3A07
100
AcDbEntity
  8
AM_0
100
AcDbLine
 10
83.50000000000006
 20
61.49999999999806
 30
0.0
 11
83.50000000000006
 21
63.49999999999806
 31
0.0
  0
LINE
  5
3A24
330
3A07
100
AcDbEntity
  8
AM_0
100
AcDbLine
 10
83.50000000000006
 20
61.49999999999806
 30
0.0
 11
87.5
 21
61.49999999999806
 31
0.0
  0
LINE
  5
3A25
330
3A07
100
AcDbEntity
  8
AM_0
100
AcDbLine
 10
87.5
 20
63.49999999999806
 30
0.0
 11
87.5
 21
61.49999999999806
 31
0.0
  0
LINE
  5
3A26
330
3A07
100
AcDbEntity
  8
AM_0
100
AcDbLine
 10
87.5
 20
115.4999999999975
 30
0.0
 11
87.5
 21
63.49999999999801
 31
0.0
  0
LINE
  5
3A27
330
3A07
100
AcDbEntity
  8
AM_0
100
AcDbLine
 10
87.5
 20
115.4999999999975
 30
0.0
 11
83.50000000000022
 21
115.4999999999975
 31
0.0
  0
LINE
  5
3A28
330
3A07
100
AcDbEntity
  8
AM_0
100
AcDbLine
 10
83.50000000000006
 20
63.49999999999801
 30
0.0
 11
83.50000000000006
 21
68.49999999999744
 31
0.0
  0
LINE
  5
3A29
330
3A07
100
AcDbEntity
  8
AM_0
100
AcDbLine
 10
83.50000000000006
 20
74.49999999999744
 30
0.0
 11
83.50000000000022
 21
115.4999999999975
 31
0.0
  0
ARC
  5
3A2A
330
3A07
100
AcDbEntity
  8
AM_0
100
AcDbCircle
 10
99.50000000000001
 20
127.5
 30
0.0
 40
2.999999999999998
100
AcDbArc
 50
308.2318986313318
 51
141.7681013687073
  0
ARC
  5
3A2B
330
3A07
100
AcDbEntity
  8
AM_0
100
AcDbCircle
 10
-99.49999999999995
 20
127.5
 30
0.0
 40
3.0
100
AcDbArc
 50
38.23189863124838
 51
231.7681013687542
  0
ARC
  5
3A2C
330
3A07
100
AcDbEntity
  8
AM_0
100
AcDbCircle
 10
99.50000000000001
 20
-127.4999999999999
 30
0.0
 40
3.000000000000003
100
AcDbArc
 50
218.2318986313715
 51
51.76810136862649
  0
ARC
  5
3A2D
330
3A07
100
AcDbEntity
  8
AM_0
100
AcDbCircle
 10
-99.50000000000001
 20
-127.4999999999997
 30
0.0
 40
3.0
100
AcDbArc
 50
128.23189863129
 51
321.7681013686728
  0
LINE
  5
3A2E
330
3A07
100
AcDbEntity
  8
AM_0
100
AcDbLine
 10
-2.999999999997498
 20
61.49999999999749
 30
0.0
 11
-2.999999999997498
 21
63.49999999999761
 31
0.0
  0
LINE
  5
3A2F
330
3A07
100
AcDbEntity
  8
AM_0
100
AcDbLine
 10
3.000000000002501
 20
63.49999999999761
 30
0.0
 11
3.000000000002501
 21
61.49999999999749
 31
0.0
  0
LINE
  5
3A30
330
3A07
100
AcDbEntity
  8
AM_0
100
AcDbLine
 10
-2.999999999997498
 20
61.49999999999749
 30
0.0
 11
3.000000000002501
 21
61.49999999999749
 31
0.0
  0
LINE
  5
3A31
330
3A07
100
AcDbEntity
  8
AM_0
100
AcDbLine
 10
-2.999999999997498
 20
63.49999999999761
 30
0.0
 11
-2.999999999997555
 21
68.49999999999744
 31
0.0
  0
LINE
  5
3A32
330
3A07
100
AcDbEntity
  8
AM_0
100
AcDbLine
 10
-2.999999999997555
 20
74.49999999999744
 30
0.0
 11
-2.999999999997498
 21
111.4999999999975
 31
0.0
  0
LINE
  5
3A33
330
3A07
100
AcDbEntity
  8
AM_0
100
AcDbLine
 10
3.000000000002501
 20
111.4999999999975
 30
0.0
 11
3.000000000002444
 21
74.49999999999744
 31
0.0
  0
LINE
  5
3A34
330
3A07
100
AcDbEntity
  8
AM_0
100
AcDbLine
 10
3.000000000002444
 20
68.49999999999744
 30
0.0
 11
3.000000000002501
 21
63.49999999999761
 31
0.0
  0
LINE
  5
3A35
330
3A07
100
AcDbEntity
  8
AM_0
100
AcDbLine
 10
-2.999999999997498
 20
111.4999999999975
 30
0.0
 11
3.000000000002501
 21
111.4999999999975
 31
0.0
  0
LINE
  5
3A36
330
3A07
100
AcDbEntity
  8
AM_0
100
AcDbLine
 10
-83.49999999999937
 20
115.4999999999975
 30
0.0
 11
83.50000000000006
 21
115.4999999999975
 31
0.0
  0
LINE
  5
3A37
330
3A07
100
AcDbEntity
  8
AM_0
100
AcDbLine
 10
83.50000000000006
 20
111.4999999999975
 30
0.0
 11
83.50000000000006
 21
115.4999999999975
 31
0.0
  0
LINE
  5
3A38
330
3A07
100
AcDbEntity
  8
AM_0
100
AcDbLine
 10
-83.49999999999937
 20
115.4999999999975
 30
0.0
 11
-83.49999999999937
 21
111.4999999999975
 31
0.0
  0
LINE
  5
3A39
330
3A07
100
AcDbEntity
  8
AM_0
100
AcDbLine
 10
83.50000000000006
 20
111.4999999999975
 30
0.0
 11
3.000000000002501
 21
111.4999999999976
 31
0.0
  0
LINE
  5
3A3A
330
3A07
100
AcDbEntity
  8
AM_0
100
AcDbLine
 10
3.000000000002501
 20
111.4999999999975
 30
0.0
 11
-2.999999999997498
 21
111.4999999999975
 31
0.0
  0
LINE
  5
3A3B
330
3A07
100
AcDbEntity
  8
AM_0
100
AcDbLine
 10
-2.999999999997555
 20
111.4999999999975
 30
0.0
 11
-83.49999999999937
 21
111.4999999999975
 31
0.0
  0
LINE
  5
3A3C
330
3A07
100
AcDbEntity
  8
AM_0
100
AcDbLine
 10
83.25000000000136
 20
-111.5000000000024
 30
0.0
 11
-83.24999999999851
 21
-111.5000000000025
 31
0.0
  0
LINE
  5
3A3D
330
3A07
100
AcDbEntity
  8
AM_0
100
AcDbLine
 10
49.58783755799749
 20
-118.4160230325473
 30
0.0
 11
46.58397655413648
 21
-118.4160230325473
 31
0.0
  0
SPLINE
  5
3A3E
330
3A07
100
AcDbEntity
  8
AM_0
100
AcDbSpline
210
0.0
220
0.0
230
1.0
 70
     8
 71
     2
 72
     8
 73
     5
 74
     0
 42
0.000000001
 43
0.0000000001
 40
0.0
 40
0.0
 40
0.0
 40
1.0
 40
2.0
 40
3.0
 40
3.0
 40
3.0
 10
47.44498041514037
 20
-122.7596523761767
 30
0.0
 10
47.46042443058439
 20
-122.134169750694
 30
0.0
 10
48.02799199815189
 20
-120.4623550788793
 30
0.0
 10
49.01640898656888
 20
-118.9488415653658
 30
0.0
 10
49.58783755799749
 20
-118.4160230325473
 30
0.0
  0
LINE
  5
3A3F
330
3A07
100
AcDbEntity
  8
AM_0
100
AcDbLine
 10
48.21718118734122
 20
-122.7596523761768
 30
0.0
 11
47.44498041514037
 21
-122.7596523761767
 31
0.0
  0
SPLINE
  5
3A40
330
3A07
100
AcDbEntity
  8
AM_0
100
AcDbSpline
210
0.0
220
0.0
230
1.0
 70
     8
 71
     2
 72
     7
 73
     4
 74
     0
 42
0.000000001
 43
0.0000000001
 40
0.0
 40
0.0
 40
0.0
 40
1.0
 40
2.0
 40
2.0
 40
2.0
 10
50.56081053097045
 20
-118.3040539205783
 30
0.0
 10
49.66891863907858
 20
-119.072393688918
 30
0.0
 10
48.32142829158829
 20
-121.5472971638215
 30
0.0
 10
48.21718118734122
 20
-122.7596523761767
 30
0.0
  0
LINE
  5
3A41
330
3A07
100
AcDbEntity
  8
AM_0
100
AcDbLine
 10
50.56081053097045
 20
-117.8252894418137
 30
0.0
 11
50.56081053097045
 21
-118.3040539205783
 31
0.0
  0
LINE
  5
3A42
330
3A07
100
AcDbEntity
  8
AM_0
100
AcDbLine
 10
46.58397655413648
 20
-117.8252894418137
 30
0.0
 11
50.56081053097045
 21
-117.8252894418137
 31
0.0
  0
LINE
  5
3A43
330
3A07
100
AcDbEntity
  8
AM_0
100
AcDbLine
 10
46.58397655413648
 20
-118.4160230325473
 30
0.0
 11
46.58397655413648
 21
-117.8252894418137
 31
0.0
  0
SPLINE
  5
3A44
330
3A07
100
AcDbEntity
  8
AM_0
100
AcDbSpline
210
0.0
220
0.0
230
1.0
 70
     8
 71
     2
 72
     7
 73
     4
 74
     0
 42
0.000000001
 43
0.0000000001
 40
0.0
 40
0.0
 40
0.0
 40
1.0
 40
2.0
 40
2.0
 40
2.0
 10
40.36389933405928
 20
-122.168918785443
 30
0.0
 10
41.15926612942604
 20
-122.168918785443
 30
0.0
 10
41.97779894795888
 20
-121.8252894418137
 30
0.0
 10
42.19401516417508
 20
-121.4430500595744
 30
0.0
  0
SPLINE
  5
3A45
330
3A07
100
AcDbEntity
  8
AM_0
100
AcDbSpline
210
0.0
220
0.0
230
1.0
 70
     8
 71
     2
 72
     6
 73
     3
 74
     0
 42
0.000000001
 43
0.0000000001
 40
0.0
 40
0.0
 40
0.0
 40
1.0
 40
1.0
 40
1.0
 10
42.19401516417508
 20
-121.4430500595744
 30
0.0
 10
42.48745145761136
 20
-120.9333975499218
 30
0.0
 10
42.48745145761136
 20
-120.2268338433581
 30
0.0
  0
SPLINE
  5
3A46
330
3A07
100
AcDbEntity
  8
AM_0
100
AcDbSpline
210
0.0
220
0.0
230
1.0
 70
     8
 71
     2
 72
     7
 73
     4
 74
     0
 42
0.000000001
 43
0.0000000001
 40
0.0
 40
0.0
 40
0.0
 40
1.0
 40
2.0
 40
2.0
 40
2.0
 10
42.48745145761136
 20
-120.2268338433581
 30
0.0
 10
42.48745145761136
 20
-119.4662160827404
 30
0.0
 10
41.86969083985076
 20
-118.5974902140145
 30
0.0
 10
41.38320435336424
 20
-118.4507720672964
 30
0.0
  0
SPLINE
  5
3A47
330
3A07
100
AcDbEntity
  8
AM_0
100
AcDbSpline
210
0.0
220
0.0
230
1.0
 70
     8
 71
     2
 72
     6
 73
     3
 74
     0
 42
0.000000001
 43
0.0000000001
 40
0.0
 40
0.0
 40
0.0
 40
1.0
 40
1.0
 40
1.0
 10
41.38320435336424
 20
-118.4507720672964
 30
0.0
 10
41.05501902517898
 20
-118.3503859669104
 30
0.0
 10
40.34459431475426
 20
-118.3503859669104
 30
0.0
  0
LINE
  5
3A48
330
3A07
100
AcDbEntity
  8
AM_0
100
AcDbLine
 10
40.34459431475426
 20
-118.3503859669104
 30
0.0
 11
39.05501902517909
 21
-118.3503859669104
 31
0.0
  0
LINE
  5
3A49
330
3A07
100
AcDbEntity
  8
AM_0
100
AcDbLine
 10
39.05501902517909
 20
-118.3503859669104
 30
0.0
 11
39.05501902517898
 21
-122.1689187854432
 31
0.0
  0
LINE
  5
3A4A
330
3A07
100
AcDbEntity
  8
AM_0
100
AcDbLine
 10
39.05501902517898
 20
-122.1689187854432
 30
0.0
 11
40.36389933405928
 21
-122.1689187854432
 31
0.0
  0
LINE
  5
3A4B
330
3A07
100
AcDbEntity
  8
AM_0
100
AcDbLine
 10
40.46042443058439
 20
-122.7596523761767
 30
0.0
 11
38.2403472105072
 21
-122.7596523761767
 31
0.0
  0
SPLINE
  5
3A4C
330
3A07
100
AcDbEntity
  8
AM_0
100
AcDbSpline
210
0.0
220
0.0
230
1.0
 70
     8
 71
     2
 72
     8
 73
     5
 74
     0
 42
0.000000001
 43
0.0000000001
 40
0.0
 40
0.0
 40
0.0
 40
1.0
 40
2.0
 40
3.0
 40
3.0
 40
3.0
 10
43.32915029931018
 20
-120.2306948472191
 30
0.0
 10
43.32915029931018
 20
-121.08011569664
 30
0.0
 10
42.58011555027548
 20
-122.2654438819681
 30
0.0
 10
41.41023138039133
 20
-122.7596523761767
 30
0.0
 10
40.46042443058439
 20
-122.7596523761767
 30
0.0
  0
SPLINE
  5
3A4D
330
3A07
100
AcDbEntity
  8
AM_0
100
AcDbSpline
210
0.0
220
0.0
230
1.0
 70
     8
 71
     2
 72
     8
 73
     5
 74
     0
 42
0.000000001
 43
0.0000000001
 40
0.0
 40
0.0
 40
0.0
 40
1.0
 40
2.0
 40
3.0
 40
3.0
 40
3.0
 10
41.56467153483146
 20
-117.8523164688408
 30
0.0
 10
42.10135107151103
 20
-117.972007588532
 30
0.0
 10
42.88899585915578
 20
-118.6052122217365
 30
0.0
 10
43.32915029931018
 20
-119.5704631869874
 30
0.0
 10
43.32915029931018
 20
-120.2306948472191
 30
0.0
  0
SPLINE
  5
3A4E
330
3A07
100
AcDbEntity
  8
AM_0
100
AcDbSpline
210
0.0
220
0.0
230
1.0
 70
     8
 71
     2
 72
     6
 73
     3
 74
     0
 42
0.000000001
 43
0.0000000001
 40
0.0
 40
0.0
 40
0.0
 40
1.0
 40
1.0
 40
1.0
 10
40.36389933405928
 20
-117.7596523761767
 30
0.0
 10
41.15154412170409
 20
-117.7596523761767
 30
0.0
 10
41.56467153483146
 20
-117.8523164688408
 30
0.0
  0
LINE
  5
3A4F
330
3A07
100
AcDbEntity
  8
AM_0
100
AcDbLine
 10
38.2403472105072
 20
-117.7596523761767
 30
0.0
 11
40.36389933405928
 21
-117.7596523761767
 31
0.0
  0
LINE
  5
3A50
330
3A07
100
AcDbEntity
  8
AM_0
100
AcDbLine
 10
38.2403472105072
 20
-122.7596523761767
 30
0.0
 11
38.2403472105072
 21
-117.7596523761767
 31
0.0
  0
LINE
  5
3A51
330
3A07
100
AcDbEntity
  8
AM_0
100
AcDbLine
 10
-51.83000019795639
 20
-116.2900025112503
 30
0.0
 11
-51.8300002535895
 21
-124.2100023112505
 31
0.0
  0
LINE
  5
3A52
330
3A07
100
AcDbEntity
  8
AM_0
100
AcDbLine
 10
-55.49944633012279
 20
-116.2900025112503
 30
0.0
 11
-51.83000019795639
 21
-116.2900025112503
 31
0.0
  0
SPLINE
  5
3A53
330
3A07
100
AcDbEntity
  8
AM_0
100
AcDbSpline
210
0.0
220
0.0
230
1.0
 70
     8
 71
     3
 72
    11
 73
     7
 74
     0
 42
0.000000001
 43
0.0000000001
 40
-2.0
 40
-2.0
 40
-2.0
 40
-2.0
 40
-1.0
 40
-1.0
 40
-1.0
 40
0.0
 40
0.0
 40
0.0
 40
0.0
 10
-55.4994463857559
 20
-124.2100022854749
 30
0.0
 10
-54.53212600856324
 20
-123.1721715837075
 30
0.0
 10
-53.93936071641206
 20
-121.7806475674944
 30
0.0
 10
-53.93936070566013
 20
-120.2500024093212
 30
0.0
 10
-53.93936069490831
 20
-118.7193572511481
 30
0.0
 10
-54.53212596751041
 20
-117.3278332266074
 30
0.0
 10
-55.49944633012279
 20
-116.2900025112503
 30
0.0
  0
LINE
  5
3A54
330
3A07
100
AcDbEntity
  8
AM_0
100
AcDbLine
 10
-51.8300002535895
 20
-124.2100023112505
 30
0.0
 11
-55.4994463857559
 21
-124.2100022854748
 31
0.0
  0
LINE
  5
3A55
330
3A07
100
AcDbEntity
  8
AM_0
100
AcDbLine
 10
-48.39718668866533
 20
-118.9579735017711
 30
0.0
 11
-48.39718669473302
 21
-119.821780810176
 31
0.0
  0
LINE
  5
3A56
330
3A07
100
AcDbEntity
  8
AM_0
100
AcDbLine
 10
-48.03542625513483
 20
-118.9579735043123
 30
0.0
 11
-48.39718668866533
 21
-118.9579735017711
 31
0.0
  0
SPLINE
  5
3A57
330
3A07
100
AcDbEntity
  8
AM_0
100
AcDbSpline
210
0.0
220
0.0
230
1.0
 70
     8
 71
     3
 72
    11
 73
     7
 74
     0
 42
0.000000001
 43
0.0000000001
 40
-5.0
 40
-5.0
 40
-5.0
 40
-5.0
 40
-4.0
 40
-4.0
 40
-4.0
 40
-3.0
 40
-3.0
 40
-3.0
 40
-3.0
 10
-47.94682529551289
 20
-119.8217808133396
 30
0.0
 10
-47.63675981164943
 20
-119.8217808155177
 30
0.0
 10
-47.60727668308653
 20
-119.6224428539419
 30
0.0
 10
-47.60727668168624
 20
-119.4231048921591
 30
0.0
 10
-47.6072766795599
 20
-119.1204007160737
 30
0.0
 10
-47.67367055861069
 20
-118.9579735068535
 30
0.0
 10
-48.0354262551349
 20
-118.9579735043123
 30
0.0
  0
LINE
  5
3A58
330
3A07
100
AcDbEntity
  8
AM_0
100
AcDbLine
 10
-48.39718669473302
 20
-119.821780810176
 30
0.0
 11
-47.94682529551289
 21
-119.8217808133396
 31
0.0
  0
SPLINE
  5
3A59
330
3A07
100
AcDbEntity
  8
AM_0
100
AcDbSpline
210
0.0
220
0.0
230
1.0
 70
     8
 71
     3
 72
     8
 73
     4
 74
     0
 42
0.000000001
 43
0.0000000001
 40
-3.0
 40
-3.0
 40
-3.0
 40
-3.0
 40
-2.0
 40
-2.0
 40
-2.0
 40
-2.0
 10
-46.24893539033462
 20
-119.4157578049414
 30
0.0
 10
-46.24893539344651
 20
-119.8587626333895
 30
0.0
 10
-46.4555399256293
 20
-120.2499304005309
 30
0.0
 10
-46.92803261855863
 20
-120.2943350941951
 30
0.0
  0
LINE
  5
3A5A
330
3A07
100
AcDbEntity
  8
AM_0
100
AcDbLine
 10
-46.24893538784573
 20
-119.0614297342833
 30
0.0
 11
-46.24893539033462
 21
-119.4157578049413
 31
0.0
  0
SPLINE
  5
3A5B
330
3A07
100
AcDbEntity
  8
AM_0
100
AcDbSpline
210
0.0
220
0.0
230
1.0
 70
     8
 71
     3
 72
     8
 73
     4
 74
     0
 42
0.000000001
 43
0.0000000001
 40
-5.0
 40
-5.0
 40
-5.0
 40
-5.0
 40
-4.0
 40
-4.0
 40
-4.0
 40
-4.0
 10
-47.39309293134573
 20
-117.8802145742251
 30
0.0
 10
-46.57377558603729
 20
-117.8802145799803
 30
0.0
 10
-46.24893538333418
 20
-118.4191674731593
 30
0.0
 10
-46.24893538784573
 20
-119.0614297342833
 30
0.0
  0
LINE
  5
3A5C
330
3A07
100
AcDbEntity
  8
AM_0
100
AcDbLine
 10
-49.76287506915395
 20
-117.8802145575789
 30
0.0
 11
-47.39309293134573
 21
-117.8802145742251
 31
0.0
  0
LINE
  5
3A5D
330
3A07
100
AcDbEntity
  8
AM_0
100
AcDbLine
 10
-49.76287510244651
 20
-122.6197930442141
 30
0.0
 11
-49.76287506915395
 21
-117.8802145575789
 31
0.0
  0
LINE
  5
3A5E
330
3A07
100
AcDbEntity
  8
AM_0
100
AcDbLine
 10
-48.39718671438731
 20
-122.6197930538072
 30
0.0
 11
-49.76287510244651
 21
-122.6197930442141
 31
0.0
  0
LINE
  5
3A5F
330
3A07
100
AcDbEntity
  8
AM_0
100
AcDbLine
 10
-48.39718670230462
 20
-120.8996865919703
 30
0.0
 11
-48.39718671438731
 21
-122.6197930538072
 31
0.0
  0
SPLINE
  5
3A60
330
3A07
100
AcDbEntity
  8
AM_0
100
AcDbSpline
210
0.0
220
0.0
230
1.0
 70
     8
 71
     3
 72
     8
 73
     4
 74
     0
 42
0.000000001
 43
0.0000000001
 40
-10.0
 40
-10.0
 40
-10.0
 40
-10.0
 40
-9.0
 40
-9.0
 40
-9.0
 40
-9.0
 10
-47.54815885793914
 20
-121.5271741364331
 30
0.0
 10
-47.57029488549011
 20
-121.1210800608583
 30
0.0
 10
-47.63675981922102
 20
-120.899686597312
 30
0.0
 10
-48.39718670230462
 20
-120.8996865919704
 30
0.0
  0
LINE
  5
3A61
330
3A07
100
AcDbEntity
  8
AM_0
100
AcDbLine
 10
-47.51860467967435
 20
-122.0955343625999
 30
0.0
 11
-47.54815885793914
 21
-121.5271741364331
 31
0.0
  0
SPLINE
  5
3A62
330
3A07
100
AcDbEntity
  8
AM_0
100
AcDbSpline
210
0.0
220
0.0
230
1.0
 70
     8
 71
     3
 72
     8
 73
     4
 74
     0
 42
0.000000001
 43
0.0000000001
 40
-12.0
 40
-12.0
 40
-12.0
 40
-12.0
 40
-11.0
 40
-11.0
 40
-11.0
 40
-11.0
 10
-47.44095567621491
 20
-122.619793060524
 30
0.0
 10
-47.49904558320935
 20
-122.4536567754352
 30
0.0
 10
-47.51124811019894
 20
-122.2800928648028
 30
0.0
 10
-47.51860467967435
 20
-122.0955343626
 30
0.0
  0
LINE
  5
3A63
330
3A07
100
AcDbEntity
  8
AM_0
100
AcDbLine
 10
-46.08276123210993
 20
-122.6197930700644
 30
0.0
 11
-47.44095567621491
 21
-122.619793060524
 31
0.0
  0
SPLINE
  5
3A64
330
3A07
100
AcDbEntity
  8
AM_0
100
AcDbSpline
210
0.0
220
0.0
230
1.0
 70
     8
 71
     3
 72
     8
 73
     4
 74
     0
 42
0.000000001
 43
0.0000000001
 40
-14.0
 40
-14.0
 40
-14.0
 40
-14.0
 40
-13.0
 40
-13.0
 40
-13.0
 40
-13.0
 10
-46.16025391425853
 20
-122.0808354416168
 30
0.0
 10
-46.15290681879571
 20
-122.2653892068132
 30
0.0
 10
-46.14085113913853
 20
-122.458507479419
 30
0.0
 10
-46.08276123211004
 20
-122.6197930700646
 30
0.0
  0
LINE
  5
3A65
330
3A07
100
AcDbEntity
  8
AM_0
100
AcDbLine
 10
-46.18238994113551
 20
-121.5787838295804
 30
0.0
 11
-46.16025391425853
 21
-122.0808354416168
 31
0.0
  0
SPLINE
  5
3A66
330
3A07
100
AcDbEntity
  8
AM_0
100
AcDbSpline
210
0.0
220
0.0
230
1.0
 70
     8
 71
     3
 72
     8
 73
     4
 74
     0
 42
0.000000001
 43
0.0000000001
 40
-2.0
 40
-2.0
 40
-2.0
 40
-2.0
 40
-1.0
 40
-1.0
 40
-1.0
 40
-1.0
 10
-46.92803261855863
 20
-120.2943350941951
 30
0.0
 10
-46.20451648995532
 20
-120.5009443657186
 30
0.0
 10
-46.21194411862245
 20
-120.8996866073203
 30
0.0
 10
-46.18238994113551
 20
-121.5787838295804
 30
0.0
  0
LINE
  5
3A67
330
3A07
100
AcDbEntity
  8
AM_0
100
AcDbLine
 10
-33.11552860746179
 20
-120.3238230553884
 30
0.0
 11
-33.11552860606162
 21
-120.1244945676183
 31
0.0
  0
LINE
  5
3A68
330
3A07
100
AcDbEntity
  8
AM_0
100
AcDbLine
 10
-33.80940055213972
 20
-120.3238230505145
 30
0.0
 11
-33.11552860746179
 21
-120.3238230553884
 31
0.0
  0
LINE
  5
3A69
330
3A07
100
AcDbEntity
  8
AM_0
100
AcDbLine
 10
-33.80940055073955
 20
-120.1244945627443
 30
0.0
 11
-33.80940055213972
 21
-120.3238230505145
 31
0.0
  0
SPLINE
  5
3A6A
330
3A07
100
AcDbEntity
  8
AM_0
100
AcDbSpline
210
0.0
220
0.0
230
1.0
 70
     8
 71
     3
 72
    11
 73
     7
 74
     0
 42
0.000000001
 43
0.0000000001
 40
-2.0
 40
-2.0
 40
-2.0
 40
-2.0
 40
-1.0
 40
-1.0
 40
-1.0
 40
0.0
 40
0.0
 40
0.0
 40
0.0
 10
-33.11552860606162
 20
-120.1244945676183
 30
0.0
 10
-33.11552860471301
 20
-119.9325084396009
 30
0.0
 10
-33.14501173032022
 20
-119.71104392122
 30
0.0
 10
-33.46242431094282
 20
-119.7110439189903
 30
0.0
 10
-33.77248979480635
 20
-119.7110439168123
 30
0.0
 10
-33.80940054939094
 20
-119.9325084347268
 30
0.0
 10
-33.80940055073955
 20
-120.1244945627443
 30
0.0
  0
LINE
  5
3A6B
330
3A07
100
AcDbEntity
  8
AM_0
100
AcDbLine
 10
-34.01616612915842
 20
-118.8104821748745
 30
0.0
 11
-32.90876300918251
 21
-118.8104821826533
 31
0.0
  0
SPLINE
  5
3A6C
330
3A07
100
AcDbEntity
  8
AM_0
100
AcDbSpline
210
0.0
220
0.0
230
1.0
 70
     8
 71
     3
 72
     8
 73
     4
 74
     0
 42
0.000000001
 43
0.0000000001
 40
-4.0
 40
-4.0
 40
-4.0
 40
-4.0
 40
-3.0
 40
-3.0
 40
-3.0
 40
-3.0
 10
-35.1678223692798
 20
-119.8587627112276
 30
0.0
 10
-35.16782236466452
 20
-119.2017209904717
 30
0.0
 10
-34.68055494667363
 20
-118.8104821702075
 30
0.0
 10
-34.01616612915842
 20
-118.8104821748745
 30
0.0
  0
LINE
  5
3A6D
330
3A07
100
AcDbEntity
  8
AM_0
100
AcDbLine
 10
-35.16782238130981
 20
-121.5713562810847
 30
0.0
 11
-35.1678223692798
 21
-119.8587627112276
 31
0.0
  0
SPLINE
  5
3A6E
330
3A07
100
AcDbEntity
  8
AM_0
100
AcDbSpline
210
0.0
220
0.0
230
1.0
 70
     8
 71
     3
 72
     8
 73
     4
 74
     0
 42
0.000000001
 43
0.0000000001
 40
-6.0
 40
-6.0
 40
-6.0
 40
-6.0
 40
-5.0
 40
-5.0
 40
-5.0
 40
-5.0
 10
-34.01616615591655
 20
-122.6197931548249
 30
0.0
 10
-34.68055497343164
 20
-122.619793150158
 30
0.0
 10
-35.1678223859256
 20
-122.2284737939413
 30
0.0
 10
-35.16782238130981
 20
-121.5713562810847
 30
0.0
  0
LINE
  5
3A6F
330
3A07
100
AcDbEntity
  8
AM_0
100
AcDbLine
 10
-32.90876303594052
 20
-122.6197931626038
 30
0.0
 11
-34.01616615591655
 21
-122.6197931548249
 31
0.0
  0
SPLINE
  5
3A70
330
3A07
100
AcDbEntity
  8
AM_0
100
AcDbSpline
210
0.0
220
0.0
230
1.0
 70
     8
 71
     3
 72
     8
 73
     4
 74
     0
 42
0.000000001
 43
0.0000000001
 40
-8.0
 40
-8.0
 40
-8.0
 40
-8.0
 40
-7.0
 40
-7.0
 40
-7.0
 40
-7.0
 10
-31.75710205881171
 20
-121.5713563050429
 30
0.0
 10
-31.75710206342762
 20
-122.2284738178995
 30
0.0
 10
-32.24444527351983
 20
-122.6197931672702
 30
0.0
 10
-32.90876303594052
 20
-122.6197931626037
 30
0.0
  0
LINE
  5
3A71
330
3A07
100
AcDbEntity
  8
AM_0
100
AcDbLine
 10
-31.75710205699682
 20
-121.3129810338403
 30
0.0
 11
-31.75710205881171
 21
-121.5713563050429
 31
0.0
  0
LINE
  5
3A72
330
3A07
100
AcDbEntity
  8
AM_0
100
AcDbLine
 10
-33.11552861441004
 20
-121.3129810242981
 30
0.0
 11
-31.75710205699682
 21
-121.3129810338403
 31
0.0
  0
SPLINE
  5
3A73
330
3A07
100
AcDbEntity
  8
AM_0
100
AcDbSpline
210
0.0
220
0.0
230
1.0
 70
     8
 71
     3
 72
    11
 73
     7
 74
     0
 42
0.000000001
 43
0.0000000001
 40
-12.0
 40
-12.0
 40
-12.0
 40
-12.0
 40
-11.0
 40
-11.0
 40
-11.0
 40
-10.0
 40
-10.0
 40
-10.0
 40
-10.0
 10
-33.80940055908792
 20
-121.312981019424
 30
0.0
 10
-33.80940056043653
 20
-121.5049718844477
 30
0.0
 10
-33.77248980891204
 20
-121.7191508872034
 30
0.0
 10
-33.46242432504863
 20
-121.7191508893813
 30
0.0
 10
-33.14501174442592
 20
-121.719150891611
 30
0.0
 10
-33.11552861575871
 20
-121.5049718893218
 30
0.0
 10
-33.11552861441004
 20
-121.3129810242981
 30
0.0
  0
LINE
  5
3A74
330
3A07
100
AcDbEntity
  8
AM_0
100
AcDbLine
 10
-33.80940055618481
 20
-120.8996866944405
 30
0.0
 11
-33.80940055908792
 21
-121.312981019424
 31
0.0
  0
LINE
  5
3A75
330
3A07
100
AcDbEntity
  8
AM_0
100
AcDbLine
 10
-31.75710205409371
 20
-120.8996867088567
 30
0.0
 11
-33.80940055618481
 21
-120.8996866944405
 31
0.0
  0
LINE
  5
3A76
330
3A07
100
AcDbEntity
  8
AM_0
100
AcDbLine
 10
-31.75710204678182
 20
-119.8587627351858
 30
0.0
 11
-31.75710205409371
 21
-120.8996867088567
 31
0.0
  0
SPLINE
  5
3A77
330
3A07
100
AcDbEntity
  8
AM_0
100
AcDbSpline
210
0.0
220
0.0
230
1.0
 70
     8
 71
     3
 72
     8
 73
     4
 74
     0
 42
0.000000001
 43
0.0000000001
 40
-2.0
 40
-2.0
 40
-2.0
 40
-2.0
 40
-1.0
 40
-1.0
 40
-1.0
 40
-1.0
 10
-32.90876300918251
 20
-118.8104821826533
 30
0.0
 10
-32.2444452467617
 20
-118.8104821873197
 30
0.0
 10
-31.75710204216654
 20
-119.2017210144298
 30
0.0
 10
-31.75710204678182
 20
-119.8587627351858
 30
0.0
  0
LINE
  5
3A78
330
3A07
100
AcDbEntity
  8
AM_0
100
AcDbLine
 10
-36.32683431370674
 20
-117.9097681474319
 30
0.0
 11
-36.3268343200337
 21
-118.8104838972068
 31
0.0
  0
LINE
  5
3A79
330
3A07
100
AcDbEntity
  8
AM_0
100
AcDbLine
 10
-36.47448168771774
 20
-117.9097681463948
 30
0.0
 11
-36.32683431370674
 21
-117.9097681474319
 31
0.0
  0
LINE
  5
3A7A
330
3A07
100
AcDbEntity
  8
AM_0
100
AcDbLine
 10
-37.68526156253222
 20
-118.7218054321312
 30
0.0
 11
-36.47448168771774
 21
-117.9097681463948
 31
0.0
  0
LINE
  5
3A7B
330
3A07
100
AcDbEntity
  8
AM_0
100
AcDbLine
 10
-37.68526158254861
 20
-121.5713594647521
 30
0.0
 11
-37.68526156253222
 21
-118.7218054321312
 31
0.0
  0
SPLINE
  5
3A7C
330
3A07
100
AcDbEntity
  8
AM_0
100
AcDbSpline
210
0.0
220
0.0
230
1.0
 70
     8
 71
     3
 72
     8
 73
     4
 74
     0
 42
0.000000001
 43
0.0000000001
 40
-7.0
 40
-7.0
 40
-7.0
 40
-7.0
 40
-6.0
 40
-6.0
 40
-6.0
 40
-6.0
 10
-36.53359810262782
 20
-122.6197924503577
 30
0.0
 10
-37.19791720994414
 20
-122.6197924456913
 30
0.0
 10
-37.68526158716446
 20
-122.2284772201434
 30
0.0
 10
-37.68526158254861
 20
-121.5713594647521
 30
0.0
  0
LINE
  5
3A7D
330
3A07
100
AcDbEntity
  8
AM_0
100
AcDbLine
 10
-35.66244444707513
 20
-122.619792456477
 30
0.0
 11
-36.53359810262794
 21
-122.6197924503577
 31
0.0
  0
LINE
  5
3A7E
330
3A07
100
AcDbEntity
  8
AM_0
100
AcDbLine
 10
-35.66987182389255
 20
-121.7191543177609
 30
0.0
 11
-35.66244444707513
 21
-122.619792456477
 31
0.0
  0
LINE
  5
3A7F
330
3A07
100
AcDbEntity
  8
AM_0
100
AcDbLine
 10
-35.9429455372649
 20
-121.7191543158428
 30
0.0
 11
-35.66987182389255
 21
-121.7191543177609
 31
0.0
  0
SPLINE
  5
3A80
330
3A07
100
AcDbEntity
  8
AM_0
100
AcDbSpline
210
0.0
220
0.0
230
1.0
 70
     8
 71
     3
 72
     8
 73
     4
 74
     0
 42
0.000000001
 43
0.0000000001
 40
-11.0
 40
-11.0
 40
-11.0
 40
-11.0
 40
-10.0
 40
-10.0
 40
-10.0
 40
-10.0
 10
-36.32683433761224
 20
-121.3129843243589
 30
0.0
 10
-36.3268343389608
 20
-121.5049709298665
 30
0.0
 10
-36.28992249696262
 20
-121.7191543134054
 30
0.0
 10
-35.9429455372649
 20
-121.7191543158428
 30
0.0
  0
LINE
  5
3A81
330
3A07
100
AcDbEntity
  8
AM_0
100
AcDbLine
 10
-36.32683432635963
 20
-119.7110444247594
 30
0.0
 11
-36.32683433761224
 21
-121.3129843243589
 31
0.0
  0
LINE
  5
3A82
330
3A07
100
AcDbEntity
  8
AM_0
100
AcDbLine
 10
-35.6993562701457
 20
-119.7110444291671
 30
0.0
 11
-36.32683432635963
 21
-119.7110444247594
 31
0.0
  0
LINE
  5
3A83
330
3A07
100
AcDbEntity
  8
AM_0
100
AcDbLine
 10
-35.69935626381982
 20
-118.8104839016145
 30
0.0
 11
-35.6993562701457
 21
-119.7110444291671
 31
0.0
  0
LINE
  5
3A84
330
3A07
100
AcDbEntity
  8
AM_0
100
AcDbLine
 10
-36.3268343200337
 20
-118.8104838972068
 30
0.0
 11
-35.69935626381982
 21
-118.8104839016145
 31
0.0
  0
SPLINE
  5
3A85
330
3A07
100
AcDbEntity
  8
AM_0
100
AcDbSpline
210
0.0
220
0.0
230
1.0
 70
     8
 71
     3
 72
     8
 73
     4
 74
     0
 42
0.000000001
 43
0.0000000001
 40
-3.0
 40
-3.0
 40
-3.0
 40
-3.0
 40
-2.0
 40
-2.0
 40
-2.0
 40
-2.0
 10
-57.00119104072371
 20
-120.2500023878137
 30
0.0
 10
-57.00119105138753
 20
-121.7681229013503
 30
0.0
 10
-58.23187476876331
 20
-122.9988066014365
 30
0.0
 10
-59.75000001930601
 20
-122.9988065907724
 30
0.0
  0
SPLINE
  5
3A86
330
3A07
100
AcDbEntity
  8
AM_0
100
AcDbSpline
210
0.0
220
0.0
230
1.0
 70
     8
 71
     3
 72
     8
 73
     4
 74
     0
 42
0.000000001
 43
0.0000000001
 40
-1.0
 40
-1.0
 40
-1.0
 40
-1.0
 40
0.0
 40
0.0
 40
0.0
 40
0.0
 10
-59.7499999806887
 20
-117.5011934092313
 30
0.0
 10
-58.23187473014593
 20
-117.5011934198953
 30
0.0
 10
-57.00119103005983
 20
-118.731877137271
 30
0.0
 10
-57.00119104072371
 20
-120.2500023878137
 30
0.0
  0
LINE
  5
3A87
330
3A07
100
AcDbEntity
  8
AM_0
100
AcDbLine
 10
-59.75000001930601
 20
-122.9988065907726
 30
0.0
 11
-59.7499999806887
 21
-117.5011934092313
 31
0.0
  0
SPLINE
  5
3A88
330
3A07
100
AcDbEntity
  8
AM_0
100
AcDbSpline
210
0.0
220
0.0
230
1.0
 70
     8
 71
     3
 72
    11
 73
     7
 74
     0
 42
0.000000001
 43
0.0000000001
 40
-4.0
 40
-4.0
 40
-4.0
 40
-4.0
 40
-3.0
 40
-3.0
 40
-3.0
 40
-2.0
 40
-2.0
 40
-2.0
 40
-2.0
 10
-57.41143476147152
 20
-124.2100022720443
 30
0.0
 10
-56.05852681076431
 20
-123.4093061079738
 30
0.0
 10
-55.1507790216437
 20
-121.936011891357
 30
0.0
 10
-55.15077900980054
 20
-120.2500024008117
 30
0.0
 10
-55.15077899795739
 20
-118.5639929102665
 30
0.0
 10
-56.05852676638005
 20
-117.0906986808968
 30
0.0
 10
-57.41143470583842
 20
-116.2900024978198
 30
0.0
  0
LINE
  5
3A89
330
3A07
100
AcDbEntity
  8
AM_0
100
AcDbLine
 10
-56.42574901817415
 20
-124.2100022789682
 30
0.0
 11
-57.41143476147152
 21
-124.2100022720443
 31
0.0
  0
SPLINE
  5
3A8A
330
3A07
100
AcDbEntity
  8
AM_0
100
AcDbSpline
210
0.0
220
0.0
230
1.0
 70
     8
 71
     3
 72
     8
 73
     4
 74
     0
 42
0.000000001
 43
0.0000000001
 40
-6.0
 40
-6.0
 40
-6.0
 40
-6.0
 40
-5.0
 40
-5.0
 40
-5.0
 40
-5.0
 10
-54.5788991881663
 20
-120.2500024048289
 30
0.0
 10
-54.57889919933393
 20
-121.8398364566233
 30
0.0
 10
-55.29694883411292
 20
-123.2614215138867
 30
0.0
 10
-56.42574901817415
 20
-124.2100022789682
 30
0.0
  0
SPLINE
  5
3A8B
330
3A07
100
AcDbEntity
  8
AM_0
100
AcDbSpline
210
0.0
220
0.0
230
1.0
 70
     8
 71
     3
 72
     8
 73
     4
 74
     0
 42
0.000000001
 43
0.0000000001
 40
-1.0
 40
-1.0
 40
-1.0
 40
-1.0
 40
0.0
 40
0.0
 40
0.0
 40
0.0
 10
-56.42574896254103
 20
-116.2900025047436
 30
0.0
 10
-55.2969487918063
 20
-117.2385832856833
 30
0.0
 10
-54.57889917699873
 20
-118.6601730900407
 30
0.0
 10
-54.5788991881663
 20
-120.2500024048289
 30
0.0
  0
LINE
  5
3A8C
330
3A07
100
AcDbEntity
  8
AM_0
100
AcDbLine
 10
-57.41143470583842
 20
-116.2900024978198
 30
0.0
 11
-56.42574896254103
 21
-116.2900025047436
 31
0.0
  0
LINE
  5
3A8D
330
3A07
100
AcDbEntity
  8
AM_0
100
AcDbLine
 10
-44.1964853090206
 20
-120.1244944897813
 30
0.0
 11
-44.19648531736902
 21
-121.3129809464612
 31
0.0
  0
SPLINE
  5
3A8E
330
3A07
100
AcDbEntity
  8
AM_0
100
AcDbSpline
210
0.0
220
0.0
230
1.0
 70
     8
 71
     3
 72
    11
 73
     7
 74
     0
 42
0.000000001
 43
0.0000000001
 40
-5.0
 40
-5.0
 40
-5.0
 40
-5.0
 40
-4.0
 40
-4.0
 40
-4.0
 40
-3.0
 40
-3.0
 40
-3.0
 40
-3.0
 10
-43.42870659217152
 20
-120.1244944951746
 30
0.0
 10
-43.42870659082302
 20
-119.9325083671572
 30
0.0
 10
-43.46568839739075
 20
-119.7110438487237
 30
0.0
 10
-43.81267410829571
 20
-119.7110438462862
 30
0.0
 10
-44.15957455308739
 20
-119.7110438438495
 30
0.0
 10
-44.19648530767204
 20
-119.932508361764
 30
0.0
 10
-44.1964853090206
 20
-120.1244944897813
 30
0.0
  0
LINE
  5
3A8F
330
3A07
100
AcDbEntity
  8
AM_0
100
AcDbLine
 10
-43.42870660051994
 20
-121.3129809518543
 30
0.0
 11
-43.42870659217163
 21
-120.1244944951746
 31
0.0
  0
SPLINE
  5
3A90
330
3A07
100
AcDbEntity
  8
AM_0
100
AcDbSpline
210
0.0
220
0.0
230
1.0
 70
     8
 71
     3
 72
    11
 73
     7
 74
     0
 42
0.000000001
 43
0.0000000001
 40
-2.0
 40
-2.0
 40
-2.0
 40
-2.0
 40
-1.0
 40
-1.0
 40
-1.0
 40
0.0
 40
0.0
 40
0.0
 40
0.0
 10
-44.19648531736902
 20
-121.3129809464613
 30
0.0
 10
-44.19648531871763
 20
-121.5049718114849
 30
0.0
 10
-44.15957456719314
 20
-121.7191508142405
 30
0.0
 10
-43.8126741224014
 20
-121.7191508166772
 30
0.0
 10
-43.46568841149644
 20
-121.7191508191146
 30
0.0
 10
-43.42870660186855
 20
-121.5049718168781
 30
0.0
 10
-43.42870660051994
 20
-121.3129809518543
 30
0.0
  0
LINE
  5
3A91
330
3A07
100
AcDbEntity
  8
AM_0
100
AcDbLine
 10
-45.55498293169153
 20
-121.5713562081214
 30
0.0
 11
-45.55498291966165
 21
-119.8587626382642
 31
0.0
  0
SPLINE
  5
3A92
330
3A07
100
AcDbEntity
  8
AM_0
100
AcDbSpline
210
0.0
220
0.0
230
1.0
 70
     8
 71
     3
 72
     8
 73
     4
 74
     0
 42
0.000000001
 43
0.0000000001
 40
-4.0
 40
-4.0
 40
-4.0
 40
-4.0
 40
-3.0
 40
-3.0
 40
-3.0
 40
-3.0
 10
-44.40324144018501
 20
-122.6197930818622
 30
0.0
 10
-45.06763973171269
 20
-122.6197930771952
 30
0.0
 10
-45.55498293630733
 20
-122.228473720978
 30
0.0
 10
-45.55498293169153
 20
-121.5713562081214
 30
0.0
  0
LINE
  5
3A93
330
3A07
100
AcDbEntity
  8
AM_0
100
AcDbLine
 10
-43.22210208026445
 20
-122.6197930901589
 30
0.0
 11
-44.40324144018501
 21
-122.6197930818622
 31
0.0
  0
SPLINE
  5
3A94
330
3A07
100
AcDbEntity
  8
AM_0
100
AcDbSpline
210
0.0
220
0.0
230
1.0
 70
     8
 71
     3
 72
     8
 73
     4
 74
     0
 42
0.000000001
 43
0.0000000001
 40
-6.0
 40
-6.0
 40
-6.0
 40
-6.0
 40
-5.0
 40
-5.0
 40
-5.0
 40
-5.0
 10
-42.07036057402859
 20
-121.5713562325987
 30
0.0
 10
-42.07036057864451
 20
-122.2284737454553
 30
0.0
 10
-42.55770378873672
 20
-122.6197930948258
 30
0.0
 10
-43.22210208026433
 20
-122.6197930901588
 30
0.0
  0
LINE
  5
3A95
330
3A07
100
AcDbEntity
  8
AM_0
100
AcDbLine
 10
-42.0703605619987
 20
-119.8587626627414
 30
0.0
 11
-42.07036057402859
 21
-121.5713562325987
 31
0.0
  0
SPLINE
  5
3A96
330
3A07
100
AcDbEntity
  8
AM_0
100
AcDbSpline
210
0.0
220
0.0
230
1.0
 70
     8
 71
     3
 72
     8
 73
     4
 74
     0
 42
0.000000001
 43
0.0000000001
 40
-8.0
 40
-8.0
 40
-8.0
 40
-8.0
 40
-7.0
 40
-7.0
 40
-7.0
 40
-7.0
 10
-43.22210205350631
 20
-118.8104821102084
 30
0.0
 10
-42.55770376197864
 20
-118.8104821148753
 30
0.0
 10
-42.07036055738342
 20
-119.2017209419857
 30
0.0
 10
-42.0703605619987
 20
-119.8587626627414
 30
0.0
  0
LINE
  5
3A97
330
3A07
100
AcDbEntity
  8
AM_0
100
AcDbLine
 10
-44.40324141342705
 20
-118.8104821019117
 30
0.0
 11
-43.22210205350631
 21
-118.8104821102084
 31
0.0
  0
SPLINE
  5
3A98
330
3A07
100
AcDbEntity
  8
AM_0
100
AcDbSpline
210
0.0
220
0.0
230
1.0
 70
     8
 71
     3
 72
     8
 73
     4
 74
     0
 42
0.000000001
 43
0.0000000001
 40
-2.0
 40
-2.0
 40
-2.0
 40
-2.0
 40
-1.0
 40
-1.0
 40
-1.0
 40
-1.0
 10
-45.55498291966165
 20
-119.8587626382642
 30
0.0
 10
-45.55498291504631
 20
-119.2017209175083
 30
0.0
 10
-45.06763970495472
 20
-118.8104820972447
 30
0.0
 10
-44.40324141342705
 20
-118.8104821019117
 30
0.0
  0
LINE
  5
3A99
330
3A07
100
AcDbEntity
  8
AM_0
100
AcDbLine
 10
-29.97045343775415
 20
-118.8104839418565
 30
0.0
 11
-28.86313693822632
 21
-118.8104839496347
 31
0.0
  0
SPLINE
  5
3A9A
330
3A07
100
AcDbEntity
  8
AM_0
100
AcDbSpline
210
0.0
220
0.0
230
1.0
 70
     8
 71
     3
 72
     8
 73
     4
 74
     0
 42
0.000000001
 43
0.0000000001
 40
-4.0
 40
-4.0
 40
-4.0
 40
-4.0
 40
-3.0
 40
-3.0
 40
-3.0
 40
-3.0
 10
-31.12234200461933
 20
-119.8587616890588
 30
0.0
 10
-31.12234200000404
 20
-119.2017215447783
 30
0.0
 10
-30.63507617079813
 20
-118.8104839371879
 30
0.0
 10
-29.97045343775415
 20
-118.8104839418565
 30
0.0
  0
LINE
  5
3A9B
330
3A07
100
AcDbEntity
  8
AM_0
100
AcDbLine
 10
-31.12234201664922
 20
-121.5713595108527
 30
0.0
 11
-31.12234200461933
 21
-119.8587616890588
 31
0.0
  0
SPLINE
  5
3A9C
330
3A07
100
AcDbEntity
  8
AM_0
100
AcDbSpline
210
0.0
220
0.0
230
1.0
 70
     8
 71
     3
 72
     8
 73
     4
 74
     0
 42
0.000000001
 43
0.0000000001
 40
-6.0
 40
-6.0
 40
-6.0
 40
-6.0
 40
-5.0
 40
-5.0
 40
-5.0
 40
-5.0
 10
-29.97045346451211
 20
-122.6197924964597
 30
0.0
 10
-30.63507619755615
 20
-122.6197924917912
 30
0.0
 10
-31.12234202126513
 20
-122.228477266244
 30
0.0
 10
-31.12234201664922
 20
-121.5713595108527
 30
0.0
  0
LINE
  5
3A9D
330
3A07
100
AcDbEntity
  8
AM_0
100
AcDbLine
 10
-28.86313696498433
 20
-122.6197925042378
 30
0.0
 11
-29.97045346451211
 21
-122.6197924964597
 31
0.0
  0
SPLINE
  5
3A9E
330
3A07
100
AcDbEntity
  8
AM_0
100
AcDbSpline
210
0.0
220
0.0
230
1.0
 70
     8
 71
     3
 72
     8
 73
     4
 74
     0
 42
0.000000001
 43
0.0000000001
 40
-8.0
 40
-8.0
 40
-8.0
 40
-8.0
 40
-7.0
 40
-7.0
 40
-7.0
 40
-7.0
 10
-27.71155108144353
 20
-121.5713595348114
 30
0.0
 10
-27.71155108605944
 20
-122.2284772902026
 30
0.0
 10
-28.19873930415673
 20
-122.6197925089049
 30
0.0
 10
-28.86313696498433
 20
-122.619792504238
 30
0.0
  0
LINE
  5
3A9F
330
3A07
100
AcDbEntity
  8
AM_0
100
AcDbLine
 10
-27.71155107962864
 20
-121.312984384876
 30
0.0
 11
-27.71155108144365
 21
-121.5713595348114
 31
0.0
  0
LINE
  5
3AA0
330
3A07
100
AcDbEntity
  8
AM_0
100
AcDbLine
 10
-29.06981533942093
 20
-121.3129843753349
 30
0.0
 11
-27.71155107962864
 21
-121.312984384876
 31
0.0
  0
SPLINE
  5
3AA1
330
3A07
100
AcDbEntity
  8
AM_0
100
AcDbSpline
210
0.0
220
0.0
230
1.0
 70
     8
 71
     3
 72
    11
 73
     7
 74
     0
 42
0.000000001
 43
0.0000000001
 40
-12.0
 40
-12.0
 40
-12.0
 40
-12.0
 40
-11.0
 40
-11.0
 40
-11.0
 40
-10.0
 40
-10.0
 40
-10.0
 40
-10.0
 10
-29.76392253282381
 20
-121.3129843704594
 30
0.0
 10
-29.76392253417242
 20
-121.5049709759669
 30
0.0
 10
-29.72701069217413
 20
-121.7191543595059
 30
0.0
 10
-29.37988724547455
 20
-121.7191543619442
 30
0.0
 10
-29.09945502485113
 20
-121.719154363914
 30
0.0
 10
-29.06981534076943
 20
-121.5049709808427
 30
0.0
 10
-29.06981533942082
 20
-121.3129843753351
 30
0.0
  0
LINE
  5
3AA2
330
3A07
100
AcDbEntity
  8
AM_0
100
AcDbLine
 10
-29.76392252447545
 20
-120.1244943818674
 30
0.0
 11
-29.76392253282381
 21
-121.3129843704594
 31
0.0
  0
SPLINE
  5
3AA3
330
3A07
100
AcDbEntity
  8
AM_0
100
AcDbSpline
210
0.0
220
0.0
230
1.0
 70
     8
 71
     3
 72
    11
 73
     7
 74
     0
 42
0.000000001
 43
0.0000000001
 40
-15.0
 40
-15.0
 40
-15.0
 40
-15.0
 40
-14.0
 40
-14.0
 40
-14.0
 40
-13.0
 40
-13.0
 40
-13.0
 40
-13.0
 10
-29.06981533102083
 20
-120.1171368534117
 30
0.0
 10
-29.06981532967171
 20
-119.9250803979042
 30
0.0
 10
-29.09945501074543
 20
-119.7110444755272
 30
0.0
 10
-29.37988723136874
 20
-119.7110444735573
 30
0.0
 10
-29.72701067806844
 20
-119.711044471119
 30
0.0
 10
-29.76392252312678
 20
-119.9325077763598
 30
0.0
 10
-29.76392252447545
 20
-120.1244943818674
 30
0.0
  0
LINE
  5
3AA4
330
3A07
100
AcDbEntity
  8
AM_0
100
AcDbLine
 10
-27.71155107122854
 20
-120.1171368629527
 30
0.0
 11
-29.06981533102072
 21
-120.1171368534117
 31
0.0
  0
LINE
  5
3AA5
330
3A07
100
AcDbEntity
  8
AM_0
100
AcDbLine
 10
-27.71155106941364
 20
-119.8587617130173
 30
0.0
 11
-27.71155107122854
 21
-120.1171368629527
 31
0.0
  0
SPLINE
  5
3AA6
330
3A07
100
AcDbEntity
  8
AM_0
100
AcDbSpline
210
0.0
220
0.0
230
1.0
 70
     8
 71
     3
 72
     8
 73
     4
 74
     0
 42
0.000000001
 43
0.0000000001
 40
-2.0
 40
-2.0
 40
-2.0
 40
-2.0
 40
-1.0
 40
-1.0
 40
-1.0
 40
-1.0
 10
-28.86313693822632
 20
-118.8104839496347
 30
0.0
 10
-28.19873927739872
 20
-118.8104839543016
 30
0.0
 10
-27.71155106479824
 20
-119.201721568737
 30
0.0
 10
-27.71155106941364
 20
-119.8587617130173
 30
0.0
  0
LINE
  5
3AA7
330
3A07
100
AcDbEntity
  8
AM_0
100
AcDbLine
 10
-38.05436447596083
 20
-118.8104838850719
 30
0.0
 11
-39.19860059265074
 21
-120.5969053876989
 31
0.0
  0
LINE
  5
3AA8
330
3A07
100
AcDbEntity
  8
AM_0
100
AcDbLine
 10
-39.50866472219184
 20
-118.8104838748564
 30
0.0
 11
-38.05436447596083
 21
-118.8104838850719
 31
0.0
  0
LINE
  5
3AA9
330
3A07
100
AcDbEntity
  8
AM_0
100
AcDbLine
 10
-39.90732971123572
 20
-119.4895810941084
 30
0.0
 11
-39.50866472219184
 21
-118.8104838748564
 31
0.0
  0
LINE
  5
3AAA
330
3A07
100
AcDbEntity
  8
AM_0
100
AcDbLine
 10
-40.34290653424193
 20
-118.8104838689963
 30
0.0
 11
-39.90732971123572
 21
-119.4895810941084
 31
0.0
  0
LINE
  5
3AAB
330
3A07
100
AcDbEntity
  8
AM_0
100
AcDbLine
 10
-41.83419623508484
 20
-118.8104838585209
 30
0.0
 11
-40.34290653424193
 21
-118.8104838689963
 31
0.0
  0
LINE
  5
3AAC
330
3A07
100
AcDbEntity
  8
AM_0
100
AcDbLine
 10
-40.66782545542742
 20
-120.6338870718136
 30
0.0
 11
-41.83419623508484
 21
-118.8104838585209
 31
0.0
  0
LINE
  5
3AAD
330
3A07
100
AcDbEntity
  8
AM_0
100
AcDbLine
 10
-41.95227380327492
 20
-122.6197924122949
 30
0.0
 11
-40.66782545542742
 21
-120.6338870718136
 31
0.0
  0
LINE
  5
3AAE
330
3A07
100
AcDbEntity
  8
AM_0
100
AcDbLine
 10
-40.49798131815475
 20
-122.6197924225104
 30
0.0
 11
-41.95227380327492
 21
-122.6197924122949
 31
0.0
  0
LINE
  5
3AAF
330
3A07
100
AcDbEntity
  8
AM_0
100
AcDbLine
 10
-39.9662986477187
 20
-121.7339392042443
 30
0.0
 11
-40.49798131815475
 21
-122.6197924225104
 31
0.0
  0
LINE
  5
3AB0
330
3A07
100
AcDbEntity
  8
AM_0
100
AcDbLine
 10
-39.39792921844162
 20
-122.6197924302375
 30
0.0
 11
-39.9662986477187
 21
-121.7339392042443
 31
0.0
  0
LINE
  5
3AB1
330
3A07
100
AcDbEntity
  8
AM_0
100
AcDbLine
 10
-37.90672488981875
 20
-122.6197924407124
 30
0.0
 11
-39.39792921844162
 21
-122.6197924302375
 31
0.0
  0
LINE
  5
3AB2
330
3A07
100
AcDbEntity
  8
AM_0
100
AcDbLine
 10
-39.19860059265074
 20
-120.5969053876989
 30
0.0
 11
-37.90672488981875
 21
-122.6197924407124
 31
0.0
  0
SPLINE
  5
3AB3
330
3A07
100
AcDbEntity
  8
AM_0
100
AcDbSpline
210
0.0
220
0.0
230
1.0
 70
     8
 71
     3
 72
    11
 73
     7
 74
     0
 42
0.000000001
 43
0.0000000001
 40
-4.0
 40
-4.0
 40
-4.0
 40
-4.0
 40
-3.0
 40
-3.0
 40
-3.0
 40
-2.0
 40
-2.0
 40
-2.0
 40
-2.0
 10
-59.7500000237984
 20
-123.6383450732787
 30
0.0
 10
-57.87866937308894
 20
-123.6383450864235
 30
0.0
 10
-56.36165257136241
 20
-122.1213330430156
 30
0.0
 10
-56.36165255821743
 20
-120.250002392306
 30
0.0
 10
-56.36165254507256
 20
-118.3786717415967
 30
0.0
 10
-57.87866932548684
 20
-116.8616549398701
 30
0.0
 10
-59.74999997619642
 20
-116.8616549267253
 30
0.0
  0
LINE
  5
3AB4
330
3A07
100
AcDbEntity
  8
AM_0
100
AcDbLine
 10
-59.75000002781394
 20
-124.2100022556174
 30
0.0
 11
-59.7500000237984
 21
-123.6383450732787
 31
0.0
  0
SPLINE
  5
3AB5
330
3A07
100
AcDbEntity
  8
AM_0
100
AcDbSpline
210
0.0
220
0.0
230
1.0
 70
     8
 71
     3
 72
     8
 73
     4
 74
     0
 42
0.000000001
 43
0.0000000001
 40
-6.0
 40
-6.0
 40
-6.0
 40
-6.0
 40
-5.0
 40
-5.0
 40
-5.0
 40
-5.0
 10
-55.79000011288525
 20
-120.2500023963217
 30
0.0
 10
-55.79000012824781
 20
-122.4370497794011
 30
0.0
 10
-57.56295264473442
 20
-124.21000227098
 30
0.0
 10
-59.75000002781405
 20
-124.2100022556174
 30
0.0
  0
SPLINE
  5
3AB6
330
3A07
100
AcDbEntity
  8
AM_0
100
AcDbSpline
210
0.0
220
0.0
230
1.0
 70
     8
 71
     3
 72
     8
 73
     4
 74
     0
 42
0.000000001
 43
0.0000000001
 40
-1.0
 40
-1.0
 40
-1.0
 40
-1.0
 40
0.0
 40
0.0
 40
0.0
 40
0.0
 10
-59.74999997218095
 20
-116.2900024813929
 30
0.0
 10
-57.56295258910132
 20
-116.2900024967554
 30
0.0
 10
-55.79000009752252
 20
-118.0629550132421
 30
0.0
 10
-55.79000011288525
 20
-120.2500023963217
 30
0.0
  0
LINE
  5
3AB7
330
3A07
100
AcDbEntity
  8
AM_0
100
AcDbLine
 10
-59.74999997619642
 20
-116.8616549267252
 30
0.0
 11
-59.74999997218083
 21
-116.2900024813929
 31
0.0
  0
LINE
  5
3AB8
330
3A07
100
AcDbEntity
  8
AM_0
100
AcDbLine
 10
32.86582983598976
 20
-122.7596523761767
 30
0.0
 11
32.05115802131798
 21
-122.7596523761767
 31
0.0
  0
LINE
  5
3AB9
330
3A07
100
AcDbEntity
  8
AM_0
100
AcDbLine
 10
32.86582983598976
 20
-120.4044400209644
 30
0.0
 11
32.86582983598976
 21
-122.7596523761767
 31
0.0
  0
LINE
  5
3ABA
330
3A07
100
AcDbEntity
  8
AM_0
100
AcDbLine
 10
36.06274103290099
 20
-120.4044400209644
 30
0.0
 11
32.86582983598976
 21
-120.4044400209644
 31
0.0
  0
LINE
  5
3ABB
330
3A07
100
AcDbEntity
  8
AM_0
100
AcDbLine
 10
36.06274103290099
 20
-122.7596523761767
 30
0.0
 11
36.06274103290099
 21
-120.4044400209644
 31
0.0
  0
LINE
  5
3ABC
330
3A07
100
AcDbEntity
  8
AM_0
100
AcDbLine
 10
36.87741284757277
 20
-122.7596523761767
 30
0.0
 11
36.06274103290099
 21
-122.7596523761767
 31
0.0
  0
LINE
  5
3ABD
330
3A07
100
AcDbEntity
  8
AM_0
100
AcDbLine
 10
36.87741284757289
 20
-117.7596523761767
 30
0.0
 11
36.87741284757277
 21
-122.7596523761767
 31
0.0
  0
LINE
  5
3ABE
330
3A07
100
AcDbEntity
  8
AM_0
100
AcDbLine
 10
36.06274103290099
 20
-117.7596523761767
 30
0.0
 11
36.87741284757289
 21
-117.7596523761767
 31
0.0
  0
LINE
  5
3ABF
330
3A07
100
AcDbEntity
  8
AM_0
100
AcDbLine
 10
36.06274103290099
 20
-119.8137064302307
 30
0.0
 11
36.06274103290099
 21
-117.7596523761767
 31
0.0
  0
LINE
  5
3AC0
330
3A07
100
AcDbEntity
  8
AM_0
100
AcDbLine
 10
32.86582983598976
 20
-119.8137064302307
 30
0.0
 11
36.06274103290099
 21
-119.8137064302307
 31
0.0
  0
LINE
  5
3AC1
330
3A07
100
AcDbEntity
  8
AM_0
100
AcDbLine
 10
32.86582983598976
 20
-117.7596523761767
 30
0.0
 11
32.86582983598976
 21
-119.8137064302307
 31
0.0
  0
LINE
  5
3AC2
330
3A07
100
AcDbEntity
  8
AM_0
100
AcDbLine
 10
32.05115802131798
 20
-117.7596523761767
 30
0.0
 11
32.86582983598976
 21
-117.7596523761767
 31
0.0
  0
LINE
  5
3AC3
330
3A07
100
AcDbEntity
  8
AM_0
100
AcDbLine
 10
32.05115802131798
 20
-122.7596523761767
 30
0.0
 11
32.05115802131798
 21
-117.7596523761767
 31
0.0
  0
LINE
  5
3AC4
330
3A07
100
AcDbEntity
  8
AM_0
100
AcDbLine
 10
52.27509624525618
 20
-122.168918785443
 30
0.0
 11
55.2944012645612
 21
-122.1689187854432
 31
0.0
  0
SPLINE
  5
3AC5
330
3A07
100
AcDbEntity
  8
AM_0
100
AcDbSpline
210
0.0
220
0.0
230
1.0
 70
     8
 71
     2
 72
     7
 73
     4
 74
     0
 42
0.000000001
 43
0.0000000001
 40
0.0
 40
0.0
 40
0.0
 40
1.0
 40
2.0
 40
2.0
 40
2.0
 10
53.46814643830635
 20
-121.2075288240531
 30
0.0
 10
52.79247076263067
 20
-121.6669882835126
 30
0.0
 10
52.39864836880826
 20
-122.0028956194199
 30
0.0
 10
52.27509624525618
 20
-122.168918785443
 30
0.0
  0
SPLINE
  5
3AC6
330
3A07
100
AcDbEntity
  8
AM_0
100
AcDbSpline
210
0.0
220
0.0
230
1.0
 70
     8
 71
     2
 72
     7
 73
     4
 74
     0
 42
0.000000001
 43
0.0000000001
 40
0.0
 40
0.0
 40
0.0
 40
1.0
 40
2.0
 40
2.0
 40
2.0
 10
55.28281825297819
 20
-119.122586739111
 30
0.0
 10
55.28281825297819
 20
-119.6013512178755
 30
0.0
 10
54.52606149622147
 20
-120.4777990943233
 30
0.0
 10
53.46814643830635
 20
-121.2075288240531
 30
0.0
  0
SPLINE
  5
3AC7
330
3A07
100
AcDbEntity
  8
AM_0
100
AcDbSpline
210
0.0
220
0.0
230
1.0
 70
     8
 71
     2
 72
     7
 73
     4
 74
     0
 42
0.000000001
 43
0.0000000001
 40
0.0
 40
0.0
 40
0.0
 40
1.0
 40
2.0
 40
2.0
 40
2.0
 10
53.3754823456423
 20
-117.7403473568716
 30
0.0
 10
54.31370628386628
 20
-117.7403473568716
 30
0.0
 10
55.28281825297819
 20
-118.5859072024315
 30
0.0
 10
55.28281825297819
 20
-119.122586739111
 30
0.0
  0
SPLINE
  5
3AC8
330
3A07
100
AcDbEntity
  8
AM_0
100
AcDbSpline
210
0.0
220
0.0
230
1.0
 70
     8
 71
     2
 72
     7
 73
     4
 74
     0
 42
0.000000001
 43
0.0000000001
 40
0.0
 40
0.0
 40
0.0
 40
1.0
 40
2.0
 40
2.0
 40
2.0
 10
51.36776033792028
 20
-119.1882238047482
 30
0.0
 10
51.44884141900138
 20
-118.4662160827403
 30
0.0
 10
52.51061748077745
 20
-117.7403473568716
 30
0.0
 10
53.3754823456423
 20
-117.7403473568716
 30
0.0
  0
LINE
  5
3AC9
330
3A07
100
AcDbEntity
  8
AM_0
100
AcDbLine
 10
52.14768311784308
 20
-119.2538608703851
 30
0.0
 11
51.36776033792028
 21
-119.1882238047482
 31
0.0
  0
SPLINE
  5
3ACA
330
3A07
100
AcDbEntity
  8
AM_0
100
AcDbSpline
210
0.0
220
0.0
230
1.0
 70
     8
 71
     2
 72
     7
 73
     4
 74
     0
 42
0.000000001
 43
0.0000000001
 40
0.0
 40
0.0
 40
0.0
 40
1.0
 40
2.0
 40
2.0
 40
2.0
 10
53.34845531861526
 20
-118.2461388626632
 30
0.0
 10
52.82335879351882
 20
-118.2461388626632
 30
0.0
 10
52.14768311784308
 20
-118.7673743838987
 30
0.0
 10
52.14768311784308
 20
-119.2538608703851
 30
0.0
  0
SPLINE
  5
3ACB
330
3A07
100
AcDbEntity
  8
AM_0
100
AcDbSpline
210
0.0
220
0.0
230
1.0
 70
     8
 71
     2
 72
     7
 73
     4
 74
     0
 42
0.000000001
 43
0.0000000001
 40
0.0
 40
0.0
 40
0.0
 40
1.0
 40
2.0
 40
2.0
 40
2.0
 10
54.51061748077734
 20
-119.1110037275281
 30
0.0
 10
54.51061748077734
 20
-118.7287643452887
 30
0.0
 10
53.83880280896278
 20
-118.2461388626632
 30
0.0
 10
53.34845531861526
 20
-118.2461388626632
 30
0.0
  0
SPLINE
  5
3ACC
330
3A07
100
AcDbEntity
  8
AM_0
100
AcDbSpline
210
0.0
220
0.0
230
1.0
 70
     8
 71
     2
 72
     7
 73
     4
 74
     0
 42
0.000000001
 43
0.0000000001
 40
0.0
 40
0.0
 40
0.0
 40
1.0
 40
2.0
 40
2.0
 40
2.0
 10
52.79633176649167
 20
-120.9102315267558
 30
0.0
 10
53.8542468244068
 20
-120.2075288240531
 30
0.0
 10
54.51061748077734
 20
-119.4391890557134
 30
0.0
 10
54.51061748077734
 20
-119.1110037275281
 30
0.0
  0
SPLINE
  5
3ACD
330
3A07
100
AcDbEntity
  8
AM_0
100
AcDbSpline
210
0.0
220
0.0
230
1.0
 70
     8
 71
     2
 72
     7
 73
     4
 74
     0
 42
0.000000001
 43
0.0000000001
 40
0.0
 40
0.0
 40
0.0
 40
1.0
 40
2.0
 40
2.0
 40
2.0
 10
51.22490319506318
 20
-122.7596523761767
 30
0.0
 10
51.20945917961916
 20
-122.4005790171034
 30
0.0
 10
51.88899585915578
 20
-121.5125481290724
 30
0.0
 10
52.79633176649167
 20
-120.9102315267558
 30
0.0
  0
LINE
  5
3ACE
330
3A07
100
AcDbEntity
  8
AM_0
100
AcDbLine
 10
55.2944012645612
 20
-122.7596523761767
 30
0.0
 11
51.22490319506318
 21
-122.7596523761767
 31
0.0
  0
LINE
  5
3ACF
330
3A07
100
AcDbEntity
  8
AM_0
100
AcDbLine
 10
55.2944012645612
 20
-122.1689187854432
 30
0.0
 11
55.2944012645612
 21
-122.7596523761767
 31
0.0
  0
ARC
  5
3AD0
330
3A07
100
AcDbEntity
  8
AM_0
100
AcDbCircle
 10
-92.49999999999728
 20
120.4999999999975
 30
0.0
 40
9.999999999999973
100
AcDbArc
 50
90.0
 51
180.0
  0
ARC
  5
3AD1
330
3A07
100
AcDbEntity
  8
AM_0
100
AcDbCircle
 10
92.50000000000232
 20
120.4999999999975
 30
0.0
 40
9.999999999999957
100
AcDbArc
 50
0.0
 51
90.0
  0
LINE
  5
3AD2
330
3A07
100
AcDbEntity
  8
AM_0
100
AcDbLine
 10
-102.4999999999973
 20
120.4999999999975
 30
0.0
 11
-102.4999999999973
 21
-120.5000000000018
 31
0.0
  0
LINE
  5
3AD3
330
3A07
100
AcDbEntity
  8
AM_0
100
AcDbLine
 10
-92.49999999999728
 20
-130.500000000002
 30
0.0
 11
92.50000000000232
 21
-130.500000000002
 31
0.0
  0
LINE
  5
3AD4
330
3A07
100
AcDbEntity
  8
AM_0
100
AcDbLine
 10
102.5000000000023
 20
-120.500000000002
 30
0.0
 11
102.5000000000022
 21
120.4999999999974
 31
0.0
  0
LINE
  5
3AD5
330
3A07
100
AcDbEntity
  8
AM_0
100
AcDbLine
 10
3.250000000001307
 20
61.49999999999749
 30
0.0
 11
3.000000000002501
 21
61.49999999999749
 31
0.0
  0
LINE
  5
3AD6
330
3A07
100
AcDbEntity
  8
AM_0
100
AcDbLine
 10
-2.999999999997498
 20
61.49999999999749
 30
0.0
 11
-3.249999999998408
 21
61.49999999999749
 31
0.0
  0
LINE
  5
3AD7
330
3A07
100
AcDbEntity
  8
AM_0
100
AcDbLine
 10
-83.24999999999846
 20
61.49999999999744
 30
0.0
 11
-83.49999999999903
 21
61.49999999999749
 31
0.0
  0
LINE
  5
3AD8
330
3A07
100
AcDbEntity
  8
AM_0
100
AcDbLine
 10
83.49999999999978
 20
61.49999999999749
 30
0.0
 11
83.25000000000136
 21
61.49999999999749
 31
0.0
  0
ARC
  5
3AD9
330
3A07
100
AcDbEntity
  8
AM_0
100
AcDbCircle
 10
-92.49999999999733
 20
-120.500000000002
 30
0.0
 40
9.999999999999973
100
AcDbArc
 50
180.0
 51
270.0
  0
ARC
  5
3ADA
330
3A07
100
AcDbEntity
  8
AM_0
100
AcDbCircle
 10
92.50000000000232
 20
-120.500000000002
 30
0.0
 40
9.999999999999973
100
AcDbArc
 50
270.0
 51
0.0
  0
LINE
  5
3ADB
330
3A07
100
AcDbEntity
  8
AM_0
100
AcDbLine
 10
92.50000000000232
 20
130.4999999999974
 30
0.0
 11
-92.49999999999728
 21
130.4999999999975
 31
0.0
  0
INSERT
  5
3ADC
330
3A07
100
AcDbEntity
  8
AM_0
100
AcDbBlockReference
 66
     1
  2
info
 10
-83.24999999999846
 20
-111.5000000000025
 30
0.0
  0
ATTRIB
  5
3ADD
330
3ADC
100
AcDbEntity
  8
0
100
AcDbText
 10
-73.78290704967895
 20
-108.6089047645231
 30
0.00000001
 40
5.0
  1
80
100
AcDbAttribute
280
     0
  2
BRD
 70
     1
280
     1
  0
ATTRIB
  5
3ADE
330
3ADC
100
AcDbEntity
  8
0
100
AcDbText
 10
-73.78290704967895
 20
-116.9422380978563
 30
0.00000001
 40
5.0
  1
180
100
AcDbAttribute
280
     0
  2
HJD
 70
     1
280
     1
  0
SEQEND
  5
3ADF
330
3ADC
100
AcDbEntity
  8
AM_0
  0
LINE
  5
3AE0
330
3A07
100
AcDbEntity
  8
AM_0
100
AcDbLine
 10
-83.24999999999846
 20
68.4999999999975
 30
0.0
 11
-83.24999999999846
 21
-111.5000000000025
 31
0.0
  0
LINE
  5
3AE1
330
3A07
100
AcDbEntity
  8
AM_0
100
AcDbLine
 10
-83.24999999999846
 20
-111.5000000000025
 30
0.0
 11
-3.249999999998465
 21
-111.5000000000025
 31
0.0
  0
LINE
  5
3AE2
330
3A07
100
AcDbEntity
  8
AM_0
100
AcDbLine
 10
-83.24999999999846
 20
68.4999999999975
 30
0.0
 11
-3.249999999998465
 21
68.4999999999975
 31
0.0
  0
LINE
  5
3AE3
330
3A07
100
AcDbEntity
  8
AM_0
100
AcDbLine
 10
-3.249999999998465
 20
-111.5000000000025
 30
0.0
 11
-3.249999999998408
 21
68.4999999999975
 31
0.0
  0
INSERT
  5
3AE4
330
3A07
100
AcDbEntity
  8
AM_0
100
AcDbBlockReference
 66
     1
  2
info
 10
3.250000000001307
 20
-111.5000000000024
 30
0.0
  0
ATTRIB
  5
3AE5
330
3AE4
100
AcDbEntity
  8
0
100
AcDbText
 10
12.71709295032082
 20
-108.608904764523
 30
0.00000001
 40
5.0
  1
80
100
AcDbAttribute
280
     0
  2
BRD
 70
     1
280
     1
  0
ATTRIB
  5
3AE6
330
3AE4
100
AcDbEntity
  8
0
100
AcDbText
 10
12.71709295032082
 20
-116.9422380978562
 30
0.00000001
 40
5.0
  1
180
100
AcDbAttribute
280
     0
  2
HJD
 70
     1
280
     1
  0
SEQEND
  5
3AE7
330
3AE4
100
AcDbEntity
  8
AM_0
  0
LINE
  5
3AE8
330
3A07
100
AcDbEntity
  8
AM_0
100
AcDbLine
 10
3.250000000001307
 20
68.49999999999761
 30
0.0
 11
3.250000000001307
 21
-111.5000000000024
 31
0.0
  0
LINE
  5
3AE9
330
3A07
100
AcDbEntity
  8
AM_0
100
AcDbLine
 10
3.250000000001307
 20
-111.5000000000024
 30
0.0
 11
83.2500000000013
 21
-111.5000000000024
 31
0.0
  0
LINE
  5
3AEA
330
3A07
100
AcDbEntity
  8
AM_0
100
AcDbLine
 10
3.250000000001307
 20
68.49999999999761
 30
0.0
 11
83.2500000000013
 21
68.49999999999761
 31
0.0
  0
LINE
  5
3AEB
330
3A07
100
AcDbEntity
  8
AM_0
100
AcDbLine
 10
83.2500000000013
 20
-111.5000000000024
 30
0.0
 11
83.2500000000013
 21
68.49999999999761
 31
0.0
  0
LINE
  5
3AEC
330
3A07
100
AcDbEntity
  8
AM_0
100
AcDbLine
 10
-86.24999999999847
 20
74.4999999999975
 30
0.0
 11
-86.24999999999847
 21
68.4999999999975
 31
0.0
  0
LINE
  5
3AED
330
3A07
100
AcDbEntity
  8
AM_0
100
AcDbLine
 10
-86.24999999999847
 20
68.4999999999975
 30
0.0
 11
-0.2499999999984652
 21
68.4999999999975
 31
0.0
  0
LINE
  5
3AEE
330
3A07
100
AcDbEntity
  8
AM_0
100
AcDbLine
 10
-0.2499999999984652
 20
68.4999999999975
 30
0.0
 11
-0.2499999999984652
 21
74.4999999999975
 31
0.0
  0
LINE
  5
3AEF
330
3A07
100
AcDbEntity
  8
AM_0
100
AcDbLine
 10
-0.2499999999984652
 20
74.4999999999975
 30
0.0
 11
-86.24999999999847
 21
74.4999999999975
 31
0.0
  0
LINE
  5
3AF0
330
3A07
100
AcDbEntity
  8
AM_0
100
AcDbLine
 10
86.25000000000346
 20
74.4999999999975
 30
0.0
 11
86.25000000000346
 21
68.4999999999975
 31
0.0
  0
LINE
  5
3AF1
330
3A07
100
AcDbEntity
  8
AM_0
100
AcDbLine
 10
86.25000000000346
 20
68.4999999999975
 30
0.0
 11
0.2500000000034674
 21
68.4999999999975
 31
0.0
  0
LINE
  5
3AF2
330
3A07
100
AcDbEntity
  8
AM_0
100
AcDbLine
 10
0.2500000000034674
 20
68.4999999999975
 30
0.0
 11
0.2500000000034674
 21
74.4999999999975
 31
0.0
  0
LINE
  5
3AF3
330
3A07
100
AcDbEntity
  8
AM_0
100
AcDbLine
 10
0.2500000000034674
 20
74.4999999999975
 30
0.0
 11
86.25000000000346
 21
74.4999999999975
 31
0.0
  0
LINE
  5
3AF4
330
3A07
100
AcDbEntity
  8
AM_0
100
AcDbLine
 10
-63.24999999999846
 20
86.64914703891145
 30
0.0
 11
-68.74999999999847
 21
89.82457351945482
 31
0.0
1001
AcDbBlockRepETag
1070
     1
1071
        1
1005
3797
  0
LINE
  5
3AF5
330
3A07
100
AcDbEntity
  8
AM_0
100
AcDbLine
 10
-68.74999999999847
 20
89.82457351945482
 30
0.0
 11
-69.74999999999846
 21
89.24722325026527
 31
0.0
1001
AcDbBlockRepETag
1070
     1
1071
        2
1005
3798
  0
LINE
  5
3AF6
330
3A07
100
AcDbEntity
  8
AM_0
100
AcDbLine
 10
-69.74999999999846
 20
89.24722325026527
 30
0.0
 11
-63.24999999999846
 21
85.49444650053215
 31
0.0
1001
AcDbBlockRepETag
1070
     1
1071
        3
1005
3799
  0
LINE
  5
3AF7
330
3A07
100
AcDbEntity
  8
AM_0
100
AcDbLine
 10
-63.24999999999846
 20
86.64914703891133
 30
0.0
 11
-63.24999999999846
 21
85.49444650053215
 31
0.0
1001
AcDbBlockRepETag
1070
     1
1071
        4
1005
379A
  0
LINE
  5
3AF8
330
3A07
100
AcDbEntity
  8
AM_0
100
AcDbLine
 10
-68.74999999999847
 20
89.82457351945482
 30
0.0
 11
-68.74999999999847
 21
96.17542648054053
 31
0.0
1001
AcDbBlockRepETag
1070
     1
1071
        5
1005
379B
  0
LINE
  5
3AF9
330
3A07
100
AcDbEntity
  8
AM_0
100
AcDbLine
 10
-68.74999999999847
 20
96.17542648054053
 30
0.0
 11
-69.74999999999846
 21
96.75277674973017
 31
0.0
1001
AcDbBlockRepETag
1070
     1
1071
        6
1005
379C
  0
LINE
  5
3AFA
330
3A07
100
AcDbEntity
  8
AM_0
100
AcDbLine
 10
-69.74999999999846
 20
96.75277674973017
 30
0.0
 11
-69.74999999999846
 21
89.24722325026527
 31
0.0
1001
AcDbBlockRepETag
1070
     1
1071
        7
1005
379D
  0
LINE
  5
3AFB
330
3A07
100
AcDbEntity
  8
AM_0
100
AcDbLine
 10
-68.74999999999847
 20
96.17542648054053
 30
0.0
 11
-63.24999999999846
 21
99.35085296108354
 31
0.0
1001
AcDbBlockRepETag
1070
     1
1071
        8
1005
379E
  0
LINE
  5
3AFC
330
3A07
100
AcDbEntity
  8
AM_0
100
AcDbLine
 10
-63.24999999999846
 20
99.35085296108354
 30
0.0
 11
-63.24999999999846
 21
100.5055534994628
 31
0.0
1001
AcDbBlockRepETag
1070
     1
1071
        9
1005
379F
  0
LINE
  5
3AFD
330
3A07
100
AcDbEntity
  8
AM_0
100
AcDbLine
 10
-63.24999999999846
 20
100.5055534994628
 30
0.0
 11
-69.74999999999846
 21
96.75277674973017
 31
0.0
1001
AcDbBlockRepETag
1070
     1
1071
       10
1005
37A0
  0
LINE
  5
3AFE
330
3A07
100
AcDbEntity
  8
AM_0
100
AcDbLine
 10
-63.24999999999846
 20
99.35085296108354
 30
0.0
 11
-57.74999999999824
 21
96.17542648054007
 31
0.0
1001
AcDbBlockRepETag
1070
     1
1071
       11
1005
37A1
  0
LINE
  5
3AFF
330
3A07
100
AcDbEntity
  8
AM_0
100
AcDbLine
 10
-57.74999999999824
 20
96.17542648053996
 30
0.0
 11
-56.74999999999823
 21
96.7527767497296
 31
0.0
1001
AcDbBlockRepETag
1070
     1
1071
       12
1005
37A2
  0
LINE
  5
3B00
330
3A07
100
AcDbEntity
  8
AM_0
100
AcDbLine
 10
-56.74999999999823
 20
96.7527767497296
 30
0.0
 11
-63.24999999999846
 21
100.5055534994628
 31
0.0
1001
AcDbBlockRepETag
1070
     1
1071
       13
1005
37A3
  0
LINE
  5
3B01
330
3A07
100
AcDbEntity
  8
AM_0
100
AcDbLine
 10
-57.74999999999824
 20
96.17542648053996
 30
0.0
 11
-57.74999999999824
 21
89.82457351945447
 31
0.0
1001
AcDbBlockRepETag
1070
     1
1071
       14
1005
37A4
  0
LINE
  5
3B02
330
3A07
100
AcDbEntity
  8
AM_0
100
AcDbLine
 10
-57.74999999999824
 20
89.82457351945447
 30
0.0
 11
-56.74999999999823
 21
89.24722325026493
 31
0.0
1001
AcDbBlockRepETag
1070
     1
1071
       15
1005
37A5
  0
LINE
  5
3B03
330
3A07
100
AcDbEntity
  8
AM_0
100
AcDbLine
 10
-56.74999999999823
 20
89.24722325026483
 30
0.0
 11
-56.74999999999823
 21
96.7527767497296
 31
0.0
1001
AcDbBlockRepETag
1070
     1
1071
       16
1005
37A6
  0
LINE
  5
3B04
330
3A07
100
AcDbEntity
  8
AM_0
100
AcDbLine
 10
-57.74999999999824
 20
89.82457351945447
 30
0.0
 11
-63.24999999999846
 21
86.64914703891133
 31
0.0
1001
AcDbBlockRepETag
1070
     1
1071
       17
1005
37A7
  0
LINE
  5
3B05
330
3A07
100
AcDbEntity
  8
AM_0
100
AcDbLine
 10
-63.24999999999846
 20
85.49444650053215
 30
0.0
 11
-56.74999999999823
 21
89.24722325026493
 31
0.0
1001
AcDbBlockRepETag
1070
     1
1071
       18
1005
37A8
  0
LINE
  5
3B06
330
3A07
100
AcDbEntity
  8
AM_0
100
AcDbLine
 10
-23.24999999999846
 20
86.64914703891145
 30
0.0
 11
-28.74999999999847
 21
89.82457351945482
 31
0.0
1001
AcDbBlockRepETag
1070
     1
1071
       20
1005
37A9
  0
LINE
  5
3B07
330
3A07
100
AcDbEntity
  8
AM_0
100
AcDbLine
 10
-28.74999999999847
 20
89.82457351945482
 30
0.0
 11
-29.74999999999847
 21
89.24722325026527
 31
0.0
1001
AcDbBlockRepETag
1070
     1
1071
       21
1005
37AA
  0
LINE
  5
3B08
330
3A07
100
AcDbEntity
  8
AM_0
100
AcDbLine
 10
-29.74999999999847
 20
89.24722325026527
 30
0.0
 11
-23.24999999999846
 21
85.49444650053215
 31
0.0
1001
AcDbBlockRepETag
1070
     1
1071
       22
1005
37AB
  0
LINE
  5
3B09
330
3A07
100
AcDbEntity
  8
AM_0
100
AcDbLine
 10
-23.24999999999846
 20
86.64914703891133
 30
0.0
 11
-23.24999999999846
 21
85.49444650053215
 31
0.0
1001
AcDbBlockRepETag
1070
     1
1071
       23
1005
37AC
  0
LINE
  5
3B0A
330
3A07
100
AcDbEntity
  8
AM_0
100
AcDbLine
 10
-28.74999999999847
 20
89.82457351945482
 30
0.0
 11
-28.74999999999847
 21
96.17542648054053
 31
0.0
1001
AcDbBlockRepETag
1070
     1
1071
       24
1005
37AD
  0
LINE
  5
3B0B
330
3A07
100
AcDbEntity
  8
AM_0
100
AcDbLine
 10
-28.74999999999847
 20
96.17542648054053
 30
0.0
 11
-29.74999999999847
 21
96.75277674973017
 31
0.0
1001
AcDbBlockRepETag
1070
     1
1071
       25
1005
37AE
  0
LINE
  5
3B0C
330
3A07
100
AcDbEntity
  8
AM_0
100
AcDbLine
 10
-29.74999999999847
 20
96.75277674973017
 30
0.0
 11
-29.74999999999847
 21
89.24722325026527
 31
0.0
1001
AcDbBlockRepETag
1070
     1
1071
       26
1005
37AF
  0
LINE
  5
3B0D
330
3A07
100
AcDbEntity
  8
AM_0
100
AcDbLine
 10
-28.74999999999847
 20
96.17542648054053
 30
0.0
 11
-23.24999999999846
 21
99.35085296108354
 31
0.0
1001
AcDbBlockRepETag
1070
     1
1071
       27
1005
37B0
  0
LINE
  5
3B0E
330
3A07
100
AcDbEntity
  8
AM_0
100
AcDbLine
 10
-23.24999999999846
 20
99.35085296108354
 30
0.0
 11
-23.24999999999846
 21
100.5055534994628
 31
0.0
1001
AcDbBlockRepETag
1070
     1
1071
       28
1005
37B1
  0
LINE
  5
3B0F
330
3A07
100
AcDbEntity
  8
AM_0
100
AcDbLine
 10
-23.24999999999846
 20
100.5055534994628
 30
0.0
 11
-29.74999999999847
 21
96.75277674973017
 31
0.0
1001
AcDbBlockRepETag
1070
     1
1071
       29
1005
37B2
  0
LINE
  5
3B10
330
3A07
100
AcDbEntity
  8
AM_0
100
AcDbLine
 10
-23.24999999999846
 20
99.35085296108354
 30
0.0
 11
-17.74999999999824
 21
96.17542648054007
 31
0.0
1001
AcDbBlockRepETag
1070
     1
1071
       30
1005
37B3
  0
LINE
  5
3B11
330
3A07
100
AcDbEntity
  8
AM_0
100
AcDbLine
 10
-17.74999999999824
 20
96.17542648053996
 30
0.0
 11
-16.74999999999824
 21
96.7527767497296
 31
0.0
1001
AcDbBlockRepETag
1070
     1
1071
       31
1005
37B4
  0
LINE
  5
3B12
330
3A07
100
AcDbEntity
  8
AM_0
100
AcDbLine
 10
-16.74999999999824
 20
96.7527767497296
 30
0.0
 11
-23.24999999999846
 21
100.5055534994628
 31
0.0
1001
AcDbBlockRepETag
1070
     1
1071
       32
1005
37B5
  0
LINE
  5
3B13
330
3A07
100
AcDbEntity
  8
AM_0
100
AcDbLine
 10
-17.74999999999824
 20
96.17542648053996
 30
0.0
 11
-17.74999999999824
 21
89.82457351945447
 31
0.0
1001
AcDbBlockRepETag
1070
     1
1071
       33
1005
37B6
  0
LINE
  5
3B14
330
3A07
100
AcDbEntity
  8
AM_0
100
AcDbLine
 10
-17.74999999999824
 20
89.82457351945447
 30
0.0
 11
-16.74999999999824
 21
89.24722325026493
 31
0.0
1001
AcDbBlockRepETag
1070
     1
1071
       34
1005
37B7
  0
LINE
  5
3B15
330
3A07
100
AcDbEntity
  8
AM_0
100
AcDbLine
 10
-16.74999999999824
 20
89.24722325026483
 30
0.0
 11
-16.74999999999824
 21
96.7527767497296
 31
0.0
1001
AcDbBlockRepETag
1070
     1
1071
       35
1005
37B8
  0
LINE
  5
3B16
330
3A07
100
AcDbEntity
  8
AM_0
100
AcDbLine
 10
-17.74999999999824
 20
89.82457351945447
 30
0.0
 11
-23.24999999999846
 21
86.64914703891133
 31
0.0
1001
AcDbBlockRepETag
1070
     1
1071
       36
1005
37B9
  0
LINE
  5
3B17
330
3A07
100
AcDbEntity
  8
AM_0
100
AcDbLine
 10
-23.24999999999846
 20
85.49444650053215
 30
0.0
 11
-16.74999999999824
 21
89.24722325026493
 31
0.0
1001
AcDbBlockRepETag
1070
     1
1071
       37
1005
37BA
  0
LINE
  5
3B18
330
3A07
100
AcDbEntity
  8
AM_0
  6
Continuous
 62
     7
100
AcDbLine
 10
-57.81041075019863
 20
87.06041075019744
 30
0.0
 11
-58.80865704890863
 21
88.05865704890738
 31
0.0
  0
LINE
  5
3B19
330
3A07
100
AcDbEntity
  8
AM_0
  6
Continuous
 62
     7
100
AcDbLine
 10
-68.32531754724079
 20
97.57531754733959
 30
0.0
 11
-68.36291606749859
 21
97.61291606759744
 31
0.0
  0
LINE
  5
3B1A
330
3A07
100
AcDbEntity
  8
AM_0
  6
Continuous
 62
     7
100
AcDbLine
 10
-56.66202519179859
 20
89.44755909769753
 30
0.0
 11
-56.04242838919862
 21
88.82796229519749
 31
0.0
  0
LINE
  5
3B1B
330
3A07
100
AcDbEntity
  8
AM_0
  6
Continuous
 62
     7
100
AcDbLine
 10
-57.90240130266994
 20
98.69366739437579
 30
0.0
 11
-52.20049638579865
 21
102.6861841992975
 31
0.0
  0
LINE
  5
3B1C
330
3A07
100
AcDbEntity
  8
AM_0
  6
Continuous
 62
     7
100
AcDbLine
 10
-50.76647662099862
 20
100.6383591765974
 30
0.0
 11
-56.41474285139856
 21
96.68340058429748
 31
0.0
  0
LINE
  5
3B1D
330
3A07
100
AcDbEntity
  8
AM_0
  6
Continuous
 62
     7
100
AcDbLine
 10
-56.04242838919862
 20
87.41396412439746
 30
0.0
 11
-56.39619717139857
 21
87.06019534219739
 31
0.0
  0
LINE
  5
3B1E
330
3A07
100
AcDbEntity
  8
AM_0
  6
Continuous
 62
     7
100
AcDbLine
 10
-49.61949846529859
 20
100.9999999999975
 30
0.0
 11
-36.88050153469868
 21
100.9999999999975
 31
0.0
  0
LINE
  5
3B1F
330
3A07
100
AcDbEntity
  8
AM_0
  6
Continuous
 62
     7
100
AcDbLine
 10
-49.61940242219856
 20
103.4999999999975
 30
0.0
 11
-36.88059757769844
 21
103.4999999999975
 31
0.0
  0
LINE
  5
3B20
330
3A07
100
AcDbEntity
  8
AM_0
  6
Continuous
 62
     7
100
AcDbLine
 10
-30.45757161069861
 20
87.41396412439746
 30
0.0
 11
-30.10380282849866
 21
87.06019534219739
 31
0.0
  0
LINE
  5
3B21
330
3A07
100
AcDbEntity
  8
AM_0
  6
Continuous
 62
     7
100
AcDbLine
 10
-35.73352337889861
 20
100.6383591765974
 30
0.0
 11
-30.08525714849867
 21
96.68340058429748
 31
0.0
  0
LINE
  5
3B22
330
3A07
100
AcDbEntity
  8
AM_0
  6
Continuous
 62
     7
100
AcDbLine
 10
-28.59759869614374
 20
98.69366739354871
 30
0.0
 11
-34.29950361409857
 21
102.6861841992975
 31
0.0
  0
LINE
  5
3B23
330
3A07
100
AcDbEntity
  8
AM_0
  6
Continuous
 62
     7
100
AcDbLine
 10
-29.83797480809864
 20
89.44755909769753
 30
0.0
 11
-30.45757161069861
 21
88.82796229519749
 31
0.0
  0
LINE
  5
3B24
330
3A07
100
AcDbEntity
  8
AM_0
  6
Continuous
 62
     7
100
AcDbLine
 10
-28.68958924969849
 20
87.06041075019744
 30
0.0
 11
-27.69134295102498
 21
88.05865704887111
 31
0.0
  0
LINE
  5
3B25
330
3A07
100
AcDbEntity
  8
AM_0
  6
Continuous
 62
     7
100
AcDbLine
 10
-18.17468245269316
 20
97.57531754730292
 30
0.0
 11
-18.13708393239864
 21
97.61291606759744
 31
0.0
  0
ARC
  5
3B26
330
3A07
100
AcDbEntity
  8
AM_0
  6
Continuous
 62
     7
100
AcDbCircle
 10
-63.74999999999857
 20
92.9999999999975
 30
0.0
 40
7.599999999999997
100
AcDbArc
 50
337.0804578484352
 51
21.56555484749724
  0
ARC
  5
3B27
330
3A07
100
AcDbEntity
  8
AM_0
  6
Continuous
 62
     7
100
AcDbCircle
 10
-63.74999999999857
 20
92.9999999999975
 30
0.0
 40
7.599999999999997
100
AcDbArc
 50
49.28244565769953
 51
126.2854606476008
  0
ARC
  5
3B28
330
3A07
100
AcDbEntity
  8
AM_0
  6
Continuous
 62
     7
100
AcDbCircle
 10
-49.61940242219856
 20
98.99999999999749
 30
0.0
 40
4.5
100
AcDbArc
 50
90.0
 51
124.9999999999974
  0
ARC
  5
3B29
330
3A07
100
AcDbEntity
  8
AM_0
  6
Continuous
 62
     7
100
AcDbCircle
 10
-22.74999999999847
 20
92.9999999999975
 30
0.0
 40
7.599999999999997
100
AcDbArc
 50
158.4344451525027
 51
202.9195421515678
  0
ARC
  5
3B2A
330
3A07
100
AcDbEntity
  8
AM_0
  6
Continuous
 62
     7
100
AcDbCircle
 10
-22.74999999999847
 20
92.9999999999975
 30
0.0
 40
7.599999999999997
100
AcDbArc
 50
53.71453935239918
 51
130.7175543423005
  0
ARC
  5
3B2B
330
3A07
100
AcDbEntity
  8
AM_0
  6
Continuous
 62
     7
100
AcDbCircle
 10
-36.88059757769844
 20
98.99999999999749
 30
0.0
 40
4.5
100
AcDbArc
 50
55.00000000000264
 51
90.0
  0
SPLINE
  5
3B2C
330
3A07
100
AcDbEntity
  8
AM_0
  6
Continuous
 62
     7
100
AcDbSpline
210
0.0
220
0.0
230
1.0
 70
     8
 71
     3
 72
     9
 73
     5
 74
     0
 42
0.000000001
 43
0.0000000001
 40
0.4460920083082771
 40
0.4460920083082771
 40
0.4460920083082771
 40
0.4460920083082771
 40
0.4755693948584121
 40
0.5942007094898952
 40
0.5942007094898952
 40
0.5942007094898952
 40
0.5942007094898952
 10
-56.74999999999812
 20
89.56648014792234
 30
0.0
 10
-56.74537784001626
 20
89.55778095107508
 30
0.0
 10
-56.72085697439371
 20
89.51475188909256
 30
0.0
 10
-56.68998686081096
 20
89.47552076670985
 30
0.0
 10
-56.66202519179859
 20
89.44755909769753
 30
0.0
  0
SPLINE
  5
3B2D
330
3A07
100
AcDbEntity
  8
AM_0
  6
Continuous
 62
     7
100
AcDbSpline
210
0.0
220
0.0
230
1.0
 70
  1064
 71
     3
 72
    13
 73
     9
 74
     7
 42
0.000000001
 43
0.0000000001
 44
0.0000000001
 12
-0.3675655219193922
 22
0.9299976274680085
 32
0.0
 13
0.8191520443102257
 23
0.5735764363207208
 33
0.0
 40
0.0
 40
0.0
 40
0.0
 40
0.0
 40
0.1666836388502991
 40
0.3333514514776148
 40
0.500012136330064
 40
0.6666728211796479
 40
0.8333406336680473
 40
1.000024272468999
 40
1.000024272468999
 40
1.000024272468999
 40
1.000024272468999
 10
-56.68201803129858
 20
95.79349796669736
 30
0.0
 10
-56.70244041753505
 20
95.8451697629202
 30
0.0
 10
-56.73185080615502
 20
95.95345243841808
 30
0.0
 10
-56.73893529494233
 20
96.12129457669334
 30
0.0
 10
-56.70879353871839
 20
96.28662807472643
 30
0.0
 10
-56.64285146983172
 20
96.44120923325363
 30
0.0
 10
-56.54446125826848
 20
96.57737288335347
 30
0.0
 10
-56.46025593255751
 20
96.65153198178536
 30
0.0
 10
-56.41474285139856
 20
96.68340058429748
 30
0.0
 11
-56.68201803129858
 21
95.79349796669736
 31
0.0
 11
-56.72567980289858
 21
95.9543615273975
 31
0.0
 11
-56.73273076639856
 21
96.12088012599748
 31
0.0
 11
-56.70282690499863
 21
96.28483604369751
 31
0.0
 11
-56.6374453315986
 21
96.43813651249741
 31
0.0
 11
-56.53981234469864
 21
96.57321411829741
 31
0.0
 11
-56.41474285139856
 21
96.68340058429748
 31
0.0
  0
SPLINE
  5
3B2E
330
3A07
100
AcDbEntity
  8
AM_0
  6
Continuous
 62
     7
100
AcDbSpline
210
0.0
220
0.0
230
1.0
 70
  1288
 71
     3
 72
    15
 73
    11
 74
     0
 42
0.000000001
 43
0.0000000001
 40
0.0
 40
0.0
 40
0.0
 40
0.0
 40
0.164878451565007
 40
0.3297554680617574
 40
0.494632374668027
 40
0.6595094993738356
 40
0.7851726189739418
 40
0.7851726189739418
 40
0.7851726189739418
 40
0.9527392059964682
 40
0.9527392059964682
 40
0.9527392059964682
 40
0.9527392059964682
 10
-58.79228705059865
 20
98.76030227609749
 30
0.0
 10
-58.75063136113334
 20
98.72445052020204
 30
0.0
 10
-58.6590837081655
 20
98.66173045562142
 30
0.0
 10
-58.50478493824079
 20
98.60008912149432
 30
0.0
 10
-58.34068222215222
 20
98.57360648647158
 30
0.0
 10
-58.18790894697105
 20
98.58284114786432
 30
0.0
 10
-58.09369457025724
 20
98.607346752352
 30
0.0
 10
-58.05417840459864
 20
98.6212410896975
 30
0.0
 10
-58.00148522753369
 20
98.63976861547701
 30
0.0
 10
-57.95098446252797
 20
98.6641555312549
 30
0.0
 10
-57.90240130266084
 20
98.69366739438124
 30
0.0
  0
SPLINE
  5
3B2F
330
3A07
100
AcDbEntity
  8
AM_0
  6
Continuous
 62
     7
100
AcDbSpline
210
0.0
220
0.0
230
1.0
 70
  1064
 71
     3
 72
    17
 73
    13
 74
    11
 42
0.000000001
 43
0.0000000001
 44
0.0000000001
 12
-0.8060784854329765
 22
-0.5918086475560142
 32
0.0
 13
0.7071067820291482
 23
-0.7071067803439473
 33
0.0
 40
0.0
 40
0.0
 40
0.0
 40
0.0
 40
0.1720903408219924
 40
0.3441778876394016
 40
0.5162641913937673
 40
0.6883502823667095
 40
0.8604366709845633
 40
1.032523399183768
 40
1.204610111998266
 40
1.376696157392458
 40
1.548780687782351
 40
1.720862782450117
 40
1.720862782450117
 40
1.720862782450117
 40
1.720862782450117
 10
-68.24774572339862
 20
99.12619648929752
 30
0.0
 10
-68.29398516382775
 20
99.09224830534441
 30
0.0
 10
-68.38078892636429
 20
99.0162094605845
 30
0.0
 10
-68.48936574470048
 20
98.88165070694038
 30
0.0
 10
-68.57329839047491
 20
98.73043163874241
 30
0.0
 10
-68.63004893487181
 20
98.56707082219976
 30
0.0
 10
-68.6579531908182
 20
98.39639645846103
 30
0.0
 10
-68.65618222255188
 20
98.22346504144253
 30
0.0
 10
-68.62479526683694
 20
98.05339979923935
 30
0.0
 10
-68.56471116903941
 20
97.89122312290647
 30
0.0
 10
-68.47775808656354
 20
97.74178231711523
 30
0.0
 10
-68.40347620623373
 20
97.6534762062359
 30
0.0
 10
-68.36291606749859
 20
97.61291606759744
 30
0.0
 11
-68.24774572339862
 21
99.12619648929752
 31
0.0
 11
-68.37718486079864
 21
99.01279192539744
 31
0.0
 11
-68.48525875669867
 21
98.87887345469744
 31
0.0
 11
-68.56876810229863
 21
98.7284078933975
 31
0.0
 11
-68.62524119249854
 21
98.5658520174975
 31
0.0
 11
-68.65300730739858
 21
98.39602043029742
 31
0.0
 11
-68.65124621749868
 21
98.22394271359748
 31
0.0
 11
-68.6200123112987
 21
98.05471422949745
 31
0.0
 11
-68.56023267189863
 21
97.89334508209742
 31
0.0
 11
-68.47367925219868
 21
97.74461179349749
 31
0.0
 11
-68.36291606749859
 21
97.61291606759744
 31
0.0
  0
SPLINE
  5
3B30
330
3A07
100
AcDbEntity
  8
AM_0
  6
Continuous
 62
     7
100
AcDbSpline
210
0.0
220
0.0
230
1.0
 70
  1064
 71
     3
 72
    11
 73
     7
 74
     5
 42
0.000000001
 43
0.0000000001
 44
0.0000000001
 12
0.8191520442987563
 22
0.5735764363371008
 32
0.0
 13
1.0
 23
0.0
 33
0.0
 40
0.0
 40
0.0
 40
0.0
 40
0.0
 40
0.3051577876535499
 40
0.6101789646522886
 40
0.9152001415153719
 40
1.220357929193176
 40
1.220357929193176
 40
1.220357929193176
 40
1.220357929193176
 10
-50.76647662099862
 20
100.6383591765974
 30
0.0
 10
-50.68315307913525
 20
100.6967029487183
 30
0.0
 10
-50.50733102632495
 20
100.8007987156427
 30
0.0
 10
-50.2231573425571
 20
100.9148659673182
 30
0.0
 10
-49.92494960084406
 20
100.984422873789
 30
0.0
 10
-49.72121772785783
 20
100.9999999999975
 30
0.0
 10
-49.61949846529859
 20
100.9999999999975
 30
0.0
 11
-50.76647662099862
 21
100.6383591765974
 31
0.0
 11
-50.5038798326986
 21
100.7938075671974
 31
0.0
 11
-50.22081868199865
 21
100.9074486837975
 31
0.0
 11
-49.9237666951986
 21
100.9767165368975
 31
0.0
 11
-49.61949846529859
 21
100.9999999999975
 31
0.0
  0
SPLINE
  5
3B31
330
3A07
100
AcDbEntity
  8
AM_0
  6
Continuous
 62
     7
100
AcDbSpline
210
0.0
220
0.0
230
1.0
 70
  1064
 71
     3
 72
    15
 73
    11
 74
     9
 42
0.000000001
 43
0.0000000001
 44
0.0000000001
 12
0.7071067811865476
 22
0.7071067811865476
 32
0.0
 13
-0.7071067811865476
 23
0.7071067811865476
 33
0.0
 40
0.0
 40
0.0
 40
0.0
 40
0.0
 40
0.1956881976666487
 40
0.3926023735948202
 40
0.5875542899002531
 40
0.7840283985089114
 40
0.9805025071175696
 40
1.175454423518739
 40
1.372368599358775
 40
1.568056797025424
 40
1.568056797025424
 40
1.568056797025424
 40
1.568056797025424
 10
-56.04242838919862
 20
87.41396412439746
 30
0.0
 10
-55.99630423867586
 20
87.46008827492023
 30
0.0
 10
-55.91262302986945
 20
87.56199017979151
 30
0.0
 10
-55.81975529698713
 20
87.73580781844964
 30
0.0
 10
-55.76245660645582
 20
87.92468200949924
 30
0.0
 10
-55.74307709457906
 20
88.12096320979902
 30
0.0
 10
-55.76245660647453
 20
88.31724441012113
 30
0.0
 10
-55.81975529693835
 20
88.50611860120011
 30
0.0
 10
-55.91262302990509
 20
88.67993623981801
 30
0.0
 10
-55.99630423867586
 20
88.78183814467474
 30
0.0
 10
-56.04242838919862
 20
88.82796229519749
 30
0.0
 11
-56.04242838919862
 21
87.41396412439746
 31
0.0
 11
-55.91825742889859
 21
87.56521042459747
 31
0.0
 11
-55.82544822399865
 21
87.73888150499749
 31
0.0
 11
-55.76886046159865
 21
87.92544000739747
 31
0.0
 11
-55.74955365769864
 21
88.12096320979742
 31
0.0
 11
-55.76886046159865
 21
88.31648641219738
 31
0.0
 11
-55.82544822399865
 21
88.5030449146974
 31
0.0
 11
-55.91825742889859
 21
88.67671599499749
 31
0.0
 11
-56.04242838919862
 21
88.82796229519749
 31
0.0
  0
SPLINE
  5
3B32
330
3A07
100
AcDbEntity
  8
AM_0
  6
Continuous
 62
     7
100
AcDbSpline
210
0.0
220
0.0
230
1.0
 70
  1064
 71
     3
 72
    16
 73
    12
 74
    10
 42
0.000000001
 43
0.0000000001
 44
0.0000000001
 12
-0.7071067811865476
 22
-0.7071067811865476
 32
0.0
 13
-0.7071067811865476
 23
0.7071067811865476
 33
0.0
 40
0.0
 40
0.0
 40
0.0
 40
0.0
 40
0.1742672768756431
 40
0.348581024759323
 40
0.5228745030516894
 40
0.6971564306391026
 40
0.8714351232655507
 40
1.04571833512984
 40
1.220013137428965
 40
1.394325453130065
 40
1.568504623260827
 40
1.568504623260827
 40
1.568504623260827
 40
1.568504623260827
 10
-56.39619717139857
 20
87.06019534219739
 30
0.0
 10
-56.4372723624711
 20
87.01912015112487
 30
0.0
 10
-56.52682000766941
 20
86.94398624214381
 30
0.0
 10
-56.67850297814533
 20
86.85643569811389
 30
0.0
 10
-56.84313613858347
 20
86.79652711315213
 30
0.0
 10
-57.01564724502595
 20
86.76612840955874
 30
0.0
 10
-57.19081676427038
 20
86.76614476402084
 30
0.0
 10
-57.36332281642529
 20
86.7965737917982
 30
0.0
 10
-57.52794958884965
 20
86.85650168890067
 30
0.0
 10
-57.6795963478126
 20
86.94405036148088
 30
0.0
 10
-57.76914091808499
 20
87.01914091808379
 30
0.0
 10
-57.8101953421986
 20
87.06019534219739
 30
0.0
 11
-56.39619717139857
 21
87.06019534219739
 31
0.0
 11
-56.52970073859859
 21
86.94818694369747
 31
0.0
 11
-56.68066685529862
 21
86.8610404330974
 31
0.0
 11
-56.84445471569865
 21
86.80144384459742
 31
0.0
 11
-57.0160919514986
 21
86.77119736429744
 31
0.0
 11
-57.19037064339858
 21
86.7712132769974
 31
0.0
 11
-57.36200407629866
 21
86.80148872329743
 31
0.0
 11
-57.52578590219861
 21
86.86110576459748
 31
0.0
 11
-57.67674681879856
 21
86.94825841839747
 31
0.0
 11
-57.8101953421986
 21
87.06019534219739
 31
0.0
  0
SPLINE
  5
3B33
330
3A07
100
AcDbEntity
  8
AM_0
  6
Continuous
 62
     7
100
AcDbSpline
210
0.0
220
0.0
230
1.0
 70
     8
 71
     3
 72
     9
 73
     5
 74
     0
 42
0.000000001
 43
0.0000000001
 40
0.4460920083292827
 40
0.4460920083292827
 40
0.4460920083292827
 40
0.4460920083292827
 40
0.4755693949055883
 40
0.5942007094753623
 40
0.5942007094753623
 40
0.5942007094753623
 40
0.5942007094753623
 10
-29.74999999999858
 20
89.5664801479524
 30
0.0
 10
-29.75462215998124
 20
89.55778095109593
 30
0.0
 10
-29.77914302557662
 20
89.51475188911189
 30
0.0
 10
-29.81001313910082
 20
89.47552076669529
 30
0.0
 10
-29.83797480809864
 20
89.44755909769753
 30
0.0
  0
SPLINE
  5
3B34
330
3A07
100
AcDbEntity
  8
AM_0
  6
Continuous
 62
     7
100
AcDbSpline
210
0.0
220
0.0
230
1.0
 70
  1064
 71
     3
 72
    13
 73
     9
 74
     7
 42
0.000000001
 43
0.0000000001
 44
0.0000000001
 12
0.3675655219193922
 22
0.9299976274680085
 32
0.0
 13
-0.8191520443102257
 23
0.5735764363207208
 33
0.0
 40
0.0
 40
0.0
 40
0.0
 40
0.0
 40
0.1666836388502991
 40
0.3333514514818568
 40
0.5000121363343672
 40
0.6666728211839064
 40
0.8333406337309112
 40
1.000024272456795
 40
1.000024272456795
 40
1.000024272456795
 40
1.000024272456795
 10
-29.81798196869869
 20
95.79349796669736
 30
0.0
 10
-29.79755958246221
 20
95.8451697629202
 30
0.0
 10
-29.76814919388187
 20
95.95345243842064
 30
0.0
 10
-29.76106470491499
 20
96.12129457669205
 30
0.0
 10
-29.79120646119674
 20
96.28662807472075
 30
0.0
 10
-29.85714853004191
 20
96.44120923329438
 30
0.0
 10
-29.95553874174635
 20
96.57737288327837
 30
0.0
 10
-30.03974406736023
 20
96.65153198179968
 30
0.0
 10
-30.08525714849867
 20
96.68340058429748
 30
0.0
 11
-29.81798196869869
 21
95.79349796669736
 31
0.0
 11
-29.77432019709869
 21
95.9543615273975
 31
0.0
 11
-29.76726923349844
 21
96.12088012599748
 31
0.0
 11
-29.79717309489871
 21
96.28483604369751
 31
0.0
 11
-29.86255466829863
 21
96.43813651249741
 31
0.0
 11
-29.96018765529863
 21
96.57321411829741
 31
0.0
 11
-30.08525714849867
 21
96.68340058429748
 31
0.0
  0
SPLINE
  5
3B35
330
3A07
100
AcDbEntity
  8
AM_0
  6
Continuous
 62
     7
100
AcDbSpline
210
0.0
220
0.0
230
1.0
 70
  1288
 71
     3
 72
    15
 73
    11
 74
     0
 42
0.000000001
 43
0.0000000001
 40
0.0
 40
0.0
 40
0.0
 40
0.0
 40
0.1648784516474786
 40
0.3297554680514081
 40
0.4946323746576777
 40
0.6595094993634297
 40
0.7851726150555348
 40
0.7851726150555348
 40
0.7851726150555348
 40
0.9527392045991955
 40
0.9527392045991955
 40
0.9527392045991955
 40
0.9527392045991955
 10
-27.70771294929847
 20
98.76030227609749
 30
0.0
 10
-27.74936863878548
 20
98.72445052018486
 30
0.0
 10
-27.84091629179949
 20
98.66173045568338
 30
0.0
 10
-27.99521506167804
 20
98.60008912146827
 30
0.0
 10
-28.15931777774569
 20
98.57360648647773
 30
0.0
 10
-28.31209105162117
 20
98.58284114778236
 30
0.0
 10
-28.40630542709488
 20
98.60734675169522
 30
0.0
 10
-28.44582159159865
 20
98.62124108839749
 30
0.0
 10
-28.49851476955547
 20
98.63976861417416
 30
0.0
 10
-28.54901553542987
 20
98.66415553012098
 30
0.0
 10
-28.59759869615078
 20
98.69366739355292
 30
0.0
  0
SPLINE
  5
3B36
330
3A07
100
AcDbEntity
  8
AM_0
  6
Continuous
 62
     7
100
AcDbSpline
210
0.0
220
0.0
230
1.0
 70
  1064
 71
     3
 72
    17
 73
    13
 74
    11
 42
0.000000001
 43
0.0000000001
 44
0.0000000001
 12
0.8060784854329765
 22
-0.5918086475560142
 32
0.0
 13
-0.7071067820291482
 23
-0.7071067803439473
 33
0.0
 40
0.0
 40
0.0
 40
0.0
 40
0.0
 40
0.1720903408219069
 40
0.3441778875764151
 40
0.516264191330836
 40
0.6883502823366094
 40
0.8604366709383576
 40
1.032523399136543
 40
1.204610111969158
 40
1.376696157328557
 40
1.548780687718507
 40
1.720862782386273
 40
1.720862782386273
 40
1.720862782386273
 40
1.720862782386273
 10
-18.25225427649849
 20
99.12619648929752
 30
0.0
 10
-18.20601483606935
 20
99.09224830534441
 30
0.0
 10
-18.11921107352765
 20
99.01620946061724
 30
0.0
 10
-18.01063425529605
 20
98.88165070690797
 30
0.0
 10
-17.92670160955737
 20
98.73043163872466
 30
0.0
 10
-17.86995106494976
 20
98.56707082223067
 30
0.0
 10
-17.84204680927053
 20
98.39639645845052
 30
0.0
 10
-17.84381777725417
 20
98.22346504142831
 30
0.0
 10
-17.87520473323622
 20
98.05339979927442
 30
0.0
 10
-17.93528883081757
 20
97.89122312288231
 30
0.0
 10
-18.02224191334676
 20
97.74178231711932
 30
0.0
 10
-18.09652379366349
 20
97.6534762062359
 30
0.0
 10
-18.13708393239864
 20
97.61291606759744
 30
0.0
 11
-18.25225427649849
 21
99.12619648929752
 31
0.0
 11
-18.12281513909858
 21
99.01279192539744
 31
0.0
 11
-18.01474124329871
 21
98.87887345469744
 31
0.0
 11
-17.93123189769864
 21
98.7284078933975
 31
0.0
 11
-17.87475880739868
 21
98.5658520174975
 31
0.0
 11
-17.84699269259846
 21
98.39602043029742
 31
0.0
 11
-17.84875378239877
 21
98.22394271359748
 31
0.0
 11
-17.87998768869857
 21
98.05471422949745
 31
0.0
 11
-17.93976732799848
 21
97.89334508209742
 31
0.0
 11
-18.02632074769855
 21
97.74461179349749
 31
0.0
 11
-18.13708393239864
 21
97.61291606759744
 31
0.0
  0
SPLINE
  5
3B37
330
3A07
100
AcDbEntity
  8
AM_0
  6
Continuous
 62
     7
100
AcDbSpline
210
0.0
220
0.0
230
1.0
 70
  1064
 71
     3
 72
    11
 73
     7
 74
     5
 42
0.000000001
 43
0.0000000001
 44
0.0000000001
 12
-0.8191520442987563
 22
0.5735764363371008
 32
0.0
 13
-1.0
 23
0.0
 33
0.0
 40
0.0
 40
0.0
 40
0.0
 40
0.0
 40
0.3051577876535499
 40
0.6101789646522886
 40
0.9152001416126918
 40
1.220357929290609
 40
1.220357929290609
 40
1.220357929290609
 40
1.220357929290609
 10
-35.73352337889861
 20
100.6383591765974
 30
0.0
 10
-35.81684692076198
 20
100.6967029487183
 30
0.0
 10
-35.99266897357273
 20
100.8007987156408
 30
0.0
 10
-36.27684265736878
 20
100.9148659673371
 30
0.0
 10
-36.57505039912309
 20
100.9844228737762
 30
0.0
 10
-36.77878227213938
 20
100.9999999999975
 30
0.0
 10
-36.88050153469868
 20
100.9999999999975
 30
0.0
 11
-35.73352337889861
 21
100.6383591765974
 31
0.0
 11
-35.99612016719863
 21
100.7938075671974
 31
0.0
 11
-36.27918131789858
 21
100.9074486837975
 31
0.0
 11
-36.57623330479856
 21
100.9767165368975
 31
0.0
 11
-36.88050153469868
 21
100.9999999999975
 31
0.0
  0
SPLINE
  5
3B38
330
3A07
100
AcDbEntity
  8
AM_0
  6
Continuous
 62
     7
100
AcDbSpline
210
0.0
220
0.0
230
1.0
 70
  1064
 71
     3
 72
    15
 73
    11
 74
     9
 42
0.000000001
 43
0.0000000001
 44
0.0000000001
 12
-0.7071067811865476
 22
0.7071067811865476
 32
0.0
 13
0.7071067811865476
 23
0.7071067811865476
 33
0.0
 40
0.0
 40
0.0
 40
0.0
 40
0.0
 40
0.1956881976666487
 40
0.3926023736419194
 40
0.5875542899184119
 40
0.7840283985270478
 40
0.9805025071356837
 40
1.175454423507913
 40
1.372368599395048
 40
1.568056797061697
 40
1.568056797061697
 40
1.568056797061697
 40
1.568056797061697
 10
-30.45757161069861
 20
87.41396412439746
 30
0.0
 10
-30.50369576122136
 20
87.46008827492023
 30
0.0
 10
-30.58737696999657
 20
87.56199017982339
 30
0.0
 10
-30.68024470306387
 20
87.73580781840086
 30
0.0
 10
-30.73754339339928
 20
87.92468200952198
 30
0.0
 10
-30.75692290533982
 20
88.12096320979907
 30
0.0
 10
-30.73754339338047
 20
88.31724441009829
 30
0.0
 10
-30.68024470311275
 20
88.50611860124905
 30
0.0
 10
-30.58737696996093
 20
88.679936239786
 30
0.0
 10
-30.50369576122136
 20
88.78183814467474
 30
0.0
 10
-30.45757161069861
 20
88.82796229519749
 30
0.0
 11
-30.45757161069861
 21
87.41396412439746
 31
0.0
 11
-30.58174257099864
 21
87.56521042459747
 31
0.0
 11
-30.67455177599851
 21
87.73888150499749
 31
0.0
 11
-30.73113953829881
 21
87.92544000739747
 31
0.0
 11
-30.75044634219859
 21
88.12096320979742
 31
0.0
 11
-30.73113953829881
 21
88.31648641219738
 31
0.0
 11
-30.67455177599851
 21
88.5030449146974
 31
0.0
 11
-30.58174257099864
 21
88.67671599499749
 31
0.0
 11
-30.45757161069861
 21
88.82796229519749
 31
0.0
  0
SPLINE
  5
3B39
330
3A07
100
AcDbEntity
  8
AM_0
  6
Continuous
 62
     7
100
AcDbSpline
210
0.0
220
0.0
230
1.0
 70
  1064
 71
     3
 72
    16
 73
    12
 74
    10
 42
0.000000001
 43
0.0000000001
 44
0.0000000001
 12
0.7071067811865476
 22
-0.7071067811865476
 32
0.0
 13
0.7071067811865476
 23
0.7071067811865476
 33
0.0
 40
0.0
 40
0.0
 40
0.0
 40
0.0
 40
0.1742672768756431
 40
0.3485810247594214
 40
0.5228745030514674
 40
0.6971564306389924
 40
0.8714351232655543
 40
1.045718335129843
 40
1.220013137335066
 40
1.394325453122906
 40
1.568504623253407
 40
1.568504623253407
 40
1.568504623253407
 40
1.568504623253407
 10
-30.10380282849866
 20
87.06019534219739
 30
0.0
 10
-30.06272763742612
 20
87.01912015112487
 30
0.0
 10
-29.97317999222787
 20
86.9439862421437
 30
0.0
 10
-29.82149702175184
 20
86.85643569811389
 30
0.0
 10
-29.65686386131404
 20
86.79652711315242
 30
0.0
 10
-29.48435275487083
 20
86.76612840955744
 30
0.0
 10
-29.30918323562884
 20
86.76614476402562
 30
0.0
 10
-29.13667718349541
 20
86.79657379177479
 30
0.0
 10
-28.97205041110664
 20
86.85650168895405
 30
0.0
 10
-28.82040365209679
 20
86.94405036144377
 30
0.0
 10
-28.7308590818123
 20
87.01914091808385
 30
0.0
 10
-28.68980465769875
 20
87.06019534219739
 30
0.0
 11
-30.10380282849866
 21
87.06019534219739
 31
0.0
 11
-29.97029926129864
 21
86.94818694369747
 31
0.0
 11
-29.81933314459849
 21
86.8610404330974
 31
0.0
 11
-29.65554528419881
 21
86.80144384459742
 31
0.0
 11
-29.48390804839874
 21
86.77119736429744
 31
0.0
 11
-29.30962935649865
 21
86.7712132769974
 31
0.0
 11
-29.13799592359857
 21
86.80148872329743
 31
0.0
 11
-28.97421409779855
 21
86.86110576459748
 31
0.0
 11
-28.82325318109844
 21
86.94825841839747
 31
0.0
 11
-28.68980465769875
 21
87.06019534219739
 31
0.0
  0
LWPOLYLINE
  5
3B3A
330
3A07
100
AcDbEntity
  8
AM_0
100
AcDbPolyline
 90
        6
 70
     1
 43
0.0
 10
-69.48538290724633
 20
89.39999999999747
 10
-63.24999999999835
 20
85.79999999999746
 10
-57.01461709275037
 20
89.39999999999747
 10
-57.01461709275037
 20
96.59999999999753
 10
-63.24999999999835
 20
100.1999999999975
 10
-69.48538290724633
 20
96.59999999999753
  0
ARC
  5
3B3B
330
3A07
100
AcDbEntity
  8
AM_0
100
AcDbCircle
 10
-63.24999999999846
 20
92.9999999999975
 30
0.0
 40
10.0
100
AcDbArc
 50
44.18787401301041
 51
29.81753846327291
  0
ARC
  5
3B3C
330
3A07
100
AcDbEntity
  8
AM_0
100
AcDbCircle
 10
-63.24999999999846
 20
92.9999999999975
 30
0.0
 40
9.0
100
AcDbArc
 50
45.21914724287467
 51
317.0819971510528
  0
ARC
  5
3B3D
330
3A07
100
AcDbEntity
  8
AM_0
100
AcDbCircle
 10
-63.24999999999846
 20
92.9999999999975
 30
0.0
 40
9.0
100
AcDbArc
 50
326.3862096907355
 51
29.2398599711737
  0
INSERT
  5
3B3E
330
3A07
100
AcDbEntity
  8
AM_0
100
AcDbBlockReference
  2
Logga
 10
-41.74999999999847
 20
92.9999999999975
 30
0.0
 41
0.3
 42
0.3
 43
0.3
  0
LWPOLYLINE
  5
3B3F
330
3A07
100
AcDbEntity
  8
AM_0
100
AcDbPolyline
 90
        6
 70
     1
 43
0.0
 10
-29.48538290724645
 20
89.39999999999747
 10
-23.24999999999846
 20
85.79999999999746
 10
-17.01461709275048
 20
89.39999999999747
 10
-17.01461709275048
 20
96.59999999999753
 10
-23.24999999999846
 20
100.1999999999975
 10
-29.48538290724645
 20
96.59999999999753
  0
ARC
  5
3B40
330
3A07
100
AcDbEntity
  8
AM_0
100
AcDbCircle
 10
-23.24999999999846
 20
92.9999999999975
 30
0.0
 40
9.0
100
AcDbArc
 50
222.9180028481545
 51
134.7808527570516
  0
ARC
  5
3B41
330
3A07
100
AcDbEntity
  8
AM_0
100
AcDbCircle
 10
-23.24999999999846
 20
92.9999999999975
 30
0.0
 40
9.0
100
AcDbArc
 50
150.7601400284587
 51
213.6137903107513
  0
ARC
  5
3B42
330
3A07
100
AcDbEntity
  8
AM_0
100
AcDbCircle
 10
-23.24999999999846
 20
92.9999999999975
 30
0.0
 40
10.0
100
AcDbArc
 50
150.1824615363974
 51
135.8121259868767
  0
LINE
  5
3B43
330
3A07
100
AcDbEntity
  8
AM_0
100
AcDbLine
 10
23.25000000000347
 20
86.64914703891145
 30
0.0
 11
17.75000000000346
 21
89.82457351945482
 31
0.0
1001
AcDbBlockRepETag
1070
     1
1071
        1
1005
3797
  0
LINE
  5
3B44
330
3A07
100
AcDbEntity
  8
AM_0
100
AcDbLine
 10
17.75000000000346
 20
89.82457351945482
 30
0.0
 11
16.75000000000347
 21
89.24722325026527
 31
0.0
1001
AcDbBlockRepETag
1070
     1
1071
        2
1005
3798
  0
LINE
  5
3B45
330
3A07
100
AcDbEntity
  8
AM_0
100
AcDbLine
 10
16.75000000000347
 20
89.24722325026527
 30
0.0
 11
23.25000000000347
 21
85.49444650053215
 31
0.0
1001
AcDbBlockRepETag
1070
     1
1071
        3
1005
3799
  0
LINE
  5
3B46
330
3A07
100
AcDbEntity
  8
AM_0
100
AcDbLine
 10
23.25000000000347
 20
86.64914703891133
 30
0.0
 11
23.25000000000347
 21
85.49444650053215
 31
0.0
1001
AcDbBlockRepETag
1070
     1
1071
        4
1005
379A
  0
LINE
  5
3B47
330
3A07
100
AcDbEntity
  8
AM_0
100
AcDbLine
 10
17.75000000000346
 20
89.82457351945482
 30
0.0
 11
17.75000000000346
 21
96.17542648054053
 31
0.0
1001
AcDbBlockRepETag
1070
     1
1071
        5
1005
379B
  0
LINE
  5
3B48
330
3A07
100
AcDbEntity
  8
AM_0
100
AcDbLine
 10
17.75000000000346
 20
96.17542648054053
 30
0.0
 11
16.75000000000347
 21
96.75277674973017
 31
0.0
1001
AcDbBlockRepETag
1070
     1
1071
        6
1005
379C
  0
LINE
  5
3B49
330
3A07
100
AcDbEntity
  8
AM_0
100
AcDbLine
 10
16.75000000000347
 20
96.75277674973017
 30
0.0
 11
16.75000000000347
 21
89.24722325026527
 31
0.0
1001
AcDbBlockRepETag
1070
     1
1071
        7
1005
379D
  0
LINE
  5
3B4A
330
3A07
100
AcDbEntity
  8
AM_0
100
AcDbLine
 10
17.75000000000346
 20
96.17542648054053
 30
0.0
 11
23.25000000000347
 21
99.35085296108354
 31
0.0
1001
AcDbBlockRepETag
1070
     1
1071
        8
1005
379E
  0
LINE
  5
3B4B
330
3A07
100
AcDbEntity
  8
AM_0
100
AcDbLine
 10
23.25000000000347
 20
99.35085296108354
 30
0.0
 11
23.25000000000347
 21
100.5055534994628
 31
0.0
1001
AcDbBlockRepETag
1070
     1
1071
        9
1005
379F
  0
LINE
  5
3B4C
330
3A07
100
AcDbEntity
  8
AM_0
100
AcDbLine
 10
23.25000000000347
 20
100.5055534994628
 30
0.0
 11
16.75000000000347
 21
96.75277674973017
 31
0.0
1001
AcDbBlockRepETag
1070
     1
1071
       10
1005
37A0
  0
LINE
  5
3B4D
330
3A07
100
AcDbEntity
  8
AM_0
100
AcDbLine
 10
23.25000000000347
 20
99.35085296108354
 30
0.0
 11
28.75000000000369
 21
96.17542648054007
 31
0.0
1001
AcDbBlockRepETag
1070
     1
1071
       11
1005
37A1
  0
LINE
  5
3B4E
330
3A07
100
AcDbEntity
  8
AM_0
100
AcDbLine
 10
28.75000000000369
 20
96.17542648053996
 30
0.0
 11
29.7500000000037
 21
96.7527767497296
 31
0.0
1001
AcDbBlockRepETag
1070
     1
1071
       12
1005
37A2
  0
LINE
  5
3B4F
330
3A07
100
AcDbEntity
  8
AM_0
100
AcDbLine
 10
29.7500000000037
 20
96.7527767497296
 30
0.0
 11
23.25000000000347
 21
100.5055534994628
 31
0.0
1001
AcDbBlockRepETag
1070
     1
1071
       13
1005
37A3
  0
LINE
  5
3B50
330
3A07
100
AcDbEntity
  8
AM_0
100
AcDbLine
 10
28.75000000000369
 20
96.17542648053996
 30
0.0
 11
28.75000000000369
 21
89.82457351945447
 31
0.0
1001
AcDbBlockRepETag
1070
     1
1071
       14
1005
37A4
  0
LINE
  5
3B51
330
3A07
100
AcDbEntity
  8
AM_0
100
AcDbLine
 10
28.75000000000369
 20
89.82457351945447
 30
0.0
 11
29.7500000000037
 21
89.24722325026493
 31
0.0
1001
AcDbBlockRepETag
1070
     1
1071
       15
1005
37A5
  0
LINE
  5
3B52
330
3A07
100
AcDbEntity
  8
AM_0
100
AcDbLine
 10
29.7500000000037
 20
89.24722325026483
 30
0.0
 11
29.7500000000037
 21
96.7527767497296
 31
0.0
1001
AcDbBlockRepETag
1070
     1
1071
       16
1005
37A6
  0
LINE
  5
3B53
330
3A07
100
AcDbEntity
  8
AM_0
100
AcDbLine
 10
28.75000000000369
 20
89.82457351945447
 30
0.0
 11
23.25000000000347
 21
86.64914703891133
 31
0.0
1001
AcDbBlockRepETag
1070
     1
1071
       17
1005
37A7
  0
LINE
  5
3B54
330
3A07
100
AcDbEntity
  8
AM_0
100
AcDbLine
 10
23.25000000000347
 20
85.49444650053215
 30
0.0
 11
29.7500000000037
 21
89.24722325026493
 31
0.0
1001
AcDbBlockRepETag
1070
     1
1071
       18
1005
37A8
  0
LINE
  5
3B55
330
3A07
100
AcDbEntity
  8
AM_0
100
AcDbLine
 10
63.25000000000347
 20
86.64914703891145
 30
0.0
 11
57.75000000000346
 21
89.82457351945482
 31
0.0
1001
AcDbBlockRepETag
1070
     1
1071
       20
1005
37A9
  0
LINE
  5
3B56
330
3A07
100
AcDbEntity
  8
AM_0
100
AcDbLine
 10
57.75000000000346
 20
89.82457351945482
 30
0.0
 11
56.75000000000347
 21
89.24722325026527
 31
0.0
1001
AcDbBlockRepETag
1070
     1
1071
       21
1005
37AA
  0
LINE
  5
3B57
330
3A07
100
AcDbEntity
  8
AM_0
100
AcDbLine
 10
56.75000000000347
 20
89.24722325026527
 30
0.0
 11
63.25000000000347
 21
85.49444650053215
 31
0.0
1001
AcDbBlockRepETag
1070
     1
1071
       22
1005
37AB
  0
LINE
  5
3B58
330
3A07
100
AcDbEntity
  8
AM_0
100
AcDbLine
 10
63.25000000000347
 20
86.64914703891133
 30
0.0
 11
63.25000000000347
 21
85.49444650053215
 31
0.0
1001
AcDbBlockRepETag
1070
     1
1071
       23
1005
37AC
  0
LINE
  5
3B59
330
3A07
100
AcDbEntity
  8
AM_0
100
AcDbLine
 10
57.75000000000346
 20
89.82457351945482
 30
0.0
 11
57.75000000000346
 21
96.17542648054053
 31
0.0
1001
AcDbBlockRepETag
1070
     1
1071
       24
1005
37AD
  0
LINE
  5
3B5A
330
3A07
100
AcDbEntity
  8
AM_0
100
AcDbLine
 10
57.75000000000346
 20
96.17542648054053
 30
0.0
 11
56.75000000000347
 21
96.75277674973017
 31
0.0
1001
AcDbBlockRepETag
1070
     1
1071
       25
1005
37AE
  0
LINE
  5
3B5B
330
3A07
100
AcDbEntity
  8
AM_0
100
AcDbLine
 10
56.75000000000347
 20
96.75277674973017
 30
0.0
 11
56.75000000000347
 21
89.24722325026527
 31
0.0
1001
AcDbBlockRepETag
1070
     1
1071
       26
1005
37AF
  0
LINE
  5
3B5C
330
3A07
100
AcDbEntity
  8
AM_0
100
AcDbLine
 10
57.75000000000346
 20
96.17542648054053
 30
0.0
 11
63.25000000000347
 21
99.35085296108354
 31
0.0
1001
AcDbBlockRepETag
1070
     1
1071
       27
1005
37B0
  0
LINE
  5
3B5D
330
3A07
100
AcDbEntity
  8
AM_0
100
AcDbLine
 10
63.25000000000347
 20
99.35085296108354
 30
0.0
 11
63.25000000000347
 21
100.5055534994628
 31
0.0
1001
AcDbBlockRepETag
1070
     1
1071
       28
1005
37B1
  0
LINE
  5
3B5E
330
3A07
100
AcDbEntity
  8
AM_0
100
AcDbLine
 10
63.25000000000347
 20
100.5055534994628
 30
0.0
 11
56.75000000000347
 21
96.75277674973017
 31
0.0
1001
AcDbBlockRepETag
1070
     1
1071
       29
1005
37B2
  0
LINE
  5
3B5F
330
3A07
100
AcDbEntity
  8
AM_0
100
AcDbLine
 10
63.25000000000347
 20
99.35085296108354
 30
0.0
 11
68.75000000000369
 21
96.17542648054007
 31
0.0
1001
AcDbBlockRepETag
1070
     1
1071
       30
1005
37B3
  0
LINE
  5
3B60
330
3A07
100
AcDbEntity
  8
AM_0
100
AcDbLine
 10
68.75000000000369
 20
96.17542648053996
 30
0.0
 11
69.7500000000037
 21
96.7527767497296
 31
0.0
1001
AcDbBlockRepETag
1070
     1
1071
       31
1005
37B4
  0
LINE
  5
3B61
330
3A07
100
AcDbEntity
  8
AM_0
100
AcDbLine
 10
69.7500000000037
 20
96.7527767497296
 30
0.0
 11
63.25000000000347
 21
100.5055534994628
 31
0.0
1001
AcDbBlockRepETag
1070
     1
1071
       32
1005
37B5
  0
LINE
  5
3B62
330
3A07
100
AcDbEntity
  8
AM_0
100
AcDbLine
 10
68.75000000000369
 20
96.17542648053996
 30
0.0
 11
68.75000000000369
 21
89.82457351945447
 31
0.0
1001
AcDbBlockRepETag
1070
     1
1071
       33
1005
37B6
  0
LINE
  5
3B63
330
3A07
100
AcDbEntity
  8
AM_0
100
AcDbLine
 10
68.75000000000369
 20
89.82457351945447
 30
0.0
 11
69.7500000000037
 21
89.24722325026493
 31
0.0
1001
AcDbBlockRepETag
1070
     1
1071
       34
1005
37B7
  0
LINE
  5
3B64
330
3A07
100
AcDbEntity
  8
AM_0
100
AcDbLine
 10
69.7500000000037
 20
89.24722325026483
 30
0.0
 11
69.7500000000037
 21
96.7527767497296
 31
0.0
1001
AcDbBlockRepETag
1070
     1
1071
       35
1005
37B8
  0
LINE
  5
3B65
330
3A07
100
AcDbEntity
  8
AM_0
100
AcDbLine
 10
68.75000000000369
 20
89.82457351945447
 30
0.0
 11
63.25000000000347
 21
86.64914703891133
 31
0.0
1001
AcDbBlockRepETag
1070
     1
1071
       36
1005
37B9
  0
LINE
  5
3B66
330
3A07
100
AcDbEntity
  8
AM_0
100
AcDbLine
 10
63.25000000000347
 20
85.49444650053215
 30
0.0
 11
69.7500000000037
 21
89.24722325026493
 31
0.0
1001
AcDbBlockRepETag
1070
     1
1071
       37
1005
37BA
  0
LINE
  5
3B67
330
3A07
100
AcDbEntity
  8
AM_0
  6
Continuous
 62
     7
100
AcDbLine
 10
28.68958924980331
 20
87.06041075019744
 30
0.0
 11
27.6913429510933
 21
88.05865704890738
 31
0.0
  0
LINE
  5
3B68
330
3A07
100
AcDbEntity
  8
AM_0
  6
Continuous
 62
     7
100
AcDbLine
 10
18.17468245276115
 20
97.57531754733959
 30
0.0
 11
18.13708393250334
 21
97.61291606759744
 31
0.0
  0
LINE
  5
3B69
330
3A07
100
AcDbEntity
  8
AM_0
  6
Continuous
 62
     7
100
AcDbLine
 10
29.83797480820334
 20
89.44755909769753
 30
0.0
 11
30.45757161080331
 21
88.82796229519749
 31
0.0
  0
LINE
  5
3B6A
330
3A07
100
AcDbEntity
  8
AM_0
  6
Continuous
 62
     7
100
AcDbLine
 10
28.59759869733199
 20
98.69366739437579
 30
0.0
 11
34.29950361420328
 21
102.6861841992975
 31
0.0
  0
LINE
  5
3B6B
330
3A07
100
AcDbEntity
  8
AM_0
  6
Continuous
 62
     7
100
AcDbLine
 10
35.73352337900332
 20
100.6383591765974
 30
0.0
 11
30.08525714860338
 21
96.68340058429748
 31
0.0
  0
LINE
  5
3B6C
330
3A07
100
AcDbEntity
  8
AM_0
  6
Continuous
 62
     7
100
AcDbLine
 10
30.45757161080331
 20
87.41396412439746
 30
0.0
 11
30.10380282860336
 21
87.06019534219739
 31
0.0
  0
LINE
  5
3B6D
330
3A07
100
AcDbEntity
  8
AM_0
  6
Continuous
 62
     7
100
AcDbLine
 10
36.88050153470334
 20
100.9999999999975
 30
0.0
 11
49.61949846530325
 21
100.9999999999975
 31
0.0
  0
LINE
  5
3B6E
330
3A07
100
AcDbEntity
  8
AM_0
  6
Continuous
 62
     7
100
AcDbLine
 10
36.88059757780337
 20
103.4999999999975
 30
0.0
 11
49.61940242230349
 21
103.4999999999975
 31
0.0
  0
LINE
  5
3B6F
330
3A07
100
AcDbEntity
  8
AM_0
  6
Continuous
 62
     7
100
AcDbLine
 10
56.04242838930332
 20
87.41396412439746
 30
0.0
 11
56.39619717150328
 21
87.06019534219739
 31
0.0
  0
LINE
  5
3B70
330
3A07
100
AcDbEntity
  8
AM_0
  6
Continuous
 62
     7
100
AcDbLine
 10
50.76647662110332
 20
100.6383591765974
 30
0.0
 11
56.41474285150327
 21
96.68340058429748
 31
0.0
  0
LINE
  5
3B71
330
3A07
100
AcDbEntity
  8
AM_0
  6
Continuous
 62
     7
100
AcDbLine
 10
57.9024013038582
 20
98.69366739354871
 30
0.0
 11
52.20049638590336
 21
102.6861841992975
 31
0.0
  0
LINE
  5
3B72
330
3A07
100
AcDbEntity
  8
AM_0
  6
Continuous
 62
     7
100
AcDbLine
 10
56.6620251919033
 20
89.44755909769753
 30
0.0
 11
56.04242838930332
 21
88.82796229519749
 31
0.0
  0
LINE
  5
3B73
330
3A07
100
AcDbEntity
  8
AM_0
  6
Continuous
 62
     7
100
AcDbLine
 10
57.81041075030344
 20
87.06041075019744
 30
0.0
 11
58.80865704897695
 21
88.05865704887111
 31
0.0
  0
LINE
  5
3B74
330
3A07
100
AcDbEntity
  8
AM_0
  6
Continuous
 62
     7
100
AcDbLine
 10
68.32531754730877
 20
97.57531754730292
 30
0.0
 11
68.3629160676033
 21
97.61291606759744
 31
0.0
  0
ARC
  5
3B75
330
3A07
100
AcDbEntity
  8
AM_0
  6
Continuous
 62
     7
100
AcDbCircle
 10
22.75000000000336
 20
92.9999999999975
 30
0.0
 40
7.599999999999997
100
AcDbArc
 50
337.0804578484352
 51
21.56555484749724
  0
ARC
  5
3B76
330
3A07
100
AcDbEntity
  8
AM_0
  6
Continuous
 62
     7
100
AcDbCircle
 10
22.75000000000336
 20
92.9999999999975
 30
0.0
 40
7.599999999999997
100
AcDbArc
 50
49.28244565769953
 51
126.2854606476008
  0
ARC
  5
3B77
330
3A07
100
AcDbEntity
  8
AM_0
  6
Continuous
 62
     7
100
AcDbCircle
 10
36.88059757780337
 20
98.99999999999749
 30
0.0
 40
4.5
100
AcDbArc
 50
90.0
 51
124.9999999999974
  0
ARC
  5
3B78
330
3A07
100
AcDbEntity
  8
AM_0
  6
Continuous
 62
     7
100
AcDbCircle
 10
63.75000000000347
 20
92.9999999999975
 30
0.0
 40
7.599999999999997
100
AcDbArc
 50
158.4344451525027
 51
202.9195421515678
  0
ARC
  5
3B79
330
3A07
100
AcDbEntity
  8
AM_0
  6
Continuous
 62
     7
100
AcDbCircle
 10
63.75000000000347
 20
92.9999999999975
 30
0.0
 40
7.599999999999997
100
AcDbArc
 50
53.71453935239918
 51
130.7175543423005
  0
ARC
  5
3B7A
330
3A07
100
AcDbEntity
  8
AM_0
  6
Continuous
 62
     7
100
AcDbCircle
 10
49.61940242230349
 20
98.99999999999749
 30
0.0
 40
4.5
100
AcDbArc
 50
55.00000000000264
 51
90.0
  0
SPLINE
  5
3B7B
330
3A07
100
AcDbEntity
  8
AM_0
  6
Continuous
 62
     7
100
AcDbSpline
210
0.0
220
0.0
230
1.0
 70
     8
 71
     3
 72
     9
 73
     5
 74
     0
 42
0.000000001
 43
0.0000000001
 40
0.4460920083082771
 40
0.4460920083082771
 40
0.4460920083082771
 40
0.4460920083082771
 40
0.4755693948584121
 40
0.5942007094898952
 40
0.5942007094898952
 40
0.5942007094898952
 40
0.5942007094898952
 10
29.75000000000381
 20
89.56648014792234
 30
0.0
 10
29.75462215998567
 20
89.55778095107508
 30
0.0
 10
29.77914302560822
 20
89.51475188909256
 30
0.0
 10
29.81001313919097
 20
89.47552076670985
 30
0.0
 10
29.83797480820334
 20
89.44755909769753
 30
0.0
  0
SPLINE
  5
3B7C
330
3A07
100
AcDbEntity
  8
AM_0
  6
Continuous
 62
     7
100
AcDbSpline
210
0.0
220
0.0
230
1.0
 70
  1064
 71
     3
 72
    13
 73
     9
 74
     7
 42
0.000000001
 43
0.0000000001
 44
0.0000000001
 12
-0.3675655219193922
 22
0.9299976274680085
 32
0.0
 13
0.8191520443102257
 23
0.5735764363207208
 33
0.0
 40
0.0
 40
0.0
 40
0.0
 40
0.0
 40
0.1666836388502991
 40
0.3333514514776148
 40
0.500012136330064
 40
0.6666728211796479
 40
0.8333406336680473
 40
1.000024272468999
 40
1.000024272468999
 40
1.000024272468999
 40
1.000024272468999
 10
29.81798196870335
 20
95.79349796669736
 30
0.0
 10
29.79755958246688
 20
95.8451697629202
 30
0.0
 10
29.76814919384685
 20
95.95345243841808
 30
0.0
 10
29.7610647050596
 20
96.12129457669334
 30
0.0
 10
29.79120646128348
 20
96.28662807472643
 30
0.0
 10
29.85714853017021
 20
96.44120923325363
 30
0.0
 10
29.95553874173339
 20
96.57737288335347
 30
0.0
 10
30.03974406744442
 20
96.65153198178536
 30
0.0
 10
30.08525714860338
 20
96.68340058429748
 30
0.0
 11
29.81798196870335
 21
95.79349796669736
 31
0.0
 11
29.77432019710335
 21
95.9543615273975
 31
0.0
 11
29.76726923360337
 21
96.12088012599748
 31
0.0
 11
29.7971730950033
 21
96.28483604369751
 31
0.0
 11
29.86255466840333
 21
96.43813651249741
 31
0.0
 11
29.96018765530329
 21
96.57321411829741
 31
0.0
 11
30.08525714860338
 21
96.68340058429748
 31
0.0
  0
SPLINE
  5
3B7D
330
3A07
100
AcDbEntity
  8
AM_0
  6
Continuous
 62
     7
100
AcDbSpline
210
0.0
220
0.0
230
1.0
 70
  1288
 71
     3
 72
    15
 73
    11
 74
     0
 42
0.000000001
 43
0.0000000001
 40
0.0
 40
0.0
 40
0.0
 40
0.0
 40
0.164878451565007
 40
0.3297554680617574
 40
0.494632374668027
 40
0.6595094993738356
 40
0.7851726189739418
 40
0.7851726189739418
 40
0.7851726189739418
 40
0.9527392059964682
 40
0.9527392059964682
 40
0.9527392059964682
 40
0.9527392059964682
 10
27.70771294940329
 20
98.76030227609749
 30
0.0
 10
27.74936863886859
 20
98.72445052020204
 30
0.0
 10
27.84091629183644
 20
98.66173045562142
 30
0.0
 10
27.99521506176115
 20
98.60008912149432
 30
0.0
 10
28.15931777784971
 20
98.57360648647158
 30
0.0
 10
28.31209105303088
 20
98.58284114786432
 30
0.0
 10
28.40630542974469
 20
98.607346752352
 30
0.0
 10
28.44582159540329
 20
98.6212410896975
 30
0.0
 10
28.49851477246824
 20
98.63976861547701
 30
0.0
 10
28.54901553747396
 20
98.6641555312549
 30
0.0
 10
28.59759869734109
 20
98.69366739438124
 30
0.0
  0
SPLINE
  5
3B7E
330
3A07
100
AcDbEntity
  8
AM_0
  6
Continuous
 62
     7
100
AcDbSpline
210
0.0
220
0.0
230
1.0
 70
  1064
 71
     3
 72
    17
 73
    13
 74
    11
 42
0.000000001
 43
0.0000000001
 44
0.0000000001
 12
-0.8060784854329765
 22
-0.5918086475560142
 32
0.0
 13
0.7071067820291482
 23
-0.7071067803439473
 33
0.0
 40
0.0
 40
0.0
 40
0.0
 40
0.0
 40
0.1720903408219924
 40
0.3441778876394016
 40
0.5162641913937673
 40
0.6883502823667095
 40
0.8604366709845633
 40
1.032523399183768
 40
1.204610111998266
 40
1.376696157392458
 40
1.548780687782351
 40
1.720862782450117
 40
1.720862782450117
 40
1.720862782450117
 40
1.720862782450117
 10
18.25225427660331
 20
99.12619648929752
 30
0.0
 10
18.20601483617418
 20
99.09224830534441
 30
0.0
 10
18.11921107363758
 20
99.0162094605845
 30
0.0
 10
18.01063425530145
 20
98.88165070694038
 30
0.0
 10
17.92670160952701
 20
98.73043163874241
 30
0.0
 10
17.86995106513012
 20
98.56707082219976
 30
0.0
 10
17.84204680918373
 20
98.39639645846103
 30
0.0
 10
17.84381777745
 20
98.22346504144253
 30
0.0
 10
17.87520473316499
 20
98.05339979923935
 30
0.0
 10
17.9352888309624
 20
97.89122312290647
 30
0.0
 10
18.02224191343839
 20
97.74178231711523
 30
0.0
 10
18.0965237937682
 20
97.6534762062359
 30
0.0
 10
18.13708393250334
 20
97.61291606759744
 30
0.0
 11
18.25225427660331
 21
99.12619648929752
 31
0.0
 11
18.12281513920328
 21
99.01279192539744
 31
0.0
 11
18.01474124330326
 21
98.87887345469744
 31
0.0
 11
17.9312318977033
 21
98.7284078933975
 31
0.0
 11
17.87475880750338
 21
98.5658520174975
 31
0.0
 11
17.84699269260335
 21
98.39602043029742
 31
0.0
 11
17.84875378250325
 21
98.22394271359748
 31
0.0
 11
17.87998768870324
 21
98.05471422949745
 31
0.0
 11
17.9397673281033
 21
97.89334508209742
 31
0.0
 11
18.02632074780325
 21
97.74461179349749
 31
0.0
 11
18.13708393250334
 21
97.61291606759744
 31
0.0
  0
SPLINE
  5
3B7F
330
3A07
100
AcDbEntity
  8
AM_0
  6
Continuous
 62
     7
100
AcDbSpline
210
0.0
220
0.0
230
1.0
 70
  1064
 71
     3
 72
    11
 73
     7
 74
     5
 42
0.000000001
 43
0.0000000001
 44
0.0000000001
 12
0.8191520442987563
 22
0.5735764363371008
 32
0.0
 13
1.0
 23
0.0
 33
0.0
 40
0.0
 40
0.0
 40
0.0
 40
0.0
 40
0.3051577876535499
 40
0.6101789646522886
 40
0.9152001415153719
 40
1.220357929193176
 40
1.220357929193176
 40
1.220357929193176
 40
1.220357929193176
 10
35.73352337900332
 20
100.6383591765974
 30
0.0
 10
35.81684692086668
 20
100.6967029487183
 30
0.0
 10
35.99266897367687
 20
100.8007987156427
 30
0.0
 10
36.27684265744489
 20
100.9148659673182
 30
0.0
 10
36.57505039915782
 20
100.984422873789
 30
0.0
 10
36.7787822721441
 20
100.9999999999975
 30
0.0
 10
36.88050153470334
 20
100.9999999999975
 30
0.0
 11
35.73352337900332
 21
100.6383591765974
 31
0.0
 11
35.99612016730333
 21
100.7938075671974
 31
0.0
 11
36.27918131800328
 21
100.9074486837975
 31
0.0
 11
36.57623330480334
 21
100.9767165368975
 31
0.0
 11
36.88050153470334
 21
100.9999999999975
 31
0.0
  0
SPLINE
  5
3B80
330
3A07
100
AcDbEntity
  8
AM_0
  6
Continuous
 62
     7
100
AcDbSpline
210
0.0
220
0.0
230
1.0
 70
  1064
 71
     3
 72
    15
 73
    11
 74
     9
 42
0.000000001
 43
0.0000000001
 44
0.0000000001
 12
0.7071067811865476
 22
0.7071067811865476
 32
0.0
 13
-0.7071067811865476
 23
0.7071067811865476
 33
0.0
 40
0.0
 40
0.0
 40
0.0
 40
0.0
 40
0.1956881976666487
 40
0.3926023735948202
 40
0.5875542899002531
 40
0.7840283985089114
 40
0.9805025071175696
 40
1.175454423518739
 40
1.372368599358775
 40
1.568056797025424
 40
1.568056797025424
 40
1.568056797025424
 40
1.568056797025424
 10
30.45757161080331
 20
87.41396412439746
 30
0.0
 10
30.50369576132607
 20
87.46008827492023
 30
0.0
 10
30.58737697013248
 20
87.56199017979151
 30
0.0
 10
30.68024470301481
 20
87.73580781844964
 30
0.0
 10
30.73754339354616
 20
87.92468200949924
 30
0.0
 10
30.75692290542287
 20
88.12096320979902
 30
0.0
 10
30.73754339352741
 20
88.31724441012113
 30
0.0
 10
30.68024470306358
 20
88.50611860120011
 30
0.0
 10
30.58737697009684
 20
88.67993623981801
 30
0.0
 10
30.50369576132607
 20
88.78183814467474
 30
0.0
 10
30.45757161080331
 20
88.82796229519749
 30
0.0
 11
30.45757161080331
 21
87.41396412439746
 31
0.0
 11
30.58174257110335
 21
87.56521042459747
 31
0.0
 11
30.67455177600328
 21
87.73888150499749
 31
0.0
 11
30.73113953840329
 21
87.92544000739747
 31
0.0
 11
30.75044634230329
 21
88.12096320979742
 31
0.0
 11
30.73113953840329
 21
88.31648641219738
 31
0.0
 11
30.67455177600328
 21
88.5030449146974
 31
0.0
 11
30.58174257110335
 21
88.67671599499749
 31
0.0
 11
30.45757161080331
 21
88.82796229519749
 31
0.0
  0
SPLINE
  5
3B81
330
3A07
100
AcDbEntity
  8
AM_0
  6
Continuous
 62
     7
100
AcDbSpline
210
0.0
220
0.0
230
1.0
 70
  1064
 71
     3
 72
    16
 73
    12
 74
    10
 42
0.000000001
 43
0.0000000001
 44
0.0000000001
 12
-0.7071067811865476
 22
-0.7071067811865476
 32
0.0
 13
-0.7071067811865476
 23
0.7071067811865476
 33
0.0
 40
0.0
 40
0.0
 40
0.0
 40
0.0
 40
0.1742672768756431
 40
0.348581024759323
 40
0.5228745030516894
 40
0.6971564306391026
 40
0.8714351232655507
 40
1.04571833512984
 40
1.220013137428965
 40
1.394325453130065
 40
1.568504623260827
 40
1.568504623260827
 40
1.568504623260827
 40
1.568504623260827
 10
30.10380282860336
 20
87.06019534219739
 30
0.0
 10
30.06272763753083
 20
87.01912015112487
 30
0.0
 10
29.97317999233263
 20
86.94398624214381
 30
0.0
 10
29.8214970218566
 20
86.85643569811389
 30
0.0
 10
29.65686386141846
 20
86.79652711315213
 30
0.0
 10
29.48435275497599
 20
86.76612840955874
 30
0.0
 10
29.3091832357315
 20
86.76614476402084
 30
0.0
 10
29.1366771835767
 20
86.7965737917982
 30
0.0
 10
28.97205041115223
 20
86.85650168890067
 30
0.0
 10
28.82040365218933
 20
86.94405036148088
 30
0.0
 10
28.73085908191695
 20
87.01914091808379
 30
0.0
 10
28.68980465780334
 20
87.06019534219739
 30
0.0
 11
30.10380282860336
 21
87.06019534219739
 31
0.0
 11
29.97029926140334
 21
86.94818694369747
 31
0.0
 11
29.81933314470331
 21
86.8610404330974
 31
0.0
 11
29.65554528430329
 21
86.80144384459742
 31
0.0
 11
29.48390804850334
 21
86.77119736429744
 31
0.0
 11
29.30962935660335
 21
86.7712132769974
 31
0.0
 11
29.13799592370327
 21
86.80148872329743
 31
0.0
 11
28.97421409780333
 21
86.86110576459748
 31
0.0
 11
28.82325318120337
 21
86.94825841839747
 31
0.0
 11
28.68980465780334
 21
87.06019534219739
 31
0.0
  0
SPLINE
  5
3B82
330
3A07
100
AcDbEntity
  8
AM_0
  6
Continuous
 62
     7
100
AcDbSpline
210
0.0
220
0.0
230
1.0
 70
     8
 71
     3
 72
     9
 73
     5
 74
     0
 42
0.000000001
 43
0.0000000001
 40
0.4460920083292827
 40
0.4460920083292827
 40
0.4460920083292827
 40
0.4460920083292827
 40
0.4755693949055883
 40
0.5942007094753623
 40
0.5942007094753623
 40
0.5942007094753623
 40
0.5942007094753623
 10
56.75000000000335
 20
89.5664801479524
 30
0.0
 10
56.74537784002069
 20
89.55778095109593
 30
0.0
 10
56.72085697442532
 20
89.51475188911189
 30
0.0
 10
56.68998686090112
 20
89.47552076669529
 30
0.0
 10
56.6620251919033
 20
89.44755909769753
 30
0.0
  0
SPLINE
  5
3B83
330
3A07
100
AcDbEntity
  8
AM_0
  6
Continuous
 62
     7
100
AcDbSpline
210
0.0
220
0.0
230
1.0
 70
  1064
 71
     3
 72
    13
 73
     9
 74
     7
 42
0.000000001
 43
0.0000000001
 44
0.0000000001
 12
0.3675655219193922
 22
0.9299976274680085
 32
0.0
 13
-0.8191520443102257
 23
0.5735764363207208
 33
0.0
 40
0.0
 40
0.0
 40
0.0
 40
0.0
 40
0.1666836388502991
 40
0.3333514514818568
 40
0.5000121363343672
 40
0.6666728211839064
 40
0.8333406337309112
 40
1.000024272456795
 40
1.000024272456795
 40
1.000024272456795
 40
1.000024272456795
 10
56.68201803130324
 20
95.79349796669736
 30
0.0
 10
56.70244041753972
 20
95.8451697629202
 30
0.0
 10
56.73185080612
 20
95.95345243842064
 30
0.0
 10
56.73893529508695
 20
96.12129457669205
 30
0.0
 10
56.70879353880519
 20
96.28662807472075
 30
0.0
 10
56.64285146996002
 20
96.44120923329438
 30
0.0
 10
56.54446125825558
 20
96.57737288327837
 30
0.0
 10
56.4602559326417
 20
96.65153198179968
 30
0.0
 10
56.41474285150327
 20
96.68340058429748
 30
0.0
 11
56.68201803130324
 21
95.79349796669736
 31
0.0
 11
56.72567980290324
 21
95.9543615273975
 31
0.0
 11
56.7327307665035
 21
96.12088012599748
 31
0.0
 11
56.70282690510322
 21
96.28483604369751
 31
0.0
 11
56.6374453317033
 21
96.43813651249741
 31
0.0
 11
56.53981234470331
 21
96.57321411829741
 31
0.0
 11
56.41474285150327
 21
96.68340058429748
 31
0.0
  0
SPLINE
  5
3B84
330
3A07
100
AcDbEntity
  8
AM_0
  6
Continuous
 62
     7
100
AcDbSpline
210
0.0
220
0.0
230
1.0
 70
  1288
 71
     3
 72
    15
 73
    11
 74
     0
 42
0.000000001
 43
0.0000000001
 40
0.0
 40
0.0
 40
0.0
 40
0.0
 40
0.1648784516474786
 40
0.3297554680514081
 40
0.4946323746576777
 40
0.6595094993634297
 40
0.7851726150555348
 40
0.7851726150555348
 40
0.7851726150555348
 40
0.9527392045991955
 40
0.9527392045991955
 40
0.9527392045991955
 40
0.9527392045991955
 10
58.79228705070346
 20
98.76030227609749
 30
0.0
 10
58.75063136121645
 20
98.72445052018486
 30
0.0
 10
58.65908370820244
 20
98.66173045568338
 30
0.0
 10
58.50478493832389
 20
98.60008912146827
 30
0.0
 10
58.34068222225624
 20
98.57360648647773
 30
0.0
 10
58.18790894838077
 20
98.58284114778236
 30
0.0
 10
58.09369457290705
 20
98.60734675169522
 30
0.0
 10
58.05417840840329
 20
98.62124108839749
 30
0.0
 10
58.00148523044646
 20
98.63976861417416
 30
0.0
 10
57.95098446457206
 20
98.66415553012098
 30
0.0
 10
57.90240130385114
 20
98.69366739355292
 30
0.0
  0
SPLINE
  5
3B85
330
3A07
100
AcDbEntity
  8
AM_0
  6
Continuous
 62
     7
100
AcDbSpline
210
0.0
220
0.0
230
1.0
 70
  1064
 71
     3
 72
    17
 73
    13
 74
    11
 42
0.000000001
 43
0.0000000001
 44
0.0000000001
 12
0.8060784854329765
 22
-0.5918086475560142
 32
0.0
 13
-0.7071067820291482
 23
-0.7071067803439473
 33
0.0
 40
0.0
 40
0.0
 40
0.0
 40
0.0
 40
0.1720903408219069
 40
0.3441778875764151
 40
0.516264191330836
 40
0.6883502823366094
 40
0.8604366709383576
 40
1.032523399136543
 40
1.204610111969158
 40
1.376696157328557
 40
1.548780687718507
 40
1.720862782386273
 40
1.720862782386273
 40
1.720862782386273
 40
1.720862782386273
 10
68.24774572350344
 20
99.12619648929752
 30
0.0
 10
68.29398516393258
 20
99.09224830534441
 30
0.0
 10
68.38078892647434
 20
99.01620946061724
 30
0.0
 10
68.48936574470599
 20
98.88165070690797
 30
0.0
 10
68.5732983904445
 20
98.73043163872466
 30
0.0
 10
68.63004893505223
 20
98.56707082223067
 30
0.0
 10
68.65795319073129
 20
98.39639645845052
 30
0.0
 10
68.65618222274787
 20
98.22346504142831
 30
0.0
 10
68.6247952667656
 20
98.05339979927442
 30
0.0
 10
68.56471116918453
 20
97.89122312288231
 30
0.0
 10
68.47775808665517
 20
97.74178231711932
 30
0.0
 10
68.40347620633844
 20
97.6534762062359
 30
0.0
 10
68.3629160676033
 20
97.61291606759744
 30
0.0
 11
68.24774572350344
 21
99.12619648929752
 31
0.0
 11
68.37718486090335
 21
99.01279192539744
 31
0.0
 11
68.48525875670322
 21
98.87887345469744
 31
0.0
 11
68.56876810230329
 21
98.7284078933975
 31
0.0
 11
68.62524119260325
 21
98.5658520174975
 31
0.0
 11
68.65300730740347
 21
98.39602043029742
 31
0.0
 11
68.65124621760315
 21
98.22394271359748
 31
0.0
 11
68.62001231130335
 21
98.05471422949745
 31
0.0
 11
68.56023267200345
 21
97.89334508209742
 31
0.0
 11
68.47367925230338
 21
97.74461179349749
 31
0.0
 11
68.3629160676033
 21
97.61291606759744
 31
0.0
  0
SPLINE
  5
3B86
330
3A07
100
AcDbEntity
  8
AM_0
  6
Continuous
 62
     7
100
AcDbSpline
210
0.0
220
0.0
230
1.0
 70
  1064
 71
     3
 72
    11
 73
     7
 74
     5
 42
0.000000001
 43
0.0000000001
 44
0.0000000001
 12
-0.8191520442987563
 22
0.5735764363371008
 32
0.0
 13
-1.0
 23
0.0
 33
0.0
 40
0.0
 40
0.0
 40
0.0
 40
0.0
 40
0.3051577876535499
 40
0.6101789646522886
 40
0.9152001416126918
 40
1.220357929290609
 40
1.220357929290609
 40
1.220357929290609
 40
1.220357929290609
 10
50.76647662110332
 20
100.6383591765974
 30
0.0
 10
50.68315307923995
 20
100.6967029487183
 30
0.0
 10
50.5073310264292
 20
100.8007987156408
 30
0.0
 10
50.22315734263322
 20
100.9148659673371
 30
0.0
 10
49.92494960087873
 20
100.9844228737762
 30
0.0
 10
49.72121772786255
 20
100.9999999999975
 30
0.0
 10
49.61949846530325
 20
100.9999999999975
 30
0.0
 11
50.76647662110332
 21
100.6383591765974
 31
0.0
 11
50.5038798328033
 21
100.7938075671974
 31
0.0
 11
50.22081868210335
 21
100.9074486837975
 31
0.0
 11
49.92376669520337
 21
100.9767165368975
 31
0.0
 11
49.61949846530325
 21
100.9999999999975
 31
0.0
  0
SPLINE
  5
3B87
330
3A07
100
AcDbEntity
  8
AM_0
  6
Continuous
 62
     7
100
AcDbSpline
210
0.0
220
0.0
230
1.0
 70
  1064
 71
     3
 72
    15
 73
    11
 74
     9
 42
0.000000001
 43
0.0000000001
 44
0.0000000001
 12
-0.7071067811865476
 22
0.7071067811865476
 32
0.0
 13
0.7071067811865476
 23
0.7071067811865476
 33
0.0
 40
0.0
 40
0.0
 40
0.0
 40
0.0
 40
0.1956881976666487
 40
0.3926023736419194
 40
0.5875542899184119
 40
0.7840283985270478
 40
0.9805025071356837
 40
1.175454423507913
 40
1.372368599395048
 40
1.568056797061697
 40
1.568056797061697
 40
1.568056797061697
 40
1.568056797061697
 10
56.04242838930332
 20
87.41396412439746
 30
0.0
 10
55.99630423878057
 20
87.46008827492023
 30
0.0
 10
55.91262303000537
 20
87.56199017982339
 30
0.0
 10
55.81975529693806
 20
87.73580781840086
 30
0.0
 10
55.76245660660266
 20
87.92468200952198
 30
0.0
 10
55.74307709466211
 20
88.12096320979907
 30
0.0
 10
55.76245660662135
 20
88.31724441009829
 30
0.0
 10
55.81975529688936
 20
88.50611860124905
 30
0.0
 10
55.912623030041
 20
88.679936239786
 30
0.0
 10
55.99630423878057
 20
88.78183814467474
 30
0.0
 10
56.04242838930332
 20
88.82796229519749
 30
0.0
 11
56.04242838930332
 21
87.41396412439746
 31
0.0
 11
55.91825742900329
 21
87.56521042459747
 31
0.0
 11
55.82544822400342
 21
87.73888150499749
 31
0.0
 11
55.76886046170312
 21
87.92544000739747
 31
0.0
 11
55.74955365780335
 21
88.12096320979742
 31
0.0
 11
55.76886046170312
 21
88.31648641219738
 31
0.0
 11
55.82544822400342
 21
88.5030449146974
 31
0.0
 11
55.91825742900329
 21
88.67671599499749
 31
0.0
 11
56.04242838930332
 21
88.82796229519749
 31
0.0
  0
SPLINE
  5
3B88
330
3A07
100
AcDbEntity
  8
AM_0
  6
Continuous
 62
     7
100
AcDbSpline
210
0.0
220
0.0
230
1.0
 70
  1064
 71
     3
 72
    16
 73
    12
 74
    10
 42
0.000000001
 43
0.0000000001
 44
0.0000000001
 12
0.7071067811865476
 22
-0.7071067811865476
 32
0.0
 13
0.7071067811865476
 23
0.7071067811865476
 33
0.0
 40
0.0
 40
0.0
 40
0.0
 40
0.0
 40
0.1742672768756431
 40
0.3485810247594214
 40
0.5228745030514674
 40
0.6971564306389924
 40
0.8714351232655543
 40
1.045718335129843
 40
1.220013137335066
 40
1.394325453122906
 40
1.568504623253407
 40
1.568504623253407
 40
1.568504623253407
 40
1.568504623253407
 10
56.39619717150328
 20
87.06019534219739
 30
0.0
 10
56.43727236257581
 20
87.01912015112487
 30
0.0
 10
56.52682000777412
 20
86.9439862421437
 30
0.0
 10
56.67850297825004
 20
86.85643569811389
 30
0.0
 10
56.84313613868784
 20
86.79652711315242
 30
0.0
 10
57.01564724513111
 20
86.76612840955744
 30
0.0
 10
57.19081676437309
 20
86.76614476402562
 30
0.0
 10
57.36332281650669
 20
86.79657379177479
 30
0.0
 10
57.52794958889507
 20
86.85650168895405
 30
0.0
 10
57.67959634790526
 20
86.94405036144377
 30
0.0
 10
57.76914091818963
 20
87.01914091808385
 30
0.0
 10
57.81019534230319
 20
87.06019534219739
 30
0.0
 11
56.39619717150328
 21
87.06019534219739
 31
0.0
 11
56.5297007387033
 21
86.94818694369747
 31
0.0
 11
56.68066685540344
 21
86.8610404330974
 31
0.0
 11
56.84445471580312
 21
86.80144384459742
 31
0.0
 11
57.01609195160319
 21
86.77119736429744
 31
0.0
 11
57.19037064350328
 21
86.7712132769974
 31
0.0
 11
57.36200407640336
 21
86.80148872329743
 31
0.0
 11
57.52578590220338
 21
86.86110576459748
 31
0.0
 11
57.67674681890349
 21
86.94825841839747
 31
0.0
 11
57.81019534230319
 21
87.06019534219739
 31
0.0
  0
LWPOLYLINE
  5
3B89
330
3A07
100
AcDbEntity
  8
AM_0
100
AcDbPolyline
 90
        6
 70
     1
 43
0.0
 10
17.0146170927556
 20
89.39999999999747
 10
23.25000000000358
 20
85.79999999999746
 10
29.48538290725156
 20
89.39999999999747
 10
29.48538290725156
 20
96.59999999999753
 10
23.25000000000358
 20
100.1999999999975
 10
17.0146170927556
 20
96.59999999999753
  0
ARC
  5
3B8A
330
3A07
100
AcDbEntity
  8
AM_0
100
AcDbCircle
 10
23.25000000000347
 20
92.9999999999975
 30
0.0
 40
10.0
100
AcDbArc
 50
44.18787401301041
 51
29.81753846327291
  0
ARC
  5
3B8B
330
3A07
100
AcDbEntity
  8
AM_0
100
AcDbCircle
 10
23.25000000000347
 20
92.9999999999975
 30
0.0
 40
9.0
100
AcDbArc
 50
45.21914724287467
 51
317.0819971510505
  0
ARC
  5
3B8C
330
3A07
100
AcDbEntity
  8
AM_0
100
AcDbCircle
 10
23.25000000000347
 20
92.9999999999975
 30
0.0
 40
9.0
100
AcDbArc
 50
326.3862096907383
 51
29.2398599711737
  0
INSERT
  5
3B8D
330
3A07
100
AcDbEntity
  8
AM_0
100
AcDbBlockReference
  2
Logga
 10
44.75000000000346
 20
92.9999999999975
 30
0.0
 41
0.3
 42
0.3
 43
0.3
  0
LWPOLYLINE
  5
3B8E
330
3A07
100
AcDbEntity
  8
AM_0
100
AcDbPolyline
 90
        6
 70
     1
 43
0.0
 10
57.01461709275548
 20
89.39999999999747
 10
63.25000000000347
 20
85.79999999999746
 10
69.48538290725145
 20
89.39999999999747
 10
69.48538290725145
 20
96.59999999999753
 10
63.25000000000347
 20
100.1999999999975
 10
57.01461709275548
 20
96.59999999999753
  0
ARC
  5
3B8F
330
3A07
100
AcDbEntity
  8
AM_0
100
AcDbCircle
 10
63.25000000000347
 20
92.9999999999975
 30
0.0
 40
9.0
100
AcDbArc
 50
222.9180028481521
 51
134.7808527570516
  0
ARC
  5
3B90
330
3A07
100
AcDbEntity
  8
AM_0
100
AcDbCircle
 10
63.25000000000347
 20
92.9999999999975
 30
0.0
 40
9.0
100
AcDbArc
 50
150.7601400284587
 51
213.6137903107513
  0
ARC
  5
3B91
330
3A07
100
AcDbEntity
  8
AM_0
100
AcDbCircle
 10
63.25000000000347
 20
92.9999999999975
 30
0.0
 40
10.0
100
AcDbArc
 50
150.1824615363974
 51
135.8121259868767
  0
LINE
  5
3B92
330
3A07
100
AcDbEntity
  8
DIM
100
AcDbLine
 10
-83.24999999999846
 20
-112.5000000000024
 30
0.0
 11
-83.24999999999846
 21
-157.3467755184066
 31
0.0
  0
LINE
  5
3B93
330
3A07
100
AcDbEntity
  8
DIM
100
AcDbLine
 10
-3.249999999998465
 20
-112.5000000000024
 30
0.0
 11
-3.249999999998465
 21
-157.3467755184066
 31
0.0
  0
LINE
  5
3B94
330
3A07
100
AcDbEntity
  8
DIM
100
AcDbLine
 10
-80.74999999999846
 20
-156.3467755184066
 30
0.0
 11
-5.749999999998465
 21
-156.3467755184066
 31
0.0
  0
SOLID
  5
3B95
330
3A07
100
AcDbEntity
  8
DIM
100
AcDbTrace
 10
-80.74999999999846
 20
-155.9301088517399
 30
0.0
 11
-80.74999999999846
 21
-156.7634421850732
 31
0.0
 12
-83.24999999999846
 22
-156.3467755184066
 32
0.0
 13
-83.24999999999846
 23
-156.3467755184066
 33
0.0
  0
SOLID
  5
3B96
330
3A07
100
AcDbEntity
  8
DIM
100
AcDbTrace
 10
-5.749999999998465
 20
-155.9301088517399
 30
0.0
 11
-5.749999999998465
 21
-156.7634421850732
 31
0.0
 12
-3.249999999998465
 22
-156.3467755184066
 32
0.0
 13
-3.249999999998465
 23
-156.3467755184066
 33
0.0
  0
MTEXT
  5
3B97
330
3A07
100
AcDbEntity
  8
DIM
 62
     2
100
AcDbMText
 10
-43.24999999999846
 20
-152.9217755184066
 30
0.0
 40
3.5
 41
0.0
 46
0.0
 71
     5
 72
     1
  1
80 [3.150"]
 73
     1
 44
1.0
  0
LINE
  5
3B98
330
3A07
100
AcDbEntity
  8
DIM
100
AcDbLine
 10
-84.2499999999984
 20
-111.5000000000023
 30
0.0
 11
-127.8723700974905
 21
-111.5000000000023
 31
0.0
  0
LINE
  5
3B99
330
3A07
100
AcDbEntity
  8
DIM
100
AcDbLine
 10
-84.24999999999835
 20
68.49999999999761
 30
0.0
 11
-127.8723700974905
 21
68.49999999999761
 31
0.0
  0
LINE
  5
3B9A
330
3A07
100
AcDbEntity
  8
DIM
100
AcDbLine
 10
-126.8723700974905
 20
-109.0000000000023
 30
0.0
 11
-126.8723700974905
 21
65.99999999999761
 31
0.0
  0
SOLID
  5
3B9B
330
3A07
100
AcDbEntity
  8
DIM
100
AcDbTrace
 10
-127.2890367641571
 20
-109.0000000000023
 30
0.0
 11
-126.4557034308238
 21
-109.0000000000023
 31
0.0
 12
-126.8723700974905
 22
-111.5000000000023
 32
0.0
 13
-126.8723700974905
 23
-111.5000000000023
 33
0.0
  0
SOLID
  5
3B9C
330
3A07
100
AcDbEntity
  8
DIM
100
AcDbTrace
 10
-127.2890367641572
 20
65.99999999999761
 30
0.0
 11
-126.4557034308239
 21
65.99999999999761
 31
0.0
 12
-126.8723700974905
 22
68.49999999999761
 32
0.0
 13
-126.8723700974905
 23
68.49999999999761
 33
0.0
  0
MTEXT
  5
3B9D
330
3A07
100
AcDbEntity
  8
DIM
 62
     2
100
AcDbMText
 10
-130.2973700974905
 20
-21.5000000000025
 30
0.0
 40
3.5
 41
0.0
 46
0.0
 71
     5
 72
     1
  1
180 [7.087"]
 11
0.0000000000000001
 21
1.0
 31
0.0
 73
     1
 44
1.0
  0
LINE
  5
3B9E
330
3A07
100
AcDbEntity
  8
DIM
100
AcDbLine
 10
-98.49999999999983
 20
140.5000000000003
 30
0.0
 11
-137.8723700974898
 21
140.5000000000003
 31
0.0
  0
LINE
  5
3B9F
330
3A07
100
AcDbEntity
  8
DIM
100
AcDbLine
 10
-98.49999999999994
 20
-140.4999999999998
 30
0.0
 11
-137.8723700974898
 21
-140.4999999999998
 31
0.0
  0
LINE
  5
3BA0
330
3A07
100
AcDbEntity
  8
DIM
100
AcDbLine
 10
-136.8723700974898
 20
138.0000000000003
 30
0.0
 11
-136.8723700974898
 21
-137.9999999999998
 31
0.0
  0
SOLID
  5
3BA1
330
3A07
100
AcDbEntity
  8
DIM
100
AcDbTrace
 10
-137.2890367641565
 20
138.0000000000003
 30
0.0
 11
-136.4557034308232
 21
138.0000000000003
 31
0.0
 12
-136.8723700974898
 22
140.5000000000003
 32
0.0
 13
-136.8723700974898
 23
140.5000000000003
 33
0.0
  0
SOLID
  5
3BA2
330
3A07
100
AcDbEntity
  8
DIM
100
AcDbTrace
 10
-137.2890367641564
 20
-137.9999999999998
 30
0.0
 11
-136.4557034308231
 21
-137.9999999999998
 31
0.0
 12
-136.8723700974898
 22
-140.4999999999998
 32
0.0
 13
-136.8723700974898
 23
-140.4999999999998
 33
0.0
  0
MTEXT
  5
3BA3
330
3A07
100
AcDbEntity
  8
DIM
 62
     2
100
AcDbMText
 10
-140.2973700974898
 20
0.0000000000001137
 30
0.0
 40
3.5
 41
0.0
 46
0.0
 71
     5
 72
     1
  1
281 [11.063"]
 11
0.0000000000000001
 21
1.0
 31
0.0
 73
     1
 44
1.0
  0
LINE
  5
3BA4
330
3A07
100
AcDbEntity
  8
DIM
100
AcDbLine
 10
-112.5
 20
-126.4999999999999
 30
0.0
 11
-112.5
 21
-167.3467755184069
 31
0.0
  0
LINE
  5
3BA5
330
3A07
100
AcDbEntity
  8
DIM
100
AcDbLine
 10
112.5
 20
-126.4999999999999
 30
0.0
 11
112.5
 21
-167.3467755184069
 31
0.0
  0
LINE
  5
3BA6
330
3A07
100
AcDbEntity
  8
DIM
100
AcDbLine
 10
-110.0
 20
-166.3467755184069
 30
0.0
 11
110.0
 21
-166.3467755184069
 31
0.0
  0
SOLID
  5
3BA7
330
3A07
100
AcDbEntity
  8
DIM
100
AcDbTrace
 10
-110.0
 20
-165.9301088517402
 30
0.0
 11
-110.0
 21
-166.7634421850736
 31
0.0
 12
-112.5
 22
-166.3467755184069
 32
0.0
 13
-112.5
 23
-166.3467755184069
 33
0.0
  0
SOLID
  5
3BA8
330
3A07
100
AcDbEntity
  8
DIM
100
AcDbTrace
 10
110.0
 20
-165.9301088517402
 30
0.0
 11
110.0
 21
-166.7634421850736
 31
0.0
 12
112.5
 22
-166.3467755184069
 32
0.0
 13
112.5
 23
-166.3467755184069
 33
0.0
  0
MTEXT
  5
3BA9
330
3A07
100
AcDbEntity
  8
DIM
 62
     2
100
AcDbMText
 10
-0.0000000000000568
 20
-162.9217755184069
 30
0.0
 40
3.5
 41
0.0
 46
0.0
 71
     5
 72
     1
  1
225 [8.858"]
 73
     1
 44
1.0
  0
ENDBLK
  5
3A09
330
3A07
100
AcDbEntity
  8
0
100
AcDbBlockEnd
  0
ENDSEC
  0
SECTION
  2
ENTITIES
  0
INSERT
  5
3BAA
330
1A
100
AcDbEntity
  8
AM_0
100
AcDbBlockReference
  2
HD72
 10
0.0
 20
0.0
 30
0.0
  0
VIEWPORT
  5
2CAA
102
{ACAD_XDICTIONARY
360
2CAB
102
}
330
2CA3
100
AcDbEntity
 67
     1
  8
0
100
AcDbViewport
 10
128.5
 20
97.5
 30
0.0
 40
349.2069620253165
 41
222.18
 68
     1
 69
     1
 12
128.5
 22
97.5
 13
0.0
 23
0.0
 14
10.0
 24
10.0
 15
10.0
 25
10.0
 16
0.0
 26
0.0
 36
1.0
 17
0.0
 27
0.0
 37
0.0
 42
50.0
 43
0.0
 44
0.0
 45
222.18
 50
0.0
 51
0.0
 72
   100
 90
   819232
  1

281
     0
 71
     1
 74
     0
110
0.0
120
0.0
130
0.0
111
1.0
121
0.0
131
0.0
112
0.0
122
1.0
132
0.0
 79
     0
146
0.0
170
     0
 61
     5
348
A55
292
     1
282
     1
141
0.0
142
0.0
 63
   250
421
  3355443
  0
ENDSEC
  0
SECTION
  2
OBJECTS
  0
DICTIONARY
  5
C
330
0
100
AcDbDictionary
281
     1
  3
ACAD_CIP_PREVIOUS_PRODUCT_INFO
350
CD7
  3
ACAD_COLOR
350
3CA
  3
ACAD_DETAILVIEWSTYLE
350
CCB
  3
ACAD_FIELDLIST
350
D6A
  3
ACAD_GROUP
350
D
  3
ACAD_LAYOUT
350
167
  3
ACAD_MATERIAL
350
3C9
  3
ACAD_MLEADERSTYLE
350
A72
  3
ACAD_MLINESTYLE
350
E
  3
ACAD_PLOTSETTINGS
350
168
  3
ACAD_PLOTSTYLENAME
350
165
  3
ACAD_SCALELIST
350
A60
  3
ACAD_SECTIONVIEWSTYLE
350
CC9
  3
ACAD_TABLESTYLE
350
650
  3
ACAD_VISUALSTYLE
350
A4F
  3
ACASAPPOBJECT
350
EE
  3
ACASGREF_MASTER
350
9B
  3
ACDB_RECOMPOSE_DATA
350
3BB0
  3
ACDBVARIABLEDICTIONARY
350
5D
  3
AcDsDecomposeData
350
3BB7
  3
ACMDICTIONARY
350
142
  3
AD_GREF_MODULE
350
AF
  3
AD_MAPI_MODULE
350
18E
  3
AMG
350
171
  3
AMGSNAPSETTINGS
350
1F2
  3
ASE_INDEX_DICTIONARY
350
849
  3
coolorange
350
13F2
  3
MAPISURF_MODULE
350
2E8
  0
DICTIONARY
  5
592
330
2
100
AcDbDictionary
280
     1
281
     1
  3
ACAD_LAYERFILTERS
360
C7C
  3
ACAD_LAYERSTATES
360
822
  3
ACLYDICTIONARY
360
C7B
  3
AMLAYER_GROUPCOLORS
360
593
  0
DICTIONARY
  5
AB7
330
F
100
AcDbDictionary
280
     1
281
     1
  3
ADSK_XREC_LAYER_RECONCILED
360
3BAB
  0
DICTIONARY
  5
AB9
330
5CF
100
AcDbDictionary
280
     1
281
     1
  3
ADSK_XREC_LAYER_RECONCILED
360
3BAC
  0
DICTIONARY
  5
3BAD
330
39A5
100
AcDbDictionary
280
     1
281
     1
  3
ADSK_XREC_LAYER_RECONCILED
360
3BAE
  0
DICTIONARY
  5
12A
330
1A
100
AcDbDictionary
280
     1
281
     1
  3
ACAD_INDEX
360
30C4
  3
ACAD_SORTENTS
360
3624
  0
DICTIONARY
  5
3679
330
3678
100
AcDbDictionary
280
     1
281
     1
  0
DICTIONARY
  5
2CAB
330
2CAA
100
AcDbDictionary
280
     1
281
     1
  3
ASDK_XREC_ANNOTATION_SCALE_INFO
360
2CAC
  0
XRECORD
  5
CD7
102
{ACAD_REACTORS
330
C
102
}
330
C
100
AcDbXrecord
280
     1
300
AMECH_PP
300
2023
300

  0
DICTIONARY
  5
3CA
102
{ACAD_REACTORS
330
C
102
}
330
C
100
AcDbDictionary
281
     1
  0
DICTIONARY
  5
CCB
102
{ACAD_REACTORS
330
C
102
}
330
C
100
AcDbDictionary
281
     1
  3
Imperial24
350
10E8
  3
Metric50
350
CCC
  0
FIELDLIST
  5
D6A
102
{ACAD_REACTORS
330
C
102
}
330
C
100
AcDbIdSet
 90
       17
330
314E
330
314F
330
3150
330
31E2
330
31E3
330
31E4
330
31E5
330
31E9
330
31EA
330
31EB
330
31EF
330
31F0
330
31F1
330
31F2
330
334E
330
334F
330
3350
100
AcDbFieldList
  0
DICTIONARY
  5
D
102
{ACAD_REACTORS
330
C
102
}
330
C
100
AcDbDictionary
281
     1
  0
DICTIONARY
  5
167
102
{ACAD_REACTORS
330
C
102
}
330
C
100
AcDbDictionary
281
     1
  3
Layout1
350
2CA4
  3
Model
350
169
  0
DICTIONARY
  5
3C9
102
{ACAD_REACTORS
330
C
102
}
330
C
100
AcDbDictionary
281
     1
  3
ByBlock
350
A3F
  3
ByLayer
350
A37
  3
Global
350
A47
  0
DICTIONARY
  5
A72
102
{ACAD_REACTORS
330
C
102
}
330
C
100
AcDbDictionary
281
     1
  3
Standard
350
A73
  0
DICTIONARY
  5
E
102
{ACAD_REACTORS
330
C
102
}
330
C
100
AcDbDictionary
281
     1
  3
STANDARD
350
13
  0
DICTIONARY
  5
168
102
{ACAD_REACTORS
330
C
102
}
330
C
100
AcDbDictionary
281
     1
  3
Setup1
350
2C89
  0
ACDBDICTIONARYWDFLT
  5
165
102
{ACAD_REACTORS
330
C
102
}
330
C
100
AcDbDictionary
281
     1
  3
Normal
350
166
100
AcDbDictionaryWithDefault
340
166
  0
DICTIONARY
  5
A60
102
{ACAD_REACTORS
330
C
102
}
330
C
100
AcDbDictionary
281
     1
  3
A0
350
A61
  3
A1
350
A62
  3
A2
350
A63
  3
A3
350
A64
  3
A4
350
A65
  3
A5
350
A66
  3
A6
350
A67
  3
A7
350
A68
  3
A8
350
A69
  3
A9
350
A6A
  3
B0
350
A6B
  3
B1
350
A6C
  3
B2
350
A6D
  3
B3
350
A6E
  3
B4
350
A6F
  3
B5
350
A70
  3
B6
350
A71
  0
DICTIONARY
  5
CC9
102
{ACAD_REACTORS
330
C
102
}
330
C
100
AcDbDictionary
281
     1
  3
Imperial24
350
10E5
  3
Metric50
350
CCA
  0
DICTIONARY
  5
650
102
{ACAD_REACTORS
330
C
102
}
330
C
100
AcDbDictionary
281
     1
  3
Standard
350
651
  0
DICTIONARY
  5
A4F
102
{ACAD_REACTORS
330
C
102
}
330
C
100
AcDbDictionary
281
     1
  3
2dWireframe
350
A55
  3
3D Hidden
350
A57
  3
3dWireframe
350
A56
  3
Basic
350
A54
  3
Brighten
350
A5B
  3
ColorChange
350
A5F
  3
Conceptual
350
A58
  3
Dim
350
A5A
  3
EdgeColorOff
350
CC8
  3
Facepattern
350
A5E
  3
Flat
350
A50
  3
FlatWithEdges
350
A51
  3
Gouraud
350
A52
  3
GouraudWithEdges
350
A53
  3
Hidden
350
CC0
  3
JitterOff
350
CC6
  3
Linepattern
350
A5D
  3
OverhangOff
350
CC7
  3
Realistic
350
A59
  3
Shaded
350
CC5
  3
Shaded with edges
350
CC4
  3
Shades of Gray
350
CC1
  3
Sketchy
350
CC2
  3
Thicken
350
A5C
  3
Wireframe
350
CBF
  3
X-Ray
350
CC3
  0
ACAD_PROXY_OBJECT
  5
EE
102
{ACAD_REACTORS
330
C
102
}
330
C
100
AcDbProxyObject
 90
      499
 91
      544
 95
  3276827
 70
     0
162
                 0
161
                10
310
404C
 94
        0
  0
ACAD_PROXY_OBJECT
  5
9B
102
{ACAD_REACTORS
330
C
102
}
330
C
100
AcDbProxyObject
 90
      499
 91
      514
 95
  3276827
 70
     0
162
                 0
161
                34
310
010000404C
 94
        0
  0
XRECORD
  5
3BB0
102
{ACAD_REACTORS
330
C
102
}
330
C
100
AcDbXrecord
280
     1
 90
        1
330
651
  0
DICTIONARY
  5
5D
102
{ACAD_REACTORS
330
C
102
}
330
C
100
AcDbDictionary
281
     1
  3
CANNOSCALE
350
AF4
  3
CMLEADERSTYLE
350
AF2
  3
CTABLESTYLE
350
66F
  3
CVIEWDETAILSTYLE
350
FFA
  3
CVIEWSECTIONSTYLE
350
FFB
  3
DIMADEC
350
5E
  3
DIMASSOC
350
3C7
  3
INDEXCTL
350
128
  3
LAYEREVAL
350
AF6
  3
LAYERNOTIFY
350
AF7
  3
LIGHTINGUNITS
350
AF5
  3
MSLTSCALE
350
AF3
  0
DICTIONARY
  5
3BB7
102
{ACAD_REACTORS
330
C
102
}
330
C
100
AcDbDictionary
281
     1
  3
AcDsRecords
350
3BB9
  3
AcDsSchemas
350
3BB8
1001
ACAD
1070
     2
  0
DICTIONARY
  5
142
102
{ACAD_REACTORS
330
C
102
}
330
C
100
AcDbDictionary
281
     1
  3
ACMSTDDICTIONARY
350
143
  3
AMDTSECTSYM_ARROWCOLOR
350
47D
  0
ACAD_PROXY_OBJECT
  5
AF
102
{ACAD_REACTORS
330
C
102
}
330
C
100
AcDbProxyObject
 90
      499
 91
      526
 95
  3276827
 70
     0
162
                 0
161
               114
310
00000043800000000000000000000C
 94
        0
  0
ACAD_PROXY_OBJECT
  5
18E
102
{ACAD_REACTORS
330
C
102
}
330
C
100
AcDbProxyObject
 90
      499
 91
      570
 95
  3276827
 70
     0
162
                 0
161
                34
310
05000044CC
 94
        0
  0
DICTIONARY
  5
171
102
{ACAD_REACTORS
330
C
102
}
330
C
100
AcDbDictionary
281
     1
  0
DICTIONARY
  5
1F2
102
{ACAD_REACTORS
330
C
102
}
330
C
100
AcDbDictionary
281
     1
  0
DICTIONARY
  5
849
102
{ACAD_REACTORS
330
C
102
}
330
C
100
AcDbDictionary
281
     1
  3
ASEBlockHierarchyIndexRecord
350
84B
1001
DCO15
1040
1524370329.156
  0
DICTIONARY
  5
13F2
102
{ACAD_REACTORS
330
C
102
}
330
C
100
AcDbDictionary
281
     1
  3
myviewproperty
350
13F3
  0
ACAD_PROXY_OBJECT
  5
2E8
102
{ACAD_REACTORS
330
C
102
}
330
C
100
AcDbProxyObject
 90
      499
 91
      610
 95
  3276827
 70
     0
162
                 0
161
                 8
310
0400
 94
        0
  0
DICTIONARY
  5
C7C
102
{ACAD_REACTORS
330
592
102
}
330
592
100
AcDbDictionary
281
     1
  0
DICTIONARY
  5
822
102
{ACAD_REACTORS
330
592
102
}
330
592
100
AcDbDictionary
281
     1
  0
DICTIONARY
  5
C7B
102
{ACAD_REACTORS
330
592
102
}
330
592
100
AcDbDictionary
281
     1
1001
ACAD
1000
<All
  0
DICTIONARY
  5
593
102
{ACAD_REACTORS
330
592
102
}
330
592
100
AcDbDictionary
280
     1
281
     1
  0
XRECORD
  5
3BAB
102
{ACAD_REACTORS
330
AB7
102
}
330
AB7
100
AcDbXrecord
280
     1
290
     1
  0
XRECORD
  5
3BAC
102
{ACAD_REACTORS
330
AB9
102
}
330
AB9
100
AcDbXrecord
280
     1
290
     1
  0
XRECORD
  5
3BAE
102
{ACAD_REACTORS
330
3BAD
102
}
330
3BAD
100
AcDbXrecord
280
     1
290
     1
  0
DICTIONARY
  5
30C4
102
{ACAD_REACTORS
330
12A
102
}
330
12A
100
AcDbDictionary
281
     1
  3
*A1
350
30C5
  0
SORTENTSTABLE
  5
3624
102
{ACAD_REACTORS
330
12A
102
}
330
12A
100
AcDbSortentsTable
330
1A
  0
XRECORD
  5
2CAC
102
{ACAD_REACTORS
330
2CAB
102
}
330
2CAB
100
AcDbXrecord
280
     1
 90
        1
340
A61
  0
ACDBDETAILVIEWSTYLE
  5
10E8
102
{ACAD_XDICTIONARY
360
3BC0
102
}
102
{ACAD_REACTORS
330
CCB
330
3147
330
3156
102
}
330
CCB
100
AcDbModelDocViewStyle
 70
     0
  3
Imperial24
290
     0
100
AcDbDetailViewStyle
 70
     0
 71
     0
 90
        3
 71
     1
340
10
 62
   256
 40
0.24
340
0
 62
   256
 40
0.24
300

 40
0.36
280
     3
 71
     2
340
16
 90
       25
 62
   256
 71
     3
340
10
 62
   256
 40
0.24
 90
        1
 40
0.75
 90
        1
300
%<\AcVar ViewType \f "%tc1">% %<\AcVar ViewDetailId>%\PSCALE %<\AcVar ViewScale \f "%sn">%
 71
     4
340
16
 90
       25
 62
   256
340
16
 90
       25
 62
   256
280
     0
  0
ACDBDETAILVIEWSTYLE
  5
CCC
102
{ACAD_XDICTIONARY
360
3BBC
102
}
102
{ACAD_REACTORS
330
CCB
330
3149
330
3158
102
}
330
CCB
100
AcDbModelDocViewStyle
 70
     0
  3
Metric50
290
     0
100
AcDbDetailViewStyle
 70
     0
 71
     0
 90
        3
 71
     1
340
10
 62
   256
 40
5.0
340
0
 62
   256
 40
5.0
300

 40
0.0
280
     1
 71
     2
340
16
 90
       25
 62
   256
 71
     3
340
10
 62
   256
 40
5.0
 90
        0
 40
15.0
 90
        1
300
%<\AcVar ViewDetailId>% (%<\AcVar ViewScale \f "%sn">%)
 71
     4
340
16
 90
       25
 62
   256
340
16
 90
       25
 62
   256
280
     0
  0
LAYOUT
  5
2CA4
102
{ACAD_REACTORS
330
167
102
}
330
167
100
AcDbPlotSettings
  1

  2
none_device
  4
ISO_A4_(210.00_x_297.00_MM)
  6

 40
7.5
 41
20.0
 42
7.5
 43
20.0
 44
210.0
 45
297.0
 46
0.0
 47
0.0
 48
0.0
 49
0.0
140
0.0
141
0.0
142
1.0
143
2.0
 70
   688
 72
     1
 73
     1
 74
     5
  7
@Layout.ctb
 75
    17
147
0.5
 76
     0
 77
     2
 78
   300
148
0.0
149
0.0
100
AcDbLayout
  1
Layout1
 70
     1
 71
     1
 10
0.0
 20
0.0
 11
12.0
 21
9.0
 12
0.0
 22
0.0
 32
0.0
 14
1.000000000000000E+20
 24
1.000000000000000E+20
 34
1.000000000000000E+20
 15
-1.000000000000000E+20
 25
-1.000000000000000E+20
 35
-1.000000000000000E+20
146
0.0
 13
0.0
 23
0.0
 33
0.0
 16
1.0
 26
0.0
 36
0.0
 17
0.0
 27
1.0
 37
0.0
 76
     0
330
2CA3
331
2CAA
1001
ACAD_PSEXT
1000
None
1000
None
1000
Not applicable
1000
The layout will not be plotted unless a new plotter configuration name is selected.
1070
     0
  0
LAYOUT
  5
169
102
{ACAD_XDICTIONARY
360
1474
102
}
102
{ACAD_REACTORS
330
167
102
}
330
167
100
AcDbPlotSettings
  1

  2
none_device
  4
Letter_(8.50_x_11.00_Inches)
  6

 40
6.349999904632568
 41
6.349999904632568
 42
6.350006103515625
 43
6.350006103515625
 44
215.8999938964844
 45
279.3999938964844
 46
38.1308720290886
 47
0.0
 48
0.0
 49
0.0
140
0.0
141
0.0
142
1.0
143
24.24127445441685
 70
 11956
 72
     0
 73
     1
 74
     0
  7
@Layout.ctb
 75
     0
147
0.0412519565289521
 76
     0
 77
     2
 78
   300
148
8019.824937415057
149
-189.2331007602539
100
AcDbLayout
  1
Model
 70
     1
 71
     0
 10
0.0
 20
0.0
 11
12.0
 21
9.0
 12
0.0
 22
0.0
 32
0.0
 14
0.0
 24
0.0
 34
0.0
 15
0.0
 25
0.0
 35
0.0
146
0.0
 13
0.0
 23
0.0
 33
0.0
 16
1.0
 26
0.0
 36
0.0
 17
0.0
 27
1.0
 37
0.0
 76
     0
330
1A
331
A35
1001
ACAD_PSEXT
1000
None
1000
None
1000
Not applicable
1000
The layout will not be plotted unless a new plotter configuration name is selected.
1070
     0
  0
MATERIAL
  5
A3F
102
{ACAD_XDICTIONARY
360
A40
102
}
102
{ACAD_REACTORS
330
3C9
102
}
330
3C9
100
AcDbMaterial
  1
ByBlock
 72
     0
 43
0.0008202099737533
 43
0.0
 43
0.0
 43
0.0
 43
0.0
 43
0.0008202099737533
 43
0.0
 43
0.0
 43
0.0
 43
0.0
 43
1.0
 43
0.0
 43
0.0
 43
0.0
 43
0.0
 43
1.0
 77
     0
 47
0.0008202099737533
 47
0.0
 47
0.0
 47
0.0
 47
0.0
 47
0.0008202099737533
 47
0.0
 47
0.0
 47
0.0
 47
0.0
 47
1.0
 47
0.0
 47
0.0
 47
0.0
 47
0.0
 47
1.0
171
     0
 49
0.0008202099737533
 49
0.0
 49
0.0
 49
0.0
 49
0.0
 49
0.0008202099737533
 49
0.0
 49
0.0
 49
0.0
 49
0.0
 49
1.0
 49
0.0
 49
0.0
 49
0.0
 49
0.0
 49
1.0
175
     0
142
0.0008202099737533
142
0.0
142
0.0
142
0.0
142
0.0
142
0.0008202099737533
142
0.0
142
0.0
142
0.0
142
0.0
142
1.0
142
0.0
142
0.0
142
0.0
142
0.0
142
1.0
179
     0
144
0.0008202099737533
144
0.0
144
0.0
144
0.0
144
0.0
144
0.0008202099737533
144
0.0
144
0.0
144
0.0
144
0.0
144
1.0
144
0.0
144
0.0
144
0.0
144
0.0
144
1.0
147
0.0008202099737533
147
0.0
147
0.0
147
0.0
147
0.0
147
0.0008202099737533
147
0.0
147
0.0
147
0.0
147
0.0
147
1.0
147
0.0
147
0.0
147
0.0
147
0.0
147
1.0
  0
MATERIAL
  5
A37
102
{ACAD_XDICTIONARY
360
A38
102
}
102
{ACAD_REACTORS
330
3C9
102
}
330
3C9
100
AcDbMaterial
  1
ByLayer
 72
     0
 43
0.0008202099737533
 43
0.0
 43
0.0
 43
0.0
 43
0.0
 43
0.0008202099737533
 43
0.0
 43
0.0
 43
0.0
 43
0.0
 43
1.0
 43
0.0
 43
0.0
 43
0.0
 43
0.0
 43
1.0
 77
     0
 47
0.0008202099737533
 47
0.0
 47
0.0
 47
0.0
 47
0.0
 47
0.0008202099737533
 47
0.0
 47
0.0
 47
0.0
 47
0.0
 47
1.0
 47
0.0
 47
0.0
 47
0.0
 47
0.0
 47
1.0
171
     0
 49
0.0008202099737533
 49
0.0
 49
0.0
 49
0.0
 49
0.0
 49
0.0008202099737533
 49
0.0
 49
0.0
 49
0.0
 49
0.0
 49
1.0
 49
0.0
 49
0.0
 49
0.0
 49
0.0
 49
1.0
175
     0
142
0.0008202099737533
142
0.0
142
0.0
142
0.0
142
0.0
142
0.0008202099737533
142
0.0
142
0.0
142
0.0
142
0.0
142
1.0
142
0.0
142
0.0
142
0.0
142
0.0
142
1.0
179
     0
144
0.0008202099737533
144
0.0
144
0.0
144
0.0
144
0.0
144
0.0008202099737533
144
0.0
144
0.0
144
0.0
144
0.0
144
1.0
144
0.0
144
0.0
144
0.0
144
0.0
144
1.0
147
0.0008202099737533
147
0.0
147
0.0
147
0.0
147
0.0
147
0.0008202099737533
147
0.0
147
0.0
147
0.0
147
0.0
147
1.0
147
0.0
147
0.0
147
0.0
147
0.0
147
1.0
  0
MATERIAL
  5
A47
102
{ACAD_XDICTIONARY
360
A48
102
}
102
{ACAD_REACTORS
330
3C9
102
}
330
3C9
100
AcDbMaterial
  1
Global
 72
     0
 43
0.0008202099737533
 43
0.0
 43
0.0
 43
0.0
 43
0.0
 43
0.0008202099737533
 43
0.0
 43
0.0
 43
0.0
 43
0.0
 43
1.0
 43
0.0
 43
0.0
 43
0.0
 43
0.0
 43
1.0
 77
     0
 47
0.0008202099737533
 47
0.0
 47
0.0
 47
0.0
 47
0.0
 47
0.0008202099737533
 47
0.0
 47
0.0
 47
0.0
 47
0.0
 47
1.0
 47
0.0
 47
0.0
 47
0.0
 47
0.0
 47
1.0
171
     0
 49
0.0008202099737533
 49
0.0
 49
0.0
 49
0.0
 49
0.0
 49
0.0008202099737533
 49
0.0
 49
0.0
 49
0.0
 49
0.0
 49
1.0
 49
0.0
 49
0.0
 49
0.0
 49
0.0
 49
1.0
175
     0
142
0.0008202099737533
142
0.0
142
0.0
142
0.0
142
0.0
142
0.0008202099737533
142
0.0
142
0.0
142
0.0
142
0.0
142
1.0
142
0.0
142
0.0
142
0.0
142
0.0
142
1.0
179
     0
144
0.0008202099737533
144
0.0
144
0.0
144
0.0
144
0.0
144
0.0008202099737533
144
0.0
144
0.0
144
0.0
144
0.0
144
1.0
144
0.0
144
0.0
144
0.0
144
0.0
144
1.0
147
0.0008202099737533
147
0.0
147
0.0
147
0.0
147
0.0
147
0.0008202099737533
147
0.0
147
0.0
147
0.0
147
0.0
147
1.0
147
0.0
147
0.0
147
0.0
147
0.0
147
1.0
  0
MLEADERSTYLE
  5
A73
102
{ACAD_XDICTIONARY
360
1497
102
}
102
{ACAD_REACTORS
330
A72
102
}
330
A72
100
AcDbMLeaderStyle
179
     2
170
     2
171
     1
172
     0
 90
        2
 40
0.0
 41
0.0
173
     1
 91
-1056964608
340
14
 92
       -2
290
     1
 42
2.0
291
     1
 43
0.36
  3
Standard
 44
4.0
300

342
10
174
     1
178
     6
175
     1
176
     0
 93
-1056964608
 45
4.0
292
     0
297
     0
 46
4.0
 94
-1056964608
 47
1.0
 49
1.0
140
1.0
293
     1
141
0.0
294
     1
177
     0
142
1.0
295
     0
296
     0
143
0.125
271
     0
272
     9
273
     9
298
     1
  0
MLINESTYLE
  5
13
102
{ACAD_REACTORS
330
E
102
}
330
E
100
AcDbMlineStyle
  2
STANDARD
 70
     0
  3

 62
     0
 51
90.0
 52
90.0
 71
     2
 49
0.5
 62
   256
  6
BYLAYER
 49
-0.5
 62
   256
  6
BYLAYER
  0
PLOTSETTINGS
  5
2C89
102
{ACAD_REACTORS
330
168
102
}
330
168
100
AcDbPlotSettings
  1
Setup1
  2
none_device
  4
ISO_A4_(210.00_x_297.00_MM)
  6

 40
7.5
 41
20.0
 42
7.5
 43
20.0
 44
210.0
 45
297.0
 46
0.0
 47
0.0
 48
0.0
 49
0.0
140
0.0
141
0.0
142
1.0
143
2.0
 70
   688
 72
     1
 73
     1
 74
     5
  7
@Layout.ctb
 75
    17
147
0.5
 76
     0
 77
     2
 78
   300
148
0.0
149
0.0
1001
ACAD_PSEXT
1000
None
1000
None
1000
Not applicable
1000
The layout will not be plotted unless a new plotter configuration name is selected.
1070
     0
  0
ACDBPLACEHOLDER
  5
166
102
{ACAD_REACTORS
330
165
102
}
330
165
  0
SCALE
  5
A61
102
{ACAD_REACTORS
330
A60
102
}
330
A60
100
AcDbScale
 70
     0
300
1:1
140
1.0
141
1.0
290
     1
  0
SCALE
  5
A62
102
{ACAD_REACTORS
330
A60
102
}
330
A60
100
AcDbScale
 70
     0
300
1:2
140
1.0
141
2.0
290
     0
  0
SCALE
  5
A63
102
{ACAD_REACTORS
330
A60
102
}
330
A60
100
AcDbScale
 70
     0
300
1:4
140
1.0
141
4.0
290
     0
  0
SCALE
  5
A64
102
{ACAD_REACTORS
330
A60
102
}
330
A60
100
AcDbScale
 70
     0
300
1:5
140
1.0
141
5.0
290
     0
  0
SCALE
  5
A65
102
{ACAD_REACTORS
330
A60
102
}
330
A60
100
AcDbScale
 70
     0
300
1:8
140
1.0
141
8.0
290
     0
  0
SCALE
  5
A66
102
{ACAD_REACTORS
330
A60
102
}
330
A60
100
AcDbScale
 70
     0
300
1:10
140
1.0
141
10.0
290
     0
  0
SCALE
  5
A67
102
{ACAD_REACTORS
330
A60
102
}
330
A60
100
AcDbScale
 70
     0
300
1:16
140
1.0
141
16.0
290
     0
  0
SCALE
  5
A68
102
{ACAD_REACTORS
330
A60
102
}
330
A60
100
AcDbScale
 70
     0
300
1:20
140
1.0
141
20.0
290
     0
  0
SCALE
  5
A69
102
{ACAD_REACTORS
330
A60
102
}
330
A60
100
AcDbScale
 70
     0
300
1:30
140
1.0
141
30.0
290
     0
  0
SCALE
  5
A6A
102
{ACAD_REACTORS
330
A60
102
}
330
A60
100
AcDbScale
 70
     0
300
1:40
140
1.0
141
40.0
290
     0
  0
SCALE
  5
A6B
102
{ACAD_REACTORS
330
A60
102
}
330
A60
100
AcDbScale
 70
     0
300
1:50
140
1.0
141
50.0
290
     0
  0
SCALE
  5
A6C
102
{ACAD_REACTORS
330
A60
102
}
330
A60
100
AcDbScale
 70
     0
300
1:100
140
1.0
141
100.0
290
     0
  0
SCALE
  5
A6D
102
{ACAD_REACTORS
330
A60
102
}
330
A60
100
AcDbScale
 70
     0
300
2:1
140
2.0
141
1.0
290
     0
  0
SCALE
  5
A6E
102
{ACAD_REACTORS
330
A60
102
}
330
A60
100
AcDbScale
 70
     0
300
4:1
140
4.0
141
1.0
290
     0
  0
SCALE
  5
A6F
102
{ACAD_REACTORS
330
A60
102
}
330
A60
100
AcDbScale
 70
     0
300
8:1
140
8.0
141
1.0
290
     0
  0
SCALE
  5
A70
102
{ACAD_REACTORS
330
A60
102
}
330
A60
100
AcDbScale
 70
     0
300
10:1
140
10.0
141
1.0
290
     0
  0
SCALE
  5
A71
102
{ACAD_REACTORS
330
A60
102
}
330
A60
100
AcDbScale
 70
     0
300
100:1
140
100.0
141
1.0
290
     0
  0
ACDBSECTIONVIEWSTYLE
  5
10E5
102
{ACAD_XDICTIONARY
360
3BBE
102
}
102
{ACAD_REACTORS
330
CC9
330
3143
330
3152
102
}
330
CC9
100
AcDbModelDocViewStyle
 70
     0
  3
Imperial24
290
     0
100
AcDbSectionViewStyle
 70
     0
 71
     0
 90
       78
 71
     1
340
10
 62
   256
 40
0.24
340
0
340
0
 62
   256
 40
0.24
300
I, O, Q, S, X, Z
 40
0.48
 90
        3
 40
0.18
 90
        1
 71
     2
340
16
 90
       25
 62
   256
340
16
 90
       50
 62
   256
 40
0.24
 40
0.0
 40
0.24
 71
     3
340
10
 62
   256
 40
0.24
 90
        1
 40
0.75
 90
        1
300
%<\AcVar ViewType \f "%tc1">% %<\AcVar ViewSectionStartId>%-%<\AcVar ViewSectionEndId>%\PSCALE %<\AcVar ViewScale \f "%sn">%
 71
     4
 62
   256
 62
   257
300
ANSI31
 40
1.0
 90
        0
290
     0
290
     0
 90
        6
 40
0.0
 40
1.570796326794896
 40
0.2617993877991494
 40
1.308996938995747
 40
-0.2617993877991494
 40
1.832595714594046
  0
ACDBSECTIONVIEWSTYLE
  5
CCA
102
{ACAD_XDICTIONARY
360
3BBA
102
}
102
{ACAD_REACTORS
330
CC9
330
3145
330
3154
102
}
330
CC9
100
AcDbModelDocViewStyle
 70
     0
  3
Metric50
290
     0
100
AcDbSectionViewStyle
 70
     0
 71
     0
 90
      102
 71
     1
340
10
 62
   256
 40
5.0
340
0
340
0
 62
   256
 40
5.0
300
I, O, Q, S, X, Z
 40
10.0
 90
        0
 40
2.5
 90
        0
 71
     2
340
16
 90
       25
 62
   256
340
16
 90
       50
 62
   256
 40
5.0
 40
2.5
 40
5.0
 71
     3
340
10
 62
   256
 40
5.0
 90
        0
 40
15.0
 90
        1
300
%<\AcVar ViewSectionStartId>%-%<\AcVar ViewSectionEndId>% (%<\AcVar ViewScale \f "%sn">%)
 71
     4
 62
   256
 62
   257
300
ANSI31
 40
1.0
 90
        0
290
     0
290
     0
 90
        6
 40
0.0
 40
1.570796326794896
 40
0.2617993877991494
 40
1.308996938995747
 40
-0.2617993877991494
 40
1.832595714594046
  0
TABLESTYLE
  5
651
102
{ACAD_XDICTIONARY
360
AED
102
}
102
{ACAD_REACTORS
330
650
102
}
330
650
100
AcDbTableStyle
280
     0
  3
Standard
 70
     0
 71
     0
 40
1.5
 41
1.5
280
     0
281
     0
  7
STANDARD
140
4.5
170
     2
 62
     0
 63
     7
283
     0
 90
        4
 91
        0
  1

274
    -2
284
     1
 64
     0
275
    -2
285
     1
 65
     0
276
    -2
286
     1
 66
     0
277
    -2
287
     1
 67
     0
278
    -2
288
     1
 68
     0
279
    -2
289
     1
 69
     0
  7
STANDARD
140
6.0
170
     5
 62
     0
 63
     7
283
     0
 90
        4
 91
        0
  1

274
    -2
284
     1
 64
     0
275
    -2
285
     1
 65
     0
276
    -2
286
     1
 66
     0
277
    -2
287
     1
 67
     0
278
    -2
288
     1
 68
     0
279
    -2
289
     1
 69
     0
  7
STANDARD
140
4.5
170
     5
 62
     0
 63
     7
283
     0
 90
        4
 91
        0
  1

274
    -2
284
     1
 64
     0
275
    -2
285
     1
 65
     0
276
    -2
286
     1
 66
     0
277
    -2
287
     1
 67
     0
278
    -2
288
     1
 68
     0
279
    -2
289
     1
 69
     0
  0
VISUALSTYLE
  5
A55
102
{ACAD_REACTORS
330
A4F
102
}
330
A4F
100
AcDbVisualStyle
  2
2dWireframe
 70
     4
177
     3
291
     0
 70
    58
 90
        0
176
     1
 90
        2
176
     1
 90
        0
176
     1
 90
        0
176
     1
 40
0.6
176
     1
 40
30.0
176
     1
 62
     7
420
 16777215
176
     1
 90
        1
176
     1
 90
        4
176
     1
 62
     7
176
     1
 62
   257
176
     1
 90
        1
176
     1
 90
        1
176
     1
 40
1.0
176
     1
 90
        0
176
     1
 62
   257
176
     1
 40
1.0
176
     1
 90
        1
176
     1
 90
        6
176
     1
 90
        2
176
     1
 62
     7
176
     1
 90
        5
176
     1
 90
        0
176
     1
 90
        0
176
     1
290
     0
176
     1
 90
        1
176
     1
 40
0.0
176
     1
 90
        0
176
     1
290
     1
176
     1
290
     1
176
     1
290
     0
176
     1
290
     0
176
     1
290
     0
176
     1
290
     0
176
     1
290
     0
176
     1
290
     0
176
     1
290
     0
176
     1
 90
       50
176
     1
 40
0.0
176
     1
 40
1.0
176
     1
 90
        0
176
     1
 62
    18
420
        0
176
     1
 90
       50
176
     1
 90
        3
176
     1
 62
     5
420
      255
176
     1
290
     0
176
     1
 90
       50
176
     1
 90
       50
176
     1
 90
       50
176
     1
290
     0
176
     1
 90
       50
176
     1
 62
   256
176
     0
 40
1.0
176
     0
 90
        2
176
     1
  1
strokes_ogs.tif
176
     1
290
     0
176
     1
 40
1.0
176
     1
 40
1.0
176
     1
1001
ACAD
1000
AcDbSavedByObjectVersion
1070
     0
  0
VISUALSTYLE
  5
A57
102
{ACAD_REACTORS
330
A4F
102
}
330
A4F
100
AcDbVisualStyle
  2
3D Hidden
 70
     6
177
     3
291
     0
 70
    58
 90
        1
176
     1
 90
        2
176
     1
 90
        2
176
     1
 90
        0
176
     1
 40
0.6
176
     1
 40
30.0
176
     1
 62
     7
420
 16777215
176
     1
 90
        2
176
     1
 90
        2
176
     1
 62
     7
176
     1
 62
   257
176
     1
 90
        2
176
     1
 90
        1
176
     1
 40
40.0
176
     1
 90
        0
176
     1
 62
   257
176
     1
 40
1.0
176
     1
 90
        1
176
     1
 90
        6
176
     1
 90
        2
176
     1
 62
     7
176
     1
 90
        3
176
     1
 90
        0
176
     1
 90
        0
176
     1
290
     0
176
     1
 90
        1
176
     1
 40
0.0
176
     1
 90
        0
176
     1
290
     0
176
     1
290
     1
176
     1
290
     1
176
     1
290
     0
176
     1
290
     0
176
     1
290
     0
176
     1
290
     0
176
     1
290
     0
176
     1
290
     0
176
     1
 90
       50
176
     1
 40
0.0
176
     1
 40
1.0
176
     1
 90
        0
176
     1
 62
    18
420
        0
176
     1
 90
       50
176
     1
 90
        3
176
     1
 62
     5
420
      255
176
     1
290
     0
176
     1
 90
       50
176
     1
 90
       50
176
     1
 90
       50
176
     1
290
     0
176
     1
 90
       50
176
     1
 62
   256
176
     0
 40
1.0
176
     0
 90
        2
176
     1
  1
strokes_ogs.tif
176
     1
290
     0
176
     1
 40
1.0
176
     1
 40
1.0
176
     1
1001
ACAD
1000
AcDbSavedByObjectVersion
1070
     0
  0
VISUALSTYLE
  5
A56
102
{ACAD_REACTORS
330
A4F
102
}
330
A4F
100
AcDbVisualStyle
  2
3dWireframe
 70
     5
177
     3
291
     0
 70
    58
 90
        0
176
     1
 90
        2
176
     1
 90
        0
176
     1
 90
        0
176
     1
 40
0.6
176
     1
 40
30.0
176
     1
 62
     7
420
 16777215
176
     1
 90
        1
176
     1
 90
        4
176
     1
 62
     7
176
     1
 62
   257
176
     1
 90
        1
176
     1
 90
        1
176
     1
 40
1.0
176
     1
 90
        0
176
     1
 62
   257
176
     1
 40
1.0
176
     1
 90
        1
176
     1
 90
        6
176
     1
 90
        2
176
     1
 62
     7
176
     1
 90
        5
176
     1
 90
        0
176
     1
 90
        0
176
     1
290
     0
176
     1
 90
        1
176
     1
 40
0.0
176
     1
 90
        0
176
     1
290
     0
176
     1
290
     1
176
     1
290
     1
176
     1
290
     0
176
     1
290
     0
176
     1
290
     0
176
     1
290
     0
176
     1
290
     0
176
     1
290
     0
176
     1
 90
       50
176
     1
 40
0.0
176
     1
 40
1.0
176
     1
 90
        0
176
     1
 62
    18
420
        0
176
     1
 90
       50
176
     1
 90
        3
176
     1
 62
     5
420
      255
176
     1
290
     0
176
     1
 90
       50
176
     1
 90
       50
176
     1
 90
       50
176
     1
290
     0
176
     1
 90
       50
176
     1
 62
   256
176
     0
 40
1.0
176
     0
 90
        2
176
     1
  1
strokes_ogs.tif
176
     1
290
     0
176
     1
 40
1.0
176
     1
 40
1.0
176
     1
1001
ACAD
1000
AcDbSavedByObjectVersion
1070
     0
  0
VISUALSTYLE
  5
A54
102
{ACAD_REACTORS
330
A4F
102
}
330
A4F
100
AcDbVisualStyle
  2
Basic
 70
     7
177
     3
291
     1
 70
    58
 90
        1
176
     1
 90
        0
176
     1
 90
        1
176
     1
 90
        0
176
     1
 40
0.6
176
     1
 40
30.0
176
     1
 62
     7
420
 16777215
176
     1
 90
        0
176
     1
 90
        4
176
     1
 62
     7
176
     1
 62
   257
176
     1
 90
        1
176
     1
 90
        1
176
     1
 40
1.0
176
     1
 90
        8
176
     1
 62
     7
176
     1
 40
1.0
176
     1
 90
        1
176
     1
 90
        6
176
     1
 90
        2
176
     1
 62
     7
176
     1
 90
        5
176
     1
 90
        0
176
     1
 90
        0
176
     1
290
     0
176
     1
 90
        1
176
     1
 40
0.0
176
     1
 90
        0
176
     1
290
     0
176
     1
290
     1
176
     1
290
     1
176
     1
290
     0
176
     1
290
     0
176
     1
290
     0
176
     1
290
     0
176
     1
290
     0
176
     1
290
     0
176
     1
 90
       50
176
     1
 40
0.0
176
     1
 40
1.0
176
     1
 90
        0
176
     1
 62
    18
420
        0
176
     1
 90
       50
176
     1
 90
        3
176
     1
 62
     5
420
      255
176
     1
290
     0
176
     1
 90
       50
176
     1
 90
       50
176
     1
 90
       50
176
     1
290
     0
176
     1
 90
       50
176
     1
 62
   256
176
     0
 40
1.0
176
     0
 90
        2
176
     1
  1
strokes_ogs.tif
176
     1
290
     0
176
     1
 40
1.0
176
     1
 40
1.0
176
     1
1001
ACAD
1000
AcDbSavedByObjectVersion
1070
     0
  0
VISUALSTYLE
  5
A5B
102
{ACAD_REACTORS
330
A4F
102
}
330
A4F
100
AcDbVisualStyle
  2
Brighten
 70
    12
177
     3
291
     1
 70
    58
 90
        2
176
     1
 90
        2
176
     1
 90
        0
176
     1
 90
        0
176
     1
 40
0.6
176
     1
 40
30.0
176
     1
 62
     7
420
 16777215
176
     1
 90
        1
176
     1
 90
        4
176
     1
 62
     7
176
     1
 62
   257
176
     1
 90
        1
176
     1
 90
        1
176
     1
 40
1.0
176
     1
 90
        8
176
     1
 62
     7
176
     1
 40
1.0
176
     1
 90
        1
176
     1
 90
        6
176
     1
 90
        2
176
     1
 62
     7
176
     1
 90
        5
176
     1
 90
        0
176
     1
 90
        0
176
     1
290
     0
176
     1
 90
        1
176
     1
 40
50.0
176
     1
 90
        0
176
     1
290
     0
176
     1
290
     1
176
     1
290
     1
176
     1
290
     0
176
     1
290
     0
176
     1
290
     0
176
     1
290
     0
176
     1
290
     0
176
     1
290
     0
176
     1
 90
       50
176
     1
 40
0.0
176
     1
 40
1.0
176
     1
 90
        0
176
     1
 62
    18
420
        0
176
     1
 90
       50
176
     1
 90
        3
176
     1
 62
     5
420
      255
176
     1
290
     0
176
     1
 90
       50
176
     1
 90
       50
176
     1
 90
       50
176
     1
290
     0
176
     1
 90
       50
176
     1
 62
   256
176
     0
 40
1.0
176
     0
 90
        2
176
     1
  1
strokes_ogs.tif
176
     1
290
     0
176
     1
 40
1.0
176
     1
 40
1.0
176
     1
1001
ACAD
1000
AcDbSavedByObjectVersion
1070
     0
  0
VISUALSTYLE
  5
A5F
102
{ACAD_REACTORS
330
A4F
102
}
330
A4F
100
AcDbVisualStyle
  2
ColorChange
 70
    16
177
     3
291
     1
 70
    58
 90
        2
176
     1
 90
        2
176
     1
 90
        3
176
     1
 90
        0
176
     1
 40
0.6
176
     1
 40
30.0
176
     1
 62
     8
420
  8421504
176
     1
 90
        1
176
     1
 90
        4
176
     1
 62
     7
176
     1
 62
   257
176
     1
 90
        1
176
     1
 90
        1
176
     1
 40
1.0
176
     1
 90
        8
176
     1
 62
     8
420
  8421504
176
     1
 40
1.0
176
     1
 90
        1
176
     1
 90
        6
176
     1
 90
        2
176
     1
 62
     7
176
     1
 90
        5
176
     1
 90
        0
176
     1
 90
        0
176
     1
290
     0
176
     1
 90
        1
176
     1
 40
0.0
176
     1
 90
        0
176
     1
290
     0
176
     1
290
     1
176
     1
290
     1
176
     1
290
     0
176
     1
290
     0
176
     1
290
     0
176
     1
290
     0
176
     1
290
     0
176
     1
290
     0
176
     1
 90
       50
176
     1
 40
0.0
176
     1
 40
1.0
176
     1
 90
        0
176
     1
 62
    18
420
        0
176
     1
 90
       50
176
     1
 90
        3
176
     1
 62
     5
420
      255
176
     1
290
     0
176
     1
 90
       50
176
     1
 90
       50
176
     1
 90
       50
176
     1
290
     0
176
     1
 90
       50
176
     1
 62
   256
176
     0
 40
1.0
176
     0
 90
        2
176
     1
  1
strokes_ogs.tif
176
     1
290
     0
176
     1
 40
1.0
176
     1
 40
1.0
176
     1
1001
ACAD
1000
AcDbSavedByObjectVersion
1070
     0
  0
VISUALSTYLE
  5
A58
102
{ACAD_REACTORS
330
A4F
102
}
330
A4F
100
AcDbVisualStyle
  2
Conceptual
 70
     9
177
     3
291
     0
 70
    58
 90
        3
176
     1
 90
        2
176
     1
 90
        0
176
     1
 90
        0
176
     1
 40
0.6
176
     1
 40
30.0
176
     1
 62
     7
420
 16777215
176
     1
 90
        2
176
     1
 90
        2
176
     1
 62
     7
176
     1
 62
   257
176
     1
 90
        1
176
     1
 90
        1
176
     1
 40
40.0
176
     1
 90
        8
176
     1
 62
     7
176
     1
 40
1.0
176
     1
 90
        1
176
     1
 90
        6
176
     1
 90
        2
176
     1
 62
     7
176
     1
 90
        3
176
     1
 90
        0
176
     1
 90
        0
176
     1
290
     0
176
     1
 90
        1
176
     1
 40
0.0
176
     1
 90
        0
176
     1
290
     0
176
     1
290
     1
176
     1
290
     1
176
     1
290
     0
176
     1
290
     0
176
     1
290
     0
176
     1
290
     0
176
     1
290
     0
176
     1
290
     0
176
     1
 90
       50
176
     1
 40
0.0
176
     1
 40
1.0
176
     1
 90
        0
176
     1
 62
    18
420
        0
176
     1
 90
       50
176
     1
 90
        3
176
     1
 62
     5
420
      255
176
     1
290
     0
176
     1
 90
       50
176
     1
 90
       50
176
     1
 90
       50
176
     1
290
     0
176
     1
 90
       50
176
     1
 62
   256
176
     0
 40
1.0
176
     0
 90
        2
176
     1
  1
strokes_ogs.tif
176
     1
290
     0
176
     1
 40
1.0
176
     1
 40
1.0
176
     1
1001
ACAD
1000
AcDbSavedByObjectVersion
1070
     0
  0
VISUALSTYLE
  5
A5A
102
{ACAD_REACTORS
330
A4F
102
}
330
A4F
100
AcDbVisualStyle
  2
Dim
 70
    11
177
     3
291
     1
 70
    58
 90
        2
176
     1
 90
        2
176
     1
 90
        0
176
     1
 90
        0
176
     1
 40
0.6
176
     1
 40
30.0
176
     1
 62
     7
420
 16777215
176
     1
 90
        1
176
     1
 90
        4
176
     1
 62
     7
176
     1
 62
   257
176
     1
 90
        1
176
     1
 90
        1
176
     1
 40
1.0
176
     1
 90
        8
176
     1
 62
     7
176
     1
 40
1.0
176
     1
 90
        1
176
     1
 90
        6
176
     1
 90
        2
176
     1
 62
     7
176
     1
 90
        5
176
     1
 90
        0
176
     1
 90
        0
176
     1
290
     0
176
     1
 90
        1
176
     1
 40
-50.0
176
     1
 90
        0
176
     1
290
     0
176
     1
290
     1
176
     1
290
     1
176
     1
290
     0
176
     1
290
     0
176
     1
290
     0
176
     1
290
     0
176
     1
290
     0
176
     1
290
     0
176
     1
 90
       50
176
     1
 40
0.0
176
     1
 40
1.0
176
     1
 90
        0
176
     1
 62
    18
420
        0
176
     1
 90
       50
176
     1
 90
        3
176
     1
 62
     5
420
      255
176
     1
290
     0
176
     1
 90
       50
176
     1
 90
       50
176
     1
 90
       50
176
     1
290
     0
176
     1
 90
       50
176
     1
 62
   256
176
     0
 40
1.0
176
     0
 90
        2
176
     1
  1
strokes_ogs.tif
176
     1
290
     0
176
     1
 40
1.0
176
     1
 40
1.0
176
     1
1001
ACAD
1000
AcDbSavedByObjectVersion
1070
     0
  0
VISUALSTYLE
  5
CC8
102
{ACAD_REACTORS
330
A4F
102
}
330
A4F
100
AcDbVisualStyle
  2
EdgeColorOff
 70
    22
177
     3
291
     1
 70
    58
 90
        2
176
     0
 90
        2
176
     0
 90
        0
176
     0
 90
        0
176
     0
 40
0.6
176
     0
 40
30.0
176
     0
 62
     7
420
 16777215
176
     0
 90
        1
176
     0
 90
        4
176
     0
 62
     7
176
     0
 62
   257
176
     0
 90
        1
176
     0
 90
        1
176
     0
 40
1.0
176
     0
 90
        8
176
     2
 62
     7
176
     0
 40
1.0
176
     0
 90
        1
176
     0
 90
        6
176
     0
 90
        2
176
     0
 62
     7
176
     0
 90
        5
176
     0
 90
        0
176
     0
 90
        0
176
     0
290
     0
176
     0
 90
        1
176
     0
 40
0.0
176
     0
 90
        0
176
     0
290
     0
176
     0
290
     1
176
     0
290
     1
176
     0
290
     0
176
     0
290
     0
176
     0
290
     0
176
     0
290
     0
176
     0
290
     0
176
     0
290
     0
176
     0
 90
       50
176
     0
 40
0.0
176
     0
 40
1.0
176
     0
 90
        0
176
     0
 62
    18
420
        0
176
     0
 90
       50
176
     0
 90
        3
176
     0
 62
     5
420
      255
176
     0
290
     0
176
     0
 90
       50
176
     0
 90
       50
176
     0
 90
       50
176
     0
290
     0
176
     0
 90
       50
176
     0
 62
   256
176
     0
 40
1.0
176
     0
 90
        2
176
     0
  1
strokes_ogs.tif
176
     0
290
     0
176
     0
 40
1.0
176
     0
 40
1.0
176
     0
1001
ACAD
1000
AcDbSavedByObjectVersion
1070
     0
  0
VISUALSTYLE
  5
A5E
102
{ACAD_REACTORS
330
A4F
102
}
330
A4F
100
AcDbVisualStyle
  2
Facepattern
 70
    15
177
     3
291
     1
 70
    58
 90
        2
176
     1
 90
        2
176
     1
 90
        0
176
     1
 90
        0
176
     1
 40
0.6
176
     1
 40
30.0
176
     1
 62
     7
420
 16777215
176
     1
 90
        1
176
     1
 90
        4
176
     1
 62
     7
176
     1
 62
   257
176
     1
 90
        1
176
     1
 90
        1
176
     1
 40
1.0
176
     1
 90
        8
176
     1
 62
     7
176
     1
 40
1.0
176
     1
 90
        1
176
     1
 90
        6
176
     1
 90
        2
176
     1
 62
     7
176
     1
 90
        5
176
     1
 90
        0
176
     1
 90
        0
176
     1
290
     0
176
     1
 90
        1
176
     1
 40
0.0
176
     1
 90
        0
176
     1
290
     0
176
     1
290
     1
176
     1
290
     1
176
     1
290
     0
176
     1
290
     0
176
     1
290
     0
176
     1
290
     0
176
     1
290
     0
176
     1
290
     0
176
     1
 90
       50
176
     1
 40
0.0
176
     1
 40
1.0
176
     1
 90
        0
176
     1
 62
    18
420
        0
176
     1
 90
       50
176
     1
 90
        3
176
     1
 62
     5
420
      255
176
     1
290
     0
176
     1
 90
       50
176
     1
 90
       50
176
     1
 90
       50
176
     1
290
     0
176
     1
 90
       50
176
     1
 62
   256
176
     0
 40
1.0
176
     0
 90
        2
176
     1
  1
strokes_ogs.tif
176
     1
290
     0
176
     1
 40
1.0
176
     1
 40
1.0
176
     1
1001
ACAD
1000
AcDbSavedByObjectVersion
1070
     0
  0
VISUALSTYLE
  5
A50
102
{ACAD_REACTORS
330
A4F
102
}
330
A4F
100
AcDbVisualStyle
  2
Flat
 70
     0
177
     3
291
     1
 70
    58
 90
        2
176
     1
 90
        1
176
     1
 90
        1
176
     1
 90
        2
176
     1
 40
0.6
176
     1
 40
30.0
176
     1
 62
     7
420
 16777215
176
     1
 90
        0
176
     1
 90
        4
176
     1
 62
     7
176
     1
 62
   257
176
     1
 90
        1
176
     1
 90
        1
176
     1
 40
1.0
176
     1
 90
        8
176
     1
 62
     7
176
     1
 40
1.0
176
     1
 90
        1
176
     1
 90
        6
176
     1
 90
        2
176
     1
 62
     7
176
     1
 90
        5
176
     1
 90
        0
176
     1
 90
        0
176
     1
290
     0
176
     1
 90
       13
176
     1
 40
0.0
176
     1
 90
        0
176
     1
290
     0
176
     1
290
     1
176
     1
290
     1
176
     1
290
     0
176
     1
290
     0
176
     1
290
     0
176
     1
290
     0
176
     1
290
     0
176
     1
290
     0
176
     1
 90
       50
176
     1
 40
0.0
176
     1
 40
1.0
176
     1
 90
        0
176
     1
 62
    18
420
        0
176
     1
 90
       50
176
     1
 90
        3
176
     1
 62
     5
420
      255
176
     1
290
     0
176
     1
 90
       50
176
     1
 90
       50
176
     1
 90
       50
176
     1
290
     0
176
     1
 90
       50
176
     1
 62
   256
176
     0
 40
1.0
176
     0
 90
        2
176
     1
  1
strokes_ogs.tif
176
     1
290
     0
176
     1
 40
1.0
176
     1
 40
1.0
176
     1
1001
ACAD
1000
AcDbSavedByObjectVersion
1070
     0
  0
VISUALSTYLE
  5
A51
102
{ACAD_REACTORS
330
A4F
102
}
330
A4F
100
AcDbVisualStyle
  2
FlatWithEdges
 70
     1
177
     3
291
     1
 70
    58
 90
        2
176
     1
 90
        1
176
     1
 90
        1
176
     1
 90
        2
176
     1
 40
0.6
176
     1
 40
30.0
176
     1
 62
     7
420
 16777215
176
     1
 90
        1
176
     1
 90
        4
176
     1
 62
     7
176
     1
 62
   257
176
     1
 90
        1
176
     1
 90
        1
176
     1
 40
1.0
176
     1
 90
        0
176
     1
 62
   257
176
     1
 40
1.0
176
     1
 90
        1
176
     1
 90
        6
176
     1
 90
        2
176
     1
 62
     7
176
     1
 90
        5
176
     1
 90
        0
176
     1
 90
        0
176
     1
290
     0
176
     1
 90
       13
176
     1
 40
0.0
176
     1
 90
        0
176
     1
290
     0
176
     1
290
     1
176
     1
290
     1
176
     1
290
     0
176
     1
290
     0
176
     1
290
     0
176
     1
290
     0
176
     1
290
     0
176
     1
290
     0
176
     1
 90
       50
176
     1
 40
0.0
176
     1
 40
1.0
176
     1
 90
        0
176
     1
 62
    18
420
        0
176
     1
 90
       50
176
     1
 90
        3
176
     1
 62
     5
420
      255
176
     1
290
     0
176
     1
 90
       50
176
     1
 90
       50
176
     1
 90
       50
176
     1
290
     0
176
     1
 90
       50
176
     1
 62
   256
176
     0
 40
1.0
176
     0
 90
        2
176
     1
  1
strokes_ogs.tif
176
     1
290
     0
176
     1
 40
1.0
176
     1
 40
1.0
176
     1
1001
ACAD
1000
AcDbSavedByObjectVersion
1070
     0
  0
VISUALSTYLE
  5
A52
102
{ACAD_REACTORS
330
A4F
102
}
330
A4F
100
AcDbVisualStyle
  2
Gouraud
 70
     2
177
     3
291
     1
 70
    58
 90
        2
176
     1
 90
        2
176
     1
 90
        1
176
     1
 90
        2
176
     1
 40
0.6
176
     1
 40
30.0
176
     1
 62
     7
420
 16777215
176
     1
 90
        0
176
     1
 90
        4
176
     1
 62
     7
176
     1
 62
   257
176
     1
 90
        1
176
     1
 90
        1
176
     1
 40
1.0
176
     1
 90
        0
176
     1
 62
     7
176
     1
 40
1.0
176
     1
 90
        1
176
     1
 90
        6
176
     1
 90
        2
176
     1
 62
     7
176
     1
 90
        5
176
     1
 90
        0
176
     1
 90
        0
176
     1
290
     0
176
     1
 90
       13
176
     1
 40
0.0
176
     1
 90
        0
176
     1
290
     0
176
     1
290
     1
176
     1
290
     1
176
     1
290
     0
176
     1
290
     0
176
     1
290
     0
176
     1
290
     0
176
     1
290
     0
176
     1
290
     0
176
     1
 90
       50
176
     1
 40
0.0
176
     1
 40
1.0
176
     1
 90
        0
176
     1
 62
    18
420
        0
176
     1
 90
       50
176
     1
 90
        3
176
     1
 62
     5
420
      255
176
     1
290
     0
176
     1
 90
       50
176
     1
 90
       50
176
     1
 90
       50
176
     1
290
     0
176
     1
 90
       50
176
     1
 62
   256
176
     0
 40
1.0
176
     0
 90
        2
176
     1
  1
strokes_ogs.tif
176
     1
290
     0
176
     1
 40
1.0
176
     1
 40
1.0
176
     1
1001
ACAD
1000
AcDbSavedByObjectVersion
1070
     0
  0
VISUALSTYLE
  5
A53
102
{ACAD_REACTORS
330
A4F
102
}
330
A4F
100
AcDbVisualStyle
  2
GouraudWithEdges
 70
     3
177
     3
291
     1
 70
    58
 90
        2
176
     1
 90
        2
176
     1
 90
        1
176
     1
 90
        2
176
     1
 40
0.6
176
     1
 40
30.0
176
     1
 62
     7
420
 16777215
176
     1
 90
        1
176
     1
 90
        4
176
     1
 62
     7
176
     1
 62
   257
176
     1
 90
        1
176
     1
 90
        1
176
     1
 40
1.0
176
     1
 90
        0
176
     1
 62
   257
176
     1
 40
1.0
176
     1
 90
        1
176
     1
 90
        6
176
     1
 90
        2
176
     1
 62
     7
176
     1
 90
        5
176
     1
 90
        0
176
     1
 90
        0
176
     1
290
     0
176
     1
 90
       13
176
     1
 40
0.0
176
     1
 90
        0
176
     1
290
     0
176
     1
290
     1
176
     1
290
     1
176
     1
290
     0
176
     1
290
     0
176
     1
290
     0
176
     1
290
     0
176
     1
290
     0
176
     1
290
     0
176
     1
 90
       50
176
     1
 40
0.0
176
     1
 40
1.0
176
     1
 90
        0
176
     1
 62
    18
420
        0
176
     1
 90
       50
176
     1
 90
        3
176
     1
 62
     5
420
      255
176
     1
290
     0
176
     1
 90
       50
176
     1
 90
       50
176
     1
 90
       50
176
     1
290
     0
176
     1
 90
       50
176
     1
 62
   256
176
     0
 40
1.0
176
     0
 90
        2
176
     1
  1
strokes_ogs.tif
176
     1
290
     0
176
     1
 40
1.0
176
     1
 40
1.0
176
     1
1001
ACAD
1000
AcDbSavedByObjectVersion
1070
     0
  0
VISUALSTYLE
  5
CC0
102
{ACAD_REACTORS
330
A4F
102
}
330
A4F
100
AcDbVisualStyle
  2
Hidden
 70
     6
177
     3
291
     0
 70
    58
 90
        1
176
     1
 90
        2
176
     1
 90
        2
176
     1
 90
        0
176
     1
 40
0.6
176
     1
 40
30.0
176
     1
 62
     7
420
 16777215
176
     1
 90
        2
176
     1
 90
        2
176
     1
 62
     7
176
     1
 62
   257
176
     1
 90
        2
176
     1
 90
        1
176
     1
 40
40.0
176
     1
 90
        0
176
     1
 62
   257
176
     1
 40
1.0
176
     1
 90
        1
176
     1
 90
        6
176
     1
 90
        2
176
     1
 62
     7
176
     1
 90
        3
176
     1
 90
        0
176
     1
 90
        0
176
     1
290
     0
176
     1
 90
        1
176
     1
 40
0.0
176
     1
 90
        0
176
     1
290
     0
176
     1
290
     1
176
     1
290
     1
176
     1
290
     0
176
     1
290
     0
176
     1
290
     0
176
     1
290
     0
176
     1
290
     0
176
     1
290
     0
176
     1
 90
       50
176
     1
 40
0.0
176
     1
 40
1.0
176
     1
 90
        0
176
     1
 62
    18
420
        0
176
     1
 90
       50
176
     1
 90
        3
176
     1
 62
     5
420
      255
176
     1
290
     0
176
     1
 90
       50
176
     1
 90
       50
176
     1
 90
       50
176
     1
290
     0
176
     1
 90
       50
176
     1
 62
   256
176
     0
 40
1.0
176
     0
 90
        2
176
     1
  1
strokes_ogs.tif
176
     1
290
     0
176
     1
 40
1.0
176
     1
 40
1.0
176
     1
1001
ACAD
1000
AcDbSavedByObjectVersion
1070
     0
  0
VISUALSTYLE
  5
CC6
102
{ACAD_REACTORS
330
A4F
102
}
330
A4F
100
AcDbVisualStyle
  2
JitterOff
 70
    20
177
     3
291
     1
 70
    58
 90
        2
176
     0
 90
        2
176
     0
 90
        0
176
     0
 90
        0
176
     0
 40
0.6
176
     0
 40
30.0
176
     0
 62
     7
420
 16777215
176
     0
 90
        1
176
     0
 90
        4
176
     0
 62
     7
176
     0
 62
   257
176
     0
 90
        1
176
     0
 90
        1
176
     0
 40
1.0
176
     0
 90
       10
176
     2
 62
     7
176
     0
 40
1.0
176
     0
 90
        1
176
     0
 90
        6
176
     0
 90
        2
176
     0
 62
     7
176
     0
 90
        5
176
     0
 90
        0
176
     0
 90
        0
176
     0
290
     0
176
     0
 90
        1
176
     0
 40
0.0
176
     0
 90
        0
176
     0
290
     0
176
     0
290
     1
176
     0
290
     1
176
     0
290
     0
176
     0
290
     0
176
     0
290
     0
176
     0
290
     0
176
     0
290
     0
176
     0
290
     0
176
     0
 90
       50
176
     0
 40
0.0
176
     0
 40
1.0
176
     0
 90
        0
176
     0
 62
    18
420
        0
176
     0
 90
       50
176
     0
 90
        3
176
     0
 62
     5
420
      255
176
     0
290
     0
176
     0
 90
       50
176
     0
 90
       50
176
     0
 90
       50
176
     0
290
     0
176
     0
 90
       50
176
     0
 62
   256
176
     0
 40
1.0
176
     0
 90
        2
176
     0
  1
strokes_ogs.tif
176
     0
290
     0
176
     0
 40
1.0
176
     0
 40
1.0
176
     0
1001
ACAD
1000
AcDbSavedByObjectVersion
1070
     0
  0
VISUALSTYLE
  5
A5D
102
{ACAD_REACTORS
330
A4F
102
}
330
A4F
100
AcDbVisualStyle
  2
Linepattern
 70
    14
177
     3
291
     1
 70
    58
 90
        2
176
     1
 90
        2
176
     1
 90
        0
176
     1
 90
        0
176
     1
 40
0.6
176
     1
 40
30.0
176
     1
 62
     7
420
 16777215
176
     1
 90
        1
176
     1
 90
        4
176
     1
 62
     7
176
     1
 62
   257
176
     1
 90
        7
176
     1
 90
        7
176
     1
 40
1.0
176
     1
 90
        8
176
     1
 62
     7
176
     1
 40
1.0
176
     1
 90
        1
176
     1
 90
        6
176
     1
 90
        2
176
     1
 62
     7
176
     1
 90
        5
176
     1
 90
        0
176
     1
 90
        0
176
     1
290
     0
176
     1
 90
        1
176
     1
 40
0.0
176
     1
 90
        0
176
     1
290
     0
176
     1
290
     1
176
     1
290
     1
176
     1
290
     0
176
     1
290
     0
176
     1
290
     0
176
     1
290
     0
176
     1
290
     0
176
     1
290
     0
176
     1
 90
       50
176
     1
 40
0.0
176
     1
 40
1.0
176
     1
 90
        0
176
     1
 62
    18
420
        0
176
     1
 90
       50
176
     1
 90
        3
176
     1
 62
     5
420
      255
176
     1
290
     0
176
     1
 90
       50
176
     1
 90
       50
176
     1
 90
       50
176
     1
290
     0
176
     1
 90
       50
176
     1
 62
   256
176
     0
 40
1.0
176
     0
 90
        2
176
     1
  1
strokes_ogs.tif
176
     1
290
     0
176
     1
 40
1.0
176
     1
 40
1.0
176
     1
1001
ACAD
1000
AcDbSavedByObjectVersion
1070
     0
  0
VISUALSTYLE
  5
CC7
102
{ACAD_REACTORS
330
A4F
102
}
330
A4F
100
AcDbVisualStyle
  2
OverhangOff
 70
    21
177
     3
291
     1
 70
    58
 90
        2
176
     0
 90
        2
176
     0
 90
        0
176
     0
 90
        0
176
     0
 40
0.6
176
     0
 40
30.0
176
     0
 62
     7
420
 16777215
176
     0
 90
        1
176
     0
 90
        4
176
     0
 62
     7
176
     0
 62
   257
176
     0
 90
        1
176
     0
 90
        1
176
     0
 40
1.0
176
     0
 90
        9
176
     2
 62
     7
176
     0
 40
1.0
176
     0
 90
        1
176
     0
 90
        6
176
     0
 90
        2
176
     0
 62
     7
176
     0
 90
        5
176
     0
 90
        0
176
     0
 90
        0
176
     0
290
     0
176
     0
 90
        1
176
     0
 40
0.0
176
     0
 90
        0
176
     0
290
     0
176
     0
290
     1
176
     0
290
     1
176
     0
290
     0
176
     0
290
     0
176
     0
290
     0
176
     0
290
     0
176
     0
290
     0
176
     0
290
     0
176
     0
 90
       50
176
     0
 40
0.0
176
     0
 40
1.0
176
     0
 90
        0
176
     0
 62
    18
420
        0
176
     0
 90
       50
176
     0
 90
        3
176
     0
 62
     5
420
      255
176
     0
290
     0
176
     0
 90
       50
176
     0
 90
       50
176
     0
 90
       50
176
     0
290
     0
176
     0
 90
       50
176
     0
 62
   256
176
     0
 40
1.0
176
     0
 90
        2
176
     0
  1
strokes_ogs.tif
176
     0
290
     0
176
     0
 40
1.0
176
     0
 40
1.0
176
     0
1001
ACAD
1000
AcDbSavedByObjectVersion
1070
     0
  0
VISUALSTYLE
  5
A59
102
{ACAD_REACTORS
330
A4F
102
}
330
A4F
100
AcDbVisualStyle
  2
Realistic
 70
     8
177
     3
291
     0
 70
    58
 90
        2
176
     1
 90
        2
176
     1
 90
        0
176
     1
 90
        0
176
     1
 40
0.6
176
     1
 40
30.0
176
     1
 62
     7
420
 16777215
176
     1
 90
        1
176
     1
 90
        0
176
     1
 62
     7
176
     1
 62
   257
176
     1
 90
        1
176
     1
 90
        1
176
     1
 40
1.0
176
     1
 90
        8
176
     1
 62
     8
420
  7895160
176
     1
 40
1.0
176
     1
 90
        1
176
     1
 90
        6
176
     1
 90
        2
176
     1
 62
     7
176
     1
 90
        5
176
     1
 90
        0
176
     1
 90
        0
176
     1
290
     0
176
     1
 90
       13
176
     1
 40
0.0
176
     1
 90
        0
176
     1
290
     0
176
     1
290
     1
176
     1
290
     1
176
     1
290
     0
176
     1
290
     0
176
     1
290
     0
176
     1
290
     0
176
     1
290
     0
176
     1
290
     0
176
     1
 90
       50
176
     1
 40
0.0
176
     1
 40
1.0
176
     1
 90
        0
176
     1
 62
    18
420
        0
176
     1
 90
       50
176
     1
 90
        3
176
     1
 62
     5
420
      255
176
     1
290
     0
176
     1
 90
       50
176
     1
 90
       50
176
     1
 90
       50
176
     1
290
     0
176
     1
 90
       50
176
     1
 62
   256
176
     0
 40
1.0
176
     0
 90
        2
176
     1
  1
strokes_ogs.tif
176
     1
290
     0
176
     1
 40
1.0
176
     1
 40
1.0
176
     1
1001
ACAD
1000
AcDbSavedByObjectVersion
1070
     0
  0
VISUALSTYLE
  5
CC5
102
{ACAD_REACTORS
330
A4F
102
}
330
A4F
100
AcDbVisualStyle
  2
Shaded
 70
    27
177
     3
291
     0
 70
    58
 90
        2
176
     1
 90
        2
176
     1
 90
        1
176
     1
 90
        2
176
     1
 40
0.6
176
     1
 40
30.0
176
     1
 62
     7
420
 16777215
176
     1
 90
        0
176
     1
 90
        4
176
     1
 62
     7
176
     1
 62
   257
176
     1
 90
        1
176
     1
 90
        1
176
     1
 40
1.0
176
     1
 90
        8
176
     1
 62
   257
176
     1
 40
1.0
176
     1
 90
        1
176
     1
 90
        6
176
     1
 90
        2
176
     1
 62
     8
420
  7895160
176
     1
 90
        3
176
     1
 90
        0
176
     1
 90
        0
176
     1
290
     0
176
     1
 90
        5
176
     1
 40
0.0
176
     1
 90
        0
176
     1
290
     0
176
     1
290
     1
176
     1
290
     1
176
     1
290
     0
176
     1
290
     0
176
     1
290
     0
176
     1
290
     0
176
     1
290
     0
176
     1
290
     0
176
     1
 90
       50
176
     1
 40
0.0
176
     1
 40
1.0
176
     1
 90
        0
176
     1
 62
    18
420
        0
176
     1
 90
       50
176
     1
 90
        3
176
     1
 62
     5
420
      255
176
     1
290
     0
176
     1
 90
       50
176
     1
 90
       50
176
     1
 90
       50
176
     1
290
     0
176
     1
 90
       50
176
     1
 62
   256
176
     0
 40
1.0
176
     0
 90
        2
176
     1
  1
strokes_ogs.tif
176
     1
290
     0
176
     1
 40
1.0
176
     1
 40
1.0
176
     1
1001
ACAD
1000
AcDbSavedByObjectVersion
1070
     0
  0
VISUALSTYLE
  5
CC4
102
{ACAD_REACTORS
330
A4F
102
}
330
A4F
100
AcDbVisualStyle
  2
Shaded with edges
 70
    26
177
     3
291
     0
 70
    58
 90
        2
176
     1
 90
        2
176
     1
 90
        1
176
     1
 90
        2
176
     1
 40
0.6
176
     1
 40
30.0
176
     1
 62
     7
420
 16777215
176
     1
 90
        1
176
     1
 90
        2
176
     1
 62
     7
176
     1
 62
   257
176
     1
 90
        2
176
     1
 90
        1
176
     1
 40
1.0
176
     1
 90
        8
176
     1
 62
   257
176
     1
 40
1.0
176
     1
 90
        1
176
     1
 90
        6
176
     1
 90
        2
176
     1
 62
     7
176
     1
 90
        3
176
     1
 90
        0
176
     1
 90
        0
176
     1
290
     0
176
     1
 90
        5
176
     1
 40
0.0
176
     1
 90
        0
176
     1
290
     0
176
     1
290
     1
176
     1
290
     1
176
     1
290
     0
176
     1
290
     0
176
     1
290
     0
176
     1
290
     0
176
     1
290
     0
176
     1
290
     0
176
     1
 90
       50
176
     1
 40
0.0
176
     1
 40
1.0
176
     1
 90
        0
176
     1
 62
    18
420
        0
176
     1
 90
       50
176
     1
 90
        3
176
     1
 62
     5
420
      255
176
     1
290
     0
176
     1
 90
       50
176
     1
 90
       50
176
     1
 90
       50
176
     1
290
     0
176
     1
 90
       50
176
     1
 62
   256
176
     0
 40
1.0
176
     0
 90
        2
176
     1
  1
strokes_ogs.tif
176
     1
290
     0
176
     1
 40
1.0
176
     1
 40
1.0
176
     1
1001
ACAD
1000
AcDbSavedByObjectVersion
1070
     0
  0
VISUALSTYLE
  5
CC1
102
{ACAD_REACTORS
330
A4F
102
}
330
A4F
100
AcDbVisualStyle
  2
Shades of Gray
 70
    23
177
     3
291
     0
 70
    58
 90
        2
176
     1
 90
        2
176
     1
 90
        3
176
     1
 90
        0
176
     1
 40
0.6
176
     1
 40
30.0
176
     1
 62
     7
420
 16777215
176
     1
 90
        2
176
     1
 90
        2
176
     1
 62
     7
176
     1
 62
     7
176
     1
 90
        1
176
     1
 90
        1
176
     1
 40
40.0
176
     1
 90
        8
176
     1
 62
     7
176
     1
 40
1.0
176
     1
 90
        1
176
     1
 90
        6
176
     1
 90
        2
176
     1
 62
     7
176
     1
 90
        3
176
     1
 90
        0
176
     1
 90
        0
176
     1
290
     0
176
     1
 90
        1
176
     1
 40
0.0
176
     1
 90
        0
176
     1
290
     0
176
     1
290
     1
176
     1
290
     1
176
     1
290
     0
176
     1
290
     0
176
     1
290
     0
176
     1
290
     0
176
     1
290
     0
176
     1
290
     0
176
     1
 90
       50
176
     1
 40
0.0
176
     1
 40
1.0
176
     1
 90
        0
176
     1
 62
    18
420
        0
176
     1
 90
       50
176
     1
 90
        3
176
     1
 62
     5
420
      255
176
     1
290
     0
176
     1
 90
       50
176
     1
 90
       50
176
     1
 90
       50
176
     1
290
     0
176
     1
 90
       50
176
     1
 62
   256
176
     0
 40
1.0
176
     0
 90
        2
176
     1
  1
strokes_ogs.tif
176
     1
290
     0
176
     1
 40
1.0
176
     1
 40
1.0
176
     1
1001
ACAD
1000
AcDbSavedByObjectVersion
1070
     0
  0
VISUALSTYLE
  5
CC2
102
{ACAD_REACTORS
330
A4F
102
}
330
A4F
100
AcDbVisualStyle
  2
Sketchy
 70
    24
177
     3
291
     0
 70
    58
 90
        1
176
     1
 90
        2
176
     1
 90
        2
176
     1
 90
        0
176
     1
 40
0.6
176
     1
 40
30.0
176
     1
 62
     7
420
 16777215
176
     1
 90
        2
176
     1
 90
        2
176
     1
 62
     7
176
     1
 62
     7
176
     1
 90
        1
176
     1
 90
        1
176
     1
 40
40.0
176
     1
 90
       11
176
     1
 62
     7
176
     1
 40
1.0
176
     1
 90
        1
176
     1
 90
        6
176
     1
 90
        2
176
     1
 62
     7
176
     1
 90
        6
176
     1
 90
        0
176
     1
 90
        0
176
     1
290
     0
176
     1
 90
        1
176
     1
 40
0.0
176
     1
 90
        0
176
     1
290
     0
176
     1
290
     1
176
     1
290
     1
176
     1
290
     0
176
     1
290
     0
176
     1
290
     0
176
     1
290
     0
176
     1
290
     0
176
     1
290
     0
176
     1
 90
       50
176
     1
 40
0.0
176
     1
 40
1.0
176
     1
 90
        0
176
     1
 62
    18
420
        0
176
     1
 90
       50
176
     1
 90
        3
176
     1
 62
     5
420
      255
176
     1
290
     0
176
     1
 90
       50
176
     1
 90
       50
176
     1
 90
       50
176
     1
290
     0
176
     1
 90
       50
176
     1
 62
   256
176
     0
 40
1.0
176
     0
 90
        2
176
     1
  1
strokes_ogs.tif
176
     1
290
     0
176
     1
 40
1.0
176
     1
 40
1.0
176
     1
1001
ACAD
1000
AcDbSavedByObjectVersion
1070
     0
  0
VISUALSTYLE
  5
A5C
102
{ACAD_REACTORS
330
A4F
102
}
330
A4F
100
AcDbVisualStyle
  2
Thicken
 70
    13
177
     3
291
     1
 70
    58
 90
        2
176
     1
 90
        2
176
     1
 90
        0
176
     1
 90
        0
176
     1
 40
0.6
176
     1
 40
30.0
176
     1
 62
     7
420
 16777215
176
     1
 90
        1
176
     1
 90
        4
176
     1
 62
     7
176
     1
 62
   257
176
     1
 90
        1
176
     1
 90
        1
176
     1
 40
1.0
176
     1
 90
       12
176
     1
 62
     7
176
     1
 40
1.0
176
     1
 90
        1
176
     1
 90
        6
176
     1
 90
        2
176
     1
 62
     7
176
     1
 90
        5
176
     1
 90
        0
176
     1
 90
        0
176
     1
290
     0
176
     1
 90
        1
176
     1
 40
0.0
176
     1
 90
        0
176
     1
290
     0
176
     1
290
     1
176
     1
290
     1
176
     1
290
     0
176
     1
290
     0
176
     1
290
     0
176
     1
290
     0
176
     1
290
     0
176
     1
290
     0
176
     1
 90
       50
176
     1
 40
0.0
176
     1
 40
1.0
176
     1
 90
        0
176
     1
 62
    18
420
        0
176
     1
 90
       50
176
     1
 90
        3
176
     1
 62
     5
420
      255
176
     1
290
     0
176
     1
 90
       50
176
     1
 90
       50
176
     1
 90
       50
176
     1
290
     0
176
     1
 90
       50
176
     1
 62
   256
176
     0
 40
1.0
176
     0
 90
        2
176
     1
  1
strokes_ogs.tif
176
     1
290
     0
176
     1
 40
1.0
176
     1
 40
1.0
176
     1
1001
ACAD
1000
AcDbSavedByObjectVersion
1070
     0
  0
VISUALSTYLE
  5
CBF
102
{ACAD_REACTORS
330
A4F
102
}
330
A4F
100
AcDbVisualStyle
  2
Wireframe
 70
     5
177
     3
291
     0
 70
    58
 90
        0
176
     1
 90
        2
176
     1
 90
        0
176
     1
 90
        0
176
     1
 40
0.6
176
     1
 40
30.0
176
     1
 62
     7
420
 16777215
176
     1
 90
        1
176
     1
 90
        4
176
     1
 62
     7
176
     1
 62
   257
176
     1
 90
        1
176
     1
 90
        1
176
     1
 40
1.0
176
     1
 90
        0
176
     1
 62
   257
176
     1
 40
1.0
176
     1
 90
        1
176
     1
 90
        6
176
     1
 90
        2
176
     1
 62
     7
176
     1
 90
        3
176
     1
 90
        0
176
     1
 90
        0
176
     1
290
     0
176
     1
 90
        1
176
     1
 40
0.0
176
     1
 90
        0
176
     1
290
     0
176
     1
290
     1
176
     1
290
     1
176
     1
290
     0
176
     1
290
     0
176
     1
290
     0
176
     1
290
     0
176
     1
290
     0
176
     1
290
     0
176
     1
 90
       50
176
     1
 40
0.0
176
     1
 40
1.0
176
     1
 90
        0
176
     1
 62
    18
420
        0
176
     1
 90
       50
176
     1
 90
        3
176
     1
 62
     5
420
      255
176
     1
290
     0
176
     1
 90
       50
176
     1
 90
       50
176
     1
 90
       50
176
     1
290
     0
176
     1
 90
       50
176
     1
 62
   256
176
     0
 40
1.0
176
     0
 90
        2
176
     1
  1
strokes_ogs.tif
176
     1
290
     0
176
     1
 40
1.0
176
     1
 40
1.0
176
     1
1001
ACAD
1000
AcDbSavedByObjectVersion
1070
     0
  0
VISUALSTYLE
  5
CC3
102
{ACAD_REACTORS
330
A4F
102
}
330
A4F
100
AcDbVisualStyle
  2
X-Ray
 70
    25
177
     3
291
     0
 70
    58
 90
        2
176
     1
 90
        2
176
     1
 90
        1
176
     1
 90
        1
176
     1
 40
0.5
176
     1
 40
30.0
176
     1
 62
     7
420
 16777215
176
     1
 90
        1
176
     1
 90
        0
176
     1
 62
     7
176
     1
 62
   257
176
     1
 90
        1
176
     1
 90
        1
176
     1
 40
1.0
176
     1
 90
        8
176
     1
 62
     7
176
     1
 40
1.0
176
     1
 90
        1
176
     1
 90
        6
176
     1
 90
        2
176
     1
 62
     7
176
     1
 90
        3
176
     1
 90
        0
176
     1
 90
        0
176
     1
290
     0
176
     1
 90
       13
176
     1
 40
0.0
176
     1
 90
        0
176
     1
290
     0
176
     1
290
     1
176
     1
290
     1
176
     1
290
     0
176
     1
290
     0
176
     1
290
     0
176
     1
290
     0
176
     1
290
     0
176
     1
290
     0
176
     1
 90
       50
176
     1
 40
0.0
176
     1
 40
1.0
176
     1
 90
        0
176
     1
 62
    18
420
        0
176
     1
 90
       50
176
     1
 90
        3
176
     1
 62
     5
420
      255
176
     1
290
     0
176
     1
 90
       50
176
     1
 90
       50
176
     1
 90
       50
176
     1
290
     0
176
     1
 90
       50
176
     1
 62
   256
176
     0
 40
1.0
176
     0
 90
        2
176
     1
  1
strokes_ogs.tif
176
     1
290
     0
176
     1
 40
1.0
176
     1
 40
1.0
176
     1
1001
ACAD
1000
AcDbSavedByObjectVersion
1070
     0
  0
DICTIONARYVAR
  5
AF4
102
{ACAD_REACTORS
330
5D
102
}
330
5D
100
DictionaryVariables
280
     0
  1
1:1
  0
DICTIONARYVAR
  5
AF2
102
{ACAD_REACTORS
330
5D
102
}
330
5D
100
DictionaryVariables
280
     0
  1
STANDARD
  0
DICTIONARYVAR
  5
66F
102
{ACAD_REACTORS
330
5D
102
}
330
5D
100
DictionaryVariables
280
     0
  1
STANDARD
  0
DICTIONARYVAR
  5
FFA
102
{ACAD_REACTORS
330
5D
102
}
330
5D
100
DictionaryVariables
280
     0
  1
Metric50
  0
DICTIONARYVAR
  5
FFB
102
{ACAD_REACTORS
330
5D
102
}
330
5D
100
DictionaryVariables
280
     0
  1
Metric50
  0
DICTIONARYVAR
  5
5E
102
{ACAD_REACTORS
330
5D
102
}
330
5D
100
DictionaryVariables
280
     0
  1
0
  0
DICTIONARYVAR
  5
3C7
102
{ACAD_REACTORS
330
5D
102
}
330
5D
100
DictionaryVariables
280
     0
  1
1
  0
DICTIONARYVAR
  5
128
102
{ACAD_REACTORS
330
5D
102
}
330
5D
100
DictionaryVariables
280
     0
  1
1
  0
DICTIONARYVAR
  5
AF6
102
{ACAD_REACTORS
330
5D
102
}
330
5D
100
DictionaryVariables
280
     0
  1
1
  0
DICTIONARYVAR
  5
AF7
102
{ACAD_REACTORS
330
5D
102
}
330
5D
100
DictionaryVariables
280
     0
  1
15
  0
DICTIONARYVAR
  5
AF5
102
{ACAD_REACTORS
330
5D
102
}
330
5D
100
DictionaryVariables
280
     0
  1
0
  0
DICTIONARYVAR
  5
AF3
102
{ACAD_REACTORS
330
5D
102
}
330
5D
100
DictionaryVariables
280
     0
  1
0
  0
DICTIONARY
  5
3BB9
102
{ACAD_REACTORS
330
3BB7
102
}
330
3BB7
100
AcDbDictionary
281
     1
  0
DICTIONARY
  5
3BB8
102
{ACAD_REACTORS
330
3BB7
102
}
330
3BB7
100
AcDbDictionary
281
     1
  3
2437292804880
350
3BB1
  3
2437292804896
350
3BB2
  3
2437292804912
350
3BB3
  3
2437292804928
350
3BB4
  3
2437292804944
350
3BB5
  3
2437292804960
350
3BB6
  0
DICTIONARY
  5
143
102
{ACAD_REACTORS
330
142
102
}
330
142
100
AcDbDictionary
281
     1
  0
XRECORD
  5
47D
102
{ACAD_REACTORS
330
142
102
}
330
142
100
AcDbXrecord
280
     1
 90
-1056964608
  0
XRECORD
  5
84B
102
{ACAD_REACTORS
330
849
102
}
330
849
100
AcDbXrecord
280
     1
  0
DICTIONARY
  5
13F3
102
{ACAD_REACTORS
330
13F2
102
}
330
13F2
100
AcDbDictionary
281
     1
  3
_HasBOM
350
13F9
  3
Comment
350
13F8
  3
Folder
350
13F7
  3
GEN-TITLE-DES1
350
13F5
  3
GEN-TITLE-DES2
350
13F6
  3
GEN-TITLE-NR
350
13F4
  0
LAYER_INDEX
  5
30C5
102
{ACAD_REACTORS
330
30C4
102
}
330
30C4
100
AcDbIndex
 40
2460775.743425926
100
AcDbLayerIndex
  8
0
360
316C
 90
        0
  8
AM_0
360
316D
 90
        1
  8
Defpoints
360
316E
 90
        0
  8
DIM
360
3217
 90
        0
  0
DICTIONARY
  5
3BC0
330
10E8
100
AcDbDictionary
280
     1
281
     1
  3
ACAD_XREC_ROUNDTRIP
360
3BC1
  0
DICTIONARY
  5
3BBC
330
CCC
100
AcDbDictionary
280
     1
281
     1
  3
ACAD_XREC_ROUNDTRIP
360
3BBD
  0
DICTIONARY
  5
1474
330
169
100
AcDbDictionary
280
     1
281
     1
  0
DICTIONARY
  5
A40
330
A3F
100
AcDbDictionary
280
     1
281
     1
  3
BUMPTILE
360
A42
  3
DIFFUSETILE
360
A41
  3
OPACITYTILE
360
A45
  3
REFLECTIONTILE
360
A44
  3
REFRACTIONTILE
360
A46
  3
SPECULARTILE
360
A43
  0
DICTIONARY
  5
A38
330
A37
100
AcDbDictionary
280
     1
281
     1
  3
BUMPTILE
360
A3A
  3
DIFFUSETILE
360
A39
  3
OPACITYTILE
360
A3D
  3
REFLECTIONTILE
360
A3C
  3
REFRACTIONTILE
360
A3E
  3
SPECULARTILE
360
A3B
  0
DICTIONARY
  5
A48
330
A47
100
AcDbDictionary
280
     1
281
     1
  3
BUMPTILE
360
A4A
  3
DIFFUSETILE
360
A49
  3
OPACITYTILE
360
A4D
  3
REFLECTIONTILE
360
A4C
  3
REFRACTIONTILE
360
A4E
  3
SPECULARTILE
360
A4B
  0
DICTIONARY
  5
1497
330
A73
100
AcDbDictionary
280
     1
281
     1
  3
ACAD_XREC_ROUNDTRIP
360
1498
  0
DICTIONARY
  5
3BBE
330
10E5
100
AcDbDictionary
280
     1
281
     1
  3
ACAD_XREC_ROUNDTRIP
360
3BBF
  0
DICTIONARY
  5
3BBA
330
CCA
100
AcDbDictionary
280
     1
281
     1
  3
ACAD_XREC_ROUNDTRIP
360
3BBB
  0
DICTIONARY
  5
AED
330
651
100
AcDbDictionary
280
     1
281
     1
  3
ACAD_ROUNDTRIP_2008_TABLESTYLE_CELLSTYLEMAP
360
3BAF
  0
XRECORD
  5
3BB1
102
{ACAD_REACTORS
330
3BB8
102
}
330
3BB8
100
AcDbXrecord
280
     1
  1
AcDb3DSolid_ASM_Data
102
{ATTRRECORD
341
3BB3
  2
AcDbDs::TreatedAsObjectData
280
     1
291
     1
102
ATTRRECORD}
102
{ATTRRECORD
341
3BB4
  2
AcDbDs::Legacy
280
     1
291
     1
102
ATTRRECORD}
  2
AcDbDs::ID
280
    10
 91
        8
102
{ATTRRECORD
341
3BB5
  2
AcDs:Indexable
280
     1
291
     1
102
ATTRRECORD}
102
{ATTRRECORD
341
3BB6
  2
AcDbDs::HandleAttribute
280
     7
282
     1
102
ATTRRECORD}
  2
ASM_Data
280
    15
 91
        0
  0
XRECORD
  5
3BB2
102
{ACAD_REACTORS
330
3BB8
102
}
330
3BB8
100
AcDbXrecord
280
     1
  1
AcDb_Thumbnail_Schema
102
{ATTRRECORD
341
3BB3
  2
AcDbDs::TreatedAsObjectData
280
     1
291
     1
102
ATTRRECORD}
102
{ATTRRECORD
341
3BB4
  2
AcDbDs::Legacy
280
     1
291
     1
102
ATTRRECORD}
  2
AcDbDs::ID
280
    10
 91
        8
102
{ATTRRECORD
341
3BB5
  2
AcDs:Indexable
280
     1
291
     1
102
ATTRRECORD}
102
{ATTRRECORD
341
3BB6
  2
AcDbDs::HandleAttribute
280
     7
282
     1
102
ATTRRECORD}
  2
Thumbnail_Data
280
    15
 91
        0
  0
XRECORD
  5
3BB3
102
{ACAD_REACTORS
330
3BB8
102
}
330
3BB8
100
AcDbXrecord
280
     1
  1
AcDbDs::TreatedAsObjectDataSchema
  2
AcDbDs::TreatedAsObjectData
280
     1
 91
        0
  0
XRECORD
  5
3BB4
102
{ACAD_REACTORS
330
3BB8
102
}
330
3BB8
100
AcDbXrecord
280
     1
  1
AcDbDs::LegacySchema
  2
AcDbDs::Legacy
280
     1
 91
        0
  0
XRECORD
  5
3BB5
102
{ACAD_REACTORS
330
3BB8
102
}
330
3BB8
100
AcDbXrecord
280
     1
  1
AcDbDs::IndexedPropertySchema
  2
AcDs:Indexable
280
     1
 91
        0
  0
XRECORD
  5
3BB6
102
{ACAD_REACTORS
330
3BB8
102
}
330
3BB8
100
AcDbXrecord
280
     1
  1
AcDbDs::HandleAttributeSchema
  2
AcDbDs::HandleAttribute
280
     7
 91
        1
284
     1
  0
XRECORD
  5
13F9
102
{ACAD_REACTORS
330
13F3
102
}
330
13F3
100
AcDbXrecord
280
     1
  1
_HasBOM
  1
False
  0
XRECORD
  5
13F8
102
{ACAD_REACTORS
330
13F3
102
}
330
13F3
100
AcDbXrecord
280
     1
  1
Comment
  1

  0
XRECORD
  5
13F7
102
{ACAD_REACTORS
330
13F3
102
}
330
13F3
100
AcDbXrecord
280
     1
  1
Folder
  1

  0
XRECORD
  5
13F5
102
{ACAD_REACTORS
330
13F3
102
}
330
13F3
100
AcDbXrecord
280
     1
  1
GEN-TITLE-DES1
  1

  0
XRECORD
  5
13F6
102
{ACAD_REACTORS
330
13F3
102
}
330
13F3
100
AcDbXrecord
280
     1
  1
GEN-TITLE-DES2
  1

  0
XRECORD
  5
13F4
102
{ACAD_REACTORS
330
13F3
102
}
330
13F3
100
AcDbXrecord
280
     1
  1
GEN-TITLE-NR
  1

  0
IDBUFFER
  5
316C
330
0
100
AcDbIdBuffer
  0
IDBUFFER
  5
316D
330
0
100
AcDbIdBuffer
330
3BAA
  0
IDBUFFER
  5
316E
330
0
100
AcDbIdBuffer
  0
IDBUFFER
  5
3217
330
0
100
AcDbIdBuffer
  0
XRECORD
  5
3BC1
102
{ACAD_REACTORS
330
3BC0
102
}
330
3BC0
100
AcDbXrecord
280
     1
102
DISPLAYNAME
  1
Imperial24
102
FLAGS
 90
        0
  0
XRECORD
  5
3BBD
102
{ACAD_REACTORS
330
3BBC
102
}
330
3BBC
100
AcDbXrecord
280
     1
102
DISPLAYNAME
  1
Metric50
102
FLAGS
 90
        0
  0
XRECORD
  5
A42
102
{ACAD_REACTORS
330
A40
102
}
330
A40
100
AcDbXrecord
280
     1
270
     1
271
     1
  0
XRECORD
  5
A41
102
{ACAD_REACTORS
330
A40
102
}
330
A40
100
AcDbXrecord
280
     1
270
     1
271
     1
  0
XRECORD
  5
A45
102
{ACAD_REACTORS
330
A40
102
}
330
A40
100
AcDbXrecord
280
     1
270
     1
271
     1
  0
XRECORD
  5
A44
102
{ACAD_REACTORS
330
A40
102
}
330
A40
100
AcDbXrecord
280
     1
270
     1
271
     1
  0
XRECORD
  5
A46
102
{ACAD_REACTORS
330
A40
102
}
330
A40
100
AcDbXrecord
280
     1
270
     1
271
     1
  0
XRECORD
  5
A43
102
{ACAD_REACTORS
330
A40
102
}
330
A40
100
AcDbXrecord
280
     1
270
     1
271
     1
  0
XRECORD
  5
A3A
102
{ACAD_REACTORS
330
A38
102
}
330
A38
100
AcDbXrecord
280
     1
270
     1
271
     1
  0
XRECORD
  5
A39
102
{ACAD_REACTORS
330
A38
102
}
330
A38
100
AcDbXrecord
280
     1
270
     1
271
     1
  0
XRECORD
  5
A3D
102
{ACAD_REACTORS
330
A38
102
}
330
A38
100
AcDbXrecord
280
     1
270
     1
271
     1
  0
XRECORD
  5
A3C
102
{ACAD_REACTORS
330
A38
102
}
330
A38
100
AcDbXrecord
280
     1
270
     1
271
     1
  0
XRECORD
  5
A3E
102
{ACAD_REACTORS
330
A38
102
}
330
A38
100
AcDbXrecord
280
     1
270
     1
271
     1
  0
XRECORD
  5
A3B
102
{ACAD_REACTORS
330
A38
102
}
330
A38
100
AcDbXrecord
280
     1
270
     1
271
     1
  0
XRECORD
  5
A4A
102
{ACAD_REACTORS
330
A48
102
}
330
A48
100
AcDbXrecord
280
     1
270
     1
271
     1
  0
XRECORD
  5
A49
102
{ACAD_REACTORS
330
A48
102
}
330
A48
100
AcDbXrecord
280
     1
270
     1
271
     1
  0
XRECORD
  5
A4D
102
{ACAD_REACTORS
330
A48
102
}
330
A48
100
AcDbXrecord
280
     1
270
     1
271
     1
  0
XRECORD
  5
A4C
102
{ACAD_REACTORS
330
A48
102
}
330
A48
100
AcDbXrecord
280
     1
270
     1
271
     1
  0
XRECORD
  5
A4E
102
{ACAD_REACTORS
330
A48
102
}
330
A48
100
AcDbXrecord
280
     1
270
     1
271
     1
  0
XRECORD
  5
A4B
102
{ACAD_REACTORS
330
A48
102
}
330
A48
100
AcDbXrecord
280
     1
270
     1
271
     1
  0
XRECORD
  5
1498
102
{ACAD_REACTORS
330
1497
102
}
330
1497
100
AcDbXrecord
280
     1
102
ACAD_ROUNDTRIP_2012_MLEADER_STYLE
298
     1
  0
XRECORD
  5
3BBF
102
{ACAD_REACTORS
330
3BBE
102
}
330
3BBE
100
AcDbXrecord
280
     1
102
DISPLAYNAME
  1
Imperial24
102
FLAGS
 90
        0
  0
XRECORD
  5
3BBB
102
{ACAD_REACTORS
330
3BBA
102
}
330
3BBA
100
AcDbXrecord
280
     1
102
DISPLAYNAME
  1
Metric50
102
FLAGS
 90
        0
  0
CELLSTYLEMAP
  5
3BAF
102
{ACAD_REACTORS
330
AED
102
}
330
AED
100
AcDbCellStyleMap
 90
        3
300
CELLSTYLE
  1
TABLEFORMAT_BEGIN
 90
        5
170
     1
 91
        0
 92
    32768
 62
   257
 93
        1
300
CONTENTFORMAT
  1
CONTENTFORMAT_BEGIN
 90
        0
 91
        0
 92
        4
 93
        0
300

 40
0.0
140
1.0
 94
        5
 62
     0
340
10
144
6.0
309
CONTENTFORMAT_END
171
     1
301
MARGIN
  1
CELLMARGIN_BEGIN
 40
1.5
 40
1.5
 40
1.5
 40
1.5
 40
0.18
 40
0.18
309
CELLMARGIN_END
 94
        6
 95
        1
302
GRIDFORMAT
  1
GRIDFORMAT_BEGIN
 90
        0
 91
        1
 62
     0
 92
       -2
340
0
 93
        0
 40
0.045
309
GRIDFORMAT_END
 95
        2
302
GRIDFORMAT
  1
GRIDFORMAT_BEGIN
 90
        0
 91
        1
 62
     0
 92
       -2
340
0
 93
        0
 40
0.045
309
GRIDFORMAT_END
 95
        4
302
GRIDFORMAT
  1
GRIDFORMAT_BEGIN
 90
        0
 91
        1
 62
     0
 92
       -2
340
0
 93
        0
 40
0.045
309
GRIDFORMAT_END
 95
        8
302
GRIDFORMAT
  1
GRIDFORMAT_BEGIN
 90
        0
 91
        1
 62
     0
 92
       -2
340
0
 93
        0
 40
0.045
309
GRIDFORMAT_END
 95
       16
302
GRIDFORMAT
  1
GRIDFORMAT_BEGIN
 90
        0
 91
        1
 62
     0
 92
       -2
340
0
 93
        0
 40
0.045
309
GRIDFORMAT_END
 95
       32
302
GRIDFORMAT
  1
GRIDFORMAT_BEGIN
 90
        0
 91
        1
 62
     0
 92
       -2
340
0
 93
        0
 40
0.045
309
GRIDFORMAT_END
309
TABLEFORMAT_END
  1
CELLSTYLE_BEGIN
 90
        1
 91
        1
300
_TITLE
309
CELLSTYLE_END
300
CELLSTYLE
  1
TABLEFORMAT_BEGIN
 90
        5
170
     1
 91
        0
 92
        0
 62
   257
 93
        1
300
CONTENTFORMAT
  1
CONTENTFORMAT_BEGIN
 90
        0
 91
        0
 92
        4
 93
        0
300

 40
0.0
140
1.0
 94
        5
 62
     0
340
10
144
4.5
309
CONTENTFORMAT_END
171
     1
301
MARGIN
  1
CELLMARGIN_BEGIN
 40
1.5
 40
1.5
 40
1.5
 40
1.5
 40
0.18
 40
0.18
309
CELLMARGIN_END
 94
        6
 95
        1
302
GRIDFORMAT
  1
GRIDFORMAT_BEGIN
 90
        0
 91
        1
 62
     0
 92
       -2
340
0
 93
        0
 40
0.045
309
GRIDFORMAT_END
 95
        2
302
GRIDFORMAT
  1
GRIDFORMAT_BEGIN
 90
        0
 91
        1
 62
     0
 92
       -2
340
0
 93
        0
 40
0.045
309
GRIDFORMAT_END
 95
        4
302
GRIDFORMAT
  1
GRIDFORMAT_BEGIN
 90
        0
 91
        1
 62
     0
 92
       -2
340
0
 93
        0
 40
0.045
309
GRIDFORMAT_END
 95
        8
302
GRIDFORMAT
  1
GRIDFORMAT_BEGIN
 90
        0
 91
        1
 62
     0
 92
       -2
340
0
 93
        0
 40
0.045
309
GRIDFORMAT_END
 95
       16
302
GRIDFORMAT
  1
GRIDFORMAT_BEGIN
 90
        0
 91
        1
 62
     0
 92
       -2
340
0
 93
        0
 40
0.045
309
GRIDFORMAT_END
 95
       32
302
GRIDFORMAT
  1
GRIDFORMAT_BEGIN
 90
        0
 91
        1
 62
     0
 92
       -2
340
0
 93
        0
 40
0.045
309
GRIDFORMAT_END
309
TABLEFORMAT_END
  1
CELLSTYLE_BEGIN
 90
        2
 91
        1
300
_HEADER
309
CELLSTYLE_END
300
CELLSTYLE
  1
TABLEFORMAT_BEGIN
 90
        5
170
     1
 91
        0
 92
        0
 62
   257
 93
        1
300
CONTENTFORMAT
  1
CONTENTFORMAT_BEGIN
 90
        0
 91
        0
 92
        4
 93
        0
300

 40
0.0
140
1.0
 94
        2
 62
     0
340
10
144
4.5
309
CONTENTFORMAT_END
171
     1
301
MARGIN
  1
CELLMARGIN_BEGIN
 40
1.5
 40
1.5
 40
1.5
 40
1.5
 40
0.18
 40
0.18
309
CELLMARGIN_END
 94
        6
 95
        1
302
GRIDFORMAT
  1
GRIDFORMAT_BEGIN
 90
        0
 91
        1
 62
     0
 92
       -2
340
0
 93
        0
 40
0.045
309
GRIDFORMAT_END
 95
        2
302
GRIDFORMAT
  1
GRIDFORMAT_BEGIN
 90
        0
 91
        1
 62
     0
 92
       -2
340
0
 93
        0
 40
0.045
309
GRIDFORMAT_END
 95
        4
302
GRIDFORMAT
  1
GRIDFORMAT_BEGIN
 90
        0
 91
        1
 62
     0
 92
       -2
340
0
 93
        0
 40
0.045
309
GRIDFORMAT_END
 95
        8
302
GRIDFORMAT
  1
GRIDFORMAT_BEGIN
 90
        0
 91
        1
 62
     0
 92
       -2
340
0
 93
        0
 40
0.045
309
GRIDFORMAT_END
 95
       16
302
GRIDFORMAT
  1
GRIDFORMAT_BEGIN
 90
        0
 91
        1
 62
     0
 92
       -2
340
0
 93
        0
 40
0.045
309
GRIDFORMAT_END
 95
       32
302
GRIDFORMAT
  1
GRIDFORMAT_BEGIN
 90
        0
 91
        1
 62
     0
 92
       -2
340
0
 93
        0
 40
0.045
309
GRIDFORMAT_END
309
TABLEFORMAT_END
  1
CELLSTYLE_BEGIN
 90
        3
 91
        2
300
_DATA
309
CELLSTYLE_END
  0
ENDSEC
  0
SECTION
  2
ACDSDATA
 70
     2
 71
     8
  0
ACDSSCHEMA
 90
        0
  1
AcDb3DSolid_ASM_Data
  2
AcDbDs::ID
280
    10
 91
        8
  2
ASM_Data
280
    15
 91
        0
101
ACDSRECORD
 95
        0
 90
        2
  2
AcDbDs::TreatedAsObjectData
280
     1
291
     1
101
ACDSRECORD
 95
        0
 90
        3
  2
AcDbDs::Legacy
280
     1
291
     1
101
ACDSRECORD
  1
AcDbDs::ID
 90
        4
  2
AcDs:Indexable
280
     1
291
     1
101
ACDSRECORD
  1
AcDbDs::ID
 90
        5
  2
AcDbDs::HandleAttribute
280
     7
282
     1
  0
ACDSSCHEMA
 90
        1
  1
AcDb_Thumbnail_Schema
  2
AcDbDs::ID
280
    10
 91
        8
  2
Thumbnail_Data
280
    15
 91
        0
101
ACDSRECORD
 95
        1
 90
        2
  2
AcDbDs::TreatedAsObjectData
280
     1
291
     1
101
ACDSRECORD
 95
        1
 90
        3
  2
AcDbDs::Legacy
280
     1
291
     1
101
ACDSRECORD
  1
AcDbDs::ID
 90
        4
  2
AcDs:Indexable
280
     1
291
     1
101
ACDSRECORD
  1
AcDbDs::ID
 90
        5
  2
AcDbDs::HandleAttribute
280
     7
282
     1
  0
ACDSSCHEMA
 90
        2
  1
AcDbDs::TreatedAsObjectDataSchema
  2
AcDbDs::TreatedAsObjectData
280
     1
 91
        0
  0
ACDSSCHEMA
 90
        3
  1
AcDbDs::LegacySchema
  2
AcDbDs::Legacy
280
     1
 91
        0
  0
ACDSSCHEMA
 90
        4
  1
AcDbDs::IndexedPropertySchema
  2
AcDs:Indexable
280
     1
 91
        0
  0
ACDSSCHEMA
 90
        5
  1
AcDbDs::HandleAttributeSchema
  2
AcDbDs::HandleAttribute
280
     7
 91
        1
284
     1
  0
ACDSRECORD
 90
        1
  2
AcDbDs::ID
280
    10
320
2CA4
  2
Thumbnail_Data
280
    15
 94
      907
310
89504E470D0A1A0A0000000D4948445200000100000000BF08030000002647F24000000300504C5445212830000000C8C8C80000000000000000000000000000000000000000000000000000330000660000990000CC0000FF0033000033330033660033990033CC0033FF0066000066330066660066990066CC0066FF0099
310
000099330099660099990099CC0099FF00CC0000CC3300CC6600CC9900CCCC00CCFF00FF0000FF3300FF6600FF9900FFCC00FFFF3300003300333300663300993300CC3300FF3333003333333333663333993333CC3333FF3366003366333366663366993366CC3366FF3399003399333399663399993399CC3399FF33CC00
310
33CC3333CC6633CC9933CCCC33CCFF33FF0033FF3333FF6633FF9933FFCC33FFFF6600006600336600666600996600CC6600FF6633006633336633666633996633CC6633FF6666006666336666666666996666CC6666FF6699006699336699666699996699CC6699FF66CC0066CC3366CC6666CC9966CCCC66CCFF66FF0066
310
FF3366FF6666FF9966FFCC66FFFF9900009900339900669900999900CC9900FF9933009933339933669933999933CC9933FF9966009966339966669966999966CC9966FF9999009999339999669999999999CC9999FF99CC0099CC3399CC6699CC9999CCCC99CCFF99FF0099FF3399FF6699FF9999FFCC99FFFFCC0000CC00
310
33CC0066CC0099CC00CCCC00FFCC3300CC3333CC3366CC3399CC33CCCC33FFCC6600CC6633CC6666CC6699CC66CCCC66FFCC9900CC9933CC9966CC9999CC99CCCC99FFCCCC00CCCC33CCCC66CCCC99CCCCCCCCCCFFCCFF00CCFF33CCFF66CCFF99CCFFCCCCFFFFFF0000FF0033FF0066FF0099FF00CCFF00FFFF3300FF3333
310
FF3366FF3399FF33CCFF33FFFF6600FF6633FF6666FF6699FF66CCFF66FFFF9900FF9933FF9966FF9999FF99CCFF99FFFFCC00FFCC33FFCC66FFCC99FFCCCCFFCCFFFFFF00FFFF33FFFF66FFFF99FFFFCCFFFFFF0000000D0D0D1A1A1A2828283535354343435050505D5D5D6B6B6B787878868686939393A1A1A1AEAEAEBB
310
BBBBC9C9C9D6D6D6E4E4E4F1F1F1FFFFFF000000000000000000000000000000000000000000000000000000000000B21171F6000000464944415478DAEDC13101000000C2A0F54F6D085FA00000000000000000000000000000000000000000000000000000000000000000000000000000000000000000000000E036BFBF
310
000103F617CF0000000049454E44AE426082
  0
ACDSRECORD
 90
        1
  2
AcDbDs::ID
280
    10
320
169
  2
Thumbnail_Data
280
    15
 94
     1332
310
89504E470D0A1A0A0000000D494844520000010000000076080300000010A0BD3C00000300504C5445212830FFFFFF2128300000000000000000000000000000000000000000000000000000330000660000990000CC0000FF0033000033330033660033990033CC0033FF0066000066330066660066990066CC0066FF0099
310
000099330099660099990099CC0099FF00CC0000CC3300CC6600CC9900CCCC00CCFF00FF0000FF3300FF6600FF9900FFCC00FFFF3300003300333300663300993300CC3300FF3333003333333333663333993333CC3333FF3366003366333366663366993366CC3366FF3399003399333399663399993399CC3399FF33CC00
310
33CC3333CC6633CC9933CCCC33CCFF33FF0033FF3333FF6633FF9933FFCC33FFFF6600006600336600666600996600CC6600FF6633006633336633666633996633CC6633FF6666006666336666666666996666CC6666FF6699006699336699666699996699CC6699FF66CC0066CC3366CC6666CC9966CCCC66CCFF66FF0066
310
FF3366FF6666FF9966FFCC66FFFF9900009900339900669900999900CC9900FF9933009933339933669933999933CC9933FF9966009966339966669966999966CC9966FF9999009999339999669999999999CC9999FF99CC0099CC3399CC6699CC9999CCCC99CCFF99FF0099FF3399FF6699FF9999FFCC99FFFFCC0000CC00
310
33CC0066CC0099CC00CCCC00FFCC3300CC3333CC3366CC3399CC33CCCC33FFCC6600CC6633CC6666CC6699CC66CCCC66FFCC9900CC9933CC9966CC9999CC99CCCC99FFCCCC00CCCC33CCCC66CCCC99CCCCCCCCCCFFCCFF00CCFF33CCFF66CCFF99CCFFCCCCFFFFFF0000FF0033FF0066FF0099FF00CCFF00FFFF3300FF3333
310
FF3366FF3399FF33CCFF33FFFF6600FF6633FF6666FF6699FF66CCFF66FFFF9900FF9933FF9966FF9999FF99CCFF99FFFFCC00FFCC33FFCC66FFCC99FFCCCCFFCCFFFFFF00FFFF33FFFF66FFFF99FFFFCCFFFFFF0000000D0D0D1A1A1A2828283535354343435050505D5D5D6B6B6B787878868686939393A1A1A1AEAEAEBB
310
BBBBC9C9C9D6D6D6E4E4E4F1F1F1FFFFFF0000000000000000000000000000000000000000000000000000000000002E4550F1000000344944415478DAEDC13101000000C2A0F54F6D0D0FA00000000000000000000000000000000000000000000000000000000000F831767600010EF0A6CA0000000049454E44AE426082
310
828208000000000000000000000000000000000000000000000000000000000000000000000000000000000000000000000000000000FC0D206AF4B1FE7004A400D40A00000000000000000000000000000000180DC04F620000000000000000000000000000000000000000000000000080262B1C7DB2742925CE43D4E3A9
310
65F1A7CD28008F851F96AEDB4C80DD86DEDF3FE9CDEDD931CF69A7407CB85D3C2E73F35B00AC5A3DEC75BC7ED323E0B61B35EF2AB07FF1BA1B595781D1FF624392244992244992244992244992244992244952571D0111E7C5CED53675980000000049454E44AE42608286631967407D672966C07D078AE71F77D26C02F3E1
310
7CE5C0FD5480885D42802542791DC06E5FB4454680CB5E03B0DB36406C7B06ECB7FFDDE1B25D80549F04FFFE28901EA0FCD967A52C0051C6738932FD9723FA9DF5BF062F5A79789D7E9C65069CACF144315D3FBC09AC70250588F9ED2F67EF61FDF146FE21FB805F0E680B00B53E19A0FF6FC00C7805C00BBEBEA8CF7D7CCD
310
F5C548820000D838FF9B01CAB6014AFC3780F281852449922449922449922449922449922449926EF70DAF1801257F9AFF7A0000000049454E44AE426082
  0
ENDSEC
  0
EOF
