  0
SECTION
  2
HEADER
  9
$ACADVER
  1
AC1027
  9
$ACADMAINTVER
 70
   125
  9
$DWGCODEPAGE
  3
ANSI_1252
  9
$LASTSAVEDBY
  1
se-milkar
  9
$CUSTOMPROPERTYTAG
  1
AmdtFileType
  9
$CUSTOMPROPERTY
  1
84
  9
$REQUIREDVERSIONS
160
                 0
  9
$INSBASE
 10
0.0
 20
0.0
 30
0.0
  9
$EXTMIN
 10
-57.83422923378408
 20
-57.83422923378408
 30
0.0
  9
$EXTMAX
 10
50.5
 20
50.50000000000003
 30
0.0
  9
$LIMMIN
 10
0.0
 20
0.0
  9
$LIMMAX
 10
420.0
 20
297.0
  9
$ORTHOMODE
 70
     0
  9
$REGENMODE
 70
     1
  9
$FILLMODE
 70
     1
  9
$QTEXTMODE
 70
     0
  9
$MIRRTEXT
 70
     0
  9
$LTSCALE
 40
1.0
  9
$ATTMODE
 70
     1
  9
$TEXTSIZE
 40
3.5
  9
$TRACEWID
 40
1.0
  9
$TEXTSTYLE
  7
STANDARD
  9
$CLAYER
  8
AM_0
  9
$CELTYPE
  6
BYLAYER
  9
$CECOLOR
 62
   256
  9
$CELTSCALE
 40
1.0
  9
$DISPSILH
 70
     0
  9
$DIMSCALE
 40
1.0
  9
$DIMASZ
 40
2.5
  9
$DIMEXO
 40
1.0
  9
$DIMDLI
 40
10.0
  9
$DIMRND
 40
0.0
  9
$DIMDLE
 40
0.0
  9
$DIMEXE
 40
1.0
  9
$DIMTP
 40
0.1
  9
$DIMTM
 40
0.1
  9
$DIMTXT
 40
3.5
  9
$DIMCEN
 40
0.0
  9
$DIMTSZ
 40
0.0
  9
$DIMTOL
 70
     0
  9
$DIMLIM
 70
     0
  9
$DIMTIH
 70
     0
  9
$DIMTOH
 70
     0
  9
$DIMSE1
 70
     0
  9
$DIMSE2
 70
     0
  9
$DIMTAD
 70
     1
  9
$DIMZIN
 70
     8
  9
$DIMBLK
  1

  9
$DIMASO
 70
     1
  9
$DIMSHO
 70
     1
  9
$DIMPOST
  1

  9
$DIMAPOST
  1
"
  9
$DIMALT
 70
     0
  9
$DIMALTD
 70
     3
  9
$DIMALTF
 40
0.0393701
  9
$DIMLFAC
 40
1.0
  9
$DIMTOFL
 70
     1
  9
$DIMTVP
 40
0.0
  9
$DIMTIX
 70
     0
  9
$DIMSOXD
 70
     0
  9
$DIMSAH
 70
     0
  9
$DIMBLK1
  1

  9
$DIMBLK2
  1

  9
$DIMSTYLE
  2
AM_ISO
  9
$DIMCLRD
 70
   256
  9
$DIMCLRE
 70
   256
  9
$DIMCLRT
 70
     2
  9
$DIMTFAC
 40
0.71
  9
$DIMGAP
 40
1.5
  9
$DIMJUST
 70
     0
  9
$DIMSD1
 70
     0
  9
$DIMSD2
 70
     0
  9
$DIMTOLJ
 70
     0
  9
$DIMTZIN
 70
     8
  9
$DIMALTZ
 70
     0
  9
$DIMALTTZ
 70
     0
  9
$DIMUPT
 70
     0
  9
$DIMDEC
 70
     2
  9
$DIMTDEC
 70
     2
  9
$DIMALTU
 70
     2
  9
$DIMALTTD
 70
     3
  9
$DIMTXSTY
  7
STANDARD
  9
$DIMAUNIT
 70
     0
  9
$DIMADEC
 70
     0
  9
$DIMALTRND
 40
0.0
  9
$DIMAZIN
 70
     2
  9
$DIMDSEP
 70
    46
  9
$DIMATFIT
 70
     3
  9
$DIMFRAC
 70
     0
  9
$DIMLDRBLK
  1

  9
$DIMLUNIT
 70
     2
  9
$DIMLWD
 70
    -1
  9
$DIMLWE
 70
    -1
  9
$DIMTMOVE
 70
     0
  9
$DIMFXL
 40
1.0
  9
$DIMFXLON
 70
     0
  9
$DIMJOGANG
 40
0.7853981633974483
  9
$DIMTFILL
 70
     0
  9
$DIMTFILLCLR
 70
     0
  9
$DIMARCSYM
 70
     0
  9
$DIMLTYPE
  6

  9
$DIMLTEX1
  6

  9
$DIMLTEX2
  6

  9
$DIMTXTDIRECTION
 70
     0
  9
$LUNITS
 70
     2
  9
$LUPREC
 70
     2
  9
$SKETCHINC
 40
1.0
  9
$FILLETRAD
 40
2.5
  9
$AUNITS
 70
     0
  9
$AUPREC
 70
     0
  9
$MENU
  1
.
  9
$ELEVATION
 40
0.0
  9
$PELEVATION
 40
0.0
  9
$THICKNESS
 40
0.0
  9
$LIMCHECK
 70
     0
  9
$CHAMFERA
 40
2.5
  9
$CHAMFERB
 40
2.5
  9
$CHAMFERC
 40
20.0
  9
$CHAMFERD
 40
0.0
  9
$SKPOLY
 70
     1
  9
$TDCREATE
 40
2460034.648645833
  9
$TDUCREATE
 40
2460034.565312500
  9
$TDUPDATE
 40
2460034.768194445
  9
$TDUUPDATE
 40
2460034.684861111
  9
$TDINDWG
 40
0.1195486111
  9
$TDUSRTIMER
 40
0.1195486111
  9
$USRTIMER
 70
     1
  9
$ANGBASE
 50
0.0
  9
$ANGDIR
 70
     0
  9
$PDMODE
 70
     0
  9
$PDSIZE
 40
0.0
  9
$PLINEWID
 40
0.0
  9
$SPLFRAME
 70
     0
  9
$SPLINETYPE
 70
     6
  9
$SPLINESEGS
 70
     8
  9
$HANDSEED
  5
4327
  9
$SURFTAB1
 70
     6
  9
$SURFTAB2
 70
     6
  9
$SURFTYPE
 70
     6
  9
$SURFU
 70
     6
  9
$SURFV
 70
     6
  9
$UCSBASE
  2

  9
$UCSNAME
  2

  9
$UCSORG
 10
0.0
 20
0.0
 30
0.0
  9
$UCSXDIR
 10
1.0
 20
0.0
 30
0.0
  9
$UCSYDIR
 10
0.0
 20
1.0
 30
0.0
  9
$UCSORTHOREF
  2

  9
$UCSORTHOVIEW
 70
     0
  9
$UCSORGTOP
 10
0.0
 20
0.0
 30
0.0
  9
$UCSORGBOTTOM
 10
0.0
 20
0.0
 30
0.0
  9
$UCSORGLEFT
 10
0.0
 20
0.0
 30
0.0
  9
$UCSORGRIGHT
 10
0.0
 20
0.0
 30
0.0
  9
$UCSORGFRONT
 10
0.0
 20
0.0
 30
0.0
  9
$UCSORGBACK
 10
0.0
 20
0.0
 30
0.0
  9
$PUCSBASE
  2

  9
$PUCSNAME
  2

  9
$PUCSORG
 10
0.0
 20
0.0
 30
0.0
  9
$PUCSXDIR
 10
1.0
 20
0.0
 30
0.0
  9
$PUCSYDIR
 10
0.0
 20
1.0
 30
0.0
  9
$PUCSORTHOREF
  2

  9
$PUCSORTHOVIEW
 70
     0
  9
$PUCSORGTOP
 10
0.0
 20
0.0
 30
0.0
  9
$PUCSORGBOTTOM
 10
0.0
 20
0.0
 30
0.0
  9
$PUCSORGLEFT
 10
0.0
 20
0.0
 30
0.0
  9
$PUCSORGRIGHT
 10
0.0
 20
0.0
 30
0.0
  9
$PUCSORGFRONT
 10
0.0
 20
0.0
 30
0.0
  9
$PUCSORGBACK
 10
0.0
 20
0.0
 30
0.0
  9
$USERI1
 70
     0
  9
$USERI2
 70
     0
  9
$USERI3
 70
     0
  9
$USERI4
 70
     0
  9
$USERI5
 70
     0
  9
$USERR1
 40
0.0
  9
$USERR2
 40
0.0
  9
$USERR3
 40
0.0
  9
$USERR4
 40
0.0
  9
$USERR5
 40
0.0
  9
$WORLDVIEW
 70
     1
  9
$SHADEDGE
 70
     3
  9
$SHADEDIF
 70
    70
  9
$TILEMODE
 70
     1
  9
$MAXACTVP
 70
    48
  9
$PINSBASE
 10
0.0
 20
0.0
 30
0.0
  9
$PLIMCHECK
 70
     0
  9
$PEXTMIN
 10
1.000000000000000E+20
 20
1.000000000000000E+20
 30
1.000000000000000E+20
  9
$PEXTMAX
 10
-1.000000000000000E+20
 20
-1.000000000000000E+20
 30
-1.000000000000000E+20
  9
$PLIMMIN
 10
0.0
 20
0.0
  9
$PLIMMAX
 10
12.0
 20
9.0
  9
$UNITMODE
 70
     0
  9
$VISRETAIN
 70
     1
  9
$PLINEGEN
 70
     0
  9
$PSLTSCALE
 70
     1
  9
$TREEDEPTH
 70
  3020
  9
$CMLSTYLE
  2
STANDARD
  9
$CMLJUST
 70
     0
  9
$CMLSCALE
 40
1.0
  9
$PROXYGRAPHICS
 70
     1
  9
$MEASUREMENT
 70
     1
  9
$CELWEIGHT
370
    -1
  9
$ENDCAPS
280
     0
  9
$JOINSTYLE
280
     0
  9
$LWDISPLAY
290
     0
  9
$INSUNITS
 70
     4
  9
$HYPERLINKBASE
  1

  9
$STYLESHEET
  1
@Layout.ctb
  9
$XEDIT
290
     1
  9
$CEPSNTYPE
380
     0
  9
$PSTYLEMODE
290
     1
  9
$FINGERPRINTGUID
  2
{3F9FCD42-94AE-9044-9AF8-B5C6F9D3A15B}
  9
$VERSIONGUID
  2
{88A740DB-72C2-534B-BDE3-56BEF2482481}
  9
$EXTNAMES
290
     1
  9
$PSVPSCALE
 40
0.0
  9
$OLESTARTUP
290
     0
  9
$SORTENTS
280
   127
  9
$INDEXCTL
280
     1
  9
$HIDETEXT
280
     0
  9
$XCLIPFRAME
280
     0
  9
$HALOGAP
280
     0
  9
$OBSCOLOR
 70
   257
  9
$OBSLTYPE
280
     0
  9
$INTERSECTIONDISPLAY
280
     0
  9
$INTERSECTIONCOLOR
 70
   257
  9
$DIMASSOC
280
     2
  9
$PROJECTNAME
  1

  9
$CAMERADISPLAY
290
     0
  9
$LENSLENGTH
 40
50.0
  9
$CAMERAHEIGHT
 40
0.0
  9
$STEPSPERSEC
 40
2.0
  9
$STEPSIZE
 40
6.0
  9
$3DDWFPREC
 40
2.0
  9
$PSOLWIDTH
 40
0.25
  9
$PSOLHEIGHT
 40
4.0
  9
$LOFTANG1
 40
1.570796326794896
  9
$LOFTANG2
 40
1.570796326794896
  9
$LOFTMAG1
 40
0.0
  9
$LOFTMAG2
 40
0.0
  9
$LOFTPARAM
 70
     7
  9
$LOFTNORMALS
280
     1
  9
$LATITUDE
 40
37.795
  9
$LONGITUDE
 40
-122.394
  9
$NORTHDIRECTION
 40
0.0
  9
$TIMEZONE
 70
 -8000
  9
$LIGHTGLYPHDISPLAY
280
     1
  9
$TILEMODELIGHTSYNCH
280
     1
  9
$CMATERIAL
347
A37
  9
$SOLIDHIST
280
     1
  9
$SHOWHIST
280
     1
  9
$DWFFRAME
280
     2
  9
$DGNFRAME
280
     0
  9
$REALWORLDSCALE
290
     1
  9
$INTERFERECOLOR
 62
     1
  9
$INTERFEREOBJVS
345
A59
  9
$INTERFEREVPVS
346
CBF
  9
$CSHADOW
280
     0
  9
$SHADOWPLANELOCATION
 40
0.0
  0
ENDSEC
  0
SECTION
  2
CLASSES
  0
CLASS
  1
DICTIONARYVAR
  2
AcDbDictionaryVar
  3
ObjectDBX Classes
 90
        0
 91
       12
280
     0
281
     0
  0
CLASS
  1
ACMESTATEMGR
  2
AcMeStateMgr
  3
AcMeServices
 90
     1024
 91
        1
280
     0
281
     0
  0
CLASS
  1
ACMESCOPE
  2
AcMeScope
  3
AcMeServices
 90
     1024
 91
        1
280
     0
281
     0
  0
CLASS
  1
ACMECOMMANDHISTORY
  2
AcMeCommandHistory
  3
AcMeServices
 90
     1024
 91
        1
280
     0
281
     0
  0
CLASS
  1
ACRFINSADJUSTERMGR
  2
AcRfInsAdjusterMgr
  3
AcMeServices
 90
     1024
 91
        1
280
     0
281
     0
  0
CLASS
  1
ACMEDRAWINGMAN
  2
AcMeDrawingMan
  3
AcMeServices
 90
     1024
 91
        0
280
     0
281
     0
  0
CLASS
  1
AMATTR
  2
AcMeAttribute
  3
AcMeServices
 90
     1024
 91
        0
280
     0
281
     0
  0
CLASS
  1
ACMEBOMCOLUMN
  2
AcMeBOMColumn
  3
AcMeServices
 90
     1024
 91
        0
280
     0
281
     0
  0
CLASS
  1
ACMEBOMCONF
  2
AcMeBOMConf
  3
AcMeServices
 90
     1024
 91
        0
280
     0
281
     0
  0
CLASS
  1
ACMEBOMTABLE
  2
AcMeBOMTable
  3
AcMeServices
 90
     1024
 91
        0
280
     0
281
     0
  0
CLASS
  1
ACMEBOMENTRY
  2
AcMeBOMEntry
  3
AcMeServices
 90
     1024
 91
        0
280
     0
281
     0
  0
CLASS
  1
ACMEVIEW
  2
AcMeView
  3
AcMeServices
 90
     1024
 91
        0
280
     0
281
     0
  0
CLASS
  1
ACGREFMASTER
  2
AcGrefMaster
  3
AcAttribServices
 90
     1024
 91
        1
280
     0
281
     0
  0
CLASS
  1
AMIMASTER
  2
AmiMaster
  3
AmiServices
 90
     1024
 91
        1
280
     0
281
     0
  0
CLASS
  1
ACASGREFMASTER
  2
AcAsGrefMaster
  3
AutoSurfResolverServices
 90
     1024
 91
        2
280
     0
281
     0
  0
CLASS
  1
ADAPPL
  2
AcAdAppl
  3
DesignerAssemblies
 90
     1024
 91
        0
280
     0
281
     0
  0
CLASS
  1
DEPMGR
  2
AcAdDepMgr
  3
DesignerAssemblies
 90
     1024
 91
        0
280
     0
281
     0
  0
CLASS
  1
PARAMMGR
  2
AcAdParamMgr
  3
DesignerAssemblies
 90
     1024
 91
        0
280
     0
281
     0
  0
CLASS
  1
PARAMSCOPE
  2
AcAdParamScope
  3
DesignerAssemblies
 90
     1024
 91
        0
280
     0
281
     0
  0
CLASS
  1
ACIMSYSVARMAN
  2
AcImSysVarManager
  3
AcMeServices
 90
     1024
 91
        5
280
     0
281
     0
  0
CLASS
  1
ACIMINTSYSVAR
  2
AcImIntSysVar
  3
AcMeServices
 90
     1024
 91
       49
280
     0
281
     0
  0
CLASS
  1
ACIMREALSYSVAR
  2
AcImRealSysVar
  3
AcMeServices
 90
     1024
 91
       16
280
     0
281
     0
  0
CLASS
  1
ACIMSTRSYSVAR
  2
AcImStrSysVar
  3
AcMeServices
 90
     1024
 91
       14
280
     0
281
     0
  0
CLASS
  1
NAMEDAPPL
  2
AcAdNamedAppl
  3
DesignerAssemblies
 90
     1024
 91
        0
280
     0
281
     0
  0
CLASS
  1
ADHNTMPLT
  2
AdHoleNoteTemplateMgr
  3
DesignerServices
 90
     1024
 91
        0
280
     0
281
     0
  0
CLASS
  1
AM_HNTEMPLATE_MGR_NAME
  2
AdHoleNoteTemplateMgrName
  3
DesignerServices
 90
     1024
 91
        0
280
     0
281
     0
  0
CLASS
  1
ACADGREFMODULE
  2
AcAdGrefModule
  3
AdGrefServices
 90
     1024
 91
        2
280
     0
281
     0
  0
CLASS
  1
AM_DRAWING_MGR
  2
AcDmDwgMgr
  3
AcMechDwgViewMgmt
 90
     1024
 91
        0
280
     0
281
     0
  0
CLASS
  1
AM_DWG_DOCUMENT
  2
AcDmDwgDocument
  3
AcMechDwgViewMgmt
 90
     1024
 91
        0
280
     0
281
     0
  0
CLASS
  1
AM_DWG_SHEET
  2
AcDmSheet
  3
AcMechDwgViewMgmt
 90
     1024
 91
        0
280
     0
281
     0
  0
CLASS
  1
AM_VIEWDIMPARMAP
  2
AcDmViewDimParMap
  3
AcMechDwgViewMgmt
 90
     1024
 91
        0
280
     0
281
     0
  0
CLASS
  1
AM_DWGMGR_NAME
  2
AcDmDwgMgrName
  3
AcMechDwgViewMgmt
 90
     1024
 91
        0
280
     0
281
     0
  0
CLASS
  1
ACAMPROJECT
  2
AcAmProject
  3
DesignerAssemblies
 90
     1024
 91
        1
280
     0
281
     0
  0
CLASS
  1
ACAMGRCOMPSET
  2
AcAmGrCompSet
  3
DesignerAssemblies
 90
        0
 91
        0
280
     0
281
     0
  0
CLASS
  1
ACAMGRCOMPDEFSET
  2
AcAmGrCompDefSet
  3
DesignerAssemblies
 90
     1024
 91
        1
280
     0
281
     0
  0
CLASS
  1
ACAMGRCOMPDEF
  2
AcAmGrCompDef
  3
DesignerAssemblies
 90
     1024
 91
        1
280
     0
281
     0
  0
CLASS
  1
ACCMCONTEXT
  2
AcCmContext
  3
DesignerAssemblies
 90
     1024
 91
        1
280
     0
281
     0
  0
CLASS
  1
ACAMCOMPDEF
  2
AcAmCompDef
  3
DesignerAssemblies
 90
     1024
 91
        1
280
     0
281
     0
  0
CLASS
  1
ACAMCOMPDEFMGR
  2
AcAmCompDefMgr
  3
DesignerAssemblies
 90
     1024
 91
        1
280
     0
281
     0
  0
CLASS
  1
AMCONTEXTMGR
  2
AcAmContextMgr
  3
DesignerAssemblies
 90
     1024
 91
        1
280
     0
281
     0
  0
CLASS
  1
ACAMCONTEXTMODELER
  2
AcAmContextModeler
  3
DesignerAssemblies
 90
     1024
 91
        1
280
     0
281
     0
  0
CLASS
  1
ACDMVIEWGEOM
  2
AcDmViewGeometry
  3
AcMechDwgViewMgmt
 90
     1024
 91
        0
280
     0
281
     1
  0
CLASS
  1
CBROWSERAPPOBJECT
  2
CBrowserAppObject
  3
McadcomServices
 90
     1024
 91
        2
280
     0
281
     0
  0
CLASS
  1
IM_STATIC_MAN
  2
AcImStaticVarManager
  3
AcMeServices
 90
     1024
 91
        1
280
     0
281
     0
  0
CLASS
  1
ASAPP
  2
AcAsAppObject
  3
AutoSurfServices
 90
     1024
 91
        2
280
     0
281
     0
  0
CLASS
  1
ACIMDBLSTATICVAR
  2
AcImDblStaticVar
  3
AcMeServices
 90
     1024
 91
       22
280
     0
281
     0
  0
CLASS
  1
ACIMSTRSTATICVAR
  2
AcImStrStaticVar
  3
AcMeServices
 90
     1024
 91
       13
280
     0
281
     0
  0
CLASS
  1
ACIMINTSTATICVAR
  2
AcImIntStaticVar
  3
AcMeServices
 90
     1024
 91
       17
280
     0
281
     0
  0
CLASS
  1
CATALOGSTATE
  2
AcAmCatalogState
  3
DesignerAssemblies_arx
 90
     1024
 91
        0
280
     0
281
     0
  0
CLASS
  1
DM_PLACEHOLDER
  2
AcDmSelsetPlaceholder
  3
McadcomServices
 90
     1024
 91
        1
280
     0
281
     0
  0
CLASS
  1
LAYER_INDEX
  2
AcDbLayerIndex
  3
ObjectDBX Classes
 90
        0
 91
        3
280
     0
281
     0
  0
CLASS
  1
IDBUFFER
  2
AcDbIdBuffer
  3
ObjectDBX Classes
 90
        0
 91
       25
280
     0
281
     0
  0
CLASS
  1
ACMSTANDARDJIS
  2
AcmStandardJIS
  3
"Amdt_StdImp|Product Description: AutoCAD Mechanical|Company: Autodesk, Inc."
 90
     1024
 91
        0
280
     0
281
     0
  0
CLASS
  1
ACMSTANDARDANSI
  2
AcmStandardANSI
  3
"Amdt_StdImp|Product Description: AutoCAD Mechanical|Company: Autodesk, Inc."
 90
     1024
 91
        1
280
     0
281
     0
  0
CLASS
  1
ACMSTANDARDBSI
  2
AcmStandardBSI
  3
"Amdt_StdImp|Product Description: AutoCAD Mechanical|Company: Autodesk, Inc."
 90
     1024
 91
        0
280
     0
281
     0
  0
CLASS
  1
ACMSTANDARDDIN
  2
AcmStandardDIN
  3
"Amdt_StdImp|Product Description: AutoCAD Mechanical|Company: Autodesk, Inc."
 90
     1024
 91
        0
280
     0
281
     0
  0
CLASS
  1
ACMSTANDARDISO
  2
AcmStandardISO
  3
"Amdt_StdImp|Product Description: AutoCAD Mechanical|Company: Autodesk, Inc."
 90
     1024
 91
        1
280
     0
281
     0
  0
CLASS
  1
ACDBDICTIONARYWDFLT
  2
AcDbDictionaryWithDefault
  3
ObjectDBX Classes
 90
        0
 91
        1
280
     0
281
     0
  0
CLASS
  1
ACDBPLACEHOLDER
  2
AcDbPlaceHolder
  3
ObjectDBX Classes
 90
        0
 91
        1
280
     0
281
     0
  0
CLASS
  1
LAYOUT
  2
AcDbLayout
  3
ObjectDBX Classes
 90
        0
 91
        2
280
     0
281
     0
  0
CLASS
  1
ACME_DOCUMENT
  2
AcMeDbDoc
  3
AcMeServices
 90
     1024
 91
        2
280
     0
281
     0
  0
CLASS
  1
AMGSETTINGSOBJ
  2
AmgSettingsObj
  3
"AcadM|Product Description: AutoCAD Mechanical|Company: Autodesk, Inc."
 90
     1024
 91
        4
280
     0
281
     0
  0
CLASS
  1
AMGOBJPROPCFG
  2
AmgObjPropCfg
  3
"AmgLay|Product Description: AutoCAD Mechanical|Company: Autodesk, Inc."
 90
     1024
 91
        1
280
     0
281
     0
  0
CLASS
  1
ACDBENTITYCACHE
  2
AcMeEntityCache
  3
AcMeServices
 90
     1024
 91
        1
280
     0
281
     0
  0
CLASS
  1
GSMANAGER
  2
AcMeGSManager
  3
AcMeServices
 90
     1024
 91
        0
280
     0
281
     0
  0
CLASS
  1
AMDTINTERNALREACTOR
  2
AmdtInternalReactor
  3
AcMeServices
 90
     1024
 91
        0
280
     0
281
     0
  0
CLASS
  1
ACME_DATABASE
  2
AcMeDbDatabase
  3
AcMeServices
 90
     1024
 91
        3
280
     0
281
     0
  0
CLASS
  1
ACGREFACADMASTER
  2
AcGrefacadMaster
  3
AcGrefServices
 90
     1024
 91
        1
280
     0
281
     0
  0
CLASS
  1
AMDTMENUSTATEMGR
  2
AmdtMenuStateMgr
  3
McadcomServices
 90
     1024
 91
        1
280
     0
281
     0
  0
CLASS
  1
AMDTMCOMMENUSTATE
  2
AmdtMcomMenuState
  3
McadcomServices
 90
     1024
 91
        1
280
     0
281
     0
  0
CLASS
  1
MAPIADMODULE
  2
MApiAdModule
  3
MApiAdServices
 90
     1024
 91
        2
280
     0
281
     0
  0
CLASS
  1
AMDTDMMENUSTATE
  2
AmdtDmMenuState
  3
AcMechDwgViewMgmt
 90
     1024
 91
        0
280
     0
281
     0
  0
CLASS
  1
AMDTADMENUSTATE
  2
AmdtAdMenuState
  3
DesignerServices
 90
     1024
 91
        0
280
     0
281
     0
  0
CLASS
  1
AMDTAMMENUSTATE
  2
AmdtAmMenuState
  3
DesignerAssemblies_arx
 90
     1024
 91
        1
280
     0
281
     0
  0
CLASS
  1
ACMDATADICTIONARY
  2
AcmDataDictionary
  3
"AcmSymBB|Product Description: AutoCAD Mechanical|Company: Autodesk, Inc."
 90
     1024
 91
        1
280
     0
281
     0
  0
CLASS
  1
ACMDATAENTRYBLOCK
  2
AcmDataEntryBlock
  3
"AcmSymBB" "Product Description: AutoCAD Mechanical|Company: Autodesk, Inc."
 90
     1024
 91
        1
280
     0
281
     0
  0
CLASS
  1
ACMSURFSTANDARDJIS
  2
AcmSurfTextStdJIS
  3
"Amdt_StdImp|Product Description: AutoCAD Mechanical|Company: Autodesk, Inc."
 90
     1024
 91
        0
280
     0
281
     0
  0
CLASS
  1
ACMFCFSTANDARDJIS
  2
AcmFCFStdJIS
  3
"Amdt_StdImp|Product Description: AutoCAD Mechanical|Company: Autodesk, Inc."
 90
     1024
 91
        0
280
     0
281
     0
  0
CLASS
  1
ACMWELDSTANDARDJIS
  2
AcmWeldingStdJIS
  3
"Amdt_StdImp|Product Description: AutoCAD Mechanical|Company: Autodesk, Inc."
 90
     1024
 91
        0
280
     0
281
     0
  0
CLASS
  1
ACMIDSTANDARDJIS
  2
AcmIdStdJIS
  3
"Amdt_StdImp|Product Description: AutoCAD Mechanical|Company: Autodesk, Inc."
 90
     1024
 91
        0
280
     0
281
     0
  0
CLASS
  1
ACMDATUMSTANDARDJIS
  2
AcmDatumStdJIS
  3
"Amdt_StdImp|Product Description: AutoCAD Mechanical|Company: Autodesk, Inc."
 90
     1024
 91
        0
280
     0
281
     0
  0
CLASS
  1
ACMBOMSTANDARDJIS
  2
AcmBOMStdJIS
  3
"Amdt_StdImp|Product Description: AutoCAD Mechanical|Company: Autodesk, Inc."
 90
     1024
 91
        0
280
     0
281
     0
  0
CLASS
  1
ACMSURFSTANDARDANSI
  2
AcmSurfTextStdANSI
  3
"Amdt_StdImp|Product Description: AutoCAD Mechanical|Company: Autodesk, Inc."
 90
     1024
 91
        1
280
     0
281
     0
  0
CLASS
  1
ACMFCFSTANDARDANSI
  2
AcmFCFStdANSI
  3
"Amdt_StdImp|Product Description: AutoCAD Mechanical|Company: Autodesk, Inc."
 90
     1024
 91
        1
280
     0
281
     0
  0
CLASS
  1
ACMWELDSTANDARDANSI
  2
AcmWeldingStdANSI
  3
"Amdt_StdImp|Product Description: AutoCAD Mechanical|Company: Autodesk, Inc."
 90
     1024
 91
        1
280
     0
281
     0
  0
CLASS
  1
ACMIDSTANDARDANSI
  2
AcmIdStdANSI
  3
"Amdt_StdImp|Product Description: AutoCAD Mechanical|Company: Autodesk, Inc."
 90
     1024
 91
        1
280
     0
281
     0
  0
CLASS
  1
ACMDATUMSTANDARDANSI
  2
AcmDatumStdANSI
  3
"Amdt_StdImp|Product Description: AutoCAD Mechanical|Company: Autodesk, Inc."
 90
     1024
 91
        1
280
     0
281
     0
  0
CLASS
  1
ACMBOMSTANDARDANSI
  2
AcmBOMStdANSI
  3
"Amdt_StdImp|Product Description: AutoCAD Mechanical|Company: Autodesk, Inc."
 90
     1024
 91
        1
280
     0
281
     0
  0
CLASS
  1
ACMSURFSTANDARDBSI
  2
AcmSurfTextStdBSI
  3
"Amdt_StdImp|Product Description: AutoCAD Mechanical|Company: Autodesk, Inc."
 90
     1024
 91
        0
280
     0
281
     0
  0
CLASS
  1
ACMFCFSTANDARDBSI
  2
AcmFCFStdBSI
  3
"Amdt_StdImp|Product Description: AutoCAD Mechanical|Company: Autodesk, Inc."
 90
     1024
 91
        0
280
     0
281
     0
  0
CLASS
  1
ACMWELDSTANDARDBSI
  2
AcmWeldingStdBSI
  3
"Amdt_StdImp|Product Description: AutoCAD Mechanical|Company: Autodesk, Inc."
 90
     1024
 91
        0
280
     0
281
     0
  0
CLASS
  1
ACMIDSTANDARDBSI
  2
AcmIdStdBSI
  3
"Amdt_StdImp|Product Description: AutoCAD Mechanical|Company: Autodesk, Inc."
 90
     1024
 91
        0
280
     0
281
     0
  0
CLASS
  1
ACMDATUMSTANDARDBSI
  2
AcmDatumStdBSI
  3
"Amdt_StdImp|Product Description: AutoCAD Mechanical|Company: Autodesk, Inc."
 90
     1024
 91
        0
280
     0
281
     0
  0
CLASS
  1
ACMBOMSTANDARDBSI
  2
AcmBOMStdBSI
  3
"Amdt_StdImp|Product Description: AutoCAD Mechanical|Company: Autodesk, Inc."
 90
     1024
 91
        0
280
     0
281
     0
  0
CLASS
  1
AMDTEDGESTANDARDDIN
  2
AmdtEdgeStdDIN
  3
"Amdt_StdImp|Product Description: AutoCAD Mechanical|Company: Autodesk, Inc."
 90
     1024
 91
        0
280
     0
281
     0
  0
CLASS
  1
ACMSURFSTANDARDDIN
  2
AcmSurfTextStdDIN
  3
"Amdt_StdImp|Product Description: AutoCAD Mechanical|Company: Autodesk, Inc."
 90
     1024
 91
        0
280
     0
281
     0
  0
CLASS
  1
ACMFCFSTANDARDDIN
  2
AcmFCFStdDIN
  3
"Amdt_StdImp|Product Description: AutoCAD Mechanical|Company: Autodesk, Inc."
 90
     1024
 91
        0
280
     0
281
     0
  0
CLASS
  1
ACMWELDSTANDARDDIN
  2
AcmWeldingStdDIN
  3
"Amdt_StdImp|Product Description: AutoCAD Mechanical|Company: Autodesk, Inc."
 90
     1024
 91
        0
280
     0
281
     0
  0
CLASS
  1
ACMIDSTANDARDDIN
  2
AcmIdStdDIN
  3
"Amdt_StdImp|Product Description: AutoCAD Mechanical|Company: Autodesk, Inc."
 90
     1024
 91
        0
280
     0
281
     0
  0
CLASS
  1
ACMDATUMSTANDARDDIN
  2
AcmDatumStdDIN
  3
"Amdt_StdImp|Product Description: AutoCAD Mechanical|Company: Autodesk, Inc."
 90
     1024
 91
        0
280
     0
281
     0
  0
CLASS
  1
ACMBOMSTANDARDDIN
  2
AcmBOMStdDIN
  3
"Amdt_StdImp|Product Description: AutoCAD Mechanical|Company: Autodesk, Inc."
 90
     1024
 91
        0
280
     0
281
     0
  0
CLASS
  1
ACMSURFSTANDARDISO
  2
AcmSurfTextStdISO
  3
"Amdt_StdImp|Product Description: AutoCAD Mechanical|Company: Autodesk, Inc."
 90
     1024
 91
        1
280
     0
281
     0
  0
CLASS
  1
ACMFCFSTANDARDISO
  2
AcmFCFStdISO
  3
"Amdt_StdImp|Product Description: AutoCAD Mechanical|Company: Autodesk, Inc."
 90
     1024
 91
        1
280
     0
281
     0
  0
CLASS
  1
ACMWELDSTANDARDISO
  2
AcmWeldingStdISO
  3
"Amdt_StdImp|Product Description: AutoCAD Mechanical|Company: Autodesk, Inc."
 90
     1024
 91
        1
280
     0
281
     0
  0
CLASS
  1
ACMIDSTANDARDISO
  2
AcmIdStdISO
  3
"Amdt_StdImp|Product Description: AutoCAD Mechanical|Company: Autodesk, Inc."
 90
     1024
 91
        1
280
     0
281
     0
  0
CLASS
  1
ACMDATUMSTANDARDISO
  2
AcmDatumStdISO
  3
"Amdt_StdImp|Product Description: AutoCAD Mechanical|Company: Autodesk, Inc."
 90
     1024
 91
        1
280
     0
281
     0
  0
CLASS
  1
ACMBOMSTANDARDISO
  2
AcmBOMStdISO
  3
"Amdt_StdImp|Product Description: AutoCAD Mechanical|Company: Autodesk, Inc."
 90
     1024
 91
        1
280
     0
281
     0
  0
CLASS
  1
AMDTBROWSERDBTAB
  2
AmdtBrowserDbTab
  3
McadcomServices
 90
     1024
 91
        1
280
     0
281
     0
  0
CLASS
  1
ACAMGFILTERDAT
  2
AcAmgFilterDat
  3
"AcadM|Product Description: AutoCAD Mechanical|Company: Autodesk, Inc."
 90
     1024
 91
        4
280
     0
281
     0
  0
CLASS
  1
MAPIAMMOUDLE
  2
MApiAmModule
  3
MApiAmServices
 90
     1024
 91
        1
280
     0
281
     0
  0
CLASS
  1
AMDTMAPISURFMOUDULE
  2
AmdtMApiSurfModule
  3
MApiSurfServices
 90
     1024
 91
        2
280
     0
281
     0
  0
CLASS
  1
ACAMGLAYSTD
  2
AcAmgLayStd
  3
"AmgLay|Product Description: AutoCAD Mechanical|Company: Autodesk, Inc."
 90
     1024
 91
        2
280
     0
281
     0
  0
CLASS
  1
ACAMGDIMSTD
  2
AcAmgDimStd
  3
"AmgDim|Product Description: AutoCAD Mechanical|Company: Autodesk, Inc."
 90
     1024
 91
        2
280
     0
281
     0
  0
CLASS
  1
ACAMGTITLESTD
  2
AcAmgTitleStd
  3
"AmgTitle|Product Description: AutoCAD Mechanical|Company: Autodesk, Inc."
 90
     1024
 91
        2
280
     0
281
     0
  0
CLASS
  1
ACMDETAILSTANDARDJIS
  2
AmdtDetailSymStdJIS
  3
"Amdt_StdImp|Product Description: AutoCAD Mechanical|Company: Autodesk, Inc."
 90
     1024
 91
        0
280
     0
281
     0
  0
CLASS
  1
ACMSECTIONSTANDARDJIS
  2
AmdtSectionSymStdJIS
  3
"Amdt_StdImp|Product Description: AutoCAD Mechanical|Company: Autodesk, Inc."
 90
     1024
 91
        0
280
     0
281
     0
  0
CLASS
  1
ACMCENTERLINESTANDARDJIS
  2
AmdtCenterLineStdJIS
  3
"Amdt_StdImp|Product Description: AutoCAD Mechanical|Company: Autodesk, Inc."
 90
     1024
 91
        0
280
     0
281
     0
  0
CLASS
  1
ACMTHREADLINESTANDARDJIS
  2
AmdtThreadLineStdJIS
  3
"Amdt_StdImp|Product Description: AutoCAD Mechanical|Company: Autodesk, Inc."
 90
     1024
 91
        0
280
     0
281
     0
  0
CLASS
  1
ACMDETAILSTANDARDANSI
  2
AmdtDetailSymStdANSI
  3
"Amdt_StdImp|Product Description: AutoCAD Mechanical|Company: Autodesk, Inc."
 90
     1024
 91
        0
280
     0
281
     0
  0
CLASS
  1
ACMSECTIONSTANDARDANSI
  2
AmdtSectionSymStdANSI
  3
"Amdt_StdImp|Product Description: AutoCAD Mechanical|Company: Autodesk, Inc."
 90
     1024
 91
        0
280
     0
281
     0
  0
CLASS
  1
ACMCENTERLINESTANDARDANSI
  2
AmdtCenterLineStdANSI
  3
"Amdt_StdImp|Product Description: AutoCAD Mechanical|Company: Autodesk, Inc."
 90
     1024
 91
        1
280
     0
281
     0
  0
CLASS
  1
ACMTHREADLINESTANDARDANSI
  2
AmdtThreadLineStdANSI
  3
"Amdt_StdImp|Product Description: AutoCAD Mechanical|Company: Autodesk, Inc."
 90
     1024
 91
        1
280
     0
281
     0
  0
CLASS
  1
ACMDETAILSTANDARDBSI
  2
AmdtDetailSymStdBSI
  3
"Amdt_StdImp|Product Description: AutoCAD Mechanical|Company: Autodesk, Inc."
 90
     1024
 91
        0
280
     0
281
     0
  0
CLASS
  1
ACMSECTIONSTANDARDBSI
  2
AmdtSectionSymStdBSI
  3
"Amdt_StdImp|Product Description: AutoCAD Mechanical|Company: Autodesk, Inc."
 90
     1024
 91
        0
280
     0
281
     0
  0
CLASS
  1
ACMCENTERLINESTANDARDBSI
  2
AmdtCenterLineStdBSI
  3
"Amdt_StdImp|Product Description: AutoCAD Mechanical|Company: Autodesk, Inc."
 90
     1024
 91
        0
280
     0
281
     0
  0
CLASS
  1
ACMTHREADLINESTANDARDBSI
  2
AmdtThreadLineStdBSI
  3
"Amdt_StdImp|Product Description: AutoCAD Mechanical|Company: Autodesk, Inc."
 90
     1024
 91
        0
280
     0
281
     0
  0
CLASS
  1
ACMDETAILSTANDARDDIN
  2
AmdtDetailSymStdDIN
  3
"Amdt_StdImp|Product Description: AutoCAD Mechanical|Company: Autodesk, Inc."
 90
     1024
 91
        0
280
     0
281
     0
  0
CLASS
  1
ACMSECTIONSTANDARDDIN
  2
AmdtSectionSymStdDIN
  3
"Amdt_StdImp|Product Description: AutoCAD Mechanical|Company: Autodesk, Inc."
 90
     1024
 91
        0
280
     0
281
     0
  0
CLASS
  1
ACMCENTERLINESTANDARDDIN
  2
AmdtCenterLineStdDIN
  3
"Amdt_StdImp|Product Description: AutoCAD Mechanical|Company: Autodesk, Inc."
 90
     1024
 91
        0
280
     0
281
     0
  0
CLASS
  1
ACMTHREADLINESTANDARDDIN
  2
AmdtThreadLineStdDIN
  3
"Amdt_StdImp|Product Description: AutoCAD Mechanical|Company: Autodesk, Inc."
 90
     1024
 91
        0
280
     0
281
     0
  0
CLASS
  1
AMDTEDGESTANDARDISO
  2
AmdtEdgeStdISO
  3
"Amdt_StdImp|Product Description: AutoCAD Mechanical|Company: Autodesk, Inc."
 90
     1024
 91
        1
280
     0
281
     0
  0
CLASS
  1
ACMDETAILSTANDARDISO
  2
AmdtDetailSymStdISO
  3
"Amdt_StdImp|Product Description: AutoCAD Mechanical|Company: Autodesk, Inc."
 90
     1024
 91
        1
280
     0
281
     0
  0
CLASS
  1
ACMSECTIONSTANDARDISO
  2
AmdtSectionSymStdISO
  3
"Amdt_StdImp|Product Description: AutoCAD Mechanical|Company: Autodesk, Inc."
 90
     1024
 91
        1
280
     0
281
     0
  0
CLASS
  1
ACMCENTERLINESTANDARDISO
  2
AmdtCenterLineStdISO
  3
"Amdt_StdImp|Product Description: AutoCAD Mechanical|Company: Autodesk, Inc."
 90
     1024
 91
        1
280
     0
281
     0
  0
CLASS
  1
ACMTHREADLINESTANDARDISO
  2
AmdtThreadLineStdISO
  3
"Amdt_StdImp|Product Description: AutoCAD Mechanical|Company: Autodesk, Inc."
 90
     1024
 91
        1
280
     0
281
     0
  0
CLASS
  1
ACMNOTESTANDARDISO
  2
AmdtNoteStdISO
  3
"Amdt_StdImp|Product Description: AutoCAD Mechanical|Company: Autodesk, Inc."
 90
     1024
 91
        1
280
     0
281
     0
  0
CLASS
  1
ACAMGHOLECHARTSTDISO
  2
AcAmgHoleChartStdISO
  3
"AmgDim" "Product Description: AutoCAD Mechanical|Company: Autodesk, Inc."
 90
     1024
 91
        1
280
     0
281
     0
  0
CLASS
  1
ACMNOTESTANDARDANSI
  2
AmdtNoteStdANSI
  3
"Amdt_StdImp|Product Description: AutoCAD Mechanical|Company: Autodesk, Inc."
 90
     1024
 91
        1
280
     0
281
     0
  0
CLASS
  1
AMDTNOTETEMPLATEDB
  2
AmdtNoteTemplateDB
  3
"AcmSymBB" "Product Description: AutoCAD Mechanical|Company: Autodesk, Inc."
 90
     1024
 91
        8
280
     0
281
     0
  0
CLASS
  1
ACAMGHOLECHARTSTDANSI
  2
AcAmgHoleChartStdANSI
  3
"AmgDim" "Product Description: AutoCAD Mechanical|Company: Autodesk, Inc."
 90
     1024
 91
        1
280
     0
281
     0
  0
CLASS
  1
TABLESTYLE
  2
AcDbTableStyle
  3
ObjectDBX Classes
 90
     4095
 91
        1
280
     0
281
     0
  0
CLASS
  1
ACAD_TABLE
  2
AcDbTable
  3
ObjectDBX Classes
 90
     1025
 91
        0
280
     0
281
     1
  0
CLASS
  1
MATERIAL
  2
AcDbMaterial
  3
ObjectDBX Classes
 90
     1153
 91
        3
280
     0
281
     0
  0
CLASS
  1
VISUALSTYLE
  2
AcDbVisualStyle
  3
ObjectDBX Classes
 90
     4095
 91
       26
280
     0
281
     0
  0
CLASS
  1
SCALE
  2
AcDbScale
  3
ObjectDBX Classes
 90
     1153
 91
       17
280
     0
281
     0
  0
CLASS
  1
MLEADERSTYLE
  2
AcDbMLeaderStyle
  3
ACDB_MLEADERSTYLE_CLASS
 90
     4095
 91
        1
280
     0
281
     0
  0
CLASS
  1
ACRFATTGENMGR
  2
AcRfAttGeneralMgr
  3
AcAttribServices
 90
     1024
 91
        1
280
     0
281
     0
  0
CLASS
  1
ACRFOBJATTMGR
  2
AcRfObjAttGroupMgr
  3
AcAttribServices
 90
     1024
 91
        1
280
     0
281
     0
  0
CLASS
  1
ACRFMCADAPIATTHOLDER
  2
AcRfMCADAPIAttHolder
  3
AcAttribServices
 90
     1024
 91
        1
280
     0
281
     0
  0
CLASS
  1
AMDTSYSATTR
  2
AmdtSystemAttribute
  3
AcAttribServices
 90
     1024
 91
        5
280
     0
281
     0
  0
CLASS
  1
ACMTAPERSTANDARDISO
  2
AcmTaperStdISO
  3
"Amdt_StdImp|Product Description: AutoCAD Mechanical|Company: Autodesk, Inc."
 90
     1024
 91
        1
280
     0
281
     0
  0
CLASS
  1
ACMANOOTATIONVIEWSTANDARDISO
  2
AmdtAnViewStdISO
  3
"Amdt_StdImp|Product Description: AutoCAD Mechanical|Company: Autodesk, Inc."
 90
     1024
 91
        1
280
     0
281
     0
  0
CLASS
  1
ACMTAPERSTANDARDANSI
  2
AcmTaperStdANSI
  3
"Amdt_StdImp|Product Description: AutoCAD Mechanical|Company: Autodesk, Inc."
 90
     1024
 91
        1
280
     0
281
     0
  0
CLASS
  1
ACMANOOTATIONVIEWSTANDARDANSI
  2
AmdtAnViewStdANSI
  3
"Amdt_StdImp|Product Description: AutoCAD Mechanical|Company: Autodesk, Inc."
 90
     1024
 91
        1
280
     0
281
     0
  0
CLASS
  1
CELLSTYLEMAP
  2
AcDbCellStyleMap
  3
ObjectDBX Classes
 90
     1152
 91
        2
280
     0
281
     0
  0
CLASS
  1
CAMSSTRUCTBTNSTATE
  2
StructBtnState
  3
DesignerAssemblies_arx
 90
     1024
 91
        1
280
     0
281
     0
  0
CLASS
  1
ACDBSECTIONVIEWSTYLE
  2
AcDbSectionViewStyle
  3
ObjectDBX Classes
 90
     1025
 91
        6
280
     0
281
     0
  0
CLASS
  1
ACDBDETAILVIEWSTYLE
  2
AcDbDetailViewStyle
  3
ObjectDBX Classes
 90
     1025
 91
        5
280
     0
281
     0
  0
CLASS
  1
FIELD
  2
AcDbField
  3
ObjectDBX Classes
 90
     1152
 91
       17
280
     0
281
     0
  0
CLASS
  1
SORTENTSTABLE
  2
AcDbSortentsTable
  3
ObjectDBX Classes
 90
        0
 91
        0
280
     0
281
     0
  0
CLASS
  1
FIELDLIST
  2
AcDbFieldList
  3
ObjectDBX Classes
 90
     1152
 91
        1
280
     0
281
     0
  0
CLASS
  1
ACMSECTIONSTANDARDCUSTOM
  2
AmdtSectionSymStdCustom
  3
"Amdt_StdImp|Product Description: AutoCAD Mechanical|Company: Autodesk, Inc."
 90
     1024
 91
       10
280
     0
281
     0
  0
CLASS
  1
ACMDETAILTANDARDCUSTOM
  2
AmdtDetailSymStdCustom
  3
"Amdt_StdImp|Product Description: AutoCAD Mechanical|Company: Autodesk, Inc."
 90
     1024
 91
        8
280
     0
281
     0
  0
CLASS
  1
EXACXREFPANELOBJECT
  2
ExAcXREFPanelObject
  3
EXAC_ESW
 90
     1025
 91
        0
280
     0
281
     0
  0
CLASS
  1
NPOCOLLECTION
  2
AcDbImpNonPersistentObjectsCollection
  3
ObjectDBX Classes
 90
     1153
 91
        0
280
     0
281
     0
  0
CLASS
  1
ACAD_EVALUATION_GRAPH
  2
AcDbEvalGraph
  3
ObjectDBX Classes
 90
     1153
 91
        5
280
     0
281
     0
  0
CLASS
  1
ACAECUSTOBJ
  2
AcAeEditorObj
  3
AcAeEditorObj
 90
     1024
 91
        4
280
     0
281
     0
  0
CLASS
  1
ACDB_DYNAMICBLOCKPURGEPREVENTER_VERSION
  2
AcDbDynamicBlockPurgePreventer
  3
ObjectDBX Classes
 90
     1153
 91
        1
280
     0
281
     0
  0
CLASS
  1
PLOTSETTINGS
  2
AcDbPlotSettings
  3
ObjectDBX Classes
 90
        0
 91
        1
280
     0
281
     0
  0
CLASS
  1
DIMASSOC
  2
AcDbDimAssoc
  3
"AcDbDimAssoc|Product Desc:     AcDim ARX App For Dimension|Company:          Autodesk, Inc.|WEB Address:      www.autodesk.com"
 90
        0
 91
        1
280
     0
281
     0
  0
ENDSEC
  0
SECTION
  2
TABLES
  0
TABLE
  2
VPORT
  5
8
330
0
100
AcDbSymbolTable
 70
     1
1001
ACAD
1000
DbSaveVer
1071
      224
  0
VPORT
  5
A35
330
8
100
AcDbSymbolTableRecord
100
AcDbViewportTableRecord
  2
*Active
 70
     0
 10
0.0
 20
0.0
 11
1.0
 21
1.0
 12
135.8298760948058
 22
-45.14765095444087
 13
0.0
 23
0.0
 14
2.5
 24
2.5
 15
10.0
 25
10.0
 16
0.0
 26
0.0
 36
1.0
 17
0.0
 27
0.0
 37
0.0
 40
449.5927663845801
 41
1.610042735042735
 42
50.0
 43
0.0
 44
0.0
 50
0.0
 51
0.0
 71
     0
 72
   100
 73
     1
 74
     1
 75
     0
 76
     0
 77
     0
 78
     0
281
     0
 65
     0
110
0.0
120
0.0
130
0.0
111
1.0
121
0.0
131
0.0
112
0.0
122
1.0
132
0.0
 79
     0
146
0.0
348
A55
 60
     3
 61
     5
292
     1
282
     1
141
0.0
142
0.0
 63
   250
421
  3355443
1001
ACAD_NAV_VCDISPLAY
1070
     3
  0
ENDTAB
  0
TABLE
  2
LTYPE
  5
5
330
0
100
AcDbSymbolTable
 70
    19
  0
LTYPE
  5
14
330
5
100
AcDbSymbolTableRecord
100
AcDbLinetypeTableRecord
  2
BYBLOCK
 70
     0
  3

 72
    65
 73
     0
 40
0.0
  0
LTYPE
  5
15
330
5
100
AcDbSymbolTableRecord
100
AcDbLinetypeTableRecord
  2
BYLAYER
 70
     0
  3

 72
    65
 73
     0
 40
0.0
  0
LTYPE
  5
16
330
5
100
AcDbSymbolTableRecord
100
AcDbLinetypeTableRecord
  2
CONTINUOUS
 70
     0
  3
Solid line
 72
    65
 73
     0
 40
0.0
  0
LTYPE
  5
BD
330
5
100
AcDbSymbolTableRecord
100
AcDbLinetypeTableRecord
  2
HIDDEN
 70
     0
  3
__ __ __ __ __ __ __ __ __ __ __ __ __ __ __ __
 72
    65
 73
     2
 40
0.375
 49
0.25
 74
     0
 49
-0.125
 74
     0
  0
LTYPE
  5
BF
330
5
100
AcDbSymbolTableRecord
100
AcDbLinetypeTableRecord
  2
PHANTOM2
 70
     0
  3
___ _ _ ___ _ _ ___ _ _ ___ _ _ ___ _ _ ___ _ _
 72
    65
 73
     6
 40
1.25
 49
0.625
 74
     0
 49
-0.125
 74
     0
 49
0.125
 74
     0
 49
-0.125
 74
     0
 49
0.125
 74
     0
 49
-0.125
 74
     0
  0
LTYPE
  5
CA
330
5
100
AcDbSymbolTableRecord
100
AcDbLinetypeTableRecord
  2
CENTER
 70
     0
  3
____ _ ____ _ ____ _ ____ _ ____ _ ____ _ ____ 
 72
    65
 73
     4
 40
2.0
 49
1.25
 74
     0
 49
-0.25
 74
     0
 49
0.25
 74
     0
 49
-0.25
 74
     0
  0
LTYPE
  5
14D
330
5
100
AcDbSymbolTableRecord
100
AcDbLinetypeTableRecord
  2
ACANSTGB
 70
     0
  3
__ . . __ . .
 72
    65
 73
     6
 40
0.35433070866
 49
0.15748031496
 74
     0
 49
-0.03937007874
 74
     0
 49
0.03937007874
 74
     0
 49
-0.03937007874
 74
     0
 49
0.03937007874
 74
     0
 49
-0.03937007874
 74
     0
  0
LTYPE
  5
14E
330
5
100
AcDbSymbolTableRecord
100
AcDbLinetypeTableRecord
  2
ACANSTGL
 70
     0
  3
_ _ _ _ _
 72
    65
 73
     2
 40
0.11811023622
 49
0.07874015748
 74
     0
 49
-0.03937007874
 74
     0
  0
LTYPE
  5
15B
330
5
100
AcDbSymbolTableRecord
100
AcDbLinetypeTableRecord
  2
ACISOWELD
 70
     0
  3
_ _ _ _ _
 72
    65
 73
     2
 40
2.0
 49
2.0
 74
     0
 49
-1.0
 74
     0
  0
LTYPE
  5
15C
330
5
100
AcDbSymbolTableRecord
100
AcDbLinetypeTableRecord
  2
ACISOTGB
 70
     0
  3
__ . . __ . .
 72
    65
 73
     6
 40
9.0
 49
4.0
 74
     0
 49
-1.0
 74
     0
 49
1.0
 74
     0
 49
-1.0
 74
     0
 49
1.0
 74
     0
 49
-1.0
 74
     0
  0
LTYPE
  5
15D
330
5
100
AcDbSymbolTableRecord
100
AcDbLinetypeTableRecord
  2
ACISOTGL
 70
     0
  3
_ _ _ _ _
 72
    65
 73
     2
 40
3.0
 49
2.0
 74
     0
 49
-1.0
 74
     0
  0
LTYPE
  5
175
330
5
100
AcDbSymbolTableRecord
100
AcDbLinetypeTableRecord
  2
AM_ISO02W050
 70
     0
  3
__ __ __ __ __ __ __ __ __ __ __ __ __ __ __
 72
    65
 73
     2
 40
7.5
 49
6.0
 74
     0
 49
-1.5
 74
     0
  0
LTYPE
  5
176
330
5
100
AcDbSymbolTableRecord
100
AcDbLinetypeTableRecord
  2
AM_ISO08W050
 70
     0
  3
____ . ____ . ____ . ____ . ____ . ____ . ____
 72
    65
 73
     4
 40
18.0
 49
12.0
 74
     0
 49
-1.5
 74
     0
 49
3.0
 74
     0
 49
-1.5
 74
     0
  0
LTYPE
  5
177
330
5
100
AcDbSymbolTableRecord
100
AcDbLinetypeTableRecord
  2
AM_ISO09W050
 70
     0
  3
_____ . . _____ . . _____ . . ____ .. ____
 72
    65
 73
     6
 40
22.5
 49
12.0
 74
     0
 49
-1.5
 74
     0
 49
3.0
 74
     0
 49
-1.5
 74
     0
 49
3.0
 74
     0
 49
-1.5
 74
     0
  0
LTYPE
  5
178
330
5
100
AcDbSymbolTableRecord
100
AcDbLinetypeTableRecord
  2
AM_ISO02W050x2
 70
     0
  3
 _ _ _ _ _ _ _ _ _ _ _ _
 72
    65
 73
     2
 40
3.75
 49
3.0
 74
     0
 49
-0.75
 74
     0
  0
LTYPE
  5
179
330
5
100
AcDbSymbolTableRecord
100
AcDbLinetypeTableRecord
  2
AM_ISO08W050x2
 70
     0
  3
__ . __ . __ . __ . __ . __
 72
    65
 73
     4
 40
9.0
 49
6.0
 74
     0
 49
-0.75
 74
     0
 49
1.5
 74
     0
 49
-0.75
 74
     0
  0
LTYPE
  5
17C
330
5
100
AcDbSymbolTableRecord
100
AcDbLinetypeTableRecord
  2
Amzigzag
 70
     0
  3
/\/-/\/-/\/-/\/-/\/-/\/
 72
    65
 73
     2
 40
11.0001
 49
0.0001
 74
     4
 75
   135
340
17B
 46
0.04
 50
0.0
 44
0.0
 45
0.0
 49
-11.0
 74
     0
  0
LTYPE
  5
2ED
330
5
100
AcDbSymbolTableRecord
100
AcDbLinetypeTableRecord
  2
Amconstr
 70
     0
  3
_______________________
 72
    65
 73
     2
 40
9999.0
 49
9999.0
 74
     0
 49
0.0
 74
     0
  0
LTYPE
  5
2F8
330
5
100
AcDbSymbolTableRecord
100
AcDbLinetypeTableRecord
  2
CENTER2
 70
     0
  3
Center (.5x) ___ _ ___ _ ___ _ ___ _ ___ _ ___
 72
    65
 73
     4
 40
1.125
 49
0.75
 74
     0
 49
-0.125
 74
     0
 49
0.125
 74
     0
 49
-0.125
 74
     0
  0
LTYPE
  5
2F9
330
5
100
AcDbSymbolTableRecord
100
AcDbLinetypeTableRecord
  2
HIDDEN2
 70
     0
  3
Hidden (.5x) _ _ _ _ _ _ _ _ _ _ _ _ _ _ _ _ _
 72
    65
 73
     2
 40
0.1875
 49
0.125
 74
     0
 49
-0.0625
 74
     0
  0
LTYPE
  5
2FA
330
5
100
AcDbSymbolTableRecord
100
AcDbLinetypeTableRecord
  2
Amzigzag2
 70
     0
  3
/\/-/\/-/\/-/\/-/\/-/\/
 72
    65
 73
     2
 40
0.4401
 49
0.0001
 74
     4
 75
   135
340
17B
 46
0.0016
 50
0.0
 44
0.0
 45
0.0
 49
-0.4400000000000001
 74
     0
  0
ENDTAB
  0
TABLE
  2
LAYER
  5
2
102
{ACAD_XDICTIONARY
360
592
102
}
330
0
100
AcDbSymbolTable
 70
    13
  0
LAYER
  5
F
102
{ACAD_XDICTIONARY
360
AB7
102
}
330
2
100
AcDbSymbolTableRecord
100
AcDbLayerTableRecord
  2
0
 70
     0
 62
     7
  6
CONTINUOUS
370
    -3
390
166
347
A47
348
0
  0
LAYER
  5
5CF
102
{ACAD_XDICTIONARY
360
AB9
102
}
330
2
100
AcDbSymbolTableRecord
100
AcDbLayerTableRecord
  2
AM_0
 70
     0
 62
     7
  6
CONTINUOUS
370
    50
390
166
347
A47
348
0
  0
LAYER
  5
32D3
330
2
100
AcDbSymbolTableRecord
100
AcDbLayerTableRecord
  2
Defpoints
 70
     0
 62
     7
  6
CONTINUOUS
290
     0
370
    -3
390
166
347
A47
348
0
  0
LAYER
  5
374F
102
{ACAD_XDICTIONARY
360
3750
102
}
330
2
100
AcDbSymbolTableRecord
100
AcDbLayerTableRecord
  2
DIM
 70
     0
 62
     3
  6
CONTINUOUS
370
    25
390
166
347
A47
348
0
1001
AcAecLayerStandard
1000

1000

  0
ENDTAB
  0
TABLE
  2
STYLE
  5
3
330
0
100
AcDbSymbolTable
 70
     9
  0
STYLE
  5
10
330
3
100
AcDbSymbolTableRecord
100
AcDbTextStyleTableRecord
  2
STANDARD
 70
     0
 40
0.0
 41
1.0
 50
0.0
 71
     0
 42
3.5
  3
ISOCP.SHX
  4

  0
STYLE
  5
14C
330
3
100
AcDbSymbolTableRecord
100
AcDbTextStyleTableRecord
  2
ACANSGDT
 70
     0
 40
0.0
 41
1.0
 50
0.0
 71
     0
 42
3.5
  3
amgdt.shx
  4

  0
STYLE
  5
159
330
3
100
AcDbSymbolTableRecord
100
AcDbTextStyleTableRecord
  2
ACISOTS
 70
     0
 40
1.0
 41
1.0
 50
0.0
 71
     0
 42
2.5
  3
isocp.shx
  4

  0
STYLE
  5
15A
330
3
100
AcDbSymbolTableRecord
100
AcDbTextStyleTableRecord
  2
ACISOGDT
 70
     0
 40
0.0
 41
1.0
 50
0.0
 71
     0
 42
2.5
  3
amgdt.shx
  4

  0
STYLE
  5
17B
330
3
100
AcDbSymbolTableRecord
100
AcDbTextStyleTableRecord
  2

 70
     1
 40
0.0
 41
1.0
 50
0.0
 71
     0
 42
3.5
  3
ltypeshp.shx
  4

  0
STYLE
  5
425
330
3
100
AcDbSymbolTableRecord
100
AcDbTextStyleTableRecord
  2
ACANSTS
 70
     0
 40
1.0
 41
1.0
 50
0.0
 71
     0
 42
3.5
  3
romans.shx
  4

  0
STYLE
  5
D0A
330
3
100
AcDbSymbolTableRecord
100
AcDbTextStyleTableRecord
  2
ISOCP
 70
     0
 40
0.0
 41
1.0
 50
0.0
 71
     0
 42
3.5
  3
isocp
  4

  0
ENDTAB
  0
TABLE
  2
VIEW
  5
6
330
0
100
AcDbSymbolTable
 70
    10
  0
VIEW
  5
1C8
330
6
100
AcDbSymbolTableRecord
100
AcDbViewTableRecord
  2
AMDTVIEW1
 70
     0
 40
329.0721649484536
 10
210.0
 20
164.5360824742268
 41
420.0
 11
0.0
 21
0.0
 31
1.0
 12
0.0
 22
0.0
 32
0.0
 42
50.0
 43
0.0
 44
0.0
 50
0.0
 71
     0
281
     0
 72
     0
 73
     0
348
A55
  0
VIEW
  5
1C9
330
6
100
AcDbSymbolTableRecord
100
AcDbViewTableRecord
  2
AMDTVIEW2
 70
     0
 40
329.0721649484536
 10
210.0
 20
164.5360824742268
 41
420.0
 11
0.0
 21
0.0
 31
1.0
 12
0.0
 22
0.0
 32
0.0
 42
50.0
 43
0.0
 44
0.0
 50
0.0
 71
     0
281
     0
 72
     0
 73
     0
348
A55
  0
VIEW
  5
1CA
330
6
100
AcDbSymbolTableRecord
100
AcDbViewTableRecord
  2
AMDTVIEW3
 70
     0
 40
329.0721649484536
 10
210.0
 20
164.5360824742268
 41
420.0
 11
0.0
 21
0.0
 31
1.0
 12
0.0
 22
0.0
 32
0.0
 42
50.0
 43
0.0
 44
0.0
 50
0.0
 71
     0
281
     0
 72
     0
 73
     0
348
A55
  0
VIEW
  5
FA2
330
6
100
AcDbSymbolTableRecord
100
AcDbViewTableRecord
  2
AM_VIEW1
 70
     0
 40
148.5
 10
116.6562170706006
 20
222.75
 41
233.3124341412013
 11
0.0
 21
0.0
 31
1.0
 12
0.0
 22
0.0
 32
0.0
 42
50.0
 43
0.0
 44
0.0
 50
0.0
 71
     0
281
     0
 72
     0
 73
     0
  0
VIEW
  5
FA3
330
6
100
AcDbSymbolTableRecord
100
AcDbViewTableRecord
  2
AM_VIEW2
 70
     0
 40
148.5
 10
303.3437829293994
 20
222.75
 41
233.3124341412013
 11
0.0
 21
0.0
 31
1.0
 12
0.0
 22
0.0
 32
0.0
 42
50.0
 43
0.0
 44
0.0
 50
0.0
 71
     0
281
     0
 72
     0
 73
     0
  0
VIEW
  5
FA4
330
6
100
AcDbSymbolTableRecord
100
AcDbViewTableRecord
  2
AM_VIEW3
 70
     0
 40
148.5
 10
116.6562170706006
 20
74.25
 41
233.3124341412013
 11
0.0
 21
0.0
 31
1.0
 12
0.0
 22
0.0
 32
0.0
 42
50.0
 43
0.0
 44
0.0
 50
0.0
 71
     0
281
     0
 72
     0
 73
     0
  0
VIEW
  5
FA5
330
6
100
AcDbSymbolTableRecord
100
AcDbViewTableRecord
  2
AM_VIEW4
 70
     0
 40
148.5
 10
303.3437829293994
 20
74.25
 41
233.3124341412013
 11
0.0
 21
0.0
 31
1.0
 12
0.0
 22
0.0
 32
0.0
 42
50.0
 43
0.0
 44
0.0
 50
0.0
 71
     0
281
     0
 72
     0
 73
     0
  0
VIEW
  5
FA6
330
6
100
AcDbSymbolTableRecord
100
AcDbViewTableRecord
  2
AM_VIEW5
 70
     0
 40
148.5
 10
210.0
 20
148.5
 41
233.3124341412013
 11
0.0
 21
0.0
 31
1.0
 12
0.0
 22
0.0
 32
0.0
 42
50.0
 43
0.0
 44
0.0
 50
0.0
 71
     0
281
     0
 72
     0
 73
     0
  0
VIEW
  5
FA7
330
6
100
AcDbSymbolTableRecord
100
AcDbViewTableRecord
  2
AM_VIEW6
 70
     0
 40
296.99703
 10
210.0
 20
148.5
 41
466.6202020337196
 11
0.0
 21
0.0
 31
1.0
 12
0.0
 22
0.0
 32
0.0
 42
50.0
 43
0.0
 44
0.0
 50
0.0
 71
     0
281
     0
 72
     0
 73
     0
  0
ENDTAB
  0
TABLE
  2
UCS
  5
7
330
0
100
AcDbSymbolTable
 70
     0
  0
ENDTAB
  0
TABLE
  2
APPID
  5
9
330
0
100
AcDbSymbolTable
 70
    39
  0
APPID
  5
11
330
9
100
AcDbSymbolTableRecord
100
AcDbRegAppTableRecord
  2
ACAD
 70
     0
  0
APPID
  5
CD
330
9
100
AcDbSymbolTableRecord
100
AcDbRegAppTableRecord
  2
AD_DRAW
 70
     0
  0
APPID
  5
E7
330
9
100
AcDbSymbolTableRecord
100
AcDbRegAppTableRecord
  2
DESIGNERASSEMBLIES
 70
     0
  0
APPID
  5
EB
330
9
100
AcDbSymbolTableRecord
100
AcDbRegAppTableRecord
  2
MCAD_NO_VIS
 70
     0
  0
APPID
  5
122
330
9
100
AcDbSymbolTableRecord
100
AcDbRegAppTableRecord
  2
ASURF_PCURVE_APPNAME
 70
     0
  0
APPID
  5
17F
330
9
100
AcDbSymbolTableRecord
100
AcDbRegAppTableRecord
  2
ACAD_TEMP_GRAPHIC
 70
     0
  0
APPID
  5
189
330
9
100
AcDbSymbolTableRecord
100
AcDbRegAppTableRecord
  2
ACATTRIBSERVICES
 70
     0
  0
APPID
  5
1C4
330
9
100
AcDbSymbolTableRecord
100
AcDbRegAppTableRecord
  2
ACADM_DIM_EDIT
 70
     0
  0
APPID
  5
1D5
330
9
100
AcDbSymbolTableRecord
100
AcDbRegAppTableRecord
  2
GENIUS_GENDIM_13
 70
     0
  0
APPID
  5
1D6
330
9
100
AcDbSymbolTableRecord
100
AcDbRegAppTableRecord
  2
GENIUS_GENDTOL_13
 70
     0
  0
APPID
  5
1D7
330
9
100
AcDbSymbolTableRecord
100
AcDbRegAppTableRecord
  2
GENIUS_GE3DTOL_13
 70
     0
  0
APPID
  5
2E9
330
9
100
AcDbSymbolTableRecord
100
AcDbRegAppTableRecord
  2
AMG_3D2D_5.0
 70
     0
  0
APPID
  5
3C0
330
9
100
AcDbSymbolTableRecord
100
AcDbRegAppTableRecord
  2
AMDT_DM_ADJ
 70
     0
  0
APPID
  5
82F
330
9
100
AcDbSymbolTableRecord
100
AcDbRegAppTableRecord
  2
ACAD_PSEXT
 70
     0
  0
APPID
  5
84A
330
9
100
AcDbSymbolTableRecord
100
AcDbRegAppTableRecord
  2
DCO15
 70
     0
  0
APPID
  5
892
330
9
100
AcDbSymbolTableRecord
100
AcDbRegAppTableRecord
  2
ACAD_DSTYLE_DIMTEXT_FILL
 70
     0
  0
APPID
  5
A74
330
9
100
AcDbSymbolTableRecord
100
AcDbRegAppTableRecord
  2
ACAD_MLEADERVER
 70
     0
  0
APPID
  5
AB1
330
9
100
AcDbSymbolTableRecord
100
AcDbRegAppTableRecord
  2
AcAecLayerStandard
 70
     0
  0
APPID
  5
CE6
330
9
100
AcDbSymbolTableRecord
100
AcDbRegAppTableRecord
  2
ACAD_NAV_VCDISPLAY
 70
     0
  0
APPID
  5
D0F
330
9
100
AcDbSymbolTableRecord
100
AcDbRegAppTableRecord
  2
ACAD_DSTYLE_DIMARC_LENGTH_SYMBOL
 70
     0
  0
APPID
  5
D10
330
9
100
AcDbSymbolTableRecord
100
AcDbRegAppTableRecord
  2
ACAD_DSTYLE_DIMJOGGED_JOGANGLE_SYMBOL
 70
     0
  0
APPID
  5
D11
330
9
100
AcDbSymbolTableRecord
100
AcDbRegAppTableRecord
  2
ACAD_EXEMPT_FROM_CAD_STANDARDS
 70
     0
  0
APPID
  5
D91
330
9
100
AcDbSymbolTableRecord
100
AcDbRegAppTableRecord
  2
GENIUS_GENTRA_14
 70
     0
  0
APPID
  5
D92
330
9
100
AcDbSymbolTableRecord
100
AcDbRegAppTableRecord
  2
ACAD_DSTYLE_DIMBREAK
 70
     0
  0
APPID
  5
D93
330
9
100
AcDbSymbolTableRecord
100
AcDbRegAppTableRecord
  2
ACAD_DSTYLE_DIMJAG
 70
     0
  0
APPID
  5
D94
330
9
100
AcDbSymbolTableRecord
100
AcDbRegAppTableRecord
  2
ACAD_DSTYLE_DIMTALN
 70
     0
  0
APPID
  5
F9C
330
9
100
AcDbSymbolTableRecord
100
AcDbRegAppTableRecord
  2
GENIUS_GENOBJ-N-TIT_13
 70
     0
  0
APPID
  5
F9D
330
9
100
AcDbSymbolTableRecord
100
AcDbRegAppTableRecord
  2
GENIUS_GENOLIS_13
 70
     0
  0
APPID
  5
F9E
330
9
100
AcDbSymbolTableRecord
100
AcDbRegAppTableRecord
  2
GENIUS_GENODEF_13
 70
     0
  0
APPID
  5
F9F
330
9
100
AcDbSymbolTableRecord
100
AcDbRegAppTableRecord
  2
GENIUS_GENOENT_13
 70
     0
  0
APPID
  5
FA0
330
9
100
AcDbSymbolTableRecord
100
AcDbRegAppTableRecord
  2
GENIUS_GENTITLE_13
 70
     0
  0
APPID
  5
FA1
330
9
100
AcDbSymbolTableRecord
100
AcDbRegAppTableRecord
  2
GENIUS_GENOREF_13
 70
     0
  0
APPID
  5
FA8
330
9
100
AcDbSymbolTableRecord
100
AcDbRegAppTableRecord
  2
GENIUS_GENSCREG_15
 70
     0
  0
APPID
  5
FA9
330
9
100
AcDbSymbolTableRecord
100
AcDbRegAppTableRecord
  2
GENIUS_GENOBJ-N-SDF_13
 70
     0
  0
APPID
  5
14AF
330
9
100
AcDbSymbolTableRecord
100
AcDbRegAppTableRecord
  2
ACAD_OBJECT_CHANGE_GUID
 70
     0
  0
APPID
  5
16D9
330
9
100
AcDbSymbolTableRecord
100
AcDbRegAppTableRecord
  2
ACAUTHENVIRON
 70
     0
  0
APPID
  5
18D6
330
9
100
AcDbSymbolTableRecord
100
AcDbRegAppTableRecord
  2
AcDbDynamicBlockTrueName
 70
     0
  0
APPID
  5
18D7
330
9
100
AcDbSymbolTableRecord
100
AcDbRegAppTableRecord
  2
AcDbDynamicBlockGUID
 70
     0
  0
APPID
  5
2A26
330
9
100
AcDbSymbolTableRecord
100
AcDbRegAppTableRecord
  2
PE_URL
 70
     0
  0
ENDTAB
  0
TABLE
  2
DIMSTYLE
  5
A
330
0
100
AcDbSymbolTable
 70
    17
100
AcDbDimStyleTable
 71
     2
340
344
340
31B
  0
DIMSTYLE
105
31C
330
A
100
AcDbSymbolTableRecord
100
AcDbDimStyleTableRecord
  2
AM_ANSI$3
 70
     0
  4
mm
 41
0.1
 42
0.05
 43
0.5
 44
0.1
 47
0.1
 48
0.1
 78
     7
 79
     2
140
0.12
141
0.0
146
0.71
147
0.06
176
   256
177
   256
178
     2
274
     4
284
     7
288
     1
289
     0
340
10
371
    -1
372
    -1
  0
DIMSTYLE
105
31D
330
A
100
AcDbSymbolTableRecord
100
AcDbDimStyleTableRecord
  2
AM_ANSI$4
 70
     0
  4
mm
 41
0.1
 42
0.05
 43
0.5
 44
0.1
 47
0.1
 48
0.1
 78
     7
 79
     2
140
0.12
141
0.0
146
0.71
147
0.06
176
   256
177
   256
178
     2
274
     4
284
     7
288
     1
289
     0
340
10
371
    -1
372
    -1
  0
DIMSTYLE
105
31E
330
A
100
AcDbSymbolTableRecord
100
AcDbDimStyleTableRecord
  2
AM_ANSI$7
 70
     0
  4
mm
 41
0.1
 42
0.05
 43
0.5
 44
0.1
 47
0.1
 48
0.1
 78
     7
 79
     2
140
0.24
141
0.0
146
0.71
147
0.06
176
   256
177
   256
178
     2
274
     4
284
     7
340
10
371
    -1
372
    -1
  0
DIMSTYLE
105
31F
330
A
100
AcDbSymbolTableRecord
100
AcDbDimStyleTableRecord
  2
AM_ANSI$SF
 70
     0
  4
mm
 41
0.1
 42
0.05
 43
0.5
 44
0.1
 47
0.1
 48
0.1
 75
     1
 76
     1
 78
     7
 79
     2
140
0.12
141
0.0
146
0.71
147
0.06
176
   256
177
   256
178
     2
274
     4
284
     7
340
10
371
    -1
372
    -1
  0
DIMSTYLE
105
320
330
A
100
AcDbSymbolTableRecord
100
AcDbDimStyleTableRecord
  2
AM_ANSI$SH
 70
     0
  4
mm
 41
0.1
 42
0.05
 43
0.5
 44
0.1
 47
0.1
 48
0.1
 75
     1
 76
     1
 78
     7
 79
     2
140
0.12
141
0.0
146
0.71
147
0.06
173
     1
176
   256
177
   256
178
     2
274
     4
284
     7
340
10
343
2F4
371
    -1
372
    -1
  0
DIMSTYLE
105
344
330
A
100
AcDbSymbolTableRecord
100
AcDbDimStyleTableRecord
  2
AM_ISO
 70
     0
  4
"
 41
2.5
 42
1.0
 43
10.0
 44
1.0
 47
0.1
 48
0.1
 73
     0
 74
     0
 77
     1
 78
     8
 79
     2
140
3.5
141
0.0
143
0.0393701
146
0.71
147
1.5
171
     3
172
     1
176
   256
177
   256
178
     2
271
     2
272
     2
274
     3
283
     0
284
     8
340
10
371
    -1
372
    -1
  0
DIMSTYLE
105
345
330
A
100
AcDbSymbolTableRecord
100
AcDbDimStyleTableRecord
  2
AM_ISO$3
 70
     0
  4
"
 41
2.5
 42
1.0
 43
10.0
 44
1.0
 47
0.1
 48
0.1
 73
     0
 77
     1
 78
     8
 79
     2
140
3.5
141
0.0
143
0.0393701
146
0.71
147
1.5
176
   256
177
   256
178
     2
271
     2
272
     3
274
     4
283
     0
284
     8
288
     1
289
     0
340
10
371
    -1
372
    -1
  0
DIMSTYLE
105
346
330
A
100
AcDbSymbolTableRecord
100
AcDbDimStyleTableRecord
  2
AM_ISO$4
 70
     0
  4
"
 41
2.5
 42
1.0
 43
10.0
 44
1.0
 47
0.1
 48
0.1
 73
     0
 77
     1
 78
     8
 79
     2
140
3.5
141
0.0
143
0.0393701
146
0.71
147
1.5
176
   256
177
   256
178
     2
271
     2
272
     3
274
     4
283
     0
284
     8
288
     1
289
     0
340
10
371
    -1
372
    -1
  0
DIMSTYLE
105
347
330
A
100
AcDbSymbolTableRecord
100
AcDbDimStyleTableRecord
  2
AM_ISO$6
 70
     0
  4
"
 41
2.5
 42
1.0
 43
10.0
 44
1.0
 47
0.1
 48
0.1
 73
     0
 74
     0
 78
     8
 79
     2
140
3.5
141
0.0
143
0.0393701
146
0.71
147
1.5
172
     1
176
   256
177
   256
178
     2
271
     2
272
     3
274
     4
283
     0
284
     8
340
10
371
    -1
372
    -1
  0
DIMSTYLE
105
348
330
A
100
AcDbSymbolTableRecord
100
AcDbDimStyleTableRecord
  2
AM_ISO$7
 70
     0
  4
"
 41
2.5
 42
1.0
 43
10.0
 44
1.0
 47
0.1
 48
0.1
 73
     0
 74
     0
 77
     1
 78
     8
 79
     2
140
5.0
141
0.0
143
0.0393701
146
0.71
147
1.5
172
     1
176
   256
177
   256
178
     2
271
     2
272
     3
274
     4
283
     0
284
     8
340
10
371
    -1
372
    -1
  0
DIMSTYLE
105
349
330
A
100
AcDbSymbolTableRecord
100
AcDbDimStyleTableRecord
  2
AM_ISO$SF
 70
     0
  4
"
 41
2.5
 42
1.0
 43
10.0
 44
1.0
 47
0.1
 48
0.1
 73
     0
 74
     0
 75
     1
 76
     1
 77
     1
 78
     8
 79
     2
140
3.5
141
0.0
143
0.0393701
146
0.71
147
1.5
172
     1
176
   256
177
   256
178
     2
271
     2
272
     3
274
     4
283
     0
284
     8
340
10
371
    -1
372
    -1
  0
DIMSTYLE
105
34A
330
A
100
AcDbSymbolTableRecord
100
AcDbDimStyleTableRecord
  2
AM_ISO$SH
 70
     0
  4
"
 41
2.5
 42
1.0
 43
10.0
 44
1.0
 47
0.1
 48
0.1
 73
     0
 74
     0
 75
     1
 76
     1
 77
     1
 78
     8
 79
     2
140
3.5
141
0.0
143
0.0393701
144
2.0
146
0.71
147
1.5
172
     1
173
     1
176
   256
177
   256
178
     2
271
     2
272
     3
274
     4
283
     0
284
     8
340
10
343
2F4
371
    -1
372
    -1
  0
DIMSTYLE
105
31B
330
A
100
AcDbSymbolTableRecord
100
AcDbDimStyleTableRecord
  2
AM_ANSI
 70
     0
  4
mm
 41
0.1
 42
0.05
 43
0.5
 44
0.1
 47
0.1
 48
0.1
 78
     7
 79
     2
140
0.12
141
0.0
146
0.71
147
0.06
176
   256
177
   256
178
     2
274
     4
284
     7
340
10
371
    -1
372
    -1
  0
DIMSTYLE
105
D0D
330
A
100
AcDbSymbolTableRecord
100
AcDbDimStyleTableRecord
  2
STANDARD
 70
     0
 41
3.5
 42
2.0
 43
10.0
 44
1.0
 46
2.0
 73
     0
 74
     0
 77
     1
 78
     8
140
3.5
141
0.0
143
25.39999999999999
145
1.0
147
1.0
172
     1
175
     1
176
   256
177
   256
178
     3
271
     2
272
     2
284
     8
340
D0A
  0
ENDTAB
  0
TABLE
  2
BLOCK_RECORD
  5
1
330
0
100
AcDbSymbolTable
 70
    16
  0
BLOCK_RECORD
  5
1A
102
{ACAD_XDICTIONARY
360
12A
102
}
330
1
100
AcDbSymbolTableRecord
100
AcDbBlockTableRecord
  2
*MODEL_SPACE
340
169
 70
     0
280
     1
281
     0
  0
BLOCK_RECORD
  5
2CA3
330
1
100
AcDbSymbolTableRecord
100
AcDbBlockTableRecord
  2
*Paper_Space
340
2CA4
 70
     0
280
     1
281
     0
  0
BLOCK_RECORD
  5
2F4
330
1
100
AcDbSymbolTableRecord
100
AcDbBlockTableRecord
  2
GENAXEH
340
0
 70
     0
280
     1
281
     0
  0
BLOCK_RECORD
  5
D74
330
1
100
AcDbSymbolTableRecord
100
AcDbBlockTableRecord
  2
_ACMFILLED15
340
0
310
2800000020000000200000000100080000000000000400000000000000000000000000000000000000000000000080000080000000808000800000008000800080800000C0C0C000C0DCC000F0CAA6000020400000206000002080000020A0000020C0000020E00000400000004020000040400000406000004080000040A0
310
000040C0000040E00000600000006020000060400000606000006080000060A0000060C0000060E00000800000008020000080400000806000008080000080A0000080C0000080E00000A0000000A0200000A0400000A0600000A0800000A0A00000A0C00000A0E00000C0000000C0200000C0400000C0600000C0800000C0
310
A00000C0C00000C0E00000E0000000E0200000E0400000E0600000E0800000E0A00000E0C00000E0E00040000000400020004000400040006000400080004000A0004000C0004000E00040200000402020004020400040206000402080004020A0004020C0004020E000404000004040200040404000404060004040800040
310
40A0004040C0004040E00040600000406020004060400040606000406080004060A0004060C0004060E00040800000408020004080400040806000408080004080A0004080C0004080E00040A0000040A0200040A0400040A0600040A0800040A0A00040A0C00040A0E00040C0000040C0200040C0400040C0600040C08000
310
40C0A00040C0C00040C0E00040E0000040E0200040E0400040E0600040E0800040E0A00040E0C00040E0E00080000000800020008000400080006000800080008000A0008000C0008000E00080200000802020008020400080206000802080008020A0008020C0008020E00080400000804020008040400080406000804080
310
008040A0008040C0008040E00080600000806020008060400080606000806080008060A0008060C0008060E00080800000808020008080400080806000808080008080A0008080C0008080E00080A0000080A0200080A0400080A0600080A0800080A0A00080A0C00080A0E00080C0000080C0200080C0400080C0600080C0
310
800080C0A00080C0C00080C0E00080E0000080E0200080E0400080E0600080E0800080E0A00080E0C00080E0E000C0000000C0002000C0004000C0006000C0008000C000A000C000C000C000E000C0200000C0202000C0204000C0206000C0208000C020A000C020C000C020E000C0400000C0402000C0404000C0406000C0
310
408000C040A000C040C000C040E000C0600000C0602000C0604000C0606000C0608000C060A000C060C000C060E000C0800000C0802000C0804000C0806000C0808000C080A000C080C000C080E000C0A00000C0A02000C0A04000C0A06000C0A08000C0A0A000C0A0C000C0A0E000C0C00000C0C02000C0C04000C0C06000
310
C0C08000C0C0A000F0FBFF00A4A0A000808080000000FF0000FF000000FFFF00FF000000FF00FF00FFFF0000FFFFFF0000000000000000000000000000000000000000000000000000000000000000000000000000000000000000000000000000000000000000000000000000000000000000000000000000000000000000
310
00000000000000000000000000000000000000000000000000000000000000000000000000000000000000000000000000000000000000000000000000000000000000000000000000000000000000000000000000000000000000000000000000000000000000000000000000000000000000000000000000000000000000
310
00000000000000000000000000000000000000000000000000000000000000000000000000000000000000000000000000000000000000000000000000000000000000000000000000000000000000000000000000000000000000000000000000000000000000000000000000000000000000000000000000000000000000
310
00000000000000000000000000000000000000000000000000000000000000000000000000000000000000000000000000000000FFFFFFFF00000000000000000000000000000000000000000000000000000000FFFFFFFFFFFFFFFFFFFFFF000000000000000000000000000000000000000000FFFFFFFFFFFFFFFFFFFFFF
310
FFFFFFFFFFFFFFFF00000000000000000000000000FFFFFFFFFFFFFFFFFFFFFFFFFFFFFFFFFFFFFFFFFFFFFFFFFFFF000000000000FFFFFFFFFFFFFFFFFFFFFFFFFFFFFFFFFFFFFFFFFFFFFFFFFFFFFFFFFFFF0000FFFFFFFFFFFFFFFFFFFFFFFFFFFFFFFFFFFFFFFFFFFFFFFFFF00000000000000FFFFFFFFFFFFFFFFFFFF
310
FFFFFFFFFF0000000000000000000000000000000000FFFFFFFFFF00000000000000000000000000000000000000000000000000000000000000000000000000000000000000000000000000000000000000000000000000000000000000000000000000000000000000000000000000000000000000000000000000000000
310
00000000000000000000000000000000000000000000000000000000000000000000000000000000000000000000000000000000000000000000000000000000000000000000000000000000000000000000000000000000000000000000000000000000000000000000000000000000000000000000000000000000000000
310
00000000000000000000000000000000000000000000000000000000000000000000000000000000000000000000000000000000000000000000000000000000000000000000000000000000000000000000000000000000000000000000000000000000000000000000000000000000000000000000000000000000000000
310
0000000000000000000000000000000000000000000000000000000000000000000000000000000000000000000000000000000000000000
 70
     0
280
     1
281
     0
  0
BLOCK_RECORD
  5
D78
330
1
100
AcDbSymbolTableRecord
100
AcDbBlockTableRecord
  2
_ACMFILLED30
340
0
 70
     0
280
     1
281
     0
  0
BLOCK_RECORD
  5
3748
102
{ACAD_XDICTIONARY
360
3749
102
}
330
1
100
AcDbSymbolTableRecord
100
AcDbBlockTableRecord
  2
dimensionBlock
340
0
102
{BLKREFS
331
39D7
331
39DB
331
39DF
331
39E3
331
39E7
331
39EB
102
}
 70
     4
280
     1
281
     0
1001
AcDbDynamicBlockGUID
1000
{ABAE17C1-BD05-CC44-872C-8E51C814C1B1}
  0
BLOCK_RECORD
  5
37B5
330
1
100
AcDbSymbolTableRecord
100
AcDbBlockTableRecord
  2
H3_101_0_3X9_33UG
340
0
310
28000000200000002000000001002000000000000010000001000000010000000000000000000000302821FF302821FF302821FF302821FF302821FF302821FF302821FF302821FF302821FF302821FF302821FF302821FF302821FF302821FF302821FF302821FF302821FF302821FF302821FF302821FF302821FF302821
310
FF302821FF302821FF302821FF302821FF302821FF302821FF302821FF302821FF302821FF302821FF302821FF302821FF302821FF302821FF302821FF302821FF302821FF302821FF302821FF302821FF302821FF302821FF302821FF302821FF302821FF302821FF302821FF302821FF302821FFFFFFFFFFFFFFFFFF3028
310
21FF302821FF302821FF302821FF302821FF302821FF302821FF302821FF302821FF302821FF302821FF302821FF302821FF302821FF302821FF302821FF302821FF302821FF302821FF302821FF302821FF302821FF302821FF302821FF302821FF302821FF302821FF302821FF302821FF302821FFFFFFFFFF302821FFFF
310
FFFFFFFFFFFFFF302821FF302821FF302821FF302821FF302821FF302821FF302821FF302821FF302821FF302821FF302821FF302821FF302821FF302821FF302821FF302821FF302821FF302821FF302821FF302821FF302821FF302821FF302821FF302821FFFFFFFFFFFFFFFFFFFFFFFFFFFFFFFFFFFFFFFFFF302821FF
310
302821FFFFFFFFFF302821FF302821FF302821FF302821FF302821FF302821FF302821FF302821FF302821FF302821FF302821FF302821FF302821FF302821FF302821FF302821FF302821FF302821FF302821FF302821FFFFFFFFFFFFFFFFFFFFFFFFFFFFFFFFFFFFFFFFFFFFFFFFFFFFFFFFFFFFFFFFFFFFFFFFFFFFFFFF
310
FFFFFFFFFFFFFFFFFF302821FF302821FF302821FF302821FF302821FF302821FF302821FF302821FF302821FF302821FF302821FF302821FF302821FF302821FF302821FF302821FF302821FF302821FFFFFFFFFFFFFFFFFFFFFFFFFF302821FF302821FF302821FF302821FFFFFFFFFFFFFFFFFF302821FF302821FF3028
310
21FFFFFFFFFFFFFFFFFFFFFFFFFFFFFFFFFF302821FF302821FF302821FF302821FF302821FF302821FF302821FF302821FF302821FF302821FF302821FF302821FF302821FF302821FF302821FFFFFFFFFFFFFFFFFFFFFFFFFFFFFFFFFFFFFFFFFF302821FF302821FFFFFFFFFFFFFFFFFFFFFFFFFFFFFFFFFF302821FF30
310
2821FFFFFFFFFFFFFFFFFFFFFFFFFFFFFFFFFFFFFFFFFF302821FF302821FF302821FF302821FF302821FF302821FF302821FF302821FF302821FF302821FF302821FF302821FF302821FFFFFFFFFFFFFFFFFFFFFFFFFFFFFFFFFFFFFFFFFFFFFFFFFF302821FF302821FFFFFFFFFF302821FF302821FFFFFFFFFF302821FF
310
302821FFFFFFFFFFFFFFFFFFFFFFFFFFFFFFFFFFFFFFFFFFFFFFFFFF302821FF302821FF302821FF302821FF302821FF302821FF302821FF302821FF302821FF302821FF302821FFFFFFFFFFFFFFFFFF302821FFFFFFFFFFFFFFFFFFFFFFFFFFFFFFFFFF302821FF302821FFFFFFFFFFFFFFFFFFFFFFFFFFFFFFFFFF302821
310
FF302821FFFFFFFFFFFFFFFFFFFFFFFFFFFFFFFFFF302821FFFFFFFFFFFFFFFFFF302821FF302821FF302821FF302821FF302821FF302821FF302821FF302821FF302821FF302821FFFFFFFFFFFFFFFFFFFFFFFFFFFFFFFFFFFFFFFFFFFFFFFFFFFFFFFFFFFFFFFFFFFFFFFFFF302821FFFFFFFFFFFFFFFFFF302821FFFFFF
310
FFFFFFFFFFFFFFFFFFFFFFFFFFFFFFFFFFFFFFFFFFFFFFFFFFFF302821FFFFFFFFFFFFFFFFFF302821FF302821FF302821FF302821FF302821FF302821FF302821FF302821FFFFFFFFFFFFFFFFFFFFFFFFFFFFFFFFFFFFFFFFFFFFFFFFFFFFFFFFFFFFFFFFFFFFFFFFFFFFFFFFFFFFFFFFFFFFFFFFFFFFFFFFFFFFFFFFFFFF
310
FFFFFFFFFFFFFFFFFFFFFFFFFFFFFFFFFFFFFFFFFFFFFFFFFFFFFFFFFFFFFFFFFFFFFFFFFFFFFF302821FF302821FF302821FF302821FF302821FF302821FF302821FF302821FFFFFFFFFFFFFFFFFFFFFFFFFFFFFFFFFFFFFFFFFFFFFFFFFFFFFFFFFFFFFFFFFFFFFFFFFFFFFFFFFFFFFFFFFFFFFFFFFFFFFFFFFFFFFFFFFF
310
FFFFFFFFFFFFFFFFFFFFFFFFFFFFFFFFFFFFFFFFFFFFFFFFFFFFFFFFFFFFFFFFFFFFFFFFFFFFFFFFFFFFFFFF302821FF302821FF302821FF302821FF302821FF302821FFFFFFFFFFFFFFFFFFFFFFFFFFFFFFFFFFFFFFFFFFFFFFFFFFFFFFFFFFFFFFFFFFFFFFFFFFFFFFFFFFFFFFFFFFFFFFFFFFFFFFFFFFFFFFFFFFFFFFFF
310
FFFFFFFFFFFFFFFFFFFFFFFFFFFFFFFFFFFFFFFFFFFFFFFFFFFFFFFFFFFFFFFFFFFFFFFFFF302821FFFFFFFFFF302821FF302821FF302821FF302821FF302821FF302821FFFFFFFFFF302821FFFFFFFFFFFFFFFFFFFFFFFFFFFFFFFFFFFFFFFFFF302821FFFFFFFFFFFFFFFFFFFFFFFFFFFFFFFFFFFFFFFFFFFFFFFFFFFFFF
310
FFFFFFFFFFFFFFFFFFFFFFFFFFFF302821FFFFFFFFFFFFFFFFFFFFFFFFFFFFFFFFFFFFFFFFFF302821FFFFFFFFFF302821FF302821FF302821FF302821FF302821FF302821FFFFFFFFFF302821FFFFFFFFFFFFFFFFFFFFFFFFFFFFFFFFFFFFFFFFFFFFFFFFFFFFFFFFFFFFFFFFFFFFFFFFFFFFFFFFFF302821FF302821FFFF
310
FFFFFFFFFFFFFFFFFFFFFFFFFFFFFFFFFFFFFFFFFFFFFFFFFFFFFFFFFFFFFFFFFFFFFFFFFFFFFF302821FFFFFFFFFF302821FF302821FF302821FF302821FF302821FF302821FFFFFFFFFFFFFFFFFFFFFFFFFFFFFFFFFFFFFFFFFFFFFFFFFFFFFFFFFFFFFFFFFFFFFFFFFFFFFFFFFFFFFFFFFFFFFFFFFF302821FFFFFFFFFF
310
FFFFFFFFFFFFFFFFFFFFFFFFFFFFFFFFFFFFFFFFFFFFFFFFFFFFFFFFFFFFFFFFFFFFFFFFFFFFFFFFFFFFFFFFFFFFFFFFFFFFFFFF302821FF302821FF302821FF302821FFFFFFFFFFFFFFFFFF302821FFFFFFFFFFFFFFFFFFFFFFFFFFFFFFFFFFFFFFFFFFFFFFFFFFFFFFFFFFFFFFFFFFFFFFFFFFFFFFFFFFFFFFFFFFFFFFFF
310
FFFFFFFFFFFFFFFFFFFFFFFFFFFFFFFFFFFFFFFFFFFFFFFFFFFFFFFFFFFFFFFFFFFFFFFFFFFFFFFFFFFFFFFFFFFFFFFFFFFFFFFFFF302821FF302821FF302821FF302821FFFFFFFFFFFFFFFFFFFFFFFFFFFFFFFFFF302821FFFFFFFFFFFFFFFFFFFFFFFFFFFFFFFFFFFFFFFFFFFFFFFFFFFFFFFFFF302821FFFFFFFFFFFFFF
310
FFFF302821FFFFFFFFFFFFFFFFFFFFFFFFFFFFFFFFFFFFFFFFFFFFFFFFFFFFFFFFFF302821FFFFFFFFFFFFFFFFFFFFFFFFFFFFFFFFFF302821FF302821FF302821FF302821FFFFFFFFFFFFFFFFFF302821FF302821FF302821FF302821FFFFFFFFFFFFFFFFFFFFFFFFFFFFFFFFFFFFFFFFFF302821FFFFFFFFFFFFFFFFFFFF
310
FFFFFFFFFFFFFF302821FFFFFFFFFFFFFFFFFFFFFFFFFFFFFFFFFFFFFFFFFF302821FF302821FF302821FF302821FFFFFFFFFF302821FF302821FF302821FFFFFFFFFFFFFFFFFFFFFFFFFFFFFFFFFF302821FF302821FF302821FF302821FF302821FFFFFFFFFFFFFFFFFFFFFFFFFFFFFFFFFFFFFFFFFFFFFFFFFFFFFFFFFF
310
FFFFFFFFFFFFFFFFFFFFFFFFFFFFFFFFFFFFFFFFFFFFFFFFFFFFFFFF302821FF302821FF302821FF302821FF302821FFFFFFFFFF302821FF302821FF302821FFFFFFFFFF302821FF302821FFFFFFFFFF302821FF302821FFFFFFFFFFFFFFFFFFFFFFFFFFFFFFFFFFFFFFFFFFFFFFFFFFFFFFFFFFFFFFFFFFFFFFFFFFFFFFFF
310
FFFFFFFFFFFFFFFFFFFFFFFFFFFFFFFFFFFFFFFFFFFFFFFFFFFFFFFFFFFFFFFFFFFFFFFFFF302821FF302821FF302821FFFFFFFFFF302821FF302821FF302821FF302821FFFFFFFFFFFFFFFFFFFFFFFFFFFFFFFFFF302821FFFFFFFFFF302821FF302821FFFFFFFFFFFFFFFFFFFFFFFFFFFFFFFFFFFFFFFFFFFFFFFFFFFFFF
310
FFFFFFFFFFFFFFFFFFFFFFFFFFFFFFFFFFFFFFFFFFFFFFFFFFFFFFFFFFFF302821FF302821FFFFFFFFFF302821FF302821FFFFFFFFFF302821FF302821FF302821FF302821FFFFFFFFFF302821FF302821FFFFFFFFFF302821FFFFFFFFFFFFFFFFFFFFFFFFFFFFFFFFFF302821FFFFFFFFFFFFFFFFFFFFFFFFFFFFFFFFFFFF
310
FFFFFFFFFFFFFFFFFFFFFFFFFFFFFFFFFFFFFFFFFFFFFF302821FFFFFFFFFFFFFFFFFFFFFFFFFFFFFFFFFF302821FFFFFFFFFFFFFFFFFF302821FF302821FF302821FF302821FF302821FF302821FF302821FFFFFFFFFFFFFFFFFFFFFFFFFFFFFFFFFF302821FF302821FF302821FFFFFFFFFFFFFFFFFFFFFFFFFFFFFFFFFF
310
302821FF302821FFFFFFFFFFFFFFFFFFFFFFFFFFFFFFFFFF302821FF302821FF302821FFFFFFFFFFFFFFFFFF302821FFFFFFFFFF302821FF302821FF302821FF302821FF302821FF302821FF302821FF302821FF302821FFFFFFFFFF302821FF302821FF302821FF302821FF302821FFFFFFFFFFFFFFFFFFFFFFFFFFFFFFFF
310
FFFFFFFFFFFFFFFFFFFFFFFFFFFFFFFFFFFFFFFFFFFFFFFFFF302821FF302821FF302821FF302821FF302821FFFFFFFFFFFFFFFFFF302821FF302821FF302821FF302821FF302821FF302821FF302821FF302821FF302821FFFFFFFFFFFFFFFFFF302821FF302821FFFFFFFFFFFFFFFFFFFFFFFFFFFFFFFFFFFFFFFFFFFFFF
310
FFFFFFFFFFFFFFFFFFFFFFFFFFFFFFFFFFFFFFFFFFFFFFFFFFFFFFFFFFFFFFFFFFFF302821FF302821FFFFFFFFFFFFFFFFFF302821FF302821FF302821FF302821FF302821FF302821FF302821FF302821FF302821FF302821FF302821FFFFFFFFFFFFFFFFFF302821FFFFFFFFFFFFFFFFFFFFFFFFFFFFFFFFFFFFFFFFFFFF
310
FFFFFFFFFFFFFFFFFFFFFFFFFFFFFFFFFFFFFFFFFFFFFFFFFFFFFFFFFFFFFFFFFFFFFF302821FFFFFFFFFF302821FF302821FFFFFFFFFF302821FF302821FF302821FF302821FF302821FF302821FF302821FF302821FF302821FF302821FF302821FFFFFFFFFFFFFFFFFFFFFFFFFFFFFFFFFFFFFFFFFFFFFFFFFFFFFFFFFF
310
FFFFFFFFFFFFFFFFFFFFFFFFFFFFFFFFFFFFFFFFFFFFFFFFFFFFFFFFFFFFFFFFFFFFFFFFFFFFFFFFFFFFFFFF302821FF302821FFFFFFFFFF302821FF302821FF302821FF302821FF302821FF302821FF302821FF302821FF302821FF302821FF302821FF302821FF302821FFFFFFFFFFFFFFFFFFFFFFFFFF302821FF302821
310
FFFFFFFFFFFFFFFFFFFFFFFFFFFFFFFFFF302821FF302821FFFFFFFFFFFFFFFFFFFFFFFFFF302821FF302821FFFFFFFFFFFFFFFFFF302821FF302821FF302821FF302821FF302821FF302821FF302821FF302821FF302821FF302821FF302821FF302821FF302821FF302821FF302821FF302821FFFFFFFFFFFFFFFFFFFFFF
310
FFFFFFFFFFFFFFFFFFFFFFFFFFFFFFFFFFFFFFFFFFFFFFFFFFFFFFFFFFFF302821FF302821FF302821FF302821FF302821FF302821FF302821FF302821FF302821FF302821FF302821FF302821FF302821FF302821FF302821FF302821FF302821FF302821FF302821FF302821FF302821FF302821FF302821FF302821FF30
310
2821FF302821FFFFFFFFFFFFFFFFFF302821FF302821FF302821FF302821FF302821FF302821FF302821FF302821FF302821FF302821FF302821FF302821FF302821FF302821FF302821FF302821FF302821FF302821FF302821FF302821FF302821FF302821FF302821FF302821FF302821FF302821FF302821FF302821FF
310
302821FF302821FF302821FF302821FF302821FF302821FF302821FF302821FF302821FF302821FF302821FF302821FF302821FF302821FF302821FF302821FF302821FF302821FF
102
{BLKREFS
331
39EF
102
}
 70
     4
280
     1
281
     0
  0
ENDTAB
  0
ENDSEC
  0
SECTION
  2
BLOCKS
  0
BLOCK
  5
1B
330
1A
100
AcDbEntity
  8
0
100
AcDbBlockBegin
  2
*MODEL_SPACE
 70
     0
 10
0.0
 20
0.0
 30
0.0
  3
*MODEL_SPACE
  1

  0
ENDBLK
  5
1C
330
1A
100
AcDbEntity
  8
0
100
AcDbBlockEnd
  0
BLOCK
  5
2CA5
330
2CA3
100
AcDbEntity
 67
     1
  8
0
100
AcDbBlockBegin
  2
*Paper_Space
 70
     0
 10
0.0
 20
0.0
 30
0.0
  3
*Paper_Space
  1

  0
ENDBLK
  5
2CA6
330
2CA3
100
AcDbEntity
 67
     1
  8
0
100
AcDbBlockEnd
  0
BLOCK
  5
C49
330
2F4
100
AcDbEntity
  8
0
100
AcDbBlockBegin
  2
GENAXEH
 70
     0
 10
0.0
 20
0.0
 30
0.0
  3
GENAXEH
  1

  0
LINE
  5
C4A
330
2F4
100
AcDbEntity
  8
0
100
AcDbLine
 10
-1.0
 20
0.0
 30
0.0
 11
1.0
 21
0.0
 31
0.0
  0
ENDBLK
  5
C4B
330
2F4
100
AcDbEntity
  8
0
100
AcDbBlockEnd
  0
BLOCK
  5
D75
330
D74
100
AcDbEntity
  8
0
100
AcDbBlockBegin
  2
_ACMFILLED15
 70
     0
 10
0.0
 20
0.0
 30
0.0
  3
_ACMFILLED15
  1

  0
TRACE
  5
D76
330
D74
100
AcDbEntity
  8
AM_0
 62
     0
100
AcDbTrace
 10
-1.0
 20
-0.131652497
 30
0.0
 11
-1.0
 21
0.131652497
 31
0.0
 12
0.0
 22
0.0
 32
0.0
 13
0.0
 23
0.0
 33
0.0
  0
ENDBLK
  5
D77
330
D74
100
AcDbEntity
  8
0
100
AcDbBlockEnd
  0
BLOCK
  5
D79
330
D78
100
AcDbEntity
  8
0
100
AcDbBlockBegin
  2
_ACMFILLED30
 70
     0
 10
0.0
 20
0.0
 30
0.0
  3
_ACMFILLED30
  1

  0
TRACE
  5
D7A
330
D78
100
AcDbEntity
  8
AM_0
 62
     0
100
AcDbTrace
 10
-1.0
 20
-0.26794919
 30
0.0
 11
-1.0
 21
0.26794919
 31
0.0
 12
0.0
 22
0.0
 32
0.0
 13
0.0
 23
0.0
 33
0.0
  0
ENDBLK
  5
D7B
330
D78
100
AcDbEntity
  8
0
100
AcDbBlockEnd
  0
BLOCK
  5
374A
330
3748
100
AcDbEntity
  8
0
100
AcDbBlockBegin
  2
dimensionBlock
 70
     2
 10
0.0
 20
0.0
 30
0.0
  3
dimensionBlock
  1

  0
POINT
  5
374B
330
3748
100
AcDbEntity
  8
0
100
AcDbPoint
 10
0.0
 20
0.0
 30
0.0
  0
ATTDEF
  5
374C
330
3748
100
AcDbEntity
  8
0
100
AcDbText
 10
9.467092950319427
 20
2.891095235479383
 30
0.00000001
 40
5.0
  1

100
AcDbAttributeDefinition
280
     0
  3
bredd
  2
D
 70
     1
280
     1
  0
ATTDEF
  5
374D
330
3748
100
AcDbEntity
  8
0
100
AcDbText
 10
9.467092950319427
 20
-3.592322260641607
 30
0.00000001
 40
5.0
  1

100
AcDbAttributeDefinition
280
     0
  3
Dimension symbol
  2
Dsymbol
 70
     1
280
     1
  0
ENDBLK
  5
374E
330
3748
100
AcDbEntity
  8
0
100
AcDbBlockEnd
  0
BLOCK
  5
37B6
330
37B5
100
AcDbEntity
  8
0
100
AcDbBlockBegin
  2
H3_101_0_3X9_33UG
 70
     0
 10
0.0
 20
0.0
 30
0.0
  3
H3_101_0_3X9_33UG
  1

  0
LINE
  5
37B8
330
37B5
100
AcDbEntity
  8
AM_0
100
AcDbLine
 10
0.0
 20
8.800000000000011
 30
0.0
 11
0.0
 21
8.0
 31
0.0
  0
ARC
  5
37B9
330
37B5
100
AcDbEntity
  8
AM_0
100
AcDbCircle
 10
0.0
 20
25.5
 30
0.0
 40
16.7
100
AcDbArc
 50
270.0
 51
90.0
  0
LINE
  5
37BA
330
37B5
100
AcDbEntity
  8
AM_0
100
AcDbLine
 10
0.0
 20
43.0
 30
0.0
 11
0.0
 21
42.19999999999998
 31
0.0
  0
LINE
  5
37BB
330
37B5
100
AcDbEntity
  8
AM_0
100
AcDbLine
 10
36.54627203970335
 20
-21.09999999999997
 30
0.0
 11
37.2390923627309
 21
-21.49999999999989
 31
0.0
  0
ARC
  5
37BC
330
37B5
100
AcDbEntity
  8
AM_0
100
AcDbCircle
 10
22.08364779650322
 20
-12.75
 30
0.0
 40
16.7
100
AcDbArc
 50
329.9999999999995
 51
149.9999999999994
  0
LINE
  5
37BD
330
37B5
100
AcDbEntity
  8
AM_0
100
AcDbLine
 10
6.928203230275528
 20
-4.0
 30
0.0
 11
7.621023553303018
 21
-4.40000000000009
 31
0.0
  0
LINE
  5
37BE
330
37B5
100
AcDbEntity
  8
AM_0
100
AcDbLine
 10
-7.621023553303018
 20
-4.40000000000009
 30
0.0
 11
-6.928203230275528
 21
-4.0
 31
0.0
  0
ARC
  5
37BF
330
37B5
100
AcDbEntity
  8
AM_0
100
AcDbCircle
 10
-22.08364779650322
 20
-12.75
 30
0.0
 40
16.7
100
AcDbArc
 50
30.00000000000055
 51
210.0000000000005
  0
LINE
  5
37C0
330
37B5
100
AcDbEntity
  8
AM_0
100
AcDbLine
 10
-37.2390923627309
 20
-21.5
 30
0.0
 11
-36.5462720397033
 21
-21.09999999999997
 31
0.0
  0
LINE
  5
37C1
330
37B5
100
AcDbEntity
  8
AM_0
100
AcDbLine
 10
0.0
 20
42.19999999999998
 30
0.0
 11
0.0
 21
43.0
 31
0.0
  0
ARC
  5
37C2
330
37B5
100
AcDbEntity
  8
AM_0
100
AcDbCircle
 10
0.0
 20
25.5
 30
0.0
 40
16.7
100
AcDbArc
 50
90.0
 51
270.0
  0
LINE
  5
37C3
330
37B5
100
AcDbEntity
  8
AM_0
100
AcDbLine
 10
0.0
 20
8.0
 30
0.0
 11
0.0
 21
8.800000000000011
 31
0.0
  0
LINE
  5
37C4
330
37B5
100
AcDbEntity
  8
AM_0
100
AcDbLine
 10
7.621023553303018
 20
-4.40000000000009
 30
0.0
 11
6.928203230275528
 21
-4.0
 31
0.0
  0
ARC
  5
37C5
330
37B5
100
AcDbEntity
  8
AM_0
100
AcDbCircle
 10
22.08364779650322
 20
-12.75
 30
0.0
 40
16.69999999999999
100
AcDbArc
 50
149.9999999999994
 51
329.9999999999995
  0
LINE
  5
37C6
330
37B5
100
AcDbEntity
  8
AM_0
100
AcDbLine
 10
37.2390923627309
 20
-21.5
 30
0.0
 11
36.54627203970335
 21
-21.09999999999997
 31
0.0
  0
LINE
  5
37C7
330
37B5
100
AcDbEntity
  8
AM_0
100
AcDbLine
 10
-36.5462720397033
 20
-21.09999999999997
 30
0.0
 11
-37.2390923627309
 21
-21.5
 31
0.0
  0
ARC
  5
37C8
330
37B5
100
AcDbEntity
  8
AM_0
100
AcDbCircle
 10
-22.08364779650322
 20
-12.75
 30
0.0
 40
16.7
100
AcDbArc
 50
210.0000000000005
 51
30.00000000000055
  0
LINE
  5
37C9
330
37B5
100
AcDbEntity
  8
AM_0
100
AcDbLine
 10
-6.928203230275528
 20
-4.0
 30
0.0
 11
-7.621023553303132
 21
-4.40000000000009
 31
0.0
  0
ARC
  5
37CA
330
37B5
100
AcDbEntity
  8
AM_0
100
AcDbCircle
 10
0.0
 20
25.5
 30
0.0
 40
16.7
100
AcDbArc
 50
270.0
 51
90.0
  0
LINE
  5
37CB
330
37B5
100
AcDbEntity
  8
AM_0
100
AcDbLine
 10
0.0
 20
9.600000000000022
 30
0.0
 11
0.0
 21
8.800000000000011
 31
0.0
  0
ARC
  5
37CC
330
37B5
100
AcDbEntity
  8
AM_0
100
AcDbCircle
 10
0.0
 20
25.5
 30
0.0
 40
15.9
100
AcDbArc
 50
270.0
 51
90.0
  0
LINE
  5
37CD
330
37B5
100
AcDbEntity
  8
AM_0
100
AcDbLine
 10
0.0
 20
42.19999999999998
 30
0.0
 11
0.0
 21
41.40000000000003
 31
0.0
  0
ARC
  5
37CE
330
37B5
100
AcDbEntity
  8
AM_0
100
AcDbCircle
 10
22.08364779650322
 20
-12.75
 30
0.0
 40
16.7
100
AcDbArc
 50
329.9999999999995
 51
149.9999999999994
  0
LINE
  5
37CF
330
37B5
100
AcDbEntity
  8
AM_0
100
AcDbLine
 10
35.85345171667587
 20
-20.69999999999999
 30
0.0
 11
36.54627203970335
 21
-21.09999999999997
 31
0.0
  0
ARC
  5
37D0
330
37B5
100
AcDbEntity
  8
AM_0
100
AcDbCircle
 10
22.08364779650322
 20
-12.75
 30
0.0
 40
15.9
100
AcDbArc
 50
329.9999999999995
 51
149.9999999999994
  0
LINE
  5
37D1
330
37B5
100
AcDbEntity
  8
AM_0
100
AcDbLine
 10
7.621023553303018
 20
-4.40000000000009
 30
0.0
 11
8.313843876330622
 21
-4.800000000000011
 31
0.0
  0
ARC
  5
37D2
330
37B5
100
AcDbEntity
  8
AM_0
100
AcDbCircle
 10
-22.08364779650322
 20
-12.75
 30
0.0
 40
16.7
100
AcDbArc
 50
30.00000000000055
 51
210.0000000000005
  0
LINE
  5
37D3
330
37B5
100
AcDbEntity
  8
AM_0
100
AcDbLine
 10
-8.313843876330622
 20
-4.800000000000011
 30
0.0
 11
-7.621023553303018
 21
-4.40000000000009
 31
0.0
  0
ARC
  5
37D4
330
37B5
100
AcDbEntity
  8
AM_0
100
AcDbCircle
 10
-22.08364779650322
 20
-12.75
 30
0.0
 40
15.9
100
AcDbArc
 50
30.00000000000055
 51
210.0000000000005
  0
LINE
  5
37D5
330
37B5
100
AcDbEntity
  8
AM_0
100
AcDbLine
 10
-36.5462720397033
 20
-21.09999999999997
 30
0.0
 11
-35.85345171667569
 21
-20.69999999999999
 31
0.0
  0
ARC
  5
37D6
330
37B5
100
AcDbEntity
  8
AM_0
100
AcDbCircle
 10
0.0
 20
25.5
 30
0.0
 40
16.7
100
AcDbArc
 50
90.0
 51
270.0
  0
LINE
  5
37D7
330
37B5
100
AcDbEntity
  8
AM_0
100
AcDbLine
 10
0.0
 20
41.40000000000003
 30
0.0
 11
0.0
 21
42.19999999999998
 31
0.0
  0
ARC
  5
37D8
330
37B5
100
AcDbEntity
  8
AM_0
100
AcDbCircle
 10
0.0
 20
25.5
 30
0.0
 40
15.9
100
AcDbArc
 50
90.0
 51
270.0
  0
LINE
  5
37D9
330
37B5
100
AcDbEntity
  8
AM_0
100
AcDbLine
 10
0.0
 20
8.800000000000011
 30
0.0
 11
0.0
 21
9.600000000000022
 31
0.0
  0
ARC
  5
37DA
330
37B5
100
AcDbEntity
  8
AM_0
100
AcDbCircle
 10
22.08364779650322
 20
-12.75
 30
0.0
 40
16.69999999999999
100
AcDbArc
 50
149.9999999999994
 51
329.9999999999995
  0
LINE
  5
37DB
330
37B5
100
AcDbEntity
  8
AM_0
100
AcDbLine
 10
8.313843876330679
 20
-4.800000000000011
 30
0.0
 11
7.621023553303018
 21
-4.40000000000009
 31
0.0
  0
ARC
  5
37DC
330
37B5
100
AcDbEntity
  8
AM_0
100
AcDbCircle
 10
22.08364779650322
 20
-12.75
 30
0.0
 40
15.89999999999999
100
AcDbArc
 50
149.9999999999994
 51
329.9999999999995
  0
LINE
  5
37DD
330
37B5
100
AcDbEntity
  8
AM_0
100
AcDbLine
 10
36.54627203970335
 20
-21.09999999999997
 30
0.0
 11
35.85345171667569
 21
-20.69999999999999
 31
0.0
  0
ARC
  5
37DE
330
37B5
100
AcDbEntity
  8
AM_0
100
AcDbCircle
 10
-22.08364779650322
 20
-12.75
 30
0.0
 40
16.7
100
AcDbArc
 50
210.0000000000005
 51
30.00000000000055
  0
LINE
  5
37DF
330
37B5
100
AcDbEntity
  8
AM_0
100
AcDbLine
 10
-35.85345171667569
 20
-20.7000000000001
 30
0.0
 11
-36.5462720397033
 21
-21.09999999999997
 31
0.0
  0
ARC
  5
37E0
330
37B5
100
AcDbEntity
  8
AM_0
100
AcDbCircle
 10
-22.08364779650322
 20
-12.75
 30
0.0
 40
15.9
100
AcDbArc
 50
210.0000000000005
 51
30.00000000000055
  0
LINE
  5
37E1
330
37B5
100
AcDbEntity
  8
AM_0
100
AcDbLine
 10
-7.621023553303132
 20
-4.40000000000009
 30
0.0
 11
-8.313843876330622
 21
-4.800000000000011
 31
0.0
  0
ARC
  5
37E2
330
37B5
100
AcDbEntity
  8
AM_0
100
AcDbCircle
 10
0.0
 20
25.5
 30
0.0
 40
15.9
100
AcDbArc
 50
270.0
 51
90.0
  0
LINE
  5
37E3
330
37B5
100
AcDbEntity
  8
AM_0
100
AcDbLine
 10
0.0
 20
10.40000000000003
 30
0.0
 11
0.0
 21
9.600000000000022
 31
0.0
  0
ARC
  5
37E4
330
37B5
100
AcDbEntity
  8
AM_0
100
AcDbCircle
 10
0.0
 20
25.5
 30
0.0
 40
15.1
100
AcDbArc
 50
270.0
 51
90.0
  0
LINE
  5
37E5
330
37B5
100
AcDbEntity
  8
AM_0
100
AcDbLine
 10
0.0
 20
41.40000000000003
 30
0.0
 11
0.0
 21
40.60000000000002
 31
0.0
  0
ARC
  5
37E6
330
37B5
100
AcDbEntity
  8
AM_0
100
AcDbCircle
 10
22.08364779650322
 20
-12.75
 30
0.0
 40
15.9
100
AcDbArc
 50
329.9999999999995
 51
149.9999999999994
  0
LINE
  5
37E7
330
37B5
100
AcDbEntity
  8
AM_0
100
AcDbLine
 10
35.1606313936482
 20
-20.30000000000001
 30
0.0
 11
35.85345171667587
 21
-20.69999999999999
 31
0.0
  0
ARC
  5
37E8
330
37B5
100
AcDbEntity
  8
AM_0
100
AcDbCircle
 10
22.08364779650322
 20
-12.75
 30
0.0
 40
15.1
100
AcDbArc
 50
329.9999999999995
 51
149.9999999999994
  0
LINE
  5
37E9
330
37B5
100
AcDbEntity
  8
AM_0
100
AcDbLine
 10
8.313843876330622
 20
-4.800000000000011
 30
0.0
 11
9.006664199358112
 21
-5.199999999999988
 31
0.0
  0
ARC
  5
37EA
330
37B5
100
AcDbEntity
  8
AM_0
100
AcDbCircle
 10
-22.08364779650322
 20
-12.75
 30
0.0
 40
15.9
100
AcDbArc
 50
30.00000000000055
 51
210.0000000000005
  0
LINE
  5
37EB
330
37B5
100
AcDbEntity
  8
AM_0
100
AcDbLine
 10
-9.006664199358112
 20
-5.200000000000102
 30
0.0
 11
-8.313843876330622
 21
-4.800000000000011
 31
0.0
  0
ARC
  5
37EC
330
37B5
100
AcDbEntity
  8
AM_0
100
AcDbCircle
 10
-22.08364779650322
 20
-12.75
 30
0.0
 40
15.1
100
AcDbArc
 50
30.00000000000055
 51
210.0000000000005
  0
LINE
  5
37ED
330
37B5
100
AcDbEntity
  8
AM_0
100
AcDbLine
 10
-35.85345171667569
 20
-20.69999999999999
 30
0.0
 11
-35.1606313936482
 21
-20.30000000000001
 31
0.0
  0
ARC
  5
37EE
330
37B5
100
AcDbEntity
  8
AM_0
100
AcDbCircle
 10
0.0
 20
25.5
 30
0.0
 40
15.9
100
AcDbArc
 50
90.0
 51
270.0
  0
LINE
  5
37EF
330
37B5
100
AcDbEntity
  8
AM_0
100
AcDbLine
 10
0.0
 20
40.60000000000002
 30
0.0
 11
0.0
 21
41.40000000000003
 31
0.0
  0
ARC
  5
37F0
330
37B5
100
AcDbEntity
  8
AM_0
100
AcDbCircle
 10
0.0
 20
25.5
 30
0.0
 40
15.1
100
AcDbArc
 50
90.0
 51
270.0
  0
LINE
  5
37F1
330
37B5
100
AcDbEntity
  8
AM_0
100
AcDbLine
 10
0.0
 20
9.600000000000022
 30
0.0
 11
0.0
 21
10.40000000000003
 31
0.0
  0
ARC
  5
37F2
330
37B5
100
AcDbEntity
  8
AM_0
100
AcDbCircle
 10
22.08364779650322
 20
-12.75
 30
0.0
 40
15.89999999999999
100
AcDbArc
 50
149.9999999999994
 51
329.9999999999995
  0
LINE
  5
37F3
330
37B5
100
AcDbEntity
  8
AM_0
100
AcDbLine
 10
9.006664199358226
 20
-5.200000000000102
 30
0.0
 11
8.313843876330679
 21
-4.800000000000011
 31
0.0
  0
ARC
  5
37F4
330
37B5
100
AcDbEntity
  8
AM_0
100
AcDbCircle
 10
22.08364779650322
 20
-12.75
 30
0.0
 40
15.1
100
AcDbArc
 50
149.9999999999994
 51
329.9999999999995
  0
LINE
  5
37F5
330
37B5
100
AcDbEntity
  8
AM_0
100
AcDbLine
 10
35.85345171667569
 20
-20.69999999999999
 30
0.0
 11
35.1606313936482
 21
-20.30000000000001
 31
0.0
  0
ARC
  5
37F6
330
37B5
100
AcDbEntity
  8
AM_0
100
AcDbCircle
 10
-22.08364779650322
 20
-12.75
 30
0.0
 40
15.9
100
AcDbArc
 50
210.0000000000005
 51
30.00000000000055
  0
LINE
  5
37F7
330
37B5
100
AcDbEntity
  8
AM_0
100
AcDbLine
 10
-35.1606313936482
 20
-20.30000000000001
 30
0.0
 11
-35.85345171667569
 21
-20.7000000000001
 31
0.0
  0
ARC
  5
37F8
330
37B5
100
AcDbEntity
  8
AM_0
100
AcDbCircle
 10
-22.08364779650322
 20
-12.75
 30
0.0
 40
15.1
100
AcDbArc
 50
210.0000000000005
 51
30.00000000000055
  0
LINE
  5
37F9
330
37B5
100
AcDbEntity
  8
AM_0
100
AcDbLine
 10
-8.313843876330622
 20
-4.800000000000011
 30
0.0
 11
-9.006664199358112
 21
-5.199999999999988
 31
0.0
  0
ARC
  5
37FA
330
37B5
100
AcDbEntity
  8
AM_0
100
AcDbCircle
 10
0.0
 20
25.5
 30
0.0
 40
15.1
100
AcDbArc
 50
270.0
 51
90.0
  0
LINE
  5
37FB
330
37B5
100
AcDbEntity
  8
AM_0
100
AcDbLine
 10
0.0
 20
11.19999999999999
 30
0.0
 11
0.0
 21
10.40000000000003
 31
0.0
  0
ARC
  5
37FC
330
37B5
100
AcDbEntity
  8
AM_0
100
AcDbCircle
 10
0.0
 20
25.5
 30
0.0
 40
14.3
100
AcDbArc
 50
270.0
 51
90.0
  0
LINE
  5
37FD
330
37B5
100
AcDbEntity
  8
AM_0
100
AcDbLine
 10
0.0
 20
40.60000000000002
 30
0.0
 11
0.0
 21
39.80000000000001
 31
0.0
  0
ARC
  5
37FE
330
37B5
100
AcDbEntity
  8
AM_0
100
AcDbCircle
 10
22.08364779650322
 20
-12.75
 30
0.0
 40
15.1
100
AcDbArc
 50
329.9999999999995
 51
149.9999999999994
  0
LINE
  5
37FF
330
37B5
100
AcDbEntity
  8
AM_0
100
AcDbLine
 10
34.46781107062071
 20
-19.89999999999998
 30
0.0
 11
35.1606313936482
 21
-20.30000000000001
 31
0.0
  0
ARC
  5
3800
330
37B5
100
AcDbEntity
  8
AM_0
100
AcDbCircle
 10
22.08364779650322
 20
-12.75
 30
0.0
 40
14.3
100
AcDbArc
 50
329.9999999999995
 51
149.9999999999994
  0
LINE
  5
3801
330
37B5
100
AcDbEntity
  8
AM_0
100
AcDbLine
 10
9.006664199358112
 20
-5.199999999999988
 30
0.0
 11
9.699484522385716
 21
-5.599999999999965
 31
0.0
  0
ARC
  5
3802
330
37B5
100
AcDbEntity
  8
AM_0
100
AcDbCircle
 10
-22.08364779650322
 20
-12.75
 30
0.0
 40
15.1
100
AcDbArc
 50
30.00000000000055
 51
210.0000000000005
  0
LINE
  5
3803
330
37B5
100
AcDbEntity
  8
AM_0
100
AcDbLine
 10
-9.699484522385716
 20
-5.600000000000079
 30
0.0
 11
-9.006664199358112
 21
-5.200000000000102
 31
0.0
  0
ARC
  5
3804
330
37B5
100
AcDbEntity
  8
AM_0
100
AcDbCircle
 10
-22.08364779650322
 20
-12.75
 30
0.0
 40
14.3
100
AcDbArc
 50
30.00000000000055
 51
210.0000000000005
  0
LINE
  5
3805
330
37B5
100
AcDbEntity
  8
AM_0
100
AcDbLine
 10
-35.1606313936482
 20
-20.30000000000001
 30
0.0
 11
-34.46781107062071
 21
-19.89999999999998
 31
0.0
  0
ARC
  5
3806
330
37B5
100
AcDbEntity
  8
AM_0
100
AcDbCircle
 10
0.0
 20
25.5
 30
0.0
 40
15.1
100
AcDbArc
 50
90.0
 51
270.0
  0
LINE
  5
3807
330
37B5
100
AcDbEntity
  8
AM_0
100
AcDbLine
 10
0.0
 20
39.80000000000001
 30
0.0
 11
0.0
 21
40.60000000000002
 31
0.0
  0
ARC
  5
3808
330
37B5
100
AcDbEntity
  8
AM_0
100
AcDbCircle
 10
0.0
 20
25.5
 30
0.0
 40
14.3
100
AcDbArc
 50
90.0
 51
270.0
  0
LINE
  5
3809
330
37B5
100
AcDbEntity
  8
AM_0
100
AcDbLine
 10
0.0
 20
10.40000000000003
 30
0.0
 11
0.0
 21
11.19999999999999
 31
0.0
  0
ARC
  5
380A
330
37B5
100
AcDbEntity
  8
AM_0
100
AcDbCircle
 10
22.08364779650322
 20
-12.75
 30
0.0
 40
15.1
100
AcDbArc
 50
149.9999999999994
 51
329.9999999999995
  0
LINE
  5
380B
330
37B5
100
AcDbEntity
  8
AM_0
100
AcDbLine
 10
9.699484522385716
 20
-5.600000000000079
 30
0.0
 11
9.006664199358226
 21
-5.200000000000102
 31
0.0
  0
ARC
  5
380C
330
37B5
100
AcDbEntity
  8
AM_0
100
AcDbCircle
 10
22.08364779650322
 20
-12.75
 30
0.0
 40
14.29999999999999
100
AcDbArc
 50
149.9999999999994
 51
329.9999999999995
  0
LINE
  5
380D
330
37B5
100
AcDbEntity
  8
AM_0
100
AcDbLine
 10
35.1606313936482
 20
-20.30000000000001
 30
0.0
 11
34.4678110706206
 21
-19.89999999999998
 31
0.0
  0
ARC
  5
380E
330
37B5
100
AcDbEntity
  8
AM_0
100
AcDbCircle
 10
-22.08364779650322
 20
-12.75
 30
0.0
 40
15.1
100
AcDbArc
 50
210.0000000000005
 51
30.00000000000055
  0
LINE
  5
380F
330
37B5
100
AcDbEntity
  8
AM_0
100
AcDbLine
 10
-34.4678110706206
 20
-19.89999999999998
 30
0.0
 11
-35.1606313936482
 21
-20.30000000000001
 31
0.0
  0
ARC
  5
3810
330
37B5
100
AcDbEntity
  8
AM_0
100
AcDbCircle
 10
-22.08364779650322
 20
-12.75
 30
0.0
 40
14.3
100
AcDbArc
 50
210.0000000000005
 51
30.00000000000055
  0
LINE
  5
3811
330
37B5
100
AcDbEntity
  8
AM_0
100
AcDbLine
 10
-9.006664199358226
 20
-5.199999999999988
 30
0.0
 11
-9.699484522385716
 21
-5.600000000000079
 31
0.0
  0
ARC
  5
3812
330
37B5
100
AcDbEntity
  8
AM_0
100
AcDbCircle
 10
0.0
 20
25.5
 30
0.0
 40
14.3
100
AcDbArc
 50
270.0
 51
90.0
  0
LINE
  5
3813
330
37B5
100
AcDbEntity
  8
AM_0
100
AcDbLine
 10
0.0
 20
12.0
 30
0.0
 11
0.0
 21
11.19999999999999
 31
0.0
  0
ARC
  5
3814
330
37B5
100
AcDbEntity
  8
AM_0
100
AcDbCircle
 10
0.0
 20
25.5
 30
0.0
 40
13.5
100
AcDbArc
 50
270.0
 51
90.0
  0
LINE
  5
3815
330
37B5
100
AcDbEntity
  8
AM_0
100
AcDbLine
 10
0.0
 20
39.80000000000001
 30
0.0
 11
0.0
 21
39.0
 31
0.0
  0
ARC
  5
3816
330
37B5
100
AcDbEntity
  8
AM_0
100
AcDbCircle
 10
22.08364779650322
 20
-12.75
 30
0.0
 40
14.3
100
AcDbArc
 50
329.9999999999995
 51
149.9999999999994
  0
LINE
  5
3817
330
37B5
100
AcDbEntity
  8
AM_0
100
AcDbLine
 10
33.77499074759322
 20
-19.5
 30
0.0
 11
34.46781107062071
 21
-19.89999999999998
 31
0.0
  0
ARC
  5
3818
330
37B5
100
AcDbEntity
  8
AM_0
100
AcDbCircle
 10
22.08364779650322
 20
-12.75
 30
0.0
 40
13.5
100
AcDbArc
 50
329.9999999999995
 51
149.9999999999994
  0
LINE
  5
3819
330
37B5
100
AcDbEntity
  8
AM_0
100
AcDbLine
 10
9.699484522385716
 20
-5.599999999999965
 30
0.0
 11
10.39230484541332
 21
-6.0
 31
0.0
  0
ARC
  5
381A
330
37B5
100
AcDbEntity
  8
AM_0
100
AcDbCircle
 10
-22.08364779650322
 20
-12.75
 30
0.0
 40
14.3
100
AcDbArc
 50
30.00000000000055
 51
210.0000000000005
  0
LINE
  5
381B
330
37B5
100
AcDbEntity
  8
AM_0
100
AcDbLine
 10
-10.39230484541332
 20
-6.0
 30
0.0
 11
-9.699484522385716
 21
-5.600000000000079
 31
0.0
  0
ARC
  5
381C
330
37B5
100
AcDbEntity
  8
AM_0
100
AcDbCircle
 10
-22.08364779650322
 20
-12.75
 30
0.0
 40
13.5
100
AcDbArc
 50
30.00000000000055
 51
210.0000000000005
  0
LINE
  5
381D
330
37B5
100
AcDbEntity
  8
AM_0
100
AcDbLine
 10
-34.46781107062071
 20
-19.89999999999998
 30
0.0
 11
-33.77499074759311
 21
-19.5
 31
0.0
  0
ARC
  5
381E
330
37B5
100
AcDbEntity
  8
AM_0
100
AcDbCircle
 10
0.0
 20
25.5
 30
0.0
 40
14.3
100
AcDbArc
 50
90.0
 51
270.0
  0
LINE
  5
381F
330
37B5
100
AcDbEntity
  8
AM_0
100
AcDbLine
 10
0.0
 20
39.0
 30
0.0
 11
0.0
 21
39.80000000000001
 31
0.0
  0
ARC
  5
3820
330
37B5
100
AcDbEntity
  8
AM_0
100
AcDbCircle
 10
0.0
 20
25.5
 30
0.0
 40
13.5
100
AcDbArc
 50
90.0
 51
270.0
  0
LINE
  5
3821
330
37B5
100
AcDbEntity
  8
AM_0
100
AcDbLine
 10
0.0
 20
11.19999999999999
 30
0.0
 11
0.0
 21
12.0
 31
0.0
  0
ARC
  5
3822
330
37B5
100
AcDbEntity
  8
AM_0
100
AcDbCircle
 10
22.08364779650322
 20
-12.75
 30
0.0
 40
14.3
100
AcDbArc
 50
149.9999999999994
 51
329.9999999999995
  0
LINE
  5
3823
330
37B5
100
AcDbEntity
  8
AM_0
100
AcDbLine
 10
10.39230484541332
 20
-6.0
 30
0.0
 11
9.699484522385716
 21
-5.600000000000079
 31
0.0
  0
ARC
  5
3824
330
37B5
100
AcDbEntity
  8
AM_0
100
AcDbCircle
 10
22.08364779650322
 20
-12.75
 30
0.0
 40
13.49999999999999
100
AcDbArc
 50
149.9999999999994
 51
329.9999999999995
  0
LINE
  5
3825
330
37B5
100
AcDbEntity
  8
AM_0
100
AcDbLine
 10
34.46781107062071
 20
-19.89999999999998
 30
0.0
 11
33.77499074759322
 21
-19.5
 31
0.0
  0
ARC
  5
3826
330
37B5
100
AcDbEntity
  8
AM_0
100
AcDbCircle
 10
-22.08364779650322
 20
-12.75
 30
0.0
 40
14.3
100
AcDbArc
 50
210.0000000000005
 51
30.00000000000055
  0
LINE
  5
3827
330
37B5
100
AcDbEntity
  8
AM_0
100
AcDbLine
 10
-33.77499074759311
 20
-19.5
 30
0.0
 11
-34.4678110706206
 21
-19.89999999999998
 31
0.0
  0
ARC
  5
3828
330
37B5
100
AcDbEntity
  8
AM_0
100
AcDbCircle
 10
-22.08364779650322
 20
-12.75
 30
0.0
 40
13.49999999999999
100
AcDbArc
 50
210.0000000000005
 51
30.00000000000055
  0
LINE
  5
3829
330
37B5
100
AcDbEntity
  8
AM_0
100
AcDbLine
 10
-9.699484522385716
 20
-5.600000000000079
 30
0.0
 11
-10.39230484541332
 21
-6.0
 31
0.0
  0
ARC
  5
382A
330
37B5
100
AcDbEntity
  8
AM_0
100
AcDbCircle
 10
0.0
 20
25.5
 30
0.0
 40
13.5
100
AcDbArc
 50
270.0
 51
90.0
  0
LINE
  5
382B
330
37B5
100
AcDbEntity
  8
AM_0
100
AcDbLine
 10
0.0
 20
12.80000000000001
 30
0.0
 11
0.0
 21
12.0
 31
0.0
  0
ARC
  5
382C
330
37B5
100
AcDbEntity
  8
AM_0
100
AcDbCircle
 10
0.0
 20
25.5
 30
0.0
 40
12.7
100
AcDbArc
 50
270.0
 51
90.0
  0
LINE
  5
382D
330
37B5
100
AcDbEntity
  8
AM_0
100
AcDbLine
 10
0.0
 20
39.0
 30
0.0
 11
0.0
 21
38.19999999999999
 31
0.0
  0
ARC
  5
382E
330
37B5
100
AcDbEntity
  8
AM_0
100
AcDbCircle
 10
22.08364779650322
 20
-12.75
 30
0.0
 40
13.5
100
AcDbArc
 50
329.9999999999995
 51
149.9999999999994
  0
LINE
  5
382F
330
37B5
100
AcDbEntity
  8
AM_0
100
AcDbLine
 10
33.08217042456562
 20
-19.09999999999996
 30
0.0
 11
33.77499074759322
 21
-19.5
 31
0.0
  0
ARC
  5
3830
330
37B5
100
AcDbEntity
  8
AM_0
100
AcDbCircle
 10
22.08364779650322
 20
-12.75
 30
0.0
 40
12.7
100
AcDbArc
 50
329.9999999999995
 51
149.9999999999994
  0
LINE
  5
3831
330
37B5
100
AcDbEntity
  8
AM_0
100
AcDbLine
 10
10.39230484541332
 20
-6.0
 30
0.0
 11
11.08512516844081
 21
-6.399999999999977
 31
0.0
  0
ARC
  5
3832
330
37B5
100
AcDbEntity
  8
AM_0
100
AcDbCircle
 10
-22.08364779650322
 20
-12.75
 30
0.0
 40
13.5
100
AcDbArc
 50
30.00000000000055
 51
210.0000000000005
  0
LINE
  5
3833
330
37B5
100
AcDbEntity
  8
AM_0
100
AcDbLine
 10
-11.08512516844081
 20
-6.399999999999977
 30
0.0
 11
-10.39230484541332
 21
-6.0
 31
0.0
  0
ARC
  5
3834
330
37B5
100
AcDbEntity
  8
AM_0
100
AcDbCircle
 10
-22.08364779650322
 20
-12.75
 30
0.0
 40
12.7
100
AcDbArc
 50
30.00000000000055
 51
210.0000000000005
  0
LINE
  5
3835
330
37B5
100
AcDbEntity
  8
AM_0
100
AcDbLine
 10
-33.77499074759311
 20
-19.5
 30
0.0
 11
-33.08217042456562
 21
-19.09999999999996
 31
0.0
  0
ARC
  5
3836
330
37B5
100
AcDbEntity
  8
AM_0
100
AcDbCircle
 10
0.0
 20
25.5
 30
0.0
 40
13.5
100
AcDbArc
 50
90.0
 51
270.0
  0
LINE
  5
3837
330
37B5
100
AcDbEntity
  8
AM_0
100
AcDbLine
 10
0.0
 20
38.19999999999999
 30
0.0
 11
0.0
 21
39.0
 31
0.0
  0
ARC
  5
3838
330
37B5
100
AcDbEntity
  8
AM_0
100
AcDbCircle
 10
0.0
 20
25.5
 30
0.0
 40
12.7
100
AcDbArc
 50
90.0
 51
270.0
  0
LINE
  5
3839
330
37B5
100
AcDbEntity
  8
AM_0
100
AcDbLine
 10
0.0
 20
12.0
 30
0.0
 11
0.0
 21
12.80000000000001
 31
0.0
  0
ARC
  5
383A
330
37B5
100
AcDbEntity
  8
AM_0
100
AcDbCircle
 10
22.08364779650322
 20
-12.75
 30
0.0
 40
13.49999999999999
100
AcDbArc
 50
149.9999999999994
 51
329.9999999999995
  0
LINE
  5
383B
330
37B5
100
AcDbEntity
  8
AM_0
100
AcDbLine
 10
11.08512516844081
 20
-6.399999999999977
 30
0.0
 11
10.39230484541332
 21
-6.0
 31
0.0
  0
ARC
  5
383C
330
37B5
100
AcDbEntity
  8
AM_0
100
AcDbCircle
 10
22.08364779650322
 20
-12.75
 30
0.0
 40
12.69999999999999
100
AcDbArc
 50
149.9999999999994
 51
329.9999999999995
  0
LINE
  5
383D
330
37B5
100
AcDbEntity
  8
AM_0
100
AcDbLine
 10
33.77499074759322
 20
-19.5
 30
0.0
 11
33.08217042456562
 21
-19.09999999999996
 31
0.0
  0
ARC
  5
383E
330
37B5
100
AcDbEntity
  8
AM_0
100
AcDbCircle
 10
-22.08364779650322
 20
-12.75
 30
0.0
 40
13.5
100
AcDbArc
 50
210.0000000000005
 51
30.00000000000055
  0
LINE
  5
383F
330
37B5
100
AcDbEntity
  8
AM_0
100
AcDbLine
 10
-33.08217042456562
 20
-19.09999999999996
 30
0.0
 11
-33.77499074759311
 21
-19.5
 31
0.0
  0
ARC
  5
3840
330
37B5
100
AcDbEntity
  8
AM_0
100
AcDbCircle
 10
-22.08364779650322
 20
-12.75
 30
0.0
 40
12.7
100
AcDbArc
 50
210.0000000000005
 51
30.00000000000055
  0
LINE
  5
3841
330
37B5
100
AcDbEntity
  8
AM_0
100
AcDbLine
 10
-10.39230484541332
 20
-6.0
 30
0.0
 11
-11.08512516844081
 21
-6.399999999999977
 31
0.0
  0
ARC
  5
3842
330
37B5
100
AcDbEntity
  8
AM_0
100
AcDbCircle
 10
0.0
 20
25.5
 30
0.0
 40
12.7
100
AcDbArc
 50
270.0
 51
90.0
  0
LINE
  5
3843
330
37B5
100
AcDbEntity
  8
AM_0
100
AcDbLine
 10
0.0
 20
13.60000000000002
 30
0.0
 11
0.0
 21
12.80000000000001
 31
0.0
  0
ARC
  5
3844
330
37B5
100
AcDbEntity
  8
AM_0
100
AcDbCircle
 10
0.0
 20
25.5
 30
0.0
 40
11.9
100
AcDbArc
 50
270.0
 51
90.0
  0
LINE
  5
3845
330
37B5
100
AcDbEntity
  8
AM_0
100
AcDbLine
 10
0.0
 20
38.19999999999999
 30
0.0
 11
0.0
 21
37.40000000000004
 31
0.0
  0
ARC
  5
3846
330
37B5
100
AcDbEntity
  8
AM_0
100
AcDbCircle
 10
22.08364779650322
 20
-12.75
 30
0.0
 40
12.7
100
AcDbArc
 50
329.9999999999995
 51
149.9999999999994
  0
LINE
  5
3847
330
37B5
100
AcDbEntity
  8
AM_0
100
AcDbLine
 10
32.38935010153801
 20
-18.69999999999999
 30
0.0
 11
33.08217042456562
 21
-19.09999999999996
 31
0.0
  0
ARC
  5
3848
330
37B5
100
AcDbEntity
  8
AM_0
100
AcDbCircle
 10
22.08364779650322
 20
-12.75
 30
0.0
 40
11.9
100
AcDbArc
 50
329.9999999999995
 51
149.9999999999994
  0
LINE
  5
3849
330
37B5
100
AcDbEntity
  8
AM_0
100
AcDbLine
 10
11.08512516844081
 20
-6.399999999999977
 30
0.0
 11
11.77794549146841
 21
-6.800000000000011
 31
0.0
  0
ARC
  5
384A
330
37B5
100
AcDbEntity
  8
AM_0
100
AcDbCircle
 10
-22.08364779650322
 20
-12.75
 30
0.0
 40
12.7
100
AcDbArc
 50
30.00000000000055
 51
210.0000000000005
  0
LINE
  5
384B
330
37B5
100
AcDbEntity
  8
AM_0
100
AcDbLine
 10
-11.77794549146841
 20
-6.800000000000011
 30
0.0
 11
-11.08512516844081
 21
-6.399999999999977
 31
0.0
  0
ARC
  5
384C
330
37B5
100
AcDbEntity
  8
AM_0
100
AcDbCircle
 10
-22.08364779650322
 20
-12.75
 30
0.0
 40
11.9
100
AcDbArc
 50
30.00000000000055
 51
210.0000000000005
  0
LINE
  5
384D
330
37B5
100
AcDbEntity
  8
AM_0
100
AcDbLine
 10
-33.08217042456562
 20
-19.09999999999996
 30
0.0
 11
-32.38935010153801
 21
-18.69999999999999
 31
0.0
  0
ARC
  5
384E
330
37B5
100
AcDbEntity
  8
AM_0
100
AcDbCircle
 10
0.0
 20
25.5
 30
0.0
 40
12.7
100
AcDbArc
 50
90.0
 51
270.0
  0
LINE
  5
384F
330
37B5
100
AcDbEntity
  8
AM_0
100
AcDbLine
 10
0.0
 20
37.40000000000004
 30
0.0
 11
0.0
 21
38.19999999999999
 31
0.0
  0
ARC
  5
3850
330
37B5
100
AcDbEntity
  8
AM_0
100
AcDbCircle
 10
0.0
 20
25.5
 30
0.0
 40
11.9
100
AcDbArc
 50
90.0
 51
270.0
  0
LINE
  5
3851
330
37B5
100
AcDbEntity
  8
AM_0
100
AcDbLine
 10
0.0
 20
12.80000000000001
 30
0.0
 11
0.0
 21
13.60000000000002
 31
0.0
  0
ARC
  5
3852
330
37B5
100
AcDbEntity
  8
AM_0
100
AcDbCircle
 10
22.08364779650322
 20
-12.75
 30
0.0
 40
12.69999999999999
100
AcDbArc
 50
149.9999999999994
 51
329.9999999999995
  0
LINE
  5
3853
330
37B5
100
AcDbEntity
  8
AM_0
100
AcDbLine
 10
11.77794549146841
 20
-6.800000000000011
 30
0.0
 11
11.08512516844081
 21
-6.40000000000009
 31
0.0
  0
ARC
  5
3854
330
37B5
100
AcDbEntity
  8
AM_0
100
AcDbCircle
 10
22.08364779650322
 20
-12.75
 30
0.0
 40
11.89999999999999
100
AcDbArc
 50
149.9999999999994
 51
329.9999999999995
  0
LINE
  5
3855
330
37B5
100
AcDbEntity
  8
AM_0
100
AcDbLine
 10
33.08217042456562
 20
-19.09999999999996
 30
0.0
 11
32.38935010153801
 21
-18.69999999999999
 31
0.0
  0
ARC
  5
3856
330
37B5
100
AcDbEntity
  8
AM_0
100
AcDbCircle
 10
-22.08364779650322
 20
-12.75
 30
0.0
 40
12.69999999999999
100
AcDbArc
 50
210.0000000000005
 51
30.00000000000055
  0
LINE
  5
3857
330
37B5
100
AcDbEntity
  8
AM_0
100
AcDbLine
 10
-32.38935010153801
 20
-18.7000000000001
 30
0.0
 11
-33.08217042456562
 21
-19.09999999999996
 31
0.0
  0
ARC
  5
3858
330
37B5
100
AcDbEntity
  8
AM_0
100
AcDbCircle
 10
-22.08364779650322
 20
-12.75
 30
0.0
 40
11.9
100
AcDbArc
 50
210.0000000000005
 51
30.00000000000055
  0
LINE
  5
3859
330
37B5
100
AcDbEntity
  8
AM_0
100
AcDbLine
 10
-11.08512516844081
 20
-6.399999999999977
 30
0.0
 11
-11.77794549146841
 21
-6.800000000000011
 31
0.0
  0
ARC
  5
385A
330
37B5
100
AcDbEntity
  8
AM_0
100
AcDbCircle
 10
0.0
 20
25.5
 30
0.0
 40
11.9
100
AcDbArc
 50
270.0
 51
90.0
  0
LINE
  5
385B
330
37B5
100
AcDbEntity
  8
AM_0
100
AcDbLine
 10
0.0
 20
14.40000000000003
 30
0.0
 11
0.0
 21
13.60000000000002
 31
0.0
  0
ARC
  5
385C
330
37B5
100
AcDbEntity
  8
AM_0
100
AcDbCircle
 10
0.0
 20
25.5
 30
0.0
 40
11.1
100
AcDbArc
 50
270.0
 51
90.0
  0
LINE
  5
385D
330
37B5
100
AcDbEntity
  8
AM_0
100
AcDbLine
 10
0.0
 20
37.40000000000004
 30
0.0
 11
0.0
 21
36.60000000000002
 31
0.0
  0
ARC
  5
385E
330
37B5
100
AcDbEntity
  8
AM_0
100
AcDbCircle
 10
22.08364779650322
 20
-12.75
 30
0.0
 40
11.9
100
AcDbArc
 50
329.9999999999995
 51
149.9999999999994
  0
LINE
  5
385F
330
37B5
100
AcDbEntity
  8
AM_0
100
AcDbLine
 10
31.69652977851041
 20
-18.30000000000001
 30
0.0
 11
32.38935010153801
 21
-18.69999999999999
 31
0.0
  0
ARC
  5
3860
330
37B5
100
AcDbEntity
  8
AM_0
100
AcDbCircle
 10
22.08364779650322
 20
-12.75
 30
0.0
 40
11.1
100
AcDbArc
 50
329.9999999999995
 51
149.9999999999994
  0
LINE
  5
3861
330
37B5
100
AcDbEntity
  8
AM_0
100
AcDbLine
 10
11.77794549146841
 20
-6.800000000000011
 30
0.0
 11
12.47076581449602
 21
-7.199999999999988
 31
0.0
  0
ARC
  5
3862
330
37B5
100
AcDbEntity
  8
AM_0
100
AcDbCircle
 10
-22.08364779650322
 20
-12.75
 30
0.0
 40
11.9
100
AcDbArc
 50
30.00000000000055
 51
210.0000000000005
  0
LINE
  5
3863
330
37B5
100
AcDbEntity
  8
AM_0
100
AcDbLine
 10
-12.4707658144959
 20
-7.199999999999988
 30
0.0
 11
-11.77794549146841
 21
-6.800000000000011
 31
0.0
  0
ARC
  5
3864
330
37B5
100
AcDbEntity
  8
AM_0
100
AcDbCircle
 10
-22.08364779650322
 20
-12.75
 30
0.0
 40
11.1
100
AcDbArc
 50
30.00000000000055
 51
210.0000000000005
  0
LINE
  5
3865
330
37B5
100
AcDbEntity
  8
AM_0
100
AcDbLine
 10
-32.38935010153801
 20
-18.69999999999999
 30
0.0
 11
-31.69652977851041
 21
-18.30000000000001
 31
0.0
  0
ARC
  5
3866
330
37B5
100
AcDbEntity
  8
AM_0
100
AcDbCircle
 10
0.0
 20
25.5
 30
0.0
 40
11.9
100
AcDbArc
 50
90.0
 51
270.0
  0
LINE
  5
3867
330
37B5
100
AcDbEntity
  8
AM_0
100
AcDbLine
 10
0.0
 20
36.60000000000002
 30
0.0
 11
0.0
 21
37.40000000000004
 31
0.0
  0
ARC
  5
3868
330
37B5
100
AcDbEntity
  8
AM_0
100
AcDbCircle
 10
0.0
 20
25.5
 30
0.0
 40
11.1
100
AcDbArc
 50
90.0
 51
270.0
  0
LINE
  5
3869
330
37B5
100
AcDbEntity
  8
AM_0
100
AcDbLine
 10
0.0
 20
13.60000000000002
 30
0.0
 11
0.0
 21
14.40000000000003
 31
0.0
  0
ARC
  5
386A
330
37B5
100
AcDbEntity
  8
AM_0
100
AcDbCircle
 10
22.08364779650322
 20
-12.75
 30
0.0
 40
11.9
100
AcDbArc
 50
149.9999999999994
 51
329.9999999999995
  0
LINE
  5
386B
330
37B5
100
AcDbEntity
  8
AM_0
100
AcDbLine
 10
12.47076581449602
 20
-7.199999999999988
 30
0.0
 11
11.77794549146841
 21
-6.800000000000011
 31
0.0
  0
ARC
  5
386C
330
37B5
100
AcDbEntity
  8
AM_0
100
AcDbCircle
 10
22.08364779650322
 20
-12.75
 30
0.0
 40
11.09999999999999
100
AcDbArc
 50
149.9999999999994
 51
329.9999999999995
  0
LINE
  5
386D
330
37B5
100
AcDbEntity
  8
AM_0
100
AcDbLine
 10
32.38935010153801
 20
-18.69999999999999
 30
0.0
 11
31.69652977851041
 21
-18.30000000000001
 31
0.0
  0
ARC
  5
386E
330
37B5
100
AcDbEntity
  8
AM_0
100
AcDbCircle
 10
-22.08364779650322
 20
-12.75
 30
0.0
 40
11.9
100
AcDbArc
 50
210.0000000000005
 51
30.00000000000055
  0
LINE
  5
386F
330
37B5
100
AcDbEntity
  8
AM_0
100
AcDbLine
 10
-31.69652977851041
 20
-18.30000000000001
 30
0.0
 11
-32.38935010153801
 21
-18.69999999999999
 31
0.0
  0
ARC
  5
3870
330
37B5
100
AcDbEntity
  8
AM_0
100
AcDbCircle
 10
-22.08364779650322
 20
-12.75
 30
0.0
 40
11.1
100
AcDbArc
 50
210.0000000000005
 51
30.00000000000055
  0
LINE
  5
3871
330
37B5
100
AcDbEntity
  8
AM_0
100
AcDbLine
 10
-11.77794549146841
 20
-6.800000000000011
 30
0.0
 11
-12.4707658144959
 21
-7.199999999999988
 31
0.0
  0
ARC
  5
3872
330
37B5
100
AcDbEntity
  8
AM_0
100
AcDbCircle
 10
0.0
 20
25.5
 30
0.0
 40
11.1
100
AcDbArc
 50
270.0
 51
90.0
  0
LINE
  5
3873
330
37B5
100
AcDbEntity
  8
AM_0
100
AcDbLine
 10
0.0
 20
15.19999999999999
 30
0.0
 11
0.0
 21
14.40000000000003
 31
0.0
  0
ARC
  5
3874
330
37B5
100
AcDbEntity
  8
AM_0
100
AcDbCircle
 10
0.0
 20
25.5
 30
0.0
 40
10.3
100
AcDbArc
 50
270.0
 51
90.0
  0
LINE
  5
3875
330
37B5
100
AcDbEntity
  8
AM_0
100
AcDbLine
 10
0.0
 20
36.60000000000002
 30
0.0
 11
0.0
 21
35.80000000000001
 31
0.0
  0
ARC
  5
3876
330
37B5
100
AcDbEntity
  8
AM_0
100
AcDbCircle
 10
22.08364779650322
 20
-12.75
 30
0.0
 40
11.1
100
AcDbArc
 50
329.9999999999995
 51
149.9999999999994
  0
LINE
  5
3877
330
37B5
100
AcDbEntity
  8
AM_0
100
AcDbLine
 10
31.00370945548287
 20
-17.89999999999986
 30
0.0
 11
31.69652977851041
 21
-18.30000000000001
 31
0.0
  0
ARC
  5
3878
330
37B5
100
AcDbEntity
  8
AM_0
100
AcDbCircle
 10
22.08364779650322
 20
-12.75
 30
0.0
 40
10.3
100
AcDbArc
 50
329.9999999999995
 51
149.9999999999994
  0
LINE
  5
3879
330
37B5
100
AcDbEntity
  8
AM_0
100
AcDbLine
 10
12.47076581449602
 20
-7.199999999999988
 30
0.0
 11
13.16358613752351
 21
-7.600000000000079
 31
0.0
  0
ARC
  5
387A
330
37B5
100
AcDbEntity
  8
AM_0
100
AcDbCircle
 10
-22.08364779650322
 20
-12.75
 30
0.0
 40
11.1
100
AcDbArc
 50
30.00000000000055
 51
210.0000000000005
  0
LINE
  5
387B
330
37B5
100
AcDbEntity
  8
AM_0
100
AcDbLine
 10
-13.16358613752351
 20
-7.600000000000079
 30
0.0
 11
-12.4707658144959
 21
-7.199999999999988
 31
0.0
  0
ARC
  5
387C
330
37B5
100
AcDbEntity
  8
AM_0
100
AcDbCircle
 10
-22.08364779650322
 20
-12.75
 30
0.0
 40
10.3
100
AcDbArc
 50
30.00000000000055
 51
210.0000000000005
  0
LINE
  5
387D
330
37B5
100
AcDbEntity
  8
AM_0
100
AcDbLine
 10
-31.69652977851041
 20
-18.30000000000001
 30
0.0
 11
-31.00370945548292
 21
-17.89999999999998
 31
0.0
  0
ARC
  5
387E
330
37B5
100
AcDbEntity
  8
AM_0
100
AcDbCircle
 10
0.0
 20
25.5
 30
0.0
 40
11.1
100
AcDbArc
 50
90.0
 51
270.0
  0
LINE
  5
387F
330
37B5
100
AcDbEntity
  8
AM_0
100
AcDbLine
 10
0.0
 20
35.80000000000001
 30
0.0
 11
0.0
 21
36.60000000000002
 31
0.0
  0
ARC
  5
3880
330
37B5
100
AcDbEntity
  8
AM_0
100
AcDbCircle
 10
0.0
 20
25.5
 30
0.0
 40
10.3
100
AcDbArc
 50
90.0
 51
270.0
  0
LINE
  5
3881
330
37B5
100
AcDbEntity
  8
AM_0
100
AcDbLine
 10
0.0
 20
14.40000000000003
 30
0.0
 11
0.0
 21
15.19999999999999
 31
0.0
  0
ARC
  5
3882
330
37B5
100
AcDbEntity
  8
AM_0
100
AcDbCircle
 10
22.08364779650322
 20
-12.75
 30
0.0
 40
11.1
100
AcDbArc
 50
149.9999999999994
 51
329.9999999999995
  0
LINE
  5
3883
330
37B5
100
AcDbEntity
  8
AM_0
100
AcDbLine
 10
13.16358613752351
 20
-7.600000000000079
 30
0.0
 11
12.47076581449602
 21
-7.199999999999988
 31
0.0
  0
ARC
  5
3884
330
37B5
100
AcDbEntity
  8
AM_0
100
AcDbCircle
 10
22.08364779650322
 20
-12.75
 30
0.0
 40
10.29999999999999
100
AcDbArc
 50
149.9999999999994
 51
329.9999999999995
  0
LINE
  5
3885
330
37B5
100
AcDbEntity
  8
AM_0
100
AcDbLine
 10
31.69652977851041
 20
-18.30000000000001
 30
0.0
 11
31.00370945548287
 21
-17.89999999999998
 31
0.0
  0
ARC
  5
3886
330
37B5
100
AcDbEntity
  8
AM_0
100
AcDbCircle
 10
-22.08364779650322
 20
-12.75
 30
0.0
 40
11.09999999999999
100
AcDbArc
 50
210.0000000000005
 51
30.00000000000055
  0
LINE
  5
3887
330
37B5
100
AcDbEntity
  8
AM_0
100
AcDbLine
 10
-31.00370945548292
 20
-17.89999999999998
 30
0.0
 11
-31.69652977851041
 21
-18.30000000000001
 31
0.0
  0
ARC
  5
3888
330
37B5
100
AcDbEntity
  8
AM_0
100
AcDbCircle
 10
-22.08364779650322
 20
-12.75
 30
0.0
 40
10.29999999999999
100
AcDbArc
 50
210.0000000000005
 51
30.00000000000055
  0
LINE
  5
3889
330
37B5
100
AcDbEntity
  8
AM_0
100
AcDbLine
 10
-12.4707658144959
 20
-7.199999999999988
 30
0.0
 11
-13.16358613752351
 21
-7.600000000000079
 31
0.0
  0
ARC
  5
388A
330
37B5
100
AcDbEntity
  8
AM_0
100
AcDbCircle
 10
0.0
 20
25.5
 30
0.0
 40
10.3
100
AcDbArc
 50
270.0
 51
90.0
  0
LINE
  5
388B
330
37B5
100
AcDbEntity
  8
AM_0
100
AcDbLine
 10
0.0
 20
16.0
 30
0.0
 11
0.0
 21
15.19999999999999
 31
0.0
  0
ARC
  5
388C
330
37B5
100
AcDbEntity
  8
AM_0
100
AcDbCircle
 10
0.0
 20
25.5
 30
0.0
 40
9.499999999999996
100
AcDbArc
 50
270.0
 51
90.0
  0
LINE
  5
388D
330
37B5
100
AcDbEntity
  8
AM_0
100
AcDbLine
 10
0.0
 20
35.80000000000001
 30
0.0
 11
0.0
 21
35.0
 31
0.0
  0
ARC
  5
388E
330
37B5
100
AcDbEntity
  8
AM_0
100
AcDbCircle
 10
22.08364779650322
 20
-12.75
 30
0.0
 40
10.3
100
AcDbArc
 50
329.9999999999995
 51
149.9999999999994
  0
LINE
  5
388F
330
37B5
100
AcDbEntity
  8
AM_0
100
AcDbLine
 10
30.31088913245537
 20
-17.49999999999988
 30
0.0
 11
31.00370945548287
 21
-17.89999999999986
 31
0.0
  0
ARC
  5
3890
330
37B5
100
AcDbEntity
  8
AM_0
100
AcDbCircle
 10
22.08364779650322
 20
-12.75
 30
0.0
 40
9.499999999999998
100
AcDbArc
 50
329.9999999999995
 51
149.9999999999994
  0
LINE
  5
3891
330
37B5
100
AcDbEntity
  8
AM_0
100
AcDbLine
 10
13.16358613752351
 20
-7.600000000000079
 30
0.0
 11
13.856406460551
 21
-8.0
 31
0.0
  0
ARC
  5
3892
330
37B5
100
AcDbEntity
  8
AM_0
100
AcDbCircle
 10
-22.08364779650322
 20
-12.75
 30
0.0
 40
10.3
100
AcDbArc
 50
30.00000000000055
 51
210.0000000000005
  0
LINE
  5
3893
330
37B5
100
AcDbEntity
  8
AM_0
100
AcDbLine
 10
-13.856406460551
 20
-8.0
 30
0.0
 11
-13.16358613752351
 21
-7.600000000000079
 31
0.0
  0
ARC
  5
3894
330
37B5
100
AcDbEntity
  8
AM_0
100
AcDbCircle
 10
-22.08364779650322
 20
-12.75
 30
0.0
 40
9.499999999999996
100
AcDbArc
 50
30.00000000000055
 51
210.0000000000005
  0
LINE
  5
3895
330
37B5
100
AcDbEntity
  8
AM_0
100
AcDbLine
 10
-31.00370945548292
 20
-17.89999999999998
 30
0.0
 11
-30.31088913245532
 21
-17.50000000000011
 31
0.0
  0
ARC
  5
3896
330
37B5
100
AcDbEntity
  8
AM_0
100
AcDbCircle
 10
0.0
 20
25.5
 30
0.0
 40
10.3
100
AcDbArc
 50
90.0
 51
270.0
  0
LINE
  5
3897
330
37B5
100
AcDbEntity
  8
AM_0
100
AcDbLine
 10
0.0
 20
35.0
 30
0.0
 11
0.0
 21
35.80000000000001
 31
0.0
  0
ARC
  5
3898
330
37B5
100
AcDbEntity
  8
AM_0
100
AcDbCircle
 10
0.0
 20
25.5
 30
0.0
 40
9.499999999999998
100
AcDbArc
 50
90.0
 51
270.0
  0
LINE
  5
3899
330
37B5
100
AcDbEntity
  8
AM_0
100
AcDbLine
 10
0.0
 20
15.19999999999999
 30
0.0
 11
0.0
 21
16.0
 31
0.0
  0
ARC
  5
389A
330
37B5
100
AcDbEntity
  8
AM_0
100
AcDbCircle
 10
22.08364779650322
 20
-12.75
 30
0.0
 40
10.29999999999999
100
AcDbArc
 50
149.9999999999994
 51
329.9999999999995
  0
LINE
  5
389B
330
37B5
100
AcDbEntity
  8
AM_0
100
AcDbLine
 10
13.856406460551
 20
-8.0
 30
0.0
 11
13.16358613752351
 21
-7.600000000000079
 31
0.0
  0
ARC
  5
389C
330
37B5
100
AcDbEntity
  8
AM_0
100
AcDbCircle
 10
22.08364779650322
 20
-12.75
 30
0.0
 40
9.499999999999996
100
AcDbArc
 50
149.9999999999994
 51
329.9999999999995
  0
LINE
  5
389D
330
37B5
100
AcDbEntity
  8
AM_0
100
AcDbLine
 10
31.00370945548287
 20
-17.89999999999998
 30
0.0
 11
30.31088913245537
 21
-17.50000000000011
 31
0.0
  0
ARC
  5
389E
330
37B5
100
AcDbEntity
  8
AM_0
100
AcDbCircle
 10
-22.08364779650322
 20
-12.75
 30
0.0
 40
10.3
100
AcDbArc
 50
210.0000000000005
 51
30.00000000000055
  0
LINE
  5
389F
330
37B5
100
AcDbEntity
  8
AM_0
100
AcDbLine
 10
-30.31088913245532
 20
-17.50000000000011
 30
0.0
 11
-31.00370945548292
 21
-17.89999999999998
 31
0.0
  0
ARC
  5
38A0
330
37B5
100
AcDbEntity
  8
AM_0
100
AcDbCircle
 10
-22.08364779650322
 20
-12.75
 30
0.0
 40
9.499999999999994
100
AcDbArc
 50
210.0000000000005
 51
30.00000000000055
  0
LINE
  5
38A1
330
37B5
100
AcDbEntity
  8
AM_0
100
AcDbLine
 10
-13.16358613752351
 20
-7.600000000000079
 30
0.0
 11
-13.856406460551
 21
-8.0
 31
0.0
  0
ARC
  5
38A2
330
37B5
100
AcDbEntity
  8
AM_0
100
AcDbCircle
 10
0.0
 20
25.5
 30
0.0
 40
9.499999999999996
100
AcDbArc
 50
270.0
 51
90.0
  0
LINE
  5
38A3
330
37B5
100
AcDbEntity
  8
AM_0
100
AcDbLine
 10
0.0
 20
16.80000000000001
 30
0.0
 11
0.0
 21
16.0
 31
0.0
  0
ARC
  5
38A4
330
37B5
100
AcDbEntity
  8
AM_0
100
AcDbCircle
 10
0.0
 20
25.5
 30
0.0
 40
8.699999999999999
100
AcDbArc
 50
270.0
 51
90.0
  0
LINE
  5
38A5
330
37B5
100
AcDbEntity
  8
AM_0
100
AcDbLine
 10
0.0
 20
35.0
 30
0.0
 11
0.0
 21
34.19999999999999
 31
0.0
  0
ARC
  5
38A6
330
37B5
100
AcDbEntity
  8
AM_0
100
AcDbCircle
 10
22.08364779650322
 20
-12.75
 30
0.0
 40
9.499999999999998
100
AcDbArc
 50
329.9999999999995
 51
149.9999999999994
  0
LINE
  5
38A7
330
37B5
100
AcDbEntity
  8
AM_0
100
AcDbLine
 10
29.61806880942788
 20
-17.09999999999996
 30
0.0
 11
30.31088913245537
 21
-17.49999999999988
 31
0.0
  0
ARC
  5
38A8
330
37B5
100
AcDbEntity
  8
AM_0
100
AcDbCircle
 10
22.08364779650322
 20
-12.75
 30
0.0
 40
8.699999999999999
100
AcDbArc
 50
329.9999999999995
 51
149.9999999999994
  0
LINE
  5
38A9
330
37B5
100
AcDbEntity
  8
AM_0
100
AcDbLine
 10
13.856406460551
 20
-8.0
 30
0.0
 11
14.5492267835786
 21
-8.399999999999977
 31
0.0
  0
ARC
  5
38AA
330
37B5
100
AcDbEntity
  8
AM_0
100
AcDbCircle
 10
-22.08364779650322
 20
-12.75
 30
0.0
 40
9.499999999999998
100
AcDbArc
 50
30.00000000000055
 51
210.0000000000005
  0
LINE
  5
38AB
330
37B5
100
AcDbEntity
  8
AM_0
100
AcDbLine
 10
-14.5492267835786
 20
-8.40000000000009
 30
0.0
 11
-13.856406460551
 21
-8.0
 31
0.0
  0
ARC
  5
38AC
330
37B5
100
AcDbEntity
  8
AM_0
100
AcDbCircle
 10
-22.08364779650322
 20
-12.75
 30
0.0
 40
8.699999999999999
100
AcDbArc
 50
30.00000000000055
 51
210.0000000000005
  0
LINE
  5
38AD
330
37B5
100
AcDbEntity
  8
AM_0
100
AcDbLine
 10
-30.31088913245532
 20
-17.50000000000011
 30
0.0
 11
-29.61806880942783
 21
-17.09999999999996
 31
0.0
  0
ARC
  5
38AE
330
37B5
100
AcDbEntity
  8
AM_0
100
AcDbCircle
 10
0.0
 20
25.5
 30
0.0
 40
9.499999999999998
100
AcDbArc
 50
90.0
 51
270.0
  0
LINE
  5
38AF
330
37B5
100
AcDbEntity
  8
AM_0
100
AcDbLine
 10
0.0
 20
34.19999999999999
 30
0.0
 11
0.0
 21
35.0
 31
0.0
  0
ARC
  5
38B0
330
37B5
100
AcDbEntity
  8
AM_0
100
AcDbCircle
 10
0.0
 20
25.5
 30
0.0
 40
8.699999999999999
100
AcDbArc
 50
90.0
 51
270.0
  0
LINE
  5
38B1
330
37B5
100
AcDbEntity
  8
AM_0
100
AcDbLine
 10
0.0
 20
16.0
 30
0.0
 11
0.0
 21
16.80000000000001
 31
0.0
  0
ARC
  5
38B2
330
37B5
100
AcDbEntity
  8
AM_0
100
AcDbCircle
 10
22.08364779650322
 20
-12.75
 30
0.0
 40
9.499999999999994
100
AcDbArc
 50
149.9999999999994
 51
329.9999999999995
  0
LINE
  5
38B3
330
37B5
100
AcDbEntity
  8
AM_0
100
AcDbLine
 10
14.5492267835786
 20
-8.40000000000009
 30
0.0
 11
13.856406460551
 21
-8.0
 31
0.0
  0
ARC
  5
38B4
330
37B5
100
AcDbEntity
  8
AM_0
100
AcDbCircle
 10
22.08364779650322
 20
-12.75
 30
0.0
 40
8.699999999999997
100
AcDbArc
 50
149.9999999999994
 51
329.9999999999995
  0
LINE
  5
38B5
330
37B5
100
AcDbEntity
  8
AM_0
100
AcDbLine
 10
30.31088913245537
 20
-17.50000000000011
 30
0.0
 11
29.61806880942788
 21
-17.09999999999996
 31
0.0
  0
ARC
  5
38B6
330
37B5
100
AcDbEntity
  8
AM_0
100
AcDbCircle
 10
-22.08364779650322
 20
-12.75
 30
0.0
 40
9.499999999999994
100
AcDbArc
 50
210.0000000000005
 51
30.00000000000055
  0
LINE
  5
38B7
330
37B5
100
AcDbEntity
  8
AM_0
100
AcDbLine
 10
-29.61806880942783
 20
-17.09999999999996
 30
0.0
 11
-30.31088913245532
 21
-17.50000000000011
 31
0.0
  0
ARC
  5
38B8
330
37B5
100
AcDbEntity
  8
AM_0
100
AcDbCircle
 10
-22.08364779650322
 20
-12.75
 30
0.0
 40
8.699999999999999
100
AcDbArc
 50
210.0000000000005
 51
30.00000000000055
  0
LINE
  5
38B9
330
37B5
100
AcDbEntity
  8
AM_0
100
AcDbLine
 10
-13.856406460551
 20
-8.0
 30
0.0
 11
-14.5492267835786
 21
-8.399999999999977
 31
0.0
  0
ARC
  5
38BA
330
37B5
100
AcDbEntity
  8
AM_0
100
AcDbCircle
 10
0.0
 20
25.5
 30
0.0
 40
8.699999999999999
100
AcDbArc
 50
270.0
 51
90.0
  0
LINE
  5
38BB
330
37B5
100
AcDbEntity
  8
AM_0
100
AcDbLine
 10
0.0
 20
17.60000000000002
 30
0.0
 11
0.0
 21
16.80000000000001
 31
0.0
  0
ARC
  5
38BC
330
37B5
100
AcDbEntity
  8
AM_0
100
AcDbCircle
 10
0.0
 20
25.5
 30
0.0
 40
7.899999999999997
100
AcDbArc
 50
270.0
 51
90.0
  0
LINE
  5
38BD
330
37B5
100
AcDbEntity
  8
AM_0
100
AcDbLine
 10
0.0
 20
34.19999999999999
 30
0.0
 11
0.0
 21
33.40000000000003
 31
0.0
  0
ARC
  5
38BE
330
37B5
100
AcDbEntity
  8
AM_0
100
AcDbCircle
 10
22.08364779650322
 20
-12.75
 30
0.0
 40
8.699999999999999
100
AcDbArc
 50
329.9999999999995
 51
149.9999999999994
  0
LINE
  5
38BF
330
37B5
100
AcDbEntity
  8
AM_0
100
AcDbLine
 10
28.92524848640022
 20
-16.69999999999999
 30
0.0
 11
29.61806880942788
 21
-17.09999999999996
 31
0.0
  0
ARC
  5
38C0
330
37B5
100
AcDbEntity
  8
AM_0
100
AcDbCircle
 10
22.08364779650322
 20
-12.75
 30
0.0
 40
7.899999999999997
100
AcDbArc
 50
329.9999999999995
 51
149.9999999999994
  0
LINE
  5
38C1
330
37B5
100
AcDbEntity
  8
AM_0
100
AcDbLine
 10
14.5492267835786
 20
-8.399999999999977
 30
0.0
 11
15.24204710660609
 21
-8.800000000000011
 31
0.0
  0
ARC
  5
38C2
330
37B5
100
AcDbEntity
  8
AM_0
100
AcDbCircle
 10
-22.08364779650322
 20
-12.75
 30
0.0
 40
8.699999999999999
100
AcDbArc
 50
30.00000000000055
 51
210.0000000000005
  0
LINE
  5
38C3
330
37B5
100
AcDbEntity
  8
AM_0
100
AcDbLine
 10
-15.24204710660609
 20
-8.800000000000011
 30
0.0
 11
-14.5492267835786
 21
-8.40000000000009
 31
0.0
  0
ARC
  5
38C4
330
37B5
100
AcDbEntity
  8
AM_0
100
AcDbCircle
 10
-22.08364779650322
 20
-12.75
 30
0.0
 40
7.899999999999997
100
AcDbArc
 50
30.00000000000055
 51
210.0000000000005
  0
LINE
  5
38C5
330
37B5
100
AcDbEntity
  8
AM_0
100
AcDbLine
 10
-29.61806880942783
 20
-17.09999999999996
 30
0.0
 11
-28.92524848640022
 21
-16.69999999999999
 31
0.0
  0
ARC
  5
38C6
330
37B5
100
AcDbEntity
  8
AM_0
100
AcDbCircle
 10
0.0
 20
25.5
 30
0.0
 40
8.699999999999999
100
AcDbArc
 50
90.0
 51
270.0
  0
LINE
  5
38C7
330
37B5
100
AcDbEntity
  8
AM_0
100
AcDbLine
 10
0.0
 20
33.40000000000003
 30
0.0
 11
0.0
 21
34.19999999999999
 31
0.0
  0
ARC
  5
38C8
330
37B5
100
AcDbEntity
  8
AM_0
100
AcDbCircle
 10
0.0
 20
25.5
 30
0.0
 40
7.899999999999998
100
AcDbArc
 50
90.0
 51
270.0
  0
LINE
  5
38C9
330
37B5
100
AcDbEntity
  8
AM_0
100
AcDbLine
 10
0.0
 20
16.80000000000001
 30
0.0
 11
0.0
 21
17.60000000000002
 31
0.0
  0
ARC
  5
38CA
330
37B5
100
AcDbEntity
  8
AM_0
100
AcDbCircle
 10
22.08364779650322
 20
-12.75
 30
0.0
 40
8.699999999999997
100
AcDbArc
 50
149.9999999999994
 51
329.9999999999995
  0
LINE
  5
38CB
330
37B5
100
AcDbEntity
  8
AM_0
100
AcDbLine
 10
15.24204710660609
 20
-8.800000000000011
 30
0.0
 11
14.5492267835786
 21
-8.40000000000009
 31
0.0
  0
ARC
  5
38CC
330
37B5
100
AcDbEntity
  8
AM_0
100
AcDbCircle
 10
22.08364779650322
 20
-12.75
 30
0.0
 40
7.899999999999996
100
AcDbArc
 50
149.9999999999994
 51
329.9999999999995
  0
LINE
  5
38CD
330
37B5
100
AcDbEntity
  8
AM_0
100
AcDbLine
 10
29.61806880942788
 20
-17.09999999999996
 30
0.0
 11
28.92524848640022
 21
-16.69999999999999
 31
0.0
  0
ARC
  5
38CE
330
37B5
100
AcDbEntity
  8
AM_0
100
AcDbCircle
 10
-22.08364779650322
 20
-12.75
 30
0.0
 40
8.699999999999997
100
AcDbArc
 50
210.0000000000005
 51
30.00000000000055
  0
LINE
  5
38CF
330
37B5
100
AcDbEntity
  8
AM_0
100
AcDbLine
 10
-28.92524848640022
 20
-16.69999999999999
 30
0.0
 11
-29.61806880942783
 21
-17.09999999999996
 31
0.0
  0
ARC
  5
38D0
330
37B5
100
AcDbEntity
  8
AM_0
100
AcDbCircle
 10
-22.08364779650322
 20
-12.75
 30
0.0
 40
7.899999999999996
100
AcDbArc
 50
210.0000000000005
 51
30.00000000000055
  0
LINE
  5
38D1
330
37B5
100
AcDbEntity
  8
AM_0
100
AcDbLine
 10
-14.5492267835786
 20
-8.399999999999977
 30
0.0
 11
-15.24204710660609
 21
-8.800000000000011
 31
0.0
  0
ARC
  5
38D2
330
37B5
100
AcDbEntity
  8
AM_0
100
AcDbCircle
 10
0.0
 20
25.5
 30
0.0
 40
7.099999999999997
100
AcDbArc
 50
270.0
 51
90.0
  0
LINE
  5
38D3
330
37B5
100
AcDbEntity
  8
AM_0
100
AcDbLine
 10
0.0
 20
19.19999999999999
 30
0.0
 11
0.0
 21
18.40000000000003
 31
0.0
  0
ARC
  5
38D4
330
37B5
100
AcDbEntity
  8
AM_0
100
AcDbCircle
 10
0.0
 20
25.5
 30
0.0
 40
6.299999999999998
100
AcDbArc
 50
270.0
 51
90.0
  0
LINE
  5
38D5
330
37B5
100
AcDbEntity
  8
AM_0
100
AcDbLine
 10
0.0
 20
32.60000000000002
 30
0.0
 11
0.0
 21
31.80000000000001
 31
0.0
  0
ARC
  5
38D6
330
37B5
100
AcDbEntity
  8
AM_0
100
AcDbCircle
 10
22.08364779650322
 20
-12.75
 30
0.0
 40
7.099999999999997
100
AcDbArc
 50
329.9999999999995
 51
149.9999999999994
  0
LINE
  5
38D7
330
37B5
100
AcDbEntity
  8
AM_0
100
AcDbLine
 10
27.53960784034524
 20
-15.89999999999998
 30
0.0
 11
28.23242816337273
 21
-16.30000000000001
 31
0.0
  0
ARC
  5
38D8
330
37B5
100
AcDbEntity
  8
AM_0
100
AcDbCircle
 10
22.08364779650322
 20
-12.75
 30
0.0
 40
6.299999999999998
100
AcDbArc
 50
329.9999999999995
 51
149.9999999999994
  0
LINE
  5
38D9
330
37B5
100
AcDbEntity
  8
AM_0
100
AcDbLine
 10
15.93486742963375
 20
-9.199999999999988
 30
0.0
 11
16.62768775266124
 21
-9.600000000000079
 31
0.0
  0
ARC
  5
38DA
330
37B5
100
AcDbEntity
  8
AM_0
100
AcDbCircle
 10
-22.08364779650322
 20
-12.75
 30
0.0
 40
7.099999999999997
100
AcDbArc
 50
30.00000000000055
 51
210.0000000000005
  0
LINE
  5
38DB
330
37B5
100
AcDbEntity
  8
AM_0
100
AcDbLine
 10
-16.62768775266119
 20
-9.600000000000079
 30
0.0
 11
-15.9348674296337
 21
-9.199999999999988
 31
0.0
  0
ARC
  5
38DC
330
37B5
100
AcDbEntity
  8
AM_0
100
AcDbCircle
 10
-22.08364779650322
 20
-12.75
 30
0.0
 40
6.299999999999998
100
AcDbArc
 50
30.00000000000055
 51
210.0000000000005
  0
LINE
  5
38DD
330
37B5
100
AcDbEntity
  8
AM_0
100
AcDbLine
 10
-28.23242816337273
 20
-16.30000000000001
 30
0.0
 11
-27.53960784034524
 21
-15.89999999999998
 31
0.0
  0
ARC
  5
38DE
330
37B5
100
AcDbEntity
  8
AM_0
100
AcDbCircle
 10
0.0
 20
25.5
 30
0.0
 40
7.099999999999997
100
AcDbArc
 50
90.0
 51
270.0
  0
LINE
  5
38DF
330
37B5
100
AcDbEntity
  8
AM_0
100
AcDbLine
 10
0.0
 20
31.80000000000001
 30
0.0
 11
0.0
 21
32.60000000000002
 31
0.0
  0
ARC
  5
38E0
330
37B5
100
AcDbEntity
  8
AM_0
100
AcDbCircle
 10
0.0
 20
25.5
 30
0.0
 40
6.299999999999998
100
AcDbArc
 50
90.0
 51
270.0
  0
LINE
  5
38E1
330
37B5
100
AcDbEntity
  8
AM_0
100
AcDbLine
 10
0.0
 20
18.40000000000003
 30
0.0
 11
0.0
 21
19.19999999999999
 31
0.0
  0
ARC
  5
38E2
330
37B5
100
AcDbEntity
  8
AM_0
100
AcDbCircle
 10
22.08364779650322
 20
-12.75
 30
0.0
 40
7.099999999999995
100
AcDbArc
 50
149.9999999999994
 51
329.9999999999995
  0
LINE
  5
38E3
330
37B5
100
AcDbEntity
  8
AM_0
100
AcDbLine
 10
16.62768775266124
 20
-9.600000000000079
 30
0.0
 11
15.93486742963375
 21
-9.199999999999988
 31
0.0
  0
ARC
  5
38E4
330
37B5
100
AcDbEntity
  8
AM_0
100
AcDbCircle
 10
22.08364779650322
 20
-12.75
 30
0.0
 40
6.299999999999998
100
AcDbArc
 50
149.9999999999994
 51
329.9999999999995
  0
LINE
  5
38E5
330
37B5
100
AcDbEntity
  8
AM_0
100
AcDbLine
 10
28.23242816337273
 20
-16.30000000000001
 30
0.0
 11
27.53960784034524
 21
-15.89999999999998
 31
0.0
  0
ARC
  5
38E6
330
37B5
100
AcDbEntity
  8
AM_0
100
AcDbCircle
 10
-22.08364779650322
 20
-12.75
 30
0.0
 40
7.099999999999996
100
AcDbArc
 50
210.0000000000005
 51
30.00000000000055
  0
LINE
  5
38E7
330
37B5
100
AcDbEntity
  8
AM_0
100
AcDbLine
 10
-27.53960784034513
 20
-15.89999999999998
 30
0.0
 11
-28.23242816337273
 21
-16.30000000000001
 31
0.0
  0
ARC
  5
38E8
330
37B5
100
AcDbEntity
  8
AM_0
100
AcDbCircle
 10
-22.08364779650322
 20
-12.75
 30
0.0
 40
6.299999999999998
100
AcDbArc
 50
210.0000000000005
 51
30.00000000000055
  0
LINE
  5
38E9
330
37B5
100
AcDbEntity
  8
AM_0
100
AcDbLine
 10
-15.9348674296337
 20
-9.199999999999988
 30
0.0
 11
-16.62768775266119
 21
-9.600000000000079
 31
0.0
  0
ARC
  5
38EA
330
37B5
100
AcDbEntity
  8
AM_0
100
AcDbCircle
 10
0.0
 20
25.5
 30
0.0
 40
7.899999999999997
100
AcDbArc
 50
270.0
 51
90.0
  0
LINE
  5
38EB
330
37B5
100
AcDbEntity
  8
AM_0
100
AcDbLine
 10
0.0
 20
18.40000000000003
 30
0.0
 11
0.0
 21
17.60000000000002
 31
0.0
  0
ARC
  5
38EC
330
37B5
100
AcDbEntity
  8
AM_0
100
AcDbCircle
 10
0.0
 20
25.5
 30
0.0
 40
7.099999999999997
100
AcDbArc
 50
270.0
 51
90.0
  0
LINE
  5
38ED
330
37B5
100
AcDbEntity
  8
AM_0
100
AcDbLine
 10
0.0
 20
33.40000000000003
 30
0.0
 11
0.0
 21
32.60000000000002
 31
0.0
  0
ARC
  5
38EE
330
37B5
100
AcDbEntity
  8
AM_0
100
AcDbCircle
 10
22.08364779650322
 20
-12.75
 30
0.0
 40
7.899999999999997
100
AcDbArc
 50
329.9999999999995
 51
149.9999999999994
  0
LINE
  5
38EF
330
37B5
100
AcDbEntity
  8
AM_0
100
AcDbLine
 10
28.23242816337273
 20
-16.30000000000001
 30
0.0
 11
28.92524848640022
 21
-16.69999999999999
 31
0.0
  0
ARC
  5
38F0
330
37B5
100
AcDbEntity
  8
AM_0
100
AcDbCircle
 10
22.08364779650322
 20
-12.75
 30
0.0
 40
7.099999999999997
100
AcDbArc
 50
329.9999999999995
 51
149.9999999999994
  0
LINE
  5
38F1
330
37B5
100
AcDbEntity
  8
AM_0
100
AcDbLine
 10
15.24204710660609
 20
-8.800000000000011
 30
0.0
 11
15.93486742963375
 21
-9.199999999999988
 31
0.0
  0
ARC
  5
38F2
330
37B5
100
AcDbEntity
  8
AM_0
100
AcDbCircle
 10
-22.08364779650322
 20
-12.75
 30
0.0
 40
7.899999999999997
100
AcDbArc
 50
30.00000000000055
 51
210.0000000000005
  0
LINE
  5
38F3
330
37B5
100
AcDbEntity
  8
AM_0
100
AcDbLine
 10
-15.9348674296337
 20
-9.199999999999988
 30
0.0
 11
-15.24204710660609
 21
-8.800000000000011
 31
0.0
  0
ARC
  5
38F4
330
37B5
100
AcDbEntity
  8
AM_0
100
AcDbCircle
 10
-22.08364779650322
 20
-12.75
 30
0.0
 40
7.099999999999997
100
AcDbArc
 50
30.00000000000055
 51
210.0000000000005
  0
LINE
  5
38F5
330
37B5
100
AcDbEntity
  8
AM_0
100
AcDbLine
 10
-28.92524848640022
 20
-16.69999999999999
 30
0.0
 11
-28.23242816337273
 21
-16.30000000000001
 31
0.0
  0
ARC
  5
38F6
330
37B5
100
AcDbEntity
  8
AM_0
100
AcDbCircle
 10
0.0
 20
25.5
 30
0.0
 40
7.899999999999998
100
AcDbArc
 50
90.0
 51
270.0
  0
LINE
  5
38F7
330
37B5
100
AcDbEntity
  8
AM_0
100
AcDbLine
 10
0.0
 20
32.60000000000002
 30
0.0
 11
0.0
 21
33.40000000000003
 31
0.0
  0
ARC
  5
38F8
330
37B5
100
AcDbEntity
  8
AM_0
100
AcDbCircle
 10
0.0
 20
25.5
 30
0.0
 40
7.099999999999997
100
AcDbArc
 50
90.0
 51
270.0
  0
LINE
  5
38F9
330
37B5
100
AcDbEntity
  8
AM_0
100
AcDbLine
 10
0.0
 20
17.60000000000002
 30
0.0
 11
0.0
 21
18.40000000000003
 31
0.0
  0
ARC
  5
38FA
330
37B5
100
AcDbEntity
  8
AM_0
100
AcDbCircle
 10
22.08364779650322
 20
-12.75
 30
0.0
 40
7.899999999999996
100
AcDbArc
 50
149.9999999999994
 51
329.9999999999995
  0
LINE
  5
38FB
330
37B5
100
AcDbEntity
  8
AM_0
100
AcDbLine
 10
15.93486742963375
 20
-9.199999999999988
 30
0.0
 11
15.24204710660609
 21
-8.800000000000011
 31
0.0
  0
ARC
  5
38FC
330
37B5
100
AcDbEntity
  8
AM_0
100
AcDbCircle
 10
22.08364779650322
 20
-12.75
 30
0.0
 40
7.099999999999995
100
AcDbArc
 50
149.9999999999994
 51
329.9999999999995
  0
LINE
  5
38FD
330
37B5
100
AcDbEntity
  8
AM_0
100
AcDbLine
 10
28.92524848640022
 20
-16.69999999999999
 30
0.0
 11
28.23242816337273
 21
-16.30000000000001
 31
0.0
  0
ARC
  5
38FE
330
37B5
100
AcDbEntity
  8
AM_0
100
AcDbCircle
 10
-22.08364779650322
 20
-12.75
 30
0.0
 40
7.899999999999998
100
AcDbArc
 50
210.0000000000005
 51
30.00000000000055
  0
LINE
  5
38FF
330
37B5
100
AcDbEntity
  8
AM_0
100
AcDbLine
 10
-28.23242816337273
 20
-16.30000000000001
 30
0.0
 11
-28.92524848640022
 21
-16.69999999999999
 31
0.0
  0
ARC
  5
3900
330
37B5
100
AcDbEntity
  8
AM_0
100
AcDbCircle
 10
-22.08364779650322
 20
-12.75
 30
0.0
 40
7.099999999999997
100
AcDbArc
 50
210.0000000000005
 51
30.00000000000055
  0
LINE
  5
3901
330
37B5
100
AcDbEntity
  8
AM_0
100
AcDbLine
 10
-15.24204710660609
 20
-8.800000000000011
 30
0.0
 11
-15.9348674296337
 21
-9.199999999999988
 31
0.0
  0
ARC
  5
3902
330
37B5
100
AcDbEntity
  8
AM_0
100
AcDbCircle
 10
0.0
 20
25.5
 30
0.0
 40
6.299999999999998
100
AcDbArc
 50
270.0
 51
90.0
  0
LINE
  5
3903
330
37B5
100
AcDbEntity
  8
AM_0
100
AcDbLine
 10
0.0
 20
20.0
 30
0.0
 11
0.0
 21
19.19999999999999
 31
0.0
  0
ARC
  5
3904
330
37B5
100
AcDbEntity
  8
AM_0
100
AcDbCircle
 10
0.0
 20
25.5
 30
0.0
 40
5.499999999999997
100
AcDbArc
 50
270.0
 51
90.0
  0
LINE
  5
3905
330
37B5
100
AcDbEntity
  8
AM_0
100
AcDbLine
 10
0.0
 20
31.80000000000001
 30
0.0
 11
0.0
 21
31.0
 31
0.0
  0
ARC
  5
3906
330
37B5
100
AcDbEntity
  8
AM_0
100
AcDbCircle
 10
22.08364779650322
 20
-12.75
 30
0.0
 40
6.299999999999998
100
AcDbArc
 50
329.9999999999995
 51
149.9999999999994
  0
LINE
  5
3907
330
37B5
100
AcDbEntity
  8
AM_0
100
AcDbLine
 10
26.84678751731758
 20
-15.49999999999988
 30
0.0
 11
27.53960784034524
 21
-15.89999999999998
 31
0.0
  0
ARC
  5
3908
330
37B5
100
AcDbEntity
  8
AM_0
100
AcDbCircle
 10
22.08364779650322
 20
-12.75
 30
0.0
 40
5.499999999999997
100
AcDbArc
 50
329.9999999999995
 51
149.9999999999994
  0
LINE
  5
3909
330
37B5
100
AcDbEntity
  8
AM_0
100
AcDbLine
 10
16.62768775266124
 20
-9.600000000000079
 30
0.0
 11
17.32050807568885
 21
-10.0
 31
0.0
  0
ARC
  5
390A
330
37B5
100
AcDbEntity
  8
AM_0
100
AcDbCircle
 10
-22.08364779650322
 20
-12.75
 30
0.0
 40
6.299999999999998
100
AcDbArc
 50
30.00000000000055
 51
210.0000000000005
  0
LINE
  5
390B
330
37B5
100
AcDbEntity
  8
AM_0
100
AcDbLine
 10
-17.32050807568868
 20
-10.00000000000011
 30
0.0
 11
-16.62768775266119
 21
-9.600000000000079
 31
0.0
  0
ARC
  5
390C
330
37B5
100
AcDbEntity
  8
AM_0
100
AcDbCircle
 10
-22.08364779650322
 20
-12.75
 30
0.0
 40
5.499999999999999
100
AcDbArc
 50
30.00000000000055
 51
210.0000000000005
  0
LINE
  5
390D
330
37B5
100
AcDbEntity
  8
AM_0
100
AcDbLine
 10
-27.53960784034524
 20
-15.89999999999998
 30
0.0
 11
-26.84678751731764
 21
-15.5
 31
0.0
  0
ARC
  5
390E
330
37B5
100
AcDbEntity
  8
AM_0
100
AcDbCircle
 10
0.0
 20
25.5
 30
0.0
 40
6.299999999999998
100
AcDbArc
 50
90.0
 51
270.0
  0
LINE
  5
390F
330
37B5
100
AcDbEntity
  8
AM_0
100
AcDbLine
 10
0.0
 20
31.0
 30
0.0
 11
0.0
 21
31.80000000000001
 31
0.0
  0
ARC
  5
3910
330
37B5
100
AcDbEntity
  8
AM_0
100
AcDbCircle
 10
0.0
 20
25.5
 30
0.0
 40
5.499999999999997
100
AcDbArc
 50
90.0
 51
270.0
  0
LINE
  5
3911
330
37B5
100
AcDbEntity
  8
AM_0
100
AcDbLine
 10
0.0
 20
19.19999999999999
 30
0.0
 11
0.0
 21
20.0
 31
0.0
  0
ARC
  5
3912
330
37B5
100
AcDbEntity
  8
AM_0
100
AcDbCircle
 10
22.08364779650322
 20
-12.75
 30
0.0
 40
6.299999999999998
100
AcDbArc
 50
149.9999999999994
 51
329.9999999999995
  0
LINE
  5
3913
330
37B5
100
AcDbEntity
  8
AM_0
100
AcDbLine
 10
17.32050807568885
 20
-10.00000000000011
 30
0.0
 11
16.62768775266124
 21
-9.600000000000079
 31
0.0
  0
ARC
  5
3914
330
37B5
100
AcDbEntity
  8
AM_0
100
AcDbCircle
 10
22.08364779650322
 20
-12.75
 30
0.0
 40
5.499999999999997
100
AcDbArc
 50
149.9999999999994
 51
329.9999999999995
  0
LINE
  5
3915
330
37B5
100
AcDbEntity
  8
AM_0
100
AcDbLine
 10
27.53960784034524
 20
-15.89999999999998
 30
0.0
 11
26.84678751731758
 21
-15.5
 31
0.0
  0
ARC
  5
3916
330
37B5
100
AcDbEntity
  8
AM_0
100
AcDbCircle
 10
-22.08364779650322
 20
-12.75
 30
0.0
 40
6.299999999999999
100
AcDbArc
 50
210.0000000000005
 51
30.00000000000055
  0
LINE
  5
3917
330
37B5
100
AcDbEntity
  8
AM_0
100
AcDbLine
 10
-26.84678751731764
 20
-15.5
 30
0.0
 11
-27.53960784034524
 21
-15.89999999999998
 31
0.0
  0
ARC
  5
3918
330
37B5
100
AcDbEntity
  8
AM_0
100
AcDbCircle
 10
-22.08364779650322
 20
-12.75
 30
0.0
 40
5.499999999999997
100
AcDbArc
 50
210.0000000000005
 51
30.00000000000055
  0
LINE
  5
3919
330
37B5
100
AcDbEntity
  8
AM_0
100
AcDbLine
 10
-16.62768775266119
 20
-9.600000000000079
 30
0.0
 11
-17.32050807568868
 21
-10.00000000000011
 31
0.0
  0
LINE
  5
391A
330
37B5
100
AcDbEntity
  8
AM_0
100
AcDbLine
 10
0.0
 20
31.0
 30
0.0
 11
0.0
 21
30.19999999999999
 31
0.0
  0
ARC
  5
391B
330
37B5
100
AcDbEntity
  8
AM_0
100
AcDbCircle
 10
0.0
 20
25.5
 30
0.0
 40
5.499999999999997
100
AcDbArc
 50
270.0
 51
90.0
  0
LINE
  5
391C
330
37B5
100
AcDbEntity
  8
AM_0
100
AcDbLine
 10
0.0
 20
20.80000000000001
 30
0.0
 11
0.0
 21
20.0
 31
0.0
  0
ARC
  5
391D
330
37B5
100
AcDbEntity
  8
AM_0
100
AcDbCircle
 10
0.0
 20
25.5
 30
0.0
 40
4.699999999999998
100
AcDbArc
 50
270.0
 51
90.0
  0
LINE
  5
391E
330
37B5
100
AcDbEntity
  8
AM_0
100
AcDbLine
 10
17.32050807568885
 20
-10.0
 30
0.0
 11
18.01332839871634
 21
-10.39999999999998
 31
0.0
  0
ARC
  5
391F
330
37B5
100
AcDbEntity
  8
AM_0
100
AcDbCircle
 10
22.08364779650322
 20
-12.75
 30
0.0
 40
5.499999999999999
100
AcDbArc
 50
329.9999999999995
 51
149.9999999999994
  0
LINE
  5
3920
330
37B5
100
AcDbEntity
  8
AM_0
100
AcDbLine
 10
26.15396719429009
 20
-15.09999999999996
 30
0.0
 11
26.84678751731758
 21
-15.49999999999988
 31
0.0
  0
ARC
  5
3921
330
37B5
100
AcDbEntity
  8
AM_0
100
AcDbCircle
 10
22.08364779650322
 20
-12.75
 30
0.0
 40
4.699999999999998
100
AcDbArc
 50
329.9999999999995
 51
149.9999999999994
  0
LINE
  5
3922
330
37B5
100
AcDbEntity
  8
AM_0
100
AcDbLine
 10
-26.84678751731764
 20
-15.5
 30
0.0
 11
-26.15396719429015
 21
-15.09999999999996
 31
0.0
  0
ARC
  5
3923
330
37B5
100
AcDbEntity
  8
AM_0
100
AcDbCircle
 10
-22.08364779650322
 20
-12.75
 30
0.0
 40
5.499999999999999
100
AcDbArc
 50
30.00000000000055
 51
210.0000000000005
  0
LINE
  5
3924
330
37B5
100
AcDbEntity
  8
AM_0
100
AcDbLine
 10
-18.01332839871628
 20
-10.40000000000009
 30
0.0
 11
-17.32050807568868
 21
-10.00000000000011
 31
0.0
  0
ARC
  5
3925
330
37B5
100
AcDbEntity
  8
AM_0
100
AcDbCircle
 10
-22.08364779650322
 20
-12.75
 30
0.0
 40
4.699999999999998
100
AcDbArc
 50
30.00000000000055
 51
210.0000000000005
  0
LINE
  5
3926
330
37B5
100
AcDbEntity
  8
AM_0
100
AcDbLine
 10
0.0
 20
20.0
 30
0.0
 11
0.0
 21
20.80000000000001
 31
0.0
  0
ARC
  5
3927
330
37B5
100
AcDbEntity
  8
AM_0
100
AcDbCircle
 10
0.0
 20
25.5
 30
0.0
 40
5.499999999999997
100
AcDbArc
 50
90.0
 51
270.0
  0
LINE
  5
3928
330
37B5
100
AcDbEntity
  8
AM_0
100
AcDbLine
 10
0.0
 20
30.19999999999999
 30
0.0
 11
0.0
 21
31.0
 31
0.0
  0
ARC
  5
3929
330
37B5
100
AcDbEntity
  8
AM_0
100
AcDbCircle
 10
0.0
 20
25.5
 30
0.0
 40
4.699999999999998
100
AcDbArc
 50
90.0
 51
270.0
  0
LINE
  5
392A
330
37B5
100
AcDbEntity
  8
AM_0
100
AcDbLine
 10
26.84678751731758
 20
-15.5
 30
0.0
 11
26.15396719429009
 21
-15.09999999999996
 31
0.0
  0
ARC
  5
392B
330
37B5
100
AcDbEntity
  8
AM_0
100
AcDbCircle
 10
22.08364779650322
 20
-12.75
 30
0.0
 40
5.499999999999997
100
AcDbArc
 50
149.9999999999994
 51
329.9999999999995
  0
LINE
  5
392C
330
37B5
100
AcDbEntity
  8
AM_0
100
AcDbLine
 10
18.01332839871634
 20
-10.40000000000009
 30
0.0
 11
17.32050807568885
 21
-10.00000000000011
 31
0.0
  0
ARC
  5
392D
330
37B5
100
AcDbEntity
  8
AM_0
100
AcDbCircle
 10
22.08364779650322
 20
-12.75
 30
0.0
 40
4.699999999999995
100
AcDbArc
 50
149.9999999999994
 51
329.9999999999995
  0
LINE
  5
392E
330
37B5
100
AcDbEntity
  8
AM_0
100
AcDbLine
 10
-17.32050807568868
 20
-10.00000000000011
 30
0.0
 11
-18.01332839871628
 21
-10.40000000000009
 31
0.0
  0
ARC
  5
392F
330
37B5
100
AcDbEntity
  8
AM_0
100
AcDbCircle
 10
-22.08364779650322
 20
-12.75
 30
0.0
 40
5.499999999999997
100
AcDbArc
 50
210.0000000000005
 51
30.00000000000055
  0
LINE
  5
3930
330
37B5
100
AcDbEntity
  8
AM_0
100
AcDbLine
 10
-26.15396719429015
 20
-15.09999999999996
 30
0.0
 11
-26.84678751731764
 21
-15.5
 31
0.0
  0
ARC
  5
3931
330
37B5
100
AcDbEntity
  8
AM_0
100
AcDbCircle
 10
-22.08364779650322
 20
-12.75
 30
0.0
 40
4.699999999999998
100
AcDbArc
 50
210.0000000000005
 51
30.00000000000055
  0
CIRCLE
  5
3932
330
37B5
100
AcDbEntity
  8
AM_0
100
AcDbCircle
 10
43.47350097533069
 20
-1.518128106558776
 30
0.0
 40
5.0
  0
LINE
  5
3933
330
37B5
100
AcDbEntity
  8
AM_0
100
AcDbLine
 10
45.97350097533069
 20
-0.0747524335847061
 30
0.0
 11
45.97350097533069
 21
-2.961503779532904
 31
0.0
  0
LINE
  5
3934
330
37B5
100
AcDbEntity
  8
AM_0
100
AcDbLine
 10
45.97350097533069
 20
-2.961503779532904
 30
0.0
 11
43.47350097533069
 21
-4.404879452506918
 31
0.0
  0
LINE
  5
3935
330
37B5
100
AcDbEntity
  8
AM_0
100
AcDbLine
 10
43.47350097533069
 20
-4.404879452506918
 30
0.0
 11
40.97350097533069
 21
-2.961503779532904
 31
0.0
  0
LINE
  5
3936
330
37B5
100
AcDbEntity
  8
AM_0
100
AcDbLine
 10
40.97350097533069
 20
-2.961503779532904
 30
0.0
 11
40.97350097533069
 21
-0.0747524335847061
 31
0.0
  0
LINE
  5
3937
330
37B5
100
AcDbEntity
  8
AM_0
100
AcDbLine
 10
40.97350097533069
 20
-0.0747524335847061
 30
0.0
 11
43.47350097533069
 21
1.368623239389307
 31
0.0
  0
LINE
  5
3938
330
37B5
100
AcDbEntity
  8
AM_0
100
AcDbLine
 10
43.47350097533069
 20
1.368623239389307
 30
0.0
 11
45.97350097533069
 21
-0.0747524335847061
 31
0.0
  0
CIRCLE
  5
3939
330
37B5
100
AcDbEntity
  8
AM_0
100
AcDbCircle
 10
20.42201298118619
 20
38.40822028936321
 30
0.0
 40
5.0
  0
LINE
  5
393A
330
37B5
100
AcDbEntity
  8
AM_0
100
AcDbLine
 10
22.92201298118619
 20
39.85159596233728
 30
0.0
 11
22.92201298118619
 21
36.9648446163892
 31
0.0
  0
LINE
  5
393B
330
37B5
100
AcDbEntity
  8
AM_0
100
AcDbLine
 10
22.92201298118619
 20
36.9648446163892
 30
0.0
 11
20.42201298118619
 21
35.52146894341513
 31
0.0
  0
LINE
  5
393C
330
37B5
100
AcDbEntity
  8
AM_0
100
AcDbLine
 10
20.42201298118619
 20
35.52146894341513
 30
0.0
 11
17.92201298118618
 21
36.9648446163892
 31
0.0
  0
LINE
  5
393D
330
37B5
100
AcDbEntity
  8
AM_0
100
AcDbLine
 10
17.92201298118618
 20
36.9648446163892
 30
0.0
 11
17.92201298118618
 21
39.85159596233728
 31
0.0
  0
LINE
  5
393E
330
37B5
100
AcDbEntity
  8
AM_0
100
AcDbLine
 10
17.92201298118618
 20
39.85159596233728
 30
0.0
 11
20.42201298118619
 21
41.29497163531135
 31
0.0
  0
LINE
  5
393F
330
37B5
100
AcDbEntity
  8
AM_0
100
AcDbLine
 10
20.42201298118619
 20
41.29497163531135
 30
0.0
 11
22.92201298118619
 21
39.85159596233728
 31
0.0
  0
CIRCLE
  5
3940
330
37B5
100
AcDbEntity
  8
AM_0
100
AcDbCircle
 10
-20.42201298118624
 20
38.40822028936333
 30
0.0
 40
5.0
  0
LINE
  5
3941
330
37B5
100
AcDbEntity
  8
AM_0
100
AcDbLine
 10
-22.92201298118624
 20
39.8515959623374
 30
0.0
 11
-20.42201298118624
 21
41.29497163531141
 31
0.0
  0
LINE
  5
3942
330
37B5
100
AcDbEntity
  8
AM_0
100
AcDbLine
 10
-20.42201298118624
 20
41.29497163531141
 30
0.0
 11
-17.92201298118624
 21
39.8515959623374
 31
0.0
  0
LINE
  5
3943
330
37B5
100
AcDbEntity
  8
AM_0
100
AcDbLine
 10
-17.92201298118624
 20
39.8515959623374
 30
0.0
 11
-17.92201298118624
 21
36.96484461638931
 31
0.0
  0
LINE
  5
3944
330
37B5
100
AcDbEntity
  8
AM_0
100
AcDbLine
 10
-17.92201298118624
 20
36.96484461638931
 30
0.0
 11
-20.42201298118624
 21
35.52146894341524
 31
0.0
  0
LINE
  5
3945
330
37B5
100
AcDbEntity
  8
AM_0
100
AcDbLine
 10
-20.42201298118624
 20
35.52146894341524
 30
0.0
 11
-22.92201298118624
 21
36.96484461638931
 31
0.0
  0
LINE
  5
3946
330
37B5
100
AcDbEntity
  8
AM_0
100
AcDbLine
 10
-22.92201298118624
 20
36.96484461638931
 30
0.0
 11
-22.92201298118624
 21
39.8515959623374
 31
0.0
  0
CIRCLE
  5
3947
330
37B5
100
AcDbEntity
  8
AM_0
100
AcDbCircle
 10
-43.47350097533063
 20
-1.518128106558776
 30
0.0
 40
5.0
  0
LINE
  5
3948
330
37B5
100
AcDbEntity
  8
AM_0
100
AcDbLine
 10
-45.97350097533063
 20
-0.0747524335847061
 30
0.0
 11
-43.47350097533063
 21
1.368623239389307
 31
0.0
  0
LINE
  5
3949
330
37B5
100
AcDbEntity
  8
AM_0
100
AcDbLine
 10
-43.47350097533063
 20
1.368623239389307
 30
0.0
 11
-40.97350097533063
 21
-0.0747524335847061
 31
0.0
  0
LINE
  5
394A
330
37B5
100
AcDbEntity
  8
AM_0
100
AcDbLine
 10
-40.97350097533063
 20
-0.0747524335847061
 30
0.0
 11
-40.97350097533063
 21
-2.96150377953279
 31
0.0
  0
LINE
  5
394B
330
37B5
100
AcDbEntity
  8
AM_0
100
AcDbLine
 10
-40.97350097533063
 20
-2.96150377953279
 30
0.0
 11
-43.47350097533063
 21
-4.404879452506918
 31
0.0
  0
LINE
  5
394C
330
37B5
100
AcDbEntity
  8
AM_0
100
AcDbLine
 10
-43.47350097533063
 20
-4.404879452506918
 30
0.0
 11
-45.97350097533063
 21
-2.96150377953279
 31
0.0
  0
LINE
  5
394D
330
37B5
100
AcDbEntity
  8
AM_0
100
AcDbLine
 10
-45.97350097533063
 20
-2.96150377953279
 30
0.0
 11
-45.97350097533063
 21
-0.0747524335847061
 31
0.0
  0
CIRCLE
  5
394E
330
37B5
100
AcDbEntity
  8
AM_0
100
AcDbCircle
 10
-23.05148799414439
 20
-36.8900921828045
 30
0.0
 40
5.0
  0
LINE
  5
394F
330
37B5
100
AcDbEntity
  8
AM_0
100
AcDbLine
 10
-23.05148799414439
 20
-39.77684352875264
 30
0.0
 11
-25.55148799414439
 21
-38.33346785577862
 31
0.0
  0
LINE
  5
3950
330
37B5
100
AcDbEntity
  8
AM_0
100
AcDbLine
 10
-25.55148799414439
 20
-38.33346785577862
 30
0.0
 11
-25.55148799414439
 21
-35.44671650983048
 31
0.0
  0
LINE
  5
3951
330
37B5
100
AcDbEntity
  8
AM_0
100
AcDbLine
 10
-25.55148799414439
 20
-35.44671650983048
 30
0.0
 11
-23.05148799414439
 21
-34.00334083685641
 31
0.0
  0
LINE
  5
3952
330
37B5
100
AcDbEntity
  8
AM_0
100
AcDbLine
 10
-23.05148799414439
 20
-34.00334083685641
 30
0.0
 11
-20.55148799414439
 21
-35.44671650983048
 31
0.0
  0
LINE
  5
3953
330
37B5
100
AcDbEntity
  8
AM_0
100
AcDbLine
 10
-20.55148799414439
 20
-35.44671650983048
 30
0.0
 11
-20.55148799414439
 21
-38.33346785577862
 31
0.0
  0
LINE
  5
3954
330
37B5
100
AcDbEntity
  8
AM_0
100
AcDbLine
 10
-20.55148799414439
 20
-38.33346785577862
 30
0.0
 11
-23.05148799414439
 21
-39.77684352875264
 31
0.0
  0
CIRCLE
  5
3955
330
37B5
100
AcDbEntity
  8
AM_0
100
AcDbCircle
 10
23.05148799414445
 20
-36.8900921828045
 30
0.0
 40
5.0
  0
LINE
  5
3956
330
37B5
100
AcDbEntity
  8
AM_0
100
AcDbLine
 10
23.05148799414445
 20
-39.77684352875264
 30
0.0
 11
20.55148799414445
 21
-38.33346785577862
 31
0.0
  0
LINE
  5
3957
330
37B5
100
AcDbEntity
  8
AM_0
100
AcDbLine
 10
20.55148799414445
 20
-38.33346785577862
 30
0.0
 11
20.55148799414445
 21
-35.44671650983043
 31
0.0
  0
LINE
  5
3958
330
37B5
100
AcDbEntity
  8
AM_0
100
AcDbLine
 10
20.55148799414445
 20
-35.44671650983043
 30
0.0
 11
23.05148799414445
 21
-34.0033408368563
 31
0.0
  0
LINE
  5
3959
330
37B5
100
AcDbEntity
  8
AM_0
100
AcDbLine
 10
23.05148799414445
 20
-34.0033408368563
 30
0.0
 11
25.55148799414445
 21
-35.44671650983043
 31
0.0
  0
LINE
  5
395A
330
37B5
100
AcDbEntity
  8
AM_0
100
AcDbLine
 10
25.55148799414445
 20
-35.44671650983043
 30
0.0
 11
25.55148799414445
 21
-38.33346785577862
 31
0.0
  0
LINE
  5
395B
330
37B5
100
AcDbEntity
  8
AM_0
100
AcDbLine
 10
25.55148799414445
 20
-38.33346785577862
 30
0.0
 11
23.05148799414445
 21
-39.77684352875264
 31
0.0
  0
CIRCLE
  5
395C
330
37B5
100
AcDbEntity
  8
AM_0
100
AcDbCircle
 10
0.0000000000001137
 20
25.5
 30
0.0
 40
4.500000000000015
  0
ARC
  5
395D
330
37B5
100
AcDbEntity
  8
AM_0
100
AcDbCircle
 10
17.65046304971093
 20
-54.281314963169
 30
0.0
 40
2.000000000000004
100
AcDbArc
 50
284.9999999999976
 51
15.00000000000158
  0
ARC
  5
395E
330
37B5
100
AcDbEntity
  8
AM_0
100
AcDbCircle
 10
11.85490809197654
 20
-55.83422923378407
 30
0.0
 40
2.000000000000003
100
AcDbArc
 50
195.0000000000016
 51
284.9999999999976
  0
LINE
  5
395F
330
37B5
100
AcDbEntity
  8
AM_0
100
AcDbLine
 10
18.02940043167393
 20
-47.96812191522946
 30
0.0
 11
19.58231470228901
 21
-53.76367687296391
 31
0.0
  0
LINE
  5
3960
330
37B5
100
AcDbEntity
  8
AM_0
100
AcDbLine
 10
9.923056439398351
 20
-56.3518673239891
 30
0.0
 11
8.370142168783218
 21
-50.55631236625464
 31
0.0
  0
LINE
  5
3961
330
37B5
100
AcDbEntity
  8
AM_0
100
AcDbLine
 10
18.1681011399159
 20
-56.21316661574707
 30
0.0
 11
12.37254618218151
 21
-57.76608088636215
 31
0.0
  0
LINE
  5
3962
330
37B5
100
AcDbEntity
  8
AM_0
100
AcDbLine
 10
18.02940043167393
 20
-47.96812191522946
 30
0.0
 11
17.51176234146891
 21
-46.03627026265138
 31
0.0
  0
LINE
  5
3963
330
37B5
100
AcDbEntity
  8
AM_0
100
AcDbLine
 10
7.852504078578192
 20
-48.62446071367656
 30
0.0
 11
17.51176234146885
 21
-46.03627026265138
 31
0.0
  0
LINE
  5
3964
330
37B5
100
AcDbEntity
  8
AM_0
100
AcDbLine
 10
7.852504078578192
 20
-48.62446071367656
 30
0.0
 11
8.370142168783218
 21
-50.55631236625464
 31
0.0
  0
LINE
  5
3965
330
37B5
100
AcDbEntity
  8
AM_0
100
AcDbLine
 10
7.786306042139244
 20
-48.37740627832516
 30
0.0
 11
7.852504078578192
 21
-48.62446071367656
 31
0.0
  0
LINE
  5
3966
330
37B5
100
AcDbEntity
  8
AM_0
100
AcDbLine
 10
17.44556430503007
 20
-45.78921582729998
 30
0.0
 11
17.51176234146891
 21
-46.03627026265138
 31
0.0
  0
ARC
  5
3967
330
37B5
100
AcDbEntity
  8
AM_0
100
AcDbCircle
 10
38.18376618407337
 20
42.42640687119268
 30
0.0
 40
2.000000000000005
100
AcDbArc
 50
45.0
 51
135.0
  0
ARC
  5
3968
330
37B5
100
AcDbEntity
  8
AM_0
100
AcDbCircle
 10
42.42640687119262
 20
38.18376618407342
 30
0.0
 40
2.000000000000003
100
AcDbArc
 50
315.0
 51
45.0
  0
LINE
  5
3969
330
37B5
100
AcDbEntity
  8
AM_0
100
AcDbLine
 10
32.52691193458088
 20
39.59797974644658
 30
0.0
 11
36.76955262170026
 21
43.84062043356573
 31
0.0
  0
LINE
  5
396A
330
37B5
100
AcDbEntity
  8
AM_0
100
AcDbLine
 10
43.84062043356573
 20
36.76955262170026
 30
0.0
 11
39.59797974644653
 21
32.52691193458105
 31
0.0
  0
LINE
  5
396B
330
37B5
100
AcDbEntity
  8
AM_0
100
AcDbLine
 10
39.59797974644636
 20
43.84062043356573
 30
0.0
 11
43.84062043356573
 21
39.59797974644658
 31
0.0
  0
LINE
  5
396C
330
37B5
100
AcDbEntity
  8
AM_0
100
AcDbLine
 10
32.52691193458088
 20
39.59797974644658
 30
0.0
 11
31.11269837220789
 21
38.18376618407342
 31
0.0
  0
LINE
  5
396D
330
37B5
100
AcDbEntity
  8
AM_0
100
AcDbLine
 10
38.18376618407342
 20
31.11269837220794
 30
0.0
 11
31.11269837220789
 21
38.18376618407342
 31
0.0
  0
LINE
  5
396E
330
37B5
100
AcDbEntity
  8
AM_0
100
AcDbLine
 10
38.18376618407337
 20
31.11269837220794
 30
0.0
 11
39.59797974644641
 21
32.52691193458105
 31
0.0
  0
LINE
  5
396F
330
37B5
100
AcDbEntity
  8
AM_0
100
AcDbLine
 10
38.00290978516091
 20
30.93184197329544
 30
0.0
 11
38.18376618407337
 21
31.11269837220794
 31
0.0
  0
LINE
  5
3970
330
37B5
100
AcDbEntity
  8
AM_0
100
AcDbLine
 10
30.93184197329538
 20
38.00290978516091
 30
0.0
 11
31.11269837220783
 21
38.18376618407342
 31
0.0
  0
ARC
  5
3971
330
37B5
100
AcDbEntity
  8
AM_0
100
AcDbCircle
 10
-55.83422923378407
 20
11.85490809197637
 30
0.0
 40
2.000000000000004
100
AcDbArc
 50
164.9999999999984
 51
255.0000000000024
  0
ARC
  5
3972
330
37B5
100
AcDbEntity
  8
AM_0
100
AcDbCircle
 10
-54.281314963169
 20
17.65046304971071
 30
0.0
 40
2.000000000000003
100
AcDbArc
 50
75.0000000000024
 51
164.9999999999984
  0
LINE
  5
3973
330
37B5
100
AcDbEntity
  8
AM_0
100
AcDbLine
 10
-50.55631236625476
 20
8.370142168783047
 30
0.0
 11
-56.3518673239891
 21
9.923056439398123
 31
0.0
  0
LINE
  5
3974
330
37B5
100
AcDbEntity
  8
AM_0
100
AcDbLine
 10
-53.76367687296391
 20
19.58231470228884
 30
0.0
 11
-47.96812191522946
 21
18.02940043167382
 31
0.0
  0
LINE
  5
3975
330
37B5
100
AcDbEntity
  8
AM_0
100
AcDbLine
 10
-57.7660808863622
 20
12.37254618218128
 30
0.0
 11
-56.21316661574707
 21
18.16810113991568
 31
0.0
  0
LINE
  5
3976
330
37B5
100
AcDbEntity
  8
AM_0
100
AcDbLine
 10
-50.55631236625476
 20
8.370142168783047
 30
0.0
 11
-48.62446071367656
 21
7.852504078578078
 31
0.0
  0
LINE
  5
3977
330
37B5
100
AcDbEntity
  8
AM_0
100
AcDbLine
 10
-46.03627026265138
 20
17.51176234146868
 30
0.0
 11
-48.62446071367656
 21
7.852504078578078
 31
0.0
  0
LINE
  5
3978
330
37B5
100
AcDbEntity
  8
AM_0
100
AcDbLine
 10
-46.03627026265138
 20
17.51176234146868
 30
0.0
 11
-47.96812191522946
 21
18.02940043167382
 31
0.0
  0
LINE
  5
3979
330
37B5
100
AcDbEntity
  8
AM_0
100
AcDbLine
 10
-45.78921582729998
 20
17.44556430502979
 30
0.0
 11
-46.03627026265138
 21
17.51176234146868
 31
0.0
  0
LINE
  5
397A
330
37B5
100
AcDbEntity
  8
AM_0
100
AcDbLine
 10
-48.37740627832516
 20
7.786306042139131
 30
0.0
 11
-48.62446071367656
 21
7.852504078578078
 31
0.0
  0
CIRCLE
  5
397B
330
37B5
100
AcDbEntity
  8
AM_0
100
AcDbCircle
 10
-22.08364779650322
 20
-12.75
 30
0.0
 40
4.500000000000013
  0
CIRCLE
  5
397C
330
37B5
100
AcDbEntity
  8
AM_0
100
AcDbCircle
 10
22.0836477965031
 20
-12.75000000000011
 30
0.0
 40
4.500000000000013
  0
ARC
  5
397D
330
37B5
100
AcDbEntity
  8
AM_0
100
AcDbCircle
 10
42.5331193145904
 20
-22.24710680899466
 30
0.0
 40
0.9999999999999992
100
AcDbArc
 50
239.9999999999995
 51
332.3880154632671
  0
ARC
  5
397E
330
37B5
100
AcDbEntity
  8
AM_0
100
AcDbCircle
 10
39.88208522383559
 20
-20.7165315630665
 30
0.0
 40
1.000000000000007
100
AcDbArc
 50
155.8868421387043
 51
239.9999999999995
  0
ARC
  5
397F
330
37B5
100
AcDbEntity
  8
AM_0
100
AcDbCircle
 10
6.285210369170897
 20
-1.319366821795824
 30
0.0
 40
1.0
100
AcDbArc
 50
239.9999999999995
 51
324.113157861291
  0
ARC
  5
3980
330
37B5
100
AcDbEntity
  8
AM_0
100
AcDbCircle
 10
2.0
 20
1.154700538379245
 30
0.0
 40
0.9999999999999998
100
AcDbArc
 50
180.0
 51
239.9999999999995
  0
ARC
  5
3981
330
37B5
100
AcDbEntity
  8
AM_0
100
AcDbCircle
 10
2.0
 20
6.102835258729214
 30
0.0
 40
1.000000000000001
100
AcDbArc
 50
95.88684213870687
 51
180.0
  0
ARC
  5
3982
330
37B5
100
AcDbEntity
  8
AM_0
100
AcDbCircle
 10
2.000000000000113
 20
44.89716474127073
 30
0.0
 40
1.000000000000001
100
AcDbArc
 50
180.0
 51
264.1131578612899
  0
ARC
  5
3983
330
37B5
100
AcDbEntity
  8
AM_0
100
AcDbCircle
 10
2.000000000000113
 20
47.95831523312711
 30
0.0
 40
0.9999999999999992
100
AcDbArc
 50
87.61198453673014
 51
180.0
  0
LINE
  5
3984
330
37B5
100
AcDbEntity
  8
AM_0
100
AcDbLine
 10
39.38208522383553
 20
-21.58255696685097
 30
0.0
 11
42.0331193145904
 21
-23.11313221277913
 31
0.0
  0
LINE
  5
3985
330
37B5
100
AcDbEntity
  8
AM_0
100
AcDbLine
 10
1.5
 20
0.2886751345947118
 30
0.0
 11
5.785210369170897
 21
-2.185392225580187
 31
0.0
  0
ARC
  5
3986
330
37B5
100
AcDbEntity
  8
AM_0
100
AcDbCircle
 10
0.0
 20
25.49999999999989
 30
0.0
 40
18.5
100
AcDbArc
 50
275.8868421387069
 51
84.11315786128991
  0
ARC
  5
3987
330
37B5
100
AcDbEntity
  8
AM_0
100
AcDbCircle
 10
0.0
 20
-0.0000000000001137
 30
0.0
 40
48.99999999999999
100
AcDbArc
 50
332.3880154632671
 51
87.61198453673014
  0
LINE
  5
3988
330
37B5
100
AcDbEntity
  8
AM_0
100
AcDbLine
 10
1.0
 20
6.102835258729214
 30
0.0
 11
1.0
 21
1.154700538379245
 31
0.0
  0
LINE
  5
3989
330
37B5
100
AcDbEntity
  8
AM_0
100
AcDbLine
 10
1.000000000000113
 20
47.95831523312711
 30
0.0
 11
1.000000000000113
 21
44.89716474127073
 31
0.0
  0
ARC
  5
398A
330
37B5
100
AcDbEntity
  8
AM_0
100
AcDbCircle
 10
22.08364779650322
 20
-12.75
 30
0.0
 40
18.49999999999999
100
AcDbArc
 50
335.8868421387044
 51
144.113157861291
  0
ELLIPSE
  5
398B
330
37B5
100
AcDbEntity
  8
AM_0
100
AcDbEllipse
 10
31.17691453623991
 20
17.99999999999988
 30
0.0
 11
6.495190528383296
 21
3.749999999999994
 31
0.0
210
0.0
220
0.0
230
1.0
 40
0.599999999999999
 41
0.0
 42
6.283185307179585
  0
ARC
  5
398C
330
37B5
100
AcDbEntity
  8
AM_0
100
AcDbCircle
 10
-2.0
 20
47.95831523312711
 30
0.0
 40
0.9999999999999992
100
AcDbArc
 50
0.0
 51
92.38801546326987
  0
ARC
  5
398D
330
37B5
100
AcDbEntity
  8
AM_0
100
AcDbCircle
 10
-2.0
 20
44.89716474127084
 30
0.0
 40
1.000000000000007
100
AcDbArc
 50
275.8868421387101
 51
0.0
  0
ARC
  5
398E
330
37B5
100
AcDbEntity
  8
AM_0
100
AcDbCircle
 10
-2.0
 20
6.102835258729214
 30
0.0
 40
1.0
100
AcDbArc
 50
0.0
 51
84.11315786128991
  0
ARC
  5
398F
330
37B5
100
AcDbEntity
  8
AM_0
100
AcDbCircle
 10
-2.0
 20
1.154700538379302
 30
0.0
 40
0.9999999999999998
100
AcDbArc
 50
300.0000000000005
 51
0.0
  0
ARC
  5
3990
330
37B5
100
AcDbEntity
  8
AM_0
100
AcDbCircle
 10
-6.285210369170897
 20
-1.319366821795711
 30
0.0
 40
1.000000000000001
100
AcDbArc
 50
215.886842138709
 51
300.0000000000005
  0
ARC
  5
3991
330
37B5
100
AcDbEntity
  8
AM_0
100
AcDbCircle
 10
-39.88208522383553
 20
-20.71653156306638
 30
0.0
 40
1.000000000000001
100
AcDbArc
 50
300.0000000000005
 51
24.11315786129566
  0
ARC
  5
3992
330
37B5
100
AcDbEntity
  8
AM_0
100
AcDbCircle
 10
-42.5331193145904
 20
-22.2471068089946
 30
0.0
 40
0.9999999999999992
100
AcDbArc
 50
207.6119845367329
 51
300.0000000000005
  0
LINE
  5
3993
330
37B5
100
AcDbEntity
  8
AM_0
100
AcDbLine
 10
-1.0
 20
44.89716474127084
 30
0.0
 11
-1.0
 21
47.95831523312711
 31
0.0
  0
LINE
  5
3994
330
37B5
100
AcDbEntity
  8
AM_0
100
AcDbLine
 10
-1.0
 20
1.154700538379302
 30
0.0
 11
-1.0
 21
6.102835258729214
 31
0.0
  0
ARC
  5
3995
330
37B5
100
AcDbEntity
  8
AM_0
100
AcDbCircle
 10
-22.08364779650322
 20
-12.74999999999989
 30
0.0
 40
18.5
100
AcDbArc
 50
35.88684213870899
 51
204.1131578612957
  0
ARC
  5
3996
330
37B5
100
AcDbEntity
  8
AM_0
100
AcDbCircle
 10
0.0
 20
0.0
 30
0.0
 40
48.99999999999998
100
AcDbArc
 50
92.38801546326987
 51
207.6119845367329
  0
LINE
  5
3997
330
37B5
100
AcDbEntity
  8
AM_0
100
AcDbLine
 10
-5.785210369170783
 20
-2.185392225580073
 30
0.0
 11
-1.499999999999886
 21
0.2886751345948255
 31
0.0
  0
LINE
  5
3998
330
37B5
100
AcDbEntity
  8
AM_0
100
AcDbLine
 10
-42.03311931459029
 20
-23.11313221277913
 30
0.0
 11
-39.38208522383553
 21
-21.58255696685074
 31
0.0
  0
ARC
  5
3999
330
37B5
100
AcDbEntity
  8
AM_0
100
AcDbCircle
 10
0.0
 20
25.5
 30
0.0
 40
18.5
100
AcDbArc
 50
95.8868421387101
 51
264.1131578612931
  0
ELLIPSE
  5
399A
330
37B5
100
AcDbEntity
  8
AM_0
100
AcDbEllipse
 10
-31.17691453623968
 20
18.00000000000011
 30
0.0
 11
-6.495190528383288
 21
3.75000000000001
 31
0.0
210
0.0
220
0.0
230
1.0
 40
0.599999999999999
 41
0.0
 42
6.283185307179585
  0
ARC
  5
399B
330
37B5
100
AcDbEntity
  8
AM_0
100
AcDbCircle
 10
-40.53311931459041
 20
-25.71120842413251
 30
0.0
 40
0.9999999999999992
100
AcDbArc
 50
120.0000000000005
 51
212.3880154632732
  0
ARC
  5
399C
330
37B5
100
AcDbEntity
  8
AM_0
100
AcDbCircle
 10
-37.88208522383553
 20
-24.18063317820429
 30
0.0
 40
1.000000000000007
100
AcDbArc
 50
35.88684213870899
 51
120.0000000000005
  0
ARC
  5
399D
330
37B5
100
AcDbEntity
  8
AM_0
100
AcDbCircle
 10
-4.285210369170897
 20
-4.783468436933389
 30
0.0
 40
1.0
100
AcDbArc
 50
120.0000000000005
 51
204.1131578612957
  0
ARC
  5
399E
330
37B5
100
AcDbEntity
  8
AM_0
100
AcDbCircle
 10
0.0
 20
-2.30940107675849
 30
0.0
 40
0.9999999999999998
100
AcDbArc
 50
59.99999999999946
 51
120.0000000000005
  0
ARC
  5
399F
330
37B5
100
AcDbEntity
  8
AM_0
100
AcDbCircle
 10
4.28521036917084
 20
-4.783468436933389
 30
0.0
 40
1.000000000000001
100
AcDbArc
 50
335.8868421387044
 51
59.99999999999946
  0
ARC
  5
39A0
330
37B5
100
AcDbEntity
  8
AM_0
100
AcDbCircle
 10
37.88208522383542
 20
-24.1806331782044
 30
0.0
 40
1.000000000000001
100
AcDbArc
 50
59.99999999999946
 51
144.113157861291
  0
ARC
  5
39A1
330
37B5
100
AcDbEntity
  8
AM_0
100
AcDbCircle
 10
40.53311931459035
 20
-25.71120842413251
 30
0.0
 40
0.9999999999999992
100
AcDbArc
 50
327.6119845367268
 51
59.99999999999946
  0
LINE
  5
39A2
330
37B5
100
AcDbEntity
  8
AM_0
100
AcDbLine
 10
-38.38208522383565
 20
-23.31460777441993
 30
0.0
 11
-41.03311931459041
 21
-24.84518302034798
 31
0.0
  0
LINE
  5
39A3
330
37B5
100
AcDbEntity
  8
AM_0
100
AcDbLine
 10
-0.5000000000001137
 20
-1.44337567297407
 30
0.0
 11
-4.785210369170897
 21
-3.917443033149083
 31
0.0
  0
ARC
  5
39A4
330
37B5
100
AcDbEntity
  8
AM_0
100
AcDbCircle
 10
22.0836477965031
 20
-12.75
 30
0.0
 40
18.5
100
AcDbArc
 50
155.8868421387043
 51
324.113157861291
  0
ARC
  5
39A5
330
37B5
100
AcDbEntity
  8
AM_0
100
AcDbCircle
 10
0.0
 20
0.0
 30
0.0
 40
48.99999999999998
100
AcDbArc
 50
212.3880154632659
 51
327.6119845367341
  0
LINE
  5
39A6
330
37B5
100
AcDbEntity
  8
AM_0
100
AcDbLine
 10
4.78521036917084
 20
-3.917443033149083
 30
0.0
 11
0.5
 21
-1.44337567297407
 31
0.0
  0
LINE
  5
39A7
330
37B5
100
AcDbEntity
  8
AM_0
100
AcDbLine
 10
41.03311931459034
 20
-24.84518302034809
 30
0.0
 11
38.38208522383542
 21
-23.31460777441993
 31
0.0
  0
ARC
  5
39A8
330
37B5
100
AcDbEntity
  8
AM_0
100
AcDbCircle
 10
-22.08364779650322
 20
-12.75
 30
0.0
 40
18.49999999999999
100
AcDbArc
 50
215.886842138709
 51
24.11315786129566
  0
ELLIPSE
  5
39A9
330
37B5
100
AcDbEntity
  8
AM_0
100
AcDbEllipse
 10
-0.0000000000001137
 20
-36.0
 30
0.0
 11
-0.0000000000000101
 21
-7.500000000000003
 31
0.0
210
0.0
220
0.0
230
1.0
 40
0.599999999999999
 41
0.0
 42
6.283185307179585
  0
LINE
  5
39AA
330
37B5
100
AcDbEntity
  8
AM_0
100
AcDbLine
 10
0.0
 20
8.0
 30
0.0
 11
0.0
 21
0.0
 31
0.0
  0
ARC
  5
39AB
330
37B5
100
AcDbEntity
  8
AM_0
100
AcDbCircle
 10
0.0
 20
25.5
 30
0.0
 40
17.5
100
AcDbArc
 50
270.0
 51
90.0
  0
LINE
  5
39AC
330
37B5
100
AcDbEntity
  8
AM_0
100
AcDbLine
 10
0.0
 20
50.5
 30
0.0
 11
0.0
 21
43.0
 31
0.0
  0
ARC
  5
39AD
330
37B5
100
AcDbEntity
  8
AM_0
100
AcDbCircle
 10
0.0
 20
0.0
 30
0.0
 40
50.5
100
AcDbArc
 50
329.9999999999995
 51
39.31784096367049
  0
ARC
  5
39AE
330
37B5
100
AcDbEntity
  8
AM_0
100
AcDbCircle
 10
0.0
 20
-0.0000000000001137
 30
0.0
 40
50.50000000000004
100
AcDbArc
 50
50.68215903632951
 51
90.0
  0
LINE
  5
39AF
330
37B5
100
AcDbEntity
  8
AM_0
100
AcDbLine
 10
37.2390923627309
 20
-21.5
 30
0.0
 11
43.73428289111422
 21
-25.24999999999989
 31
0.0
  0
ARC
  5
39B0
330
37B5
100
AcDbEntity
  8
AM_0
100
AcDbCircle
 10
22.08364779650338
 20
-12.75
 30
0.0
 40
17.5
100
AcDbArc
 50
329.9999999999995
 51
149.9999999999994
  0
LINE
  5
39B1
330
37B5
100
AcDbEntity
  8
AM_0
100
AcDbLine
 10
0.0
 20
0.0
 30
0.0
 11
6.928203230275528
 21
-4.0
 31
0.0
  0
LINE
  5
39B2
330
37B5
100
AcDbEntity
  8
AM_0
100
AcDbLine
 10
-6.928203230275528
 20
-4.0
 30
0.0
 11
0.0
 21
0.0
 31
0.0
  0
ARC
  5
39B3
330
37B5
100
AcDbEntity
  8
AM_0
100
AcDbCircle
 10
-22.08364779650322
 20
-12.75
 30
0.0
 40
17.5
100
AcDbArc
 50
30.00000000000055
 51
210.0000000000005
  0
LINE
  5
39B4
330
37B5
100
AcDbEntity
  8
AM_0
100
AcDbLine
 10
-43.7342828911141
 20
-25.25
 30
0.0
 11
-37.2390923627309
 21
-21.5
 31
0.0
  0
ARC
  5
39B5
330
37B5
100
AcDbEntity
  8
AM_0
100
AcDbCircle
 10
0.0
 20
0.0
 30
0.0
 40
50.50000000000003
100
AcDbArc
 50
90.0
 51
159.3178409636693
  0
ARC
  5
39B6
330
37B5
100
AcDbEntity
  8
AM_0
100
AcDbCircle
 10
0.0
 20
0.0
 30
0.0
 40
50.50000000000004
100
AcDbArc
 50
170.6821590363284
 51
210.0000000000005
  0
LINE
  5
39B7
330
37B5
100
AcDbEntity
  8
AM_0
100
AcDbLine
 10
0.0
 20
43.0
 30
0.0
 11
0.0
 21
50.5
 31
0.0
  0
ARC
  5
39B8
330
37B5
100
AcDbEntity
  8
AM_0
100
AcDbCircle
 10
0.0
 20
25.5
 30
0.0
 40
17.5
100
AcDbArc
 50
90.0
 51
270.0
  0
LINE
  5
39B9
330
37B5
100
AcDbEntity
  8
AM_0
100
AcDbLine
 10
0.0
 20
0.0
 30
0.0
 11
0.0
 21
8.0
 31
0.0
  0
LINE
  5
39BA
330
37B5
100
AcDbEntity
  8
AM_0
100
AcDbLine
 10
6.928203230275528
 20
-4.0
 30
0.0
 11
0.0
 21
0.0
 31
0.0
  0
ARC
  5
39BB
330
37B5
100
AcDbEntity
  8
AM_0
100
AcDbCircle
 10
22.08364779650322
 20
-12.75
 30
0.0
 40
17.5
100
AcDbArc
 50
149.9999999999994
 51
329.9999999999995
  0
LINE
  5
39BC
330
37B5
100
AcDbEntity
  8
AM_0
100
AcDbLine
 10
43.73428289111422
 20
-25.25
 30
0.0
 11
37.2390923627309
 21
-21.5
 31
0.0
  0
ARC
  5
39BD
330
37B5
100
AcDbEntity
  8
AM_0
100
AcDbCircle
 10
0.0
 20
0.0
 30
0.0
 40
50.5
100
AcDbArc
 50
210.0000000000005
 51
279.3178409636678
  0
ARC
  5
39BE
330
37B5
100
AcDbEntity
  8
AM_0
100
AcDbCircle
 10
0.0
 20
0.0
 30
0.0
 40
50.5
100
AcDbArc
 50
290.6821590363307
 51
329.9999999999995
  0
LINE
  5
39BF
330
37B5
100
AcDbEntity
  8
AM_0
100
AcDbLine
 10
-37.23909236273079
 20
-21.5
 30
0.0
 11
-43.7342828911141
 21
-25.25
 31
0.0
  0
ARC
  5
39C0
330
37B5
100
AcDbEntity
  8
AM_0
100
AcDbCircle
 10
-22.08364779650322
 20
-12.75
 30
0.0
 40
17.5
100
AcDbArc
 50
210.0000000000005
 51
30.00000000000055
  0
LINE
  5
39C1
330
37B5
100
AcDbEntity
  8
AM_0
100
AcDbLine
 10
0.0
 20
0.0
 30
0.0
 11
-6.928203230275528
 21
-4.0
 31
0.0
  0
CIRCLE
  5
39C2
330
37B5
100
AcDbEntity
  8
AM_0
100
AcDbCircle
 10
18.61954618136553
 20
10.74999999999988
 30
0.0
 40
5.0
  0
LINE
  5
39C3
330
37B5
100
AcDbEntity
  8
AM_0
100
AcDbLine
 10
21.11954618136554
 20
12.19337567297401
 30
0.0
 11
21.11954618136554
 21
9.306624327025929
 31
0.0
  0
LINE
  5
39C4
330
37B5
100
AcDbEntity
  8
AM_0
100
AcDbLine
 10
21.11954618136554
 20
9.306624327025929
 30
0.0
 11
18.61954618136553
 21
7.863248654051801
 31
0.0
  0
LINE
  5
39C5
330
37B5
100
AcDbEntity
  8
AM_0
100
AcDbLine
 10
18.61954618136553
 20
7.863248654051801
 30
0.0
 11
16.11954618136542
 21
9.306624327025929
 31
0.0
  0
LINE
  5
39C6
330
37B5
100
AcDbEntity
  8
AM_0
100
AcDbLine
 10
16.11954618136542
 20
9.306624327025929
 30
0.0
 11
16.11954618136542
 21
12.19337567297401
 31
0.0
  0
LINE
  5
39C7
330
37B5
100
AcDbEntity
  8
AM_0
100
AcDbLine
 10
16.11954618136542
 20
12.19337567297401
 30
0.0
 11
18.61954618136553
 21
13.63675134594808
 31
0.0
  0
LINE
  5
39C8
330
37B5
100
AcDbEntity
  8
AM_0
100
AcDbLine
 10
18.61954618136553
 20
13.63675134594808
 30
0.0
 11
21.11954618136554
 21
12.19337567297401
 31
0.0
  0
CIRCLE
  5
39C9
330
37B5
100
AcDbEntity
  8
AM_0
100
AcDbCircle
 10
-18.61954618136536
 20
10.75
 30
0.0
 40
5.0
  0
LINE
  5
39CA
330
37B5
100
AcDbEntity
  8
AM_0
100
AcDbLine
 10
-21.11954618136536
 20
12.19337567297413
 30
0.0
 11
-18.61954618136536
 21
13.6367513459482
 31
0.0
  0
LINE
  5
39CB
330
37B5
100
AcDbEntity
  8
AM_0
100
AcDbLine
 10
-18.61954618136536
 20
13.63675134594808
 30
0.0
 11
-16.11954618136536
 21
12.19337567297413
 31
0.0
  0
LINE
  5
39CC
330
37B5
100
AcDbEntity
  8
AM_0
100
AcDbLine
 10
-16.11954618136536
 20
12.19337567297413
 30
0.0
 11
-16.11954618136536
 21
9.306624327026042
 31
0.0
  0
LINE
  5
39CD
330
37B5
100
AcDbEntity
  8
AM_0
100
AcDbLine
 10
-16.11954618136536
 20
9.306624327026042
 30
0.0
 11
-18.61954618136536
 21
7.863248654051915
 31
0.0
  0
LINE
  5
39CE
330
37B5
100
AcDbEntity
  8
AM_0
100
AcDbLine
 10
-18.61954618136536
 20
7.863248654051915
 30
0.0
 11
-21.11954618136536
 21
9.306624327026042
 31
0.0
  0
LINE
  5
39CF
330
37B5
100
AcDbEntity
  8
AM_0
100
AcDbLine
 10
-21.11954618136536
 20
9.306624327026042
 30
0.0
 11
-21.11954618136536
 21
12.19337567297413
 31
0.0
  0
CIRCLE
  5
39D0
330
37B5
100
AcDbEntity
  8
AM_0
100
AcDbCircle
 10
0.0
 20
-21.5
 30
0.0
 40
5.0
  0
LINE
  5
39D1
330
37B5
100
AcDbEntity
  8
AM_0
100
AcDbLine
 10
0.0
 20
-24.38675134594809
 30
0.0
 11
-2.5
 21
-22.94337567297407
 31
0.0
  0
LINE
  5
39D2
330
37B5
100
AcDbEntity
  8
AM_0
100
AcDbLine
 10
-2.5
 20
-22.94337567297407
 30
0.0
 11
-2.5
 21
-20.05662432702599
 31
0.0
  0
LINE
  5
39D3
330
37B5
100
AcDbEntity
  8
AM_0
100
AcDbLine
 10
-2.5
 20
-20.05662432702599
 30
0.0
 11
0.0
 21
-18.61324865405186
 31
0.0
  0
LINE
  5
39D4
330
37B5
100
AcDbEntity
  8
AM_0
100
AcDbLine
 10
0.0
 20
-18.61324865405186
 30
0.0
 11
2.5
 21
-20.05662432702599
 31
0.0
  0
LINE
  5
39D5
330
37B5
100
AcDbEntity
  8
AM_0
100
AcDbLine
 10
2.5
 20
-20.05662432702599
 30
0.0
 11
2.5
 21
-22.94337567297407
 31
0.0
  0
LINE
  5
39D6
330
37B5
100
AcDbEntity
  8
AM_0
100
AcDbLine
 10
2.5
 20
-22.94337567297407
 30
0.0
 11
0.0
 21
-24.38675134594809
 31
0.0
  0
INSERT
  5
39D7
330
37B5
100
AcDbEntity
  8
DIM
100
AcDbBlockReference
 66
     1
  2
dimensionBlock
 10
-50.50000000000006
 20
0.0
 30
0.0
  0
ATTRIB
  5
39D8
330
39D7
100
AcDbEntity
  8
0
100
AcDbText
 10
-41.03290704968054
 20
2.891095235479383
 30
0.00000001
 40
5.0
  1
x3
100
AcDbAttribute
280
     0
  2
D
 70
     1
280
     1
  0
ATTRIB
  5
39D9
330
39D7
100
AcDbEntity
  8
0
100
AcDbText
 10
-41.03290704968054
 20
-3.592322260641594
 30
0.00000001
 40
5.0
  1
ø
100
AcDbAttribute
280
     0
  2
Dsymbol
 70
     1
280
     1
  0
SEQEND
  5
39DA
330
39D7
100
AcDbEntity
  8
DIM
  0
INSERT
  5
39DB
330
37B5
100
AcDbEntity
  8
DIM
100
AcDbBlockReference
 66
     1
  2
dimensionBlock
 10
50.5
 20
0.0
 30
0.0
  0
ATTRIB
  5
39DC
330
39DB
100
AcDbEntity
  8
0
100
AcDbText
 10
59.96709295031951
 20
2.891095235479383
 30
0.00000001
 40
5.0
  1
x3
100
AcDbAttribute
280
     0
  2
D
 70
     1
280
     1
  0
ATTRIB
  5
39DD
330
39DB
100
AcDbEntity
  8
0
100
AcDbText
 10
59.96709295031951
 20
-3.592322260641594
 30
0.00000001
 40
5.0
  1
ø
100
AcDbAttribute
280
     0
  2
Dsymbol
 70
     1
280
     1
  0
SEQEND
  5
39DE
330
39DB
100
AcDbEntity
  8
DIM
  0
INSERT
  5
39DF
330
37B5
100
AcDbEntity
  8
DIM
100
AcDbBlockReference
 66
     1
  2
dimensionBlock
 10
-4.499999999999886
 20
25.5
 30
0.0
  0
ATTRIB
  5
39E0
330
39DF
100
AcDbEntity
  8
0
100
AcDbText
 10
4.967092950319624
 20
28.39109523547938
 30
0.00000001
 40
5.0
  1
x1
100
AcDbAttribute
280
     0
  2
D
 70
     1
280
     1
  0
ATTRIB
  5
39E1
330
39DF
100
AcDbEntity
  8
0
100
AcDbText
 10
4.967092950319624
 20
21.9076777393584
 30
0.00000001
 40
5.0
  1
ø
100
AcDbAttribute
280
     0
  2
Dsymbol
 70
     1
280
     1
  0
SEQEND
  5
39E2
330
39DF
100
AcDbEntity
  8
DIM
  0
INSERT
  5
39E3
330
37B5
100
AcDbEntity
  8
DIM
100
AcDbBlockReference
 66
     1
  2
dimensionBlock
 10
4.500000000000113
 20
25.5
 30
0.0
  0
ATTRIB
  5
39E4
330
39E3
100
AcDbEntity
  8
0
100
AcDbText
 10
13.96709295031962
 20
28.39109523547938
 30
0.00000001
 40
5.0
  1
x1
100
AcDbAttribute
280
     0
  2
D
 70
     1
280
     1
  0
ATTRIB
  5
39E5
330
39E3
100
AcDbEntity
  8
0
100
AcDbText
 10
13.96709295031962
 20
21.9076777393584
 30
0.00000001
 40
5.0
  1
ø
100
AcDbAttribute
280
     0
  2
Dsymbol
 70
     1
280
     1
  0
SEQEND
  5
39E6
330
39E3
100
AcDbEntity
  8
DIM
  0
INSERT
  5
39E7
330
37B5
100
AcDbEntity
  8
DIM
100
AcDbBlockReference
 66
     1
  2
dimensionBlock
 10
17.5
 20
25.4999999999996
 30
0.0
  0
ATTRIB
  5
39E8
330
39E7
100
AcDbEntity
  8
0
100
AcDbText
 10
26.96709295031951
 20
28.39109523547899
 30
0.00000001
 40
5.0
  1
x2
100
AcDbAttribute
280
     0
  2
D
 70
     1
280
     1
  0
ATTRIB
  5
39E9
330
39E7
100
AcDbEntity
  8
0
100
AcDbText
 10
26.96709295031951
 20
21.90767773935801
 30
0.00000001
 40
5.0
  1
ø
100
AcDbAttribute
280
     0
  2
Dsymbol
 70
     1
280
     1
  0
SEQEND
  5
39EA
330
39E7
100
AcDbEntity
  8
DIM
  0
INSERT
  5
39EB
330
37B5
100
AcDbEntity
  8
DIM
100
AcDbBlockReference
 66
     1
  2
dimensionBlock
 10
-17.5
 20
25.49999999999978
 30
0.0
  0
ATTRIB
  5
39EC
330
39EB
100
AcDbEntity
  8
0
100
AcDbText
 10
-8.032907049680488
 20
28.39109523547916
 30
0.00000001
 40
5.0
  1
x2
100
AcDbAttribute
280
     0
  2
D
 70
     1
280
     1
  0
ATTRIB
  5
39ED
330
39EB
100
AcDbEntity
  8
0
100
AcDbText
 10
-8.032907049680488
 20
21.90767773935818
 30
0.00000001
 40
5.0
  1
ø
100
AcDbAttribute
280
     0
  2
Dsymbol
 70
     1
280
     1
  0
SEQEND
  5
39EE
330
39EB
100
AcDbEntity
  8
DIM
  0
ENDBLK
  5
37B7
330
37B5
100
AcDbEntity
  8
0
100
AcDbBlockEnd
  0
ENDSEC
  0
SECTION
  2
ENTITIES
  0
INSERT
  5
39EF
330
1A
100
AcDbEntity
  8
AM_0
100
AcDbBlockReference
  2
H3_101_0_3X9_33UG
 10
0.0
 20
0.0
 30
0.0
  0
VIEWPORT
  5
2CAA
102
{ACAD_XDICTIONARY
360
2CAB
102
}
330
2CA3
100
AcDbEntity
 67
     1
  8
0
100
AcDbViewport
 10
128.5
 20
97.5
 30
0.0
 40
349.2069620253165
 41
222.18
 68
     1
 69
     1
 12
128.5
 22
97.5
 13
0.0
 23
0.0
 14
10.0
 24
10.0
 15
10.0
 25
10.0
 16
0.0
 26
0.0
 36
1.0
 17
0.0
 27
0.0
 37
0.0
 42
50.0
 43
0.0
 44
0.0
 45
222.18
 50
0.0
 51
0.0
 72
   100
 90
   819232
  1

281
     0
 71
     1
 74
     0
110
0.0
120
0.0
130
0.0
111
1.0
121
0.0
131
0.0
112
0.0
122
1.0
132
0.0
 79
     0
146
0.0
170
     0
 61
     5
348
A55
292
     1
282
     1
141
0.0
142
0.0
 63
   250
421
  3355443
  0
ENDSEC
  0
SECTION
  2
OBJECTS
  0
DICTIONARY
  5
C
330
0
100
AcDbDictionary
281
     1
  3
ACAD_CIP_PREVIOUS_PRODUCT_INFO
350
CD7
  3
ACAD_COLOR
350
3CA
  3
ACAD_DETAILVIEWSTYLE
350
CCB
  3
ACAD_FIELDLIST
350
D6A
  3
ACAD_GROUP
350
D
  3
ACAD_LAYOUT
350
167
  3
ACAD_MATERIAL
350
3C9
  3
ACAD_MLEADERSTYLE
350
A72
  3
ACAD_MLINESTYLE
350
E
  3
ACAD_PLOTSETTINGS
350
168
  3
ACAD_PLOTSTYLENAME
350
165
  3
ACAD_SCALELIST
350
A60
  3
ACAD_SECTIONVIEWSTYLE
350
CC9
  3
ACAD_TABLESTYLE
350
650
  3
ACAD_VISUALSTYLE
350
A4F
  3
ACASAPPOBJECT
350
EE
  3
ACASGREF_MASTER
350
9B
  3
ACDB_RECOMPOSE_DATA
350
4315
  3
ACDBVARIABLEDICTIONARY
350
5D
  3
AcDsDecomposeData
350
431C
  3
ACMDICTIONARY
350
142
  3
AD_GREF_MODULE
350
AF
  3
AD_MAPI_MODULE
350
18E
  3
AMG
350
171
  3
AMGSNAPSETTINGS
350
1F2
  3
ASE_INDEX_DICTIONARY
350
849
  3
coolorange
350
13F2
  3
MAPISURF_MODULE
350
2E8
  0
DICTIONARY
  5
592
330
2
100
AcDbDictionary
280
     1
281
     1
  3
ACAD_LAYERFILTERS
360
C7C
  3
ACAD_LAYERSTATES
360
822
  3
ACLYDICTIONARY
360
C7B
  3
AMLAYER_GROUPCOLORS
360
593
  0
DICTIONARY
  5
AB7
330
F
100
AcDbDictionary
280
     1
281
     1
  3
ADSK_XREC_LAYER_RECONCILED
360
430A
  0
DICTIONARY
  5
AB9
330
5CF
100
AcDbDictionary
280
     1
281
     1
  3
ADSK_XREC_LAYER_RECONCILED
360
430B
  0
DICTIONARY
  5
3750
330
374F
100
AcDbDictionary
280
     1
281
     1
  3
ADSK_XREC_LAYER_RECONCILED
360
430C
  0
DICTIONARY
  5
12A
330
1A
100
AcDbDictionary
280
     1
281
     1
  3
ACAD_INDEX
360
4304
  0
DICTIONARY
  5
3749
330
3748
100
AcDbDictionary
280
     1
281
     1
  0
DICTIONARY
  5
2CAB
330
2CAA
100
AcDbDictionary
280
     1
281
     1
  3
ASDK_XREC_ANNOTATION_SCALE_INFO
360
2CAC
  0
XRECORD
  5
CD7
102
{ACAD_REACTORS
330
C
102
}
330
C
100
AcDbXrecord
280
     1
300
AMECH_PP
300
2021
300

  0
DICTIONARY
  5
3CA
102
{ACAD_REACTORS
330
C
102
}
330
C
100
AcDbDictionary
281
     1
  0
DICTIONARY
  5
CCB
102
{ACAD_REACTORS
330
C
102
}
330
C
100
AcDbDictionary
281
     1
  3
Imperial24
350
10E8
  3
Metric50
350
CCC
  0
FIELDLIST
  5
D6A
102
{ACAD_REACTORS
330
C
102
}
330
C
100
AcDbIdSet
 90
       17
330
32DC
330
32DD
330
32DE
330
314E
330
314F
330
3150
330
31E2
330
31E3
330
31E4
330
31E5
330
31E9
330
31EA
330
31EB
330
31EF
330
31F0
330
31F1
330
31F2
100
AcDbFieldList
  0
DICTIONARY
  5
D
102
{ACAD_REACTORS
330
C
102
}
330
C
100
AcDbDictionary
281
     1
  0
DICTIONARY
  5
167
102
{ACAD_REACTORS
330
C
102
}
330
C
100
AcDbDictionary
281
     1
  3
Layout1
350
2CA4
  3
Model
350
169
  0
DICTIONARY
  5
3C9
102
{ACAD_REACTORS
330
C
102
}
330
C
100
AcDbDictionary
281
     1
  3
ByBlock
350
A3F
  3
ByLayer
350
A37
  3
Global
350
A47
  0
DICTIONARY
  5
A72
102
{ACAD_REACTORS
330
C
102
}
330
C
100
AcDbDictionary
281
     1
  3
Standard
350
A73
  0
DICTIONARY
  5
E
102
{ACAD_REACTORS
330
C
102
}
330
C
100
AcDbDictionary
281
     1
  3
STANDARD
350
13
  0
DICTIONARY
  5
168
102
{ACAD_REACTORS
330
C
102
}
330
C
100
AcDbDictionary
281
     1
  3
Setup1
350
2C89
  0
ACDBDICTIONARYWDFLT
  5
165
102
{ACAD_REACTORS
330
C
102
}
330
C
100
AcDbDictionary
281
     1
  3
Normal
350
166
100
AcDbDictionaryWithDefault
340
166
  0
DICTIONARY
  5
A60
102
{ACAD_REACTORS
330
C
102
}
330
C
100
AcDbDictionary
281
     1
  3
A0
350
A61
  3
A1
350
A62
  3
A2
350
A63
  3
A3
350
A64
  3
A4
350
A65
  3
A5
350
A66
  3
A6
350
A67
  3
A7
350
A68
  3
A8
350
A69
  3
A9
350
A6A
  3
B0
350
A6B
  3
B1
350
A6C
  3
B2
350
A6D
  3
B3
350
A6E
  3
B4
350
A6F
  3
B5
350
A70
  3
B6
350
A71
  0
DICTIONARY
  5
CC9
102
{ACAD_REACTORS
330
C
102
}
330
C
100
AcDbDictionary
281
     1
  3
Imperial24
350
10E5
  3
Metric50
350
CCA
  0
DICTIONARY
  5
650
102
{ACAD_REACTORS
330
C
102
}
330
C
100
AcDbDictionary
281
     1
  3
Standard
350
651
  0
DICTIONARY
  5
A4F
102
{ACAD_REACTORS
330
C
102
}
330
C
100
AcDbDictionary
281
     1
  3
2dWireframe
350
A55
  3
3D Hidden
350
A57
  3
3dWireframe
350
A56
  3
Basic
350
A54
  3
Brighten
350
A5B
  3
ColorChange
350
A5F
  3
Conceptual
350
A58
  3
Dim
350
A5A
  3
EdgeColorOff
350
CC8
  3
Facepattern
350
A5E
  3
Flat
350
A50
  3
FlatWithEdges
350
A51
  3
Gouraud
350
A52
  3
GouraudWithEdges
350
A53
  3
Hidden
350
CC0
  3
JitterOff
350
CC6
  3
Linepattern
350
A5D
  3
OverhangOff
350
CC7
  3
Realistic
350
A59
  3
Shaded
350
CC5
  3
Shaded with edges
350
CC4
  3
Shades of Gray
350
CC1
  3
Sketchy
350
CC2
  3
Thicken
350
A5C
  3
Wireframe
350
CBF
  3
X-Ray
350
CC3
  0
ACAD_PROXY_OBJECT
  5
EE
102
{ACAD_REACTORS
330
C
102
}
330
C
100
AcDbProxyObject
 90
      499
 91
      544
 95
  3276827
 70
     0
162
                 0
161
                10
310
404C
 94
        0
  0
ACAD_PROXY_OBJECT
  5
9B
102
{ACAD_REACTORS
330
C
102
}
330
C
100
AcDbProxyObject
 90
      499
 91
      514
 95
  3276827
 70
     0
162
                 0
161
                34
310
010000404C
 94
        0
  0
XRECORD
  5
4315
102
{ACAD_REACTORS
330
C
102
}
330
C
100
AcDbXrecord
280
     1
 90
        1
330
651
  0
DICTIONARY
  5
5D
102
{ACAD_REACTORS
330
C
102
}
330
C
100
AcDbDictionary
281
     1
  3
CANNOSCALE
350
AF4
  3
CMLEADERSTYLE
350
AF2
  3
CTABLESTYLE
350
66F
  3
CVIEWDETAILSTYLE
350
FFA
  3
CVIEWSECTIONSTYLE
350
FFB
  3
DIMADEC
350
5E
  3
DIMASSOC
350
3C7
  3
INDEXCTL
350
128
  3
LAYEREVAL
350
AF6
  3
LAYERNOTIFY
350
AF7
  3
LIGHTINGUNITS
350
AF5
  3
MSLTSCALE
350
AF3
  0
DICTIONARY
  5
431C
102
{ACAD_REACTORS
330
C
102
}
330
C
100
AcDbDictionary
281
     1
  3
AcDsRecords
350
431E
  3
AcDsSchemas
350
431D
1001
ACAD
1070
     2
  0
DICTIONARY
  5
142
102
{ACAD_REACTORS
330
C
102
}
330
C
100
AcDbDictionary
281
     1
  3
ACMSTDDICTIONARY
350
143
  3
AMDTSECTSYM_ARROWCOLOR
350
47D
  0
ACAD_PROXY_OBJECT
  5
AF
102
{ACAD_REACTORS
330
C
102
}
330
C
100
AcDbProxyObject
 90
      499
 91
      526
 95
  3276827
 70
     0
162
                 0
161
               114
310
00000043800000000000000000000C
 94
        0
  0
ACAD_PROXY_OBJECT
  5
18E
102
{ACAD_REACTORS
330
C
102
}
330
C
100
AcDbProxyObject
 90
      499
 91
      570
 95
  3276827
 70
     0
162
                 0
161
                34
310
05000044CC
 94
        0
  0
DICTIONARY
  5
171
102
{ACAD_REACTORS
330
C
102
}
330
C
100
AcDbDictionary
281
     1
  0
DICTIONARY
  5
1F2
102
{ACAD_REACTORS
330
C
102
}
330
C
100
AcDbDictionary
281
     1
  0
DICTIONARY
  5
849
102
{ACAD_REACTORS
330
C
102
}
330
C
100
AcDbDictionary
281
     1
  3
ASEBlockHierarchyIndexRecord
350
84B
1001
DCO15
1040
1524370329.156
  0
DICTIONARY
  5
13F2
102
{ACAD_REACTORS
330
C
102
}
330
C
100
AcDbDictionary
281
     1
  3
myviewproperty
350
13F3
  0
ACAD_PROXY_OBJECT
  5
2E8
102
{ACAD_REACTORS
330
C
102
}
330
C
100
AcDbProxyObject
 90
      499
 91
      610
 95
  3276827
 70
     0
162
                 0
161
                 8
310
0400
 94
        0
  0
DICTIONARY
  5
C7C
102
{ACAD_REACTORS
330
592
102
}
330
592
100
AcDbDictionary
281
     1
  0
DICTIONARY
  5
822
102
{ACAD_REACTORS
330
592
102
}
330
592
100
AcDbDictionary
281
     1
  0
DICTIONARY
  5
C7B
102
{ACAD_REACTORS
330
592
102
}
330
592
100
AcDbDictionary
281
     1
1001
ACAD
1000
<All
  0
DICTIONARY
  5
593
102
{ACAD_REACTORS
330
592
102
}
330
592
100
AcDbDictionary
280
     1
281
     1
  0
XRECORD
  5
430A
102
{ACAD_REACTORS
330
AB7
102
}
330
AB7
100
AcDbXrecord
280
     1
290
     1
  0
XRECORD
  5
430B
102
{ACAD_REACTORS
330
AB9
102
}
330
AB9
100
AcDbXrecord
280
     1
290
     1
  0
XRECORD
  5
430C
102
{ACAD_REACTORS
330
3750
102
}
330
3750
100
AcDbXrecord
280
     1
290
     1
  0
DICTIONARY
  5
4304
102
{ACAD_REACTORS
330
12A
102
}
330
12A
100
AcDbDictionary
281
     1
  3
*A1
350
4305
  0
XRECORD
  5
2CAC
102
{ACAD_REACTORS
330
2CAB
102
}
330
2CAB
100
AcDbXrecord
280
     1
 90
        1
340
A61
  0
ACDBDETAILVIEWSTYLE
  5
10E8
102
{ACAD_XDICTIONARY
360
4325
102
}
102
{ACAD_REACTORS
330
CCB
330
3147
330
3156
102
}
330
CCB
100
AcDbModelDocViewStyle
 70
     0
  3
Imperial24
290
     0
100
AcDbDetailViewStyle
 70
     0
 71
     0
 90
        3
 71
     1
340
10
 62
   256
 40
0.24
340
0
 62
   256
 40
0.24
300

 40
0.36
280
     3
 71
     2
340
16
 90
       25
 62
   256
 71
     3
340
10
 62
   256
 40
0.24
 90
        1
 40
0.75
 90
        1
300
%<\AcVar ViewType \f "%tc1">% %<\AcVar ViewDetailId>%\PSCALE %<\AcVar ViewScale \f "%sn">%
 71
     4
340
16
 90
       25
 62
   256
340
16
 90
       25
 62
   256
280
     0
  0
ACDBDETAILVIEWSTYLE
  5
CCC
102
{ACAD_XDICTIONARY
360
4321
102
}
102
{ACAD_REACTORS
330
CCB
330
3149
330
3158
102
}
330
CCB
100
AcDbModelDocViewStyle
 70
     0
  3
Metric50
290
     0
100
AcDbDetailViewStyle
 70
     0
 71
     0
 90
        3
 71
     1
340
10
 62
   256
 40
5.0
340
0
 62
   256
 40
5.0
300

 40
0.0
280
     1
 71
     2
340
16
 90
       25
 62
   256
 71
     3
340
10
 62
   256
 40
5.0
 90
        0
 40
15.0
 90
        1
300
%<\AcVar ViewDetailId>% (%<\AcVar ViewScale \f "%sn">%)
 71
     4
340
16
 90
       25
 62
   256
340
16
 90
       25
 62
   256
280
     0
  0
LAYOUT
  5
2CA4
102
{ACAD_REACTORS
330
167
102
}
330
167
100
AcDbPlotSettings
  1

  2
none_device
  4
ISO_A4_(210.00_x_297.00_MM)
  6

 40
7.5
 41
20.0
 42
7.5
 43
20.0
 44
210.0
 45
297.0
 46
0.0
 47
0.0
 48
0.0
 49
0.0
140
0.0
141
0.0
142
1.0
143
2.0
 70
   688
 72
     1
 73
     1
 74
     5
  7
@Layout.ctb
 75
    17
147
0.5
 76
     0
 77
     2
 78
   300
148
0.0
149
0.0
100
AcDbLayout
  1
Layout1
 70
     1
 71
     1
 10
0.0
 20
0.0
 11
12.0
 21
9.0
 12
0.0
 22
0.0
 32
0.0
 14
1.000000000000000E+20
 24
1.000000000000000E+20
 34
1.000000000000000E+20
 15
-1.000000000000000E+20
 25
-1.000000000000000E+20
 35
-1.000000000000000E+20
146
0.0
 13
0.0
 23
0.0
 33
0.0
 16
1.0
 26
0.0
 36
0.0
 17
0.0
 27
1.0
 37
0.0
 76
     0
330
2CA3
331
2CAA
1001
ACAD_PSEXT
1000
None
1000
None
1000
Not applicable
1000
The layout will not be plotted unless a new plotter configuration name is selected.
1070
     0
  0
LAYOUT
  5
169
102
{ACAD_XDICTIONARY
360
1474
102
}
102
{ACAD_REACTORS
330
167
102
}
330
167
100
AcDbPlotSettings
  1

  2
none_device
  4
Letter_(8.50_x_11.00_Inches)
  6

 40
6.349999904632568
 41
6.349999904632568
 42
6.350006103515625
 43
6.350006103515625
 44
215.8999938964844
 45
279.3999938964844
 46
38.1308720290886
 47
0.0
 48
0.0
 49
0.0
140
0.0
141
0.0
142
1.0
143
24.24127445441685
 70
 11956
 72
     0
 73
     1
 74
     0
  7
@Layout.ctb
 75
     0
147
0.0412519565289521
 76
     0
 77
     2
 78
   300
148
8019.824937415057
149
-189.2331007602539
100
AcDbLayout
  1
Model
 70
     1
 71
     0
 10
0.0
 20
0.0
 11
12.0
 21
9.0
 12
0.0
 22
0.0
 32
0.0
 14
0.0
 24
0.0
 34
0.0
 15
0.0
 25
0.0
 35
0.0
146
0.0
 13
0.0
 23
0.0
 33
0.0
 16
1.0
 26
0.0
 36
0.0
 17
0.0
 27
1.0
 37
0.0
 76
     0
330
1A
331
A35
1001
ACAD_PSEXT
1000
None
1000
None
1000
Not applicable
1000
The layout will not be plotted unless a new plotter configuration name is selected.
1070
     0
  0
MATERIAL
  5
A3F
102
{ACAD_XDICTIONARY
360
A40
102
}
102
{ACAD_REACTORS
330
3C9
102
}
330
3C9
100
AcDbMaterial
  1
ByBlock
 72
     0
 43
0.0008202099737533
 43
0.0
 43
0.0
 43
0.0
 43
0.0
 43
0.0008202099737533
 43
0.0
 43
0.0
 43
0.0
 43
0.0
 43
1.0
 43
0.0
 43
0.0
 43
0.0
 43
0.0
 43
1.0
 77
     0
 47
0.0008202099737533
 47
0.0
 47
0.0
 47
0.0
 47
0.0
 47
0.0008202099737533
 47
0.0
 47
0.0
 47
0.0
 47
0.0
 47
1.0
 47
0.0
 47
0.0
 47
0.0
 47
0.0
 47
1.0
171
     0
 49
0.0008202099737533
 49
0.0
 49
0.0
 49
0.0
 49
0.0
 49
0.0008202099737533
 49
0.0
 49
0.0
 49
0.0
 49
0.0
 49
1.0
 49
0.0
 49
0.0
 49
0.0
 49
0.0
 49
1.0
175
     0
142
0.0008202099737533
142
0.0
142
0.0
142
0.0
142
0.0
142
0.0008202099737533
142
0.0
142
0.0
142
0.0
142
0.0
142
1.0
142
0.0
142
0.0
142
0.0
142
0.0
142
1.0
179
     0
144
0.0008202099737533
144
0.0
144
0.0
144
0.0
144
0.0
144
0.0008202099737533
144
0.0
144
0.0
144
0.0
144
0.0
144
1.0
144
0.0
144
0.0
144
0.0
144
0.0
144
1.0
147
0.0008202099737533
147
0.0
147
0.0
147
0.0
147
0.0
147
0.0008202099737533
147
0.0
147
0.0
147
0.0
147
0.0
147
1.0
147
0.0
147
0.0
147
0.0
147
0.0
147
1.0
  0
MATERIAL
  5
A37
102
{ACAD_XDICTIONARY
360
A38
102
}
102
{ACAD_REACTORS
330
3C9
102
}
330
3C9
100
AcDbMaterial
  1
ByLayer
 72
     0
 43
0.0008202099737533
 43
0.0
 43
0.0
 43
0.0
 43
0.0
 43
0.0008202099737533
 43
0.0
 43
0.0
 43
0.0
 43
0.0
 43
1.0
 43
0.0
 43
0.0
 43
0.0
 43
0.0
 43
1.0
 77
     0
 47
0.0008202099737533
 47
0.0
 47
0.0
 47
0.0
 47
0.0
 47
0.0008202099737533
 47
0.0
 47
0.0
 47
0.0
 47
0.0
 47
1.0
 47
0.0
 47
0.0
 47
0.0
 47
0.0
 47
1.0
171
     0
 49
0.0008202099737533
 49
0.0
 49
0.0
 49
0.0
 49
0.0
 49
0.0008202099737533
 49
0.0
 49
0.0
 49
0.0
 49
0.0
 49
1.0
 49
0.0
 49
0.0
 49
0.0
 49
0.0
 49
1.0
175
     0
142
0.0008202099737533
142
0.0
142
0.0
142
0.0
142
0.0
142
0.0008202099737533
142
0.0
142
0.0
142
0.0
142
0.0
142
1.0
142
0.0
142
0.0
142
0.0
142
0.0
142
1.0
179
     0
144
0.0008202099737533
144
0.0
144
0.0
144
0.0
144
0.0
144
0.0008202099737533
144
0.0
144
0.0
144
0.0
144
0.0
144
1.0
144
0.0
144
0.0
144
0.0
144
0.0
144
1.0
147
0.0008202099737533
147
0.0
147
0.0
147
0.0
147
0.0
147
0.0008202099737533
147
0.0
147
0.0
147
0.0
147
0.0
147
1.0
147
0.0
147
0.0
147
0.0
147
0.0
147
1.0
  0
MATERIAL
  5
A47
102
{ACAD_XDICTIONARY
360
A48
102
}
102
{ACAD_REACTORS
330
3C9
102
}
330
3C9
100
AcDbMaterial
  1
Global
 72
     0
 43
0.0008202099737533
 43
0.0
 43
0.0
 43
0.0
 43
0.0
 43
0.0008202099737533
 43
0.0
 43
0.0
 43
0.0
 43
0.0
 43
1.0
 43
0.0
 43
0.0
 43
0.0
 43
0.0
 43
1.0
 77
     0
 47
0.0008202099737533
 47
0.0
 47
0.0
 47
0.0
 47
0.0
 47
0.0008202099737533
 47
0.0
 47
0.0
 47
0.0
 47
0.0
 47
1.0
 47
0.0
 47
0.0
 47
0.0
 47
0.0
 47
1.0
171
     0
 49
0.0008202099737533
 49
0.0
 49
0.0
 49
0.0
 49
0.0
 49
0.0008202099737533
 49
0.0
 49
0.0
 49
0.0
 49
0.0
 49
1.0
 49
0.0
 49
0.0
 49
0.0
 49
0.0
 49
1.0
175
     0
142
0.0008202099737533
142
0.0
142
0.0
142
0.0
142
0.0
142
0.0008202099737533
142
0.0
142
0.0
142
0.0
142
0.0
142
1.0
142
0.0
142
0.0
142
0.0
142
0.0
142
1.0
179
     0
144
0.0008202099737533
144
0.0
144
0.0
144
0.0
144
0.0
144
0.0008202099737533
144
0.0
144
0.0
144
0.0
144
0.0
144
1.0
144
0.0
144
0.0
144
0.0
144
0.0
144
1.0
147
0.0008202099737533
147
0.0
147
0.0
147
0.0
147
0.0
147
0.0008202099737533
147
0.0
147
0.0
147
0.0
147
0.0
147
1.0
147
0.0
147
0.0
147
0.0
147
0.0
147
1.0
  0
MLEADERSTYLE
  5
A73
102
{ACAD_XDICTIONARY
360
1497
102
}
102
{ACAD_REACTORS
330
A72
102
}
330
A72
100
AcDbMLeaderStyle
179
     2
170
     2
171
     1
172
     0
 90
        2
 40
0.0
 41
0.0
173
     1
 91
-1056964608
340
14
 92
       -2
290
     1
 42
2.0
291
     1
 43
0.36
  3
Standard
 44
4.0
300

342
10
174
     1
178
     6
175
     1
176
     0
 93
-1056964608
 45
4.0
292
     0
297
     0
 46
4.0
 94
-1056964608
 47
1.0
 49
1.0
140
1.0
293
     1
141
0.0
294
     1
177
     0
142
1.0
295
     0
296
     0
143
0.125
271
     0
272
     9
273
     9
298
     1
  0
MLINESTYLE
  5
13
102
{ACAD_REACTORS
330
E
102
}
330
E
100
AcDbMlineStyle
  2
STANDARD
 70
     0
  3

 62
     0
 51
90.0
 52
90.0
 71
     2
 49
0.5
 62
   256
  6
BYLAYER
 49
-0.5
 62
   256
  6
BYLAYER
  0
PLOTSETTINGS
  5
2C89
102
{ACAD_REACTORS
330
168
102
}
330
168
100
AcDbPlotSettings
  1
Setup1
  2
none_device
  4
ISO_A4_(210.00_x_297.00_MM)
  6

 40
7.5
 41
20.0
 42
7.5
 43
20.0
 44
210.0
 45
297.0
 46
0.0
 47
0.0
 48
0.0
 49
0.0
140
0.0
141
0.0
142
1.0
143
2.0
 70
   688
 72
     1
 73
     1
 74
     5
  7
@Layout.ctb
 75
    17
147
0.5
 76
     0
 77
     2
 78
   300
148
0.0
149
0.0
1001
ACAD_PSEXT
1000
None
1000
None
1000
Not applicable
1000
The layout will not be plotted unless a new plotter configuration name is selected.
1070
     0
  0
ACDBPLACEHOLDER
  5
166
102
{ACAD_REACTORS
330
165
102
}
330
165
  0
SCALE
  5
A61
102
{ACAD_REACTORS
330
A60
102
}
330
A60
100
AcDbScale
 70
     0
300
1:1
140
1.0
141
1.0
290
     1
  0
SCALE
  5
A62
102
{ACAD_REACTORS
330
A60
102
}
330
A60
100
AcDbScale
 70
     0
300
1:2
140
1.0
141
2.0
290
     0
  0
SCALE
  5
A63
102
{ACAD_REACTORS
330
A60
102
}
330
A60
100
AcDbScale
 70
     0
300
1:4
140
1.0
141
4.0
290
     0
  0
SCALE
  5
A64
102
{ACAD_REACTORS
330
A60
102
}
330
A60
100
AcDbScale
 70
     0
300
1:5
140
1.0
141
5.0
290
     0
  0
SCALE
  5
A65
102
{ACAD_REACTORS
330
A60
102
}
330
A60
100
AcDbScale
 70
     0
300
1:8
140
1.0
141
8.0
290
     0
  0
SCALE
  5
A66
102
{ACAD_REACTORS
330
A60
102
}
330
A60
100
AcDbScale
 70
     0
300
1:10
140
1.0
141
10.0
290
     0
  0
SCALE
  5
A67
102
{ACAD_REACTORS
330
A60
102
}
330
A60
100
AcDbScale
 70
     0
300
1:16
140
1.0
141
16.0
290
     0
  0
SCALE
  5
A68
102
{ACAD_REACTORS
330
A60
102
}
330
A60
100
AcDbScale
 70
     0
300
1:20
140
1.0
141
20.0
290
     0
  0
SCALE
  5
A69
102
{ACAD_REACTORS
330
A60
102
}
330
A60
100
AcDbScale
 70
     0
300
1:30
140
1.0
141
30.0
290
     0
  0
SCALE
  5
A6A
102
{ACAD_REACTORS
330
A60
102
}
330
A60
100
AcDbScale
 70
     0
300
1:40
140
1.0
141
40.0
290
     0
  0
SCALE
  5
A6B
102
{ACAD_REACTORS
330
A60
102
}
330
A60
100
AcDbScale
 70
     0
300
1:50
140
1.0
141
50.0
290
     0
  0
SCALE
  5
A6C
102
{ACAD_REACTORS
330
A60
102
}
330
A60
100
AcDbScale
 70
     0
300
1:100
140
1.0
141
100.0
290
     0
  0
SCALE
  5
A6D
102
{ACAD_REACTORS
330
A60
102
}
330
A60
100
AcDbScale
 70
     0
300
2:1
140
2.0
141
1.0
290
     0
  0
SCALE
  5
A6E
102
{ACAD_REACTORS
330
A60
102
}
330
A60
100
AcDbScale
 70
     0
300
4:1
140
4.0
141
1.0
290
     0
  0
SCALE
  5
A6F
102
{ACAD_REACTORS
330
A60
102
}
330
A60
100
AcDbScale
 70
     0
300
8:1
140
8.0
141
1.0
290
     0
  0
SCALE
  5
A70
102
{ACAD_REACTORS
330
A60
102
}
330
A60
100
AcDbScale
 70
     0
300
10:1
140
10.0
141
1.0
290
     0
  0
SCALE
  5
A71
102
{ACAD_REACTORS
330
A60
102
}
330
A60
100
AcDbScale
 70
     0
300
100:1
140
100.0
141
1.0
290
     0
  0
ACDBSECTIONVIEWSTYLE
  5
10E5
102
{ACAD_XDICTIONARY
360
4323
102
}
102
{ACAD_REACTORS
330
CC9
330
3143
330
3152
102
}
330
CC9
100
AcDbModelDocViewStyle
 70
     0
  3
Imperial24
290
     0
100
AcDbSectionViewStyle
 70
     0
 71
     0
 90
       78
 71
     1
340
10
 62
   256
 40
0.24
340
0
340
0
 62
   256
 40
0.24
300
I, O, Q, S, X, Z
 40
0.48
 90
        3
 40
0.18
 90
        1
 71
     2
340
16
 90
       25
 62
   256
340
16
 90
       50
 62
   256
 40
0.24
 40
0.0
 40
0.24
 71
     3
340
10
 62
   256
 40
0.24
 90
        1
 40
0.75
 90
        1
300
%<\AcVar ViewType \f "%tc1">% %<\AcVar ViewSectionStartId>%-%<\AcVar ViewSectionEndId>%\PSCALE %<\AcVar ViewScale \f "%sn">%
 71
     4
 62
   256
 62
   257
300
ANSI31
 40
1.0
 90
        0
290
     0
290
     0
 90
        6
 40
0.0
 40
1.570796326794896
 40
0.2617993877991494
 40
1.308996938995747
 40
-0.2617993877991494
 40
1.832595714594046
  0
ACDBSECTIONVIEWSTYLE
  5
CCA
102
{ACAD_XDICTIONARY
360
431F
102
}
102
{ACAD_REACTORS
330
CC9
330
3145
330
3154
102
}
330
CC9
100
AcDbModelDocViewStyle
 70
     0
  3
Metric50
290
     0
100
AcDbSectionViewStyle
 70
     0
 71
     0
 90
      102
 71
     1
340
10
 62
   256
 40
5.0
340
0
340
0
 62
   256
 40
5.0
300
I, O, Q, S, X, Z
 40
10.0
 90
        0
 40
2.5
 90
        0
 71
     2
340
16
 90
       25
 62
   256
340
16
 90
       50
 62
   256
 40
5.0
 40
2.5
 40
5.0
 71
     3
340
10
 62
   256
 40
5.0
 90
        0
 40
15.0
 90
        1
300
%<\AcVar ViewSectionStartId>%-%<\AcVar ViewSectionEndId>% (%<\AcVar ViewScale \f "%sn">%)
 71
     4
 62
   256
 62
   257
300
ANSI31
 40
1.0
 90
        0
290
     0
290
     0
 90
        6
 40
0.0
 40
1.570796326794896
 40
0.2617993877991494
 40
1.308996938995747
 40
-0.2617993877991494
 40
1.832595714594046
  0
TABLESTYLE
  5
651
102
{ACAD_XDICTIONARY
360
AED
102
}
102
{ACAD_REACTORS
330
650
102
}
330
650
100
AcDbTableStyle
280
     0
  3
Standard
 70
     0
 71
     0
 40
1.5
 41
1.5
280
     0
281
     0
  7
STANDARD
140
4.5
170
     2
 62
     0
 63
     7
283
     0
 90
        4
 91
        0
  1

274
    -2
284
     1
 64
     0
275
    -2
285
     1
 65
     0
276
    -2
286
     1
 66
     0
277
    -2
287
     1
 67
     0
278
    -2
288
     1
 68
     0
279
    -2
289
     1
 69
     0
  7
STANDARD
140
6.0
170
     5
 62
     0
 63
     7
283
     0
 90
        4
 91
        0
  1

274
    -2
284
     1
 64
     0
275
    -2
285
     1
 65
     0
276
    -2
286
     1
 66
     0
277
    -2
287
     1
 67
     0
278
    -2
288
     1
 68
     0
279
    -2
289
     1
 69
     0
  7
STANDARD
140
4.5
170
     5
 62
     0
 63
     7
283
     0
 90
        4
 91
        0
  1

274
    -2
284
     1
 64
     0
275
    -2
285
     1
 65
     0
276
    -2
286
     1
 66
     0
277
    -2
287
     1
 67
     0
278
    -2
288
     1
 68
     0
279
    -2
289
     1
 69
     0
  0
VISUALSTYLE
  5
A55
102
{ACAD_REACTORS
330
A4F
102
}
330
A4F
100
AcDbVisualStyle
  2
2dWireframe
 70
     4
177
     3
291
     0
 70
    58
 90
        0
176
     1
 90
        2
176
     1
 90
        0
176
     1
 90
        0
176
     1
 40
0.6
176
     1
 40
30.0
176
     1
 62
     7
420
 16777215
176
     1
 90
        1
176
     1
 90
        4
176
     1
 62
     7
176
     1
 62
   257
176
     1
 90
        1
176
     1
 90
        1
176
     1
 40
1.0
176
     1
 90
        0
176
     1
 62
   257
176
     1
 40
1.0
176
     1
 90
        1
176
     1
 90
        6
176
     1
 90
        2
176
     1
 62
     7
176
     1
 90
        5
176
     1
 90
        0
176
     1
 90
        0
176
     1
290
     0
176
     1
 90
        1
176
     1
 40
0.0
176
     1
 90
        0
176
     1
290
     1
176
     1
290
     1
176
     1
290
     0
176
     1
290
     0
176
     1
290
     0
176
     1
290
     0
176
     1
290
     0
176
     1
290
     0
176
     1
290
     0
176
     1
 90
       50
176
     1
 40
0.0
176
     1
 40
1.0
176
     1
 90
        0
176
     1
 62
    18
420
        0
176
     1
 90
       50
176
     1
 90
        3
176
     1
 62
     5
420
      255
176
     1
290
     0
176
     1
 90
       50
176
     1
 90
       50
176
     1
 90
       50
176
     1
290
     0
176
     1
 90
       50
176
     1
 62
   256
176
     0
 40
1.0
176
     0
 90
        2
176
     1
  1
strokes_ogs.tif
176
     1
290
     0
176
     1
 40
1.0
176
     1
 40
1.0
176
     1
1001
ACAD
1000
AcDbSavedByObjectVersion
1070
     0
  0
VISUALSTYLE
  5
A57
102
{ACAD_REACTORS
330
A4F
102
}
330
A4F
100
AcDbVisualStyle
  2
3D Hidden
 70
     6
177
     3
291
     0
 70
    58
 90
        1
176
     1
 90
        2
176
     1
 90
        2
176
     1
 90
        0
176
     1
 40
0.6
176
     1
 40
30.0
176
     1
 62
     7
420
 16777215
176
     1
 90
        2
176
     1
 90
        2
176
     1
 62
     7
176
     1
 62
   257
176
     1
 90
        2
176
     1
 90
        1
176
     1
 40
40.0
176
     1
 90
        0
176
     1
 62
   257
176
     1
 40
1.0
176
     1
 90
        1
176
     1
 90
        6
176
     1
 90
        2
176
     1
 62
     7
176
     1
 90
        3
176
     1
 90
        0
176
     1
 90
        0
176
     1
290
     0
176
     1
 90
        1
176
     1
 40
0.0
176
     1
 90
        0
176
     1
290
     0
176
     1
290
     1
176
     1
290
     1
176
     1
290
     0
176
     1
290
     0
176
     1
290
     0
176
     1
290
     0
176
     1
290
     0
176
     1
290
     0
176
     1
 90
       50
176
     1
 40
0.0
176
     1
 40
1.0
176
     1
 90
        0
176
     1
 62
    18
420
        0
176
     1
 90
       50
176
     1
 90
        3
176
     1
 62
     5
420
      255
176
     1
290
     0
176
     1
 90
       50
176
     1
 90
       50
176
     1
 90
       50
176
     1
290
     0
176
     1
 90
       50
176
     1
 62
   256
176
     0
 40
1.0
176
     0
 90
        2
176
     1
  1
strokes_ogs.tif
176
     1
290
     0
176
     1
 40
1.0
176
     1
 40
1.0
176
     1
1001
ACAD
1000
AcDbSavedByObjectVersion
1070
     0
  0
VISUALSTYLE
  5
A56
102
{ACAD_REACTORS
330
A4F
102
}
330
A4F
100
AcDbVisualStyle
  2
3dWireframe
 70
     5
177
     3
291
     0
 70
    58
 90
        0
176
     1
 90
        2
176
     1
 90
        0
176
     1
 90
        0
176
     1
 40
0.6
176
     1
 40
30.0
176
     1
 62
     7
420
 16777215
176
     1
 90
        1
176
     1
 90
        4
176
     1
 62
     7
176
     1
 62
   257
176
     1
 90
        1
176
     1
 90
        1
176
     1
 40
1.0
176
     1
 90
        0
176
     1
 62
   257
176
     1
 40
1.0
176
     1
 90
        1
176
     1
 90
        6
176
     1
 90
        2
176
     1
 62
     7
176
     1
 90
        5
176
     1
 90
        0
176
     1
 90
        0
176
     1
290
     0
176
     1
 90
        1
176
     1
 40
0.0
176
     1
 90
        0
176
     1
290
     0
176
     1
290
     1
176
     1
290
     1
176
     1
290
     0
176
     1
290
     0
176
     1
290
     0
176
     1
290
     0
176
     1
290
     0
176
     1
290
     0
176
     1
 90
       50
176
     1
 40
0.0
176
     1
 40
1.0
176
     1
 90
        0
176
     1
 62
    18
420
        0
176
     1
 90
       50
176
     1
 90
        3
176
     1
 62
     5
420
      255
176
     1
290
     0
176
     1
 90
       50
176
     1
 90
       50
176
     1
 90
       50
176
     1
290
     0
176
     1
 90
       50
176
     1
 62
   256
176
     0
 40
1.0
176
     0
 90
        2
176
     1
  1
strokes_ogs.tif
176
     1
290
     0
176
     1
 40
1.0
176
     1
 40
1.0
176
     1
1001
ACAD
1000
AcDbSavedByObjectVersion
1070
     0
  0
VISUALSTYLE
  5
A54
102
{ACAD_REACTORS
330
A4F
102
}
330
A4F
100
AcDbVisualStyle
  2
Basic
 70
     7
177
     3
291
     1
 70
    58
 90
        1
176
     1
 90
        0
176
     1
 90
        1
176
     1
 90
        0
176
     1
 40
0.6
176
     1
 40
30.0
176
     1
 62
     7
420
 16777215
176
     1
 90
        0
176
     1
 90
        4
176
     1
 62
     7
176
     1
 62
   257
176
     1
 90
        1
176
     1
 90
        1
176
     1
 40
1.0
176
     1
 90
        8
176
     1
 62
     7
176
     1
 40
1.0
176
     1
 90
        1
176
     1
 90
        6
176
     1
 90
        2
176
     1
 62
     7
176
     1
 90
        5
176
     1
 90
        0
176
     1
 90
        0
176
     1
290
     0
176
     1
 90
        1
176
     1
 40
0.0
176
     1
 90
        0
176
     1
290
     0
176
     1
290
     1
176
     1
290
     1
176
     1
290
     0
176
     1
290
     0
176
     1
290
     0
176
     1
290
     0
176
     1
290
     0
176
     1
290
     0
176
     1
 90
       50
176
     1
 40
0.0
176
     1
 40
1.0
176
     1
 90
        0
176
     1
 62
    18
420
        0
176
     1
 90
       50
176
     1
 90
        3
176
     1
 62
     5
420
      255
176
     1
290
     0
176
     1
 90
       50
176
     1
 90
       50
176
     1
 90
       50
176
     1
290
     0
176
     1
 90
       50
176
     1
 62
   256
176
     0
 40
1.0
176
     0
 90
        2
176
     1
  1
strokes_ogs.tif
176
     1
290
     0
176
     1
 40
1.0
176
     1
 40
1.0
176
     1
1001
ACAD
1000
AcDbSavedByObjectVersion
1070
     0
  0
VISUALSTYLE
  5
A5B
102
{ACAD_REACTORS
330
A4F
102
}
330
A4F
100
AcDbVisualStyle
  2
Brighten
 70
    12
177
     3
291
     1
 70
    58
 90
        2
176
     1
 90
        2
176
     1
 90
        0
176
     1
 90
        0
176
     1
 40
0.6
176
     1
 40
30.0
176
     1
 62
     7
420
 16777215
176
     1
 90
        1
176
     1
 90
        4
176
     1
 62
     7
176
     1
 62
   257
176
     1
 90
        1
176
     1
 90
        1
176
     1
 40
1.0
176
     1
 90
        8
176
     1
 62
     7
176
     1
 40
1.0
176
     1
 90
        1
176
     1
 90
        6
176
     1
 90
        2
176
     1
 62
     7
176
     1
 90
        5
176
     1
 90
        0
176
     1
 90
        0
176
     1
290
     0
176
     1
 90
        1
176
     1
 40
50.0
176
     1
 90
        0
176
     1
290
     0
176
     1
290
     1
176
     1
290
     1
176
     1
290
     0
176
     1
290
     0
176
     1
290
     0
176
     1
290
     0
176
     1
290
     0
176
     1
290
     0
176
     1
 90
       50
176
     1
 40
0.0
176
     1
 40
1.0
176
     1
 90
        0
176
     1
 62
    18
420
        0
176
     1
 90
       50
176
     1
 90
        3
176
     1
 62
     5
420
      255
176
     1
290
     0
176
     1
 90
       50
176
     1
 90
       50
176
     1
 90
       50
176
     1
290
     0
176
     1
 90
       50
176
     1
 62
   256
176
     0
 40
1.0
176
     0
 90
        2
176
     1
  1
strokes_ogs.tif
176
     1
290
     0
176
     1
 40
1.0
176
     1
 40
1.0
176
     1
1001
ACAD
1000
AcDbSavedByObjectVersion
1070
     0
  0
VISUALSTYLE
  5
A5F
102
{ACAD_REACTORS
330
A4F
102
}
330
A4F
100
AcDbVisualStyle
  2
ColorChange
 70
    16
177
     3
291
     1
 70
    58
 90
        2
176
     1
 90
        2
176
     1
 90
        3
176
     1
 90
        0
176
     1
 40
0.6
176
     1
 40
30.0
176
     1
 62
     8
420
  8421504
176
     1
 90
        1
176
     1
 90
        4
176
     1
 62
     7
176
     1
 62
   257
176
     1
 90
        1
176
     1
 90
        1
176
     1
 40
1.0
176
     1
 90
        8
176
     1
 62
     8
420
  8421504
176
     1
 40
1.0
176
     1
 90
        1
176
     1
 90
        6
176
     1
 90
        2
176
     1
 62
     7
176
     1
 90
        5
176
     1
 90
        0
176
     1
 90
        0
176
     1
290
     0
176
     1
 90
        1
176
     1
 40
0.0
176
     1
 90
        0
176
     1
290
     0
176
     1
290
     1
176
     1
290
     1
176
     1
290
     0
176
     1
290
     0
176
     1
290
     0
176
     1
290
     0
176
     1
290
     0
176
     1
290
     0
176
     1
 90
       50
176
     1
 40
0.0
176
     1
 40
1.0
176
     1
 90
        0
176
     1
 62
    18
420
        0
176
     1
 90
       50
176
     1
 90
        3
176
     1
 62
     5
420
      255
176
     1
290
     0
176
     1
 90
       50
176
     1
 90
       50
176
     1
 90
       50
176
     1
290
     0
176
     1
 90
       50
176
     1
 62
   256
176
     0
 40
1.0
176
     0
 90
        2
176
     1
  1
strokes_ogs.tif
176
     1
290
     0
176
     1
 40
1.0
176
     1
 40
1.0
176
     1
1001
ACAD
1000
AcDbSavedByObjectVersion
1070
     0
  0
VISUALSTYLE
  5
A58
102
{ACAD_REACTORS
330
A4F
102
}
330
A4F
100
AcDbVisualStyle
  2
Conceptual
 70
     9
177
     3
291
     0
 70
    58
 90
        3
176
     1
 90
        2
176
     1
 90
        0
176
     1
 90
        0
176
     1
 40
0.6
176
     1
 40
30.0
176
     1
 62
     7
420
 16777215
176
     1
 90
        2
176
     1
 90
        2
176
     1
 62
     7
176
     1
 62
   257
176
     1
 90
        1
176
     1
 90
        1
176
     1
 40
40.0
176
     1
 90
        8
176
     1
 62
     7
176
     1
 40
1.0
176
     1
 90
        1
176
     1
 90
        6
176
     1
 90
        2
176
     1
 62
     7
176
     1
 90
        3
176
     1
 90
        0
176
     1
 90
        0
176
     1
290
     0
176
     1
 90
        1
176
     1
 40
0.0
176
     1
 90
        0
176
     1
290
     0
176
     1
290
     1
176
     1
290
     1
176
     1
290
     0
176
     1
290
     0
176
     1
290
     0
176
     1
290
     0
176
     1
290
     0
176
     1
290
     0
176
     1
 90
       50
176
     1
 40
0.0
176
     1
 40
1.0
176
     1
 90
        0
176
     1
 62
    18
420
        0
176
     1
 90
       50
176
     1
 90
        3
176
     1
 62
     5
420
      255
176
     1
290
     0
176
     1
 90
       50
176
     1
 90
       50
176
     1
 90
       50
176
     1
290
     0
176
     1
 90
       50
176
     1
 62
   256
176
     0
 40
1.0
176
     0
 90
        2
176
     1
  1
strokes_ogs.tif
176
     1
290
     0
176
     1
 40
1.0
176
     1
 40
1.0
176
     1
1001
ACAD
1000
AcDbSavedByObjectVersion
1070
     0
  0
VISUALSTYLE
  5
A5A
102
{ACAD_REACTORS
330
A4F
102
}
330
A4F
100
AcDbVisualStyle
  2
Dim
 70
    11
177
     3
291
     1
 70
    58
 90
        2
176
     1
 90
        2
176
     1
 90
        0
176
     1
 90
        0
176
     1
 40
0.6
176
     1
 40
30.0
176
     1
 62
     7
420
 16777215
176
     1
 90
        1
176
     1
 90
        4
176
     1
 62
     7
176
     1
 62
   257
176
     1
 90
        1
176
     1
 90
        1
176
     1
 40
1.0
176
     1
 90
        8
176
     1
 62
     7
176
     1
 40
1.0
176
     1
 90
        1
176
     1
 90
        6
176
     1
 90
        2
176
     1
 62
     7
176
     1
 90
        5
176
     1
 90
        0
176
     1
 90
        0
176
     1
290
     0
176
     1
 90
        1
176
     1
 40
-50.0
176
     1
 90
        0
176
     1
290
     0
176
     1
290
     1
176
     1
290
     1
176
     1
290
     0
176
     1
290
     0
176
     1
290
     0
176
     1
290
     0
176
     1
290
     0
176
     1
290
     0
176
     1
 90
       50
176
     1
 40
0.0
176
     1
 40
1.0
176
     1
 90
        0
176
     1
 62
    18
420
        0
176
     1
 90
       50
176
     1
 90
        3
176
     1
 62
     5
420
      255
176
     1
290
     0
176
     1
 90
       50
176
     1
 90
       50
176
     1
 90
       50
176
     1
290
     0
176
     1
 90
       50
176
     1
 62
   256
176
     0
 40
1.0
176
     0
 90
        2
176
     1
  1
strokes_ogs.tif
176
     1
290
     0
176
     1
 40
1.0
176
     1
 40
1.0
176
     1
1001
ACAD
1000
AcDbSavedByObjectVersion
1070
     0
  0
VISUALSTYLE
  5
CC8
102
{ACAD_REACTORS
330
A4F
102
}
330
A4F
100
AcDbVisualStyle
  2
EdgeColorOff
 70
    22
177
     3
291
     1
 70
    58
 90
        2
176
     0
 90
        2
176
     0
 90
        0
176
     0
 90
        0
176
     0
 40
0.6
176
     0
 40
30.0
176
     0
 62
     7
420
 16777215
176
     0
 90
        1
176
     0
 90
        4
176
     0
 62
     7
176
     0
 62
   257
176
     0
 90
        1
176
     0
 90
        1
176
     0
 40
1.0
176
     0
 90
        8
176
     2
 62
     7
176
     0
 40
1.0
176
     0
 90
        1
176
     0
 90
        6
176
     0
 90
        2
176
     0
 62
     7
176
     0
 90
        5
176
     0
 90
        0
176
     0
 90
        0
176
     0
290
     0
176
     0
 90
        1
176
     0
 40
0.0
176
     0
 90
        0
176
     0
290
     0
176
     0
290
     1
176
     0
290
     1
176
     0
290
     0
176
     0
290
     0
176
     0
290
     0
176
     0
290
     0
176
     0
290
     0
176
     0
290
     0
176
     0
 90
       50
176
     0
 40
0.0
176
     0
 40
1.0
176
     0
 90
        0
176
     0
 62
    18
420
        0
176
     0
 90
       50
176
     0
 90
        3
176
     0
 62
     5
420
      255
176
     0
290
     0
176
     0
 90
       50
176
     0
 90
       50
176
     0
 90
       50
176
     0
290
     0
176
     0
 90
       50
176
     0
 62
   256
176
     0
 40
1.0
176
     0
 90
        2
176
     0
  1
strokes_ogs.tif
176
     0
290
     0
176
     0
 40
1.0
176
     0
 40
1.0
176
     0
1001
ACAD
1000
AcDbSavedByObjectVersion
1070
     0
  0
VISUALSTYLE
  5
A5E
102
{ACAD_REACTORS
330
A4F
102
}
330
A4F
100
AcDbVisualStyle
  2
Facepattern
 70
    15
177
     3
291
     1
 70
    58
 90
        2
176
     1
 90
        2
176
     1
 90
        0
176
     1
 90
        0
176
     1
 40
0.6
176
     1
 40
30.0
176
     1
 62
     7
420
 16777215
176
     1
 90
        1
176
     1
 90
        4
176
     1
 62
     7
176
     1
 62
   257
176
     1
 90
        1
176
     1
 90
        1
176
     1
 40
1.0
176
     1
 90
        8
176
     1
 62
     7
176
     1
 40
1.0
176
     1
 90
        1
176
     1
 90
        6
176
     1
 90
        2
176
     1
 62
     7
176
     1
 90
        5
176
     1
 90
        0
176
     1
 90
        0
176
     1
290
     0
176
     1
 90
        1
176
     1
 40
0.0
176
     1
 90
        0
176
     1
290
     0
176
     1
290
     1
176
     1
290
     1
176
     1
290
     0
176
     1
290
     0
176
     1
290
     0
176
     1
290
     0
176
     1
290
     0
176
     1
290
     0
176
     1
 90
       50
176
     1
 40
0.0
176
     1
 40
1.0
176
     1
 90
        0
176
     1
 62
    18
420
        0
176
     1
 90
       50
176
     1
 90
        3
176
     1
 62
     5
420
      255
176
     1
290
     0
176
     1
 90
       50
176
     1
 90
       50
176
     1
 90
       50
176
     1
290
     0
176
     1
 90
       50
176
     1
 62
   256
176
     0
 40
1.0
176
     0
 90
        2
176
     1
  1
strokes_ogs.tif
176
     1
290
     0
176
     1
 40
1.0
176
     1
 40
1.0
176
     1
1001
ACAD
1000
AcDbSavedByObjectVersion
1070
     0
  0
VISUALSTYLE
  5
A50
102
{ACAD_REACTORS
330
A4F
102
}
330
A4F
100
AcDbVisualStyle
  2
Flat
 70
     0
177
     3
291
     1
 70
    58
 90
        2
176
     1
 90
        1
176
     1
 90
        1
176
     1
 90
        2
176
     1
 40
0.6
176
     1
 40
30.0
176
     1
 62
     7
420
 16777215
176
     1
 90
        0
176
     1
 90
        4
176
     1
 62
     7
176
     1
 62
   257
176
     1
 90
        1
176
     1
 90
        1
176
     1
 40
1.0
176
     1
 90
        8
176
     1
 62
     7
176
     1
 40
1.0
176
     1
 90
        1
176
     1
 90
        6
176
     1
 90
        2
176
     1
 62
     7
176
     1
 90
        5
176
     1
 90
        0
176
     1
 90
        0
176
     1
290
     0
176
     1
 90
       13
176
     1
 40
0.0
176
     1
 90
        0
176
     1
290
     0
176
     1
290
     1
176
     1
290
     1
176
     1
290
     0
176
     1
290
     0
176
     1
290
     0
176
     1
290
     0
176
     1
290
     0
176
     1
290
     0
176
     1
 90
       50
176
     1
 40
0.0
176
     1
 40
1.0
176
     1
 90
        0
176
     1
 62
    18
420
        0
176
     1
 90
       50
176
     1
 90
        3
176
     1
 62
     5
420
      255
176
     1
290
     0
176
     1
 90
       50
176
     1
 90
       50
176
     1
 90
       50
176
     1
290
     0
176
     1
 90
       50
176
     1
 62
   256
176
     0
 40
1.0
176
     0
 90
        2
176
     1
  1
strokes_ogs.tif
176
     1
290
     0
176
     1
 40
1.0
176
     1
 40
1.0
176
     1
1001
ACAD
1000
AcDbSavedByObjectVersion
1070
     0
  0
VISUALSTYLE
  5
A51
102
{ACAD_REACTORS
330
A4F
102
}
330
A4F
100
AcDbVisualStyle
  2
FlatWithEdges
 70
     1
177
     3
291
     1
 70
    58
 90
        2
176
     1
 90
        1
176
     1
 90
        1
176
     1
 90
        2
176
     1
 40
0.6
176
     1
 40
30.0
176
     1
 62
     7
420
 16777215
176
     1
 90
        1
176
     1
 90
        4
176
     1
 62
     7
176
     1
 62
   257
176
     1
 90
        1
176
     1
 90
        1
176
     1
 40
1.0
176
     1
 90
        0
176
     1
 62
   257
176
     1
 40
1.0
176
     1
 90
        1
176
     1
 90
        6
176
     1
 90
        2
176
     1
 62
     7
176
     1
 90
        5
176
     1
 90
        0
176
     1
 90
        0
176
     1
290
     0
176
     1
 90
       13
176
     1
 40
0.0
176
     1
 90
        0
176
     1
290
     0
176
     1
290
     1
176
     1
290
     1
176
     1
290
     0
176
     1
290
     0
176
     1
290
     0
176
     1
290
     0
176
     1
290
     0
176
     1
290
     0
176
     1
 90
       50
176
     1
 40
0.0
176
     1
 40
1.0
176
     1
 90
        0
176
     1
 62
    18
420
        0
176
     1
 90
       50
176
     1
 90
        3
176
     1
 62
     5
420
      255
176
     1
290
     0
176
     1
 90
       50
176
     1
 90
       50
176
     1
 90
       50
176
     1
290
     0
176
     1
 90
       50
176
     1
 62
   256
176
     0
 40
1.0
176
     0
 90
        2
176
     1
  1
strokes_ogs.tif
176
     1
290
     0
176
     1
 40
1.0
176
     1
 40
1.0
176
     1
1001
ACAD
1000
AcDbSavedByObjectVersion
1070
     0
  0
VISUALSTYLE
  5
A52
102
{ACAD_REACTORS
330
A4F
102
}
330
A4F
100
AcDbVisualStyle
  2
Gouraud
 70
     2
177
     3
291
     1
 70
    58
 90
        2
176
     1
 90
        2
176
     1
 90
        1
176
     1
 90
        2
176
     1
 40
0.6
176
     1
 40
30.0
176
     1
 62
     7
420
 16777215
176
     1
 90
        0
176
     1
 90
        4
176
     1
 62
     7
176
     1
 62
   257
176
     1
 90
        1
176
     1
 90
        1
176
     1
 40
1.0
176
     1
 90
        0
176
     1
 62
     7
176
     1
 40
1.0
176
     1
 90
        1
176
     1
 90
        6
176
     1
 90
        2
176
     1
 62
     7
176
     1
 90
        5
176
     1
 90
        0
176
     1
 90
        0
176
     1
290
     0
176
     1
 90
       13
176
     1
 40
0.0
176
     1
 90
        0
176
     1
290
     0
176
     1
290
     1
176
     1
290
     1
176
     1
290
     0
176
     1
290
     0
176
     1
290
     0
176
     1
290
     0
176
     1
290
     0
176
     1
290
     0
176
     1
 90
       50
176
     1
 40
0.0
176
     1
 40
1.0
176
     1
 90
        0
176
     1
 62
    18
420
        0
176
     1
 90
       50
176
     1
 90
        3
176
     1
 62
     5
420
      255
176
     1
290
     0
176
     1
 90
       50
176
     1
 90
       50
176
     1
 90
       50
176
     1
290
     0
176
     1
 90
       50
176
     1
 62
   256
176
     0
 40
1.0
176
     0
 90
        2
176
     1
  1
strokes_ogs.tif
176
     1
290
     0
176
     1
 40
1.0
176
     1
 40
1.0
176
     1
1001
ACAD
1000
AcDbSavedByObjectVersion
1070
     0
  0
VISUALSTYLE
  5
A53
102
{ACAD_REACTORS
330
A4F
102
}
330
A4F
100
AcDbVisualStyle
  2
GouraudWithEdges
 70
     3
177
     3
291
     1
 70
    58
 90
        2
176
     1
 90
        2
176
     1
 90
        1
176
     1
 90
        2
176
     1
 40
0.6
176
     1
 40
30.0
176
     1
 62
     7
420
 16777215
176
     1
 90
        1
176
     1
 90
        4
176
     1
 62
     7
176
     1
 62
   257
176
     1
 90
        1
176
     1
 90
        1
176
     1
 40
1.0
176
     1
 90
        0
176
     1
 62
   257
176
     1
 40
1.0
176
     1
 90
        1
176
     1
 90
        6
176
     1
 90
        2
176
     1
 62
     7
176
     1
 90
        5
176
     1
 90
        0
176
     1
 90
        0
176
     1
290
     0
176
     1
 90
       13
176
     1
 40
0.0
176
     1
 90
        0
176
     1
290
     0
176
     1
290
     1
176
     1
290
     1
176
     1
290
     0
176
     1
290
     0
176
     1
290
     0
176
     1
290
     0
176
     1
290
     0
176
     1
290
     0
176
     1
 90
       50
176
     1
 40
0.0
176
     1
 40
1.0
176
     1
 90
        0
176
     1
 62
    18
420
        0
176
     1
 90
       50
176
     1
 90
        3
176
     1
 62
     5
420
      255
176
     1
290
     0
176
     1
 90
       50
176
     1
 90
       50
176
     1
 90
       50
176
     1
290
     0
176
     1
 90
       50
176
     1
 62
   256
176
     0
 40
1.0
176
     0
 90
        2
176
     1
  1
strokes_ogs.tif
176
     1
290
     0
176
     1
 40
1.0
176
     1
 40
1.0
176
     1
1001
ACAD
1000
AcDbSavedByObjectVersion
1070
     0
  0
VISUALSTYLE
  5
CC0
102
{ACAD_REACTORS
330
A4F
102
}
330
A4F
100
AcDbVisualStyle
  2
Hidden
 70
     6
177
     3
291
     0
 70
    58
 90
        1
176
     1
 90
        2
176
     1
 90
        2
176
     1
 90
        0
176
     1
 40
0.6
176
     1
 40
30.0
176
     1
 62
     7
420
 16777215
176
     1
 90
        2
176
     1
 90
        2
176
     1
 62
     7
176
     1
 62
   257
176
     1
 90
        2
176
     1
 90
        1
176
     1
 40
40.0
176
     1
 90
        0
176
     1
 62
   257
176
     1
 40
1.0
176
     1
 90
        1
176
     1
 90
        6
176
     1
 90
        2
176
     1
 62
     7
176
     1
 90
        3
176
     1
 90
        0
176
     1
 90
        0
176
     1
290
     0
176
     1
 90
        1
176
     1
 40
0.0
176
     1
 90
        0
176
     1
290
     0
176
     1
290
     1
176
     1
290
     1
176
     1
290
     0
176
     1
290
     0
176
     1
290
     0
176
     1
290
     0
176
     1
290
     0
176
     1
290
     0
176
     1
 90
       50
176
     1
 40
0.0
176
     1
 40
1.0
176
     1
 90
        0
176
     1
 62
    18
420
        0
176
     1
 90
       50
176
     1
 90
        3
176
     1
 62
     5
420
      255
176
     1
290
     0
176
     1
 90
       50
176
     1
 90
       50
176
     1
 90
       50
176
     1
290
     0
176
     1
 90
       50
176
     1
 62
   256
176
     0
 40
1.0
176
     0
 90
        2
176
     1
  1
strokes_ogs.tif
176
     1
290
     0
176
     1
 40
1.0
176
     1
 40
1.0
176
     1
1001
ACAD
1000
AcDbSavedByObjectVersion
1070
     0
  0
VISUALSTYLE
  5
CC6
102
{ACAD_REACTORS
330
A4F
102
}
330
A4F
100
AcDbVisualStyle
  2
JitterOff
 70
    20
177
     3
291
     1
 70
    58
 90
        2
176
     0
 90
        2
176
     0
 90
        0
176
     0
 90
        0
176
     0
 40
0.6
176
     0
 40
30.0
176
     0
 62
     7
420
 16777215
176
     0
 90
        1
176
     0
 90
        4
176
     0
 62
     7
176
     0
 62
   257
176
     0
 90
        1
176
     0
 90
        1
176
     0
 40
1.0
176
     0
 90
       10
176
     2
 62
     7
176
     0
 40
1.0
176
     0
 90
        1
176
     0
 90
        6
176
     0
 90
        2
176
     0
 62
     7
176
     0
 90
        5
176
     0
 90
        0
176
     0
 90
        0
176
     0
290
     0
176
     0
 90
        1
176
     0
 40
0.0
176
     0
 90
        0
176
     0
290
     0
176
     0
290
     1
176
     0
290
     1
176
     0
290
     0
176
     0
290
     0
176
     0
290
     0
176
     0
290
     0
176
     0
290
     0
176
     0
290
     0
176
     0
 90
       50
176
     0
 40
0.0
176
     0
 40
1.0
176
     0
 90
        0
176
     0
 62
    18
420
        0
176
     0
 90
       50
176
     0
 90
        3
176
     0
 62
     5
420
      255
176
     0
290
     0
176
     0
 90
       50
176
     0
 90
       50
176
     0
 90
       50
176
     0
290
     0
176
     0
 90
       50
176
     0
 62
   256
176
     0
 40
1.0
176
     0
 90
        2
176
     0
  1
strokes_ogs.tif
176
     0
290
     0
176
     0
 40
1.0
176
     0
 40
1.0
176
     0
1001
ACAD
1000
AcDbSavedByObjectVersion
1070
     0
  0
VISUALSTYLE
  5
A5D
102
{ACAD_REACTORS
330
A4F
102
}
330
A4F
100
AcDbVisualStyle
  2
Linepattern
 70
    14
177
     3
291
     1
 70
    58
 90
        2
176
     1
 90
        2
176
     1
 90
        0
176
     1
 90
        0
176
     1
 40
0.6
176
     1
 40
30.0
176
     1
 62
     7
420
 16777215
176
     1
 90
        1
176
     1
 90
        4
176
     1
 62
     7
176
     1
 62
   257
176
     1
 90
        7
176
     1
 90
        7
176
     1
 40
1.0
176
     1
 90
        8
176
     1
 62
     7
176
     1
 40
1.0
176
     1
 90
        1
176
     1
 90
        6
176
     1
 90
        2
176
     1
 62
     7
176
     1
 90
        5
176
     1
 90
        0
176
     1
 90
        0
176
     1
290
     0
176
     1
 90
        1
176
     1
 40
0.0
176
     1
 90
        0
176
     1
290
     0
176
     1
290
     1
176
     1
290
     1
176
     1
290
     0
176
     1
290
     0
176
     1
290
     0
176
     1
290
     0
176
     1
290
     0
176
     1
290
     0
176
     1
 90
       50
176
     1
 40
0.0
176
     1
 40
1.0
176
     1
 90
        0
176
     1
 62
    18
420
        0
176
     1
 90
       50
176
     1
 90
        3
176
     1
 62
     5
420
      255
176
     1
290
     0
176
     1
 90
       50
176
     1
 90
       50
176
     1
 90
       50
176
     1
290
     0
176
     1
 90
       50
176
     1
 62
   256
176
     0
 40
1.0
176
     0
 90
        2
176
     1
  1
strokes_ogs.tif
176
     1
290
     0
176
     1
 40
1.0
176
     1
 40
1.0
176
     1
1001
ACAD
1000
AcDbSavedByObjectVersion
1070
     0
  0
VISUALSTYLE
  5
CC7
102
{ACAD_REACTORS
330
A4F
102
}
330
A4F
100
AcDbVisualStyle
  2
OverhangOff
 70
    21
177
     3
291
     1
 70
    58
 90
        2
176
     0
 90
        2
176
     0
 90
        0
176
     0
 90
        0
176
     0
 40
0.6
176
     0
 40
30.0
176
     0
 62
     7
420
 16777215
176
     0
 90
        1
176
     0
 90
        4
176
     0
 62
     7
176
     0
 62
   257
176
     0
 90
        1
176
     0
 90
        1
176
     0
 40
1.0
176
     0
 90
        9
176
     2
 62
     7
176
     0
 40
1.0
176
     0
 90
        1
176
     0
 90
        6
176
     0
 90
        2
176
     0
 62
     7
176
     0
 90
        5
176
     0
 90
        0
176
     0
 90
        0
176
     0
290
     0
176
     0
 90
        1
176
     0
 40
0.0
176
     0
 90
        0
176
     0
290
     0
176
     0
290
     1
176
     0
290
     1
176
     0
290
     0
176
     0
290
     0
176
     0
290
     0
176
     0
290
     0
176
     0
290
     0
176
     0
290
     0
176
     0
 90
       50
176
     0
 40
0.0
176
     0
 40
1.0
176
     0
 90
        0
176
     0
 62
    18
420
        0
176
     0
 90
       50
176
     0
 90
        3
176
     0
 62
     5
420
      255
176
     0
290
     0
176
     0
 90
       50
176
     0
 90
       50
176
     0
 90
       50
176
     0
290
     0
176
     0
 90
       50
176
     0
 62
   256
176
     0
 40
1.0
176
     0
 90
        2
176
     0
  1
strokes_ogs.tif
176
     0
290
     0
176
     0
 40
1.0
176
     0
 40
1.0
176
     0
1001
ACAD
1000
AcDbSavedByObjectVersion
1070
     0
  0
VISUALSTYLE
  5
A59
102
{ACAD_REACTORS
330
A4F
102
}
330
A4F
100
AcDbVisualStyle
  2
Realistic
 70
     8
177
     3
291
     0
 70
    58
 90
        2
176
     1
 90
        2
176
     1
 90
        0
176
     1
 90
        0
176
     1
 40
0.6
176
     1
 40
30.0
176
     1
 62
     7
420
 16777215
176
     1
 90
        1
176
     1
 90
        0
176
     1
 62
     7
176
     1
 62
   257
176
     1
 90
        1
176
     1
 90
        1
176
     1
 40
1.0
176
     1
 90
        8
176
     1
 62
     8
420
  7895160
176
     1
 40
1.0
176
     1
 90
        1
176
     1
 90
        6
176
     1
 90
        2
176
     1
 62
     7
176
     1
 90
        5
176
     1
 90
        0
176
     1
 90
        0
176
     1
290
     0
176
     1
 90
       13
176
     1
 40
0.0
176
     1
 90
        0
176
     1
290
     0
176
     1
290
     1
176
     1
290
     1
176
     1
290
     0
176
     1
290
     0
176
     1
290
     0
176
     1
290
     0
176
     1
290
     0
176
     1
290
     0
176
     1
 90
       50
176
     1
 40
0.0
176
     1
 40
1.0
176
     1
 90
        0
176
     1
 62
    18
420
        0
176
     1
 90
       50
176
     1
 90
        3
176
     1
 62
     5
420
      255
176
     1
290
     0
176
     1
 90
       50
176
     1
 90
       50
176
     1
 90
       50
176
     1
290
     0
176
     1
 90
       50
176
     1
 62
   256
176
     0
 40
1.0
176
     0
 90
        2
176
     1
  1
strokes_ogs.tif
176
     1
290
     0
176
     1
 40
1.0
176
     1
 40
1.0
176
     1
1001
ACAD
1000
AcDbSavedByObjectVersion
1070
     0
  0
VISUALSTYLE
  5
CC5
102
{ACAD_REACTORS
330
A4F
102
}
330
A4F
100
AcDbVisualStyle
  2
Shaded
 70
    27
177
     3
291
     0
 70
    58
 90
        2
176
     1
 90
        2
176
     1
 90
        1
176
     1
 90
        2
176
     1
 40
0.6
176
     1
 40
30.0
176
     1
 62
     7
420
 16777215
176
     1
 90
        0
176
     1
 90
        4
176
     1
 62
     7
176
     1
 62
   257
176
     1
 90
        1
176
     1
 90
        1
176
     1
 40
1.0
176
     1
 90
        8
176
     1
 62
   257
176
     1
 40
1.0
176
     1
 90
        1
176
     1
 90
        6
176
     1
 90
        2
176
     1
 62
     8
420
  7895160
176
     1
 90
        3
176
     1
 90
        0
176
     1
 90
        0
176
     1
290
     0
176
     1
 90
        5
176
     1
 40
0.0
176
     1
 90
        0
176
     1
290
     0
176
     1
290
     1
176
     1
290
     1
176
     1
290
     0
176
     1
290
     0
176
     1
290
     0
176
     1
290
     0
176
     1
290
     0
176
     1
290
     0
176
     1
 90
       50
176
     1
 40
0.0
176
     1
 40
1.0
176
     1
 90
        0
176
     1
 62
    18
420
        0
176
     1
 90
       50
176
     1
 90
        3
176
     1
 62
     5
420
      255
176
     1
290
     0
176
     1
 90
       50
176
     1
 90
       50
176
     1
 90
       50
176
     1
290
     0
176
     1
 90
       50
176
     1
 62
   256
176
     0
 40
1.0
176
     0
 90
        2
176
     1
  1
strokes_ogs.tif
176
     1
290
     0
176
     1
 40
1.0
176
     1
 40
1.0
176
     1
1001
ACAD
1000
AcDbSavedByObjectVersion
1070
     0
  0
VISUALSTYLE
  5
CC4
102
{ACAD_REACTORS
330
A4F
102
}
330
A4F
100
AcDbVisualStyle
  2
Shaded with edges
 70
    26
177
     3
291
     0
 70
    58
 90
        2
176
     1
 90
        2
176
     1
 90
        1
176
     1
 90
        2
176
     1
 40
0.6
176
     1
 40
30.0
176
     1
 62
     7
420
 16777215
176
     1
 90
        1
176
     1
 90
        2
176
     1
 62
     7
176
     1
 62
   257
176
     1
 90
        2
176
     1
 90
        1
176
     1
 40
1.0
176
     1
 90
        8
176
     1
 62
   257
176
     1
 40
1.0
176
     1
 90
        1
176
     1
 90
        6
176
     1
 90
        2
176
     1
 62
     7
176
     1
 90
        3
176
     1
 90
        0
176
     1
 90
        0
176
     1
290
     0
176
     1
 90
        5
176
     1
 40
0.0
176
     1
 90
        0
176
     1
290
     0
176
     1
290
     1
176
     1
290
     1
176
     1
290
     0
176
     1
290
     0
176
     1
290
     0
176
     1
290
     0
176
     1
290
     0
176
     1
290
     0
176
     1
 90
       50
176
     1
 40
0.0
176
     1
 40
1.0
176
     1
 90
        0
176
     1
 62
    18
420
        0
176
     1
 90
       50
176
     1
 90
        3
176
     1
 62
     5
420
      255
176
     1
290
     0
176
     1
 90
       50
176
     1
 90
       50
176
     1
 90
       50
176
     1
290
     0
176
     1
 90
       50
176
     1
 62
   256
176
     0
 40
1.0
176
     0
 90
        2
176
     1
  1
strokes_ogs.tif
176
     1
290
     0
176
     1
 40
1.0
176
     1
 40
1.0
176
     1
1001
ACAD
1000
AcDbSavedByObjectVersion
1070
     0
  0
VISUALSTYLE
  5
CC1
102
{ACAD_REACTORS
330
A4F
102
}
330
A4F
100
AcDbVisualStyle
  2
Shades of Gray
 70
    23
177
     3
291
     0
 70
    58
 90
        2
176
     1
 90
        2
176
     1
 90
        3
176
     1
 90
        0
176
     1
 40
0.6
176
     1
 40
30.0
176
     1
 62
     7
420
 16777215
176
     1
 90
        2
176
     1
 90
        2
176
     1
 62
     7
176
     1
 62
     7
176
     1
 90
        1
176
     1
 90
        1
176
     1
 40
40.0
176
     1
 90
        8
176
     1
 62
     7
176
     1
 40
1.0
176
     1
 90
        1
176
     1
 90
        6
176
     1
 90
        2
176
     1
 62
     7
176
     1
 90
        3
176
     1
 90
        0
176
     1
 90
        0
176
     1
290
     0
176
     1
 90
        1
176
     1
 40
0.0
176
     1
 90
        0
176
     1
290
     0
176
     1
290
     1
176
     1
290
     1
176
     1
290
     0
176
     1
290
     0
176
     1
290
     0
176
     1
290
     0
176
     1
290
     0
176
     1
290
     0
176
     1
 90
       50
176
     1
 40
0.0
176
     1
 40
1.0
176
     1
 90
        0
176
     1
 62
    18
420
        0
176
     1
 90
       50
176
     1
 90
        3
176
     1
 62
     5
420
      255
176
     1
290
     0
176
     1
 90
       50
176
     1
 90
       50
176
     1
 90
       50
176
     1
290
     0
176
     1
 90
       50
176
     1
 62
   256
176
     0
 40
1.0
176
     0
 90
        2
176
     1
  1
strokes_ogs.tif
176
     1
290
     0
176
     1
 40
1.0
176
     1
 40
1.0
176
     1
1001
ACAD
1000
AcDbSavedByObjectVersion
1070
     0
  0
VISUALSTYLE
  5
CC2
102
{ACAD_REACTORS
330
A4F
102
}
330
A4F
100
AcDbVisualStyle
  2
Sketchy
 70
    24
177
     3
291
     0
 70
    58
 90
        1
176
     1
 90
        2
176
     1
 90
        2
176
     1
 90
        0
176
     1
 40
0.6
176
     1
 40
30.0
176
     1
 62
     7
420
 16777215
176
     1
 90
        2
176
     1
 90
        2
176
     1
 62
     7
176
     1
 62
     7
176
     1
 90
        1
176
     1
 90
        1
176
     1
 40
40.0
176
     1
 90
       11
176
     1
 62
     7
176
     1
 40
1.0
176
     1
 90
        1
176
     1
 90
        6
176
     1
 90
        2
176
     1
 62
     7
176
     1
 90
        6
176
     1
 90
        0
176
     1
 90
        0
176
     1
290
     0
176
     1
 90
        1
176
     1
 40
0.0
176
     1
 90
        0
176
     1
290
     0
176
     1
290
     1
176
     1
290
     1
176
     1
290
     0
176
     1
290
     0
176
     1
290
     0
176
     1
290
     0
176
     1
290
     0
176
     1
290
     0
176
     1
 90
       50
176
     1
 40
0.0
176
     1
 40
1.0
176
     1
 90
        0
176
     1
 62
    18
420
        0
176
     1
 90
       50
176
     1
 90
        3
176
     1
 62
     5
420
      255
176
     1
290
     0
176
     1
 90
       50
176
     1
 90
       50
176
     1
 90
       50
176
     1
290
     0
176
     1
 90
       50
176
     1
 62
   256
176
     0
 40
1.0
176
     0
 90
        2
176
     1
  1
strokes_ogs.tif
176
     1
290
     0
176
     1
 40
1.0
176
     1
 40
1.0
176
     1
1001
ACAD
1000
AcDbSavedByObjectVersion
1070
     0
  0
VISUALSTYLE
  5
A5C
102
{ACAD_REACTORS
330
A4F
102
}
330
A4F
100
AcDbVisualStyle
  2
Thicken
 70
    13
177
     3
291
     1
 70
    58
 90
        2
176
     1
 90
        2
176
     1
 90
        0
176
     1
 90
        0
176
     1
 40
0.6
176
     1
 40
30.0
176
     1
 62
     7
420
 16777215
176
     1
 90
        1
176
     1
 90
        4
176
     1
 62
     7
176
     1
 62
   257
176
     1
 90
        1
176
     1
 90
        1
176
     1
 40
1.0
176
     1
 90
       12
176
     1
 62
     7
176
     1
 40
1.0
176
     1
 90
        1
176
     1
 90
        6
176
     1
 90
        2
176
     1
 62
     7
176
     1
 90
        5
176
     1
 90
        0
176
     1
 90
        0
176
     1
290
     0
176
     1
 90
        1
176
     1
 40
0.0
176
     1
 90
        0
176
     1
290
     0
176
     1
290
     1
176
     1
290
     1
176
     1
290
     0
176
     1
290
     0
176
     1
290
     0
176
     1
290
     0
176
     1
290
     0
176
     1
290
     0
176
     1
 90
       50
176
     1
 40
0.0
176
     1
 40
1.0
176
     1
 90
        0
176
     1
 62
    18
420
        0
176
     1
 90
       50
176
     1
 90
        3
176
     1
 62
     5
420
      255
176
     1
290
     0
176
     1
 90
       50
176
     1
 90
       50
176
     1
 90
       50
176
     1
290
     0
176
     1
 90
       50
176
     1
 62
   256
176
     0
 40
1.0
176
     0
 90
        2
176
     1
  1
strokes_ogs.tif
176
     1
290
     0
176
     1
 40
1.0
176
     1
 40
1.0
176
     1
1001
ACAD
1000
AcDbSavedByObjectVersion
1070
     0
  0
VISUALSTYLE
  5
CBF
102
{ACAD_REACTORS
330
A4F
102
}
330
A4F
100
AcDbVisualStyle
  2
Wireframe
 70
     5
177
     3
291
     0
 70
    58
 90
        0
176
     1
 90
        2
176
     1
 90
        0
176
     1
 90
        0
176
     1
 40
0.6
176
     1
 40
30.0
176
     1
 62
     7
420
 16777215
176
     1
 90
        1
176
     1
 90
        4
176
     1
 62
     7
176
     1
 62
   257
176
     1
 90
        1
176
     1
 90
        1
176
     1
 40
1.0
176
     1
 90
        0
176
     1
 62
   257
176
     1
 40
1.0
176
     1
 90
        1
176
     1
 90
        6
176
     1
 90
        2
176
     1
 62
     7
176
     1
 90
        3
176
     1
 90
        0
176
     1
 90
        0
176
     1
290
     0
176
     1
 90
        1
176
     1
 40
0.0
176
     1
 90
        0
176
     1
290
     0
176
     1
290
     1
176
     1
290
     1
176
     1
290
     0
176
     1
290
     0
176
     1
290
     0
176
     1
290
     0
176
     1
290
     0
176
     1
290
     0
176
     1
 90
       50
176
     1
 40
0.0
176
     1
 40
1.0
176
     1
 90
        0
176
     1
 62
    18
420
        0
176
     1
 90
       50
176
     1
 90
        3
176
     1
 62
     5
420
      255
176
     1
290
     0
176
     1
 90
       50
176
     1
 90
       50
176
     1
 90
       50
176
     1
290
     0
176
     1
 90
       50
176
     1
 62
   256
176
     0
 40
1.0
176
     0
 90
        2
176
     1
  1
strokes_ogs.tif
176
     1
290
     0
176
     1
 40
1.0
176
     1
 40
1.0
176
     1
1001
ACAD
1000
AcDbSavedByObjectVersion
1070
     0
  0
VISUALSTYLE
  5
CC3
102
{ACAD_REACTORS
330
A4F
102
}
330
A4F
100
AcDbVisualStyle
  2
X-Ray
 70
    25
177
     3
291
     0
 70
    58
 90
        2
176
     1
 90
        2
176
     1
 90
        1
176
     1
 90
        1
176
     1
 40
0.5
176
     1
 40
30.0
176
     1
 62
     7
420
 16777215
176
     1
 90
        1
176
     1
 90
        0
176
     1
 62
     7
176
     1
 62
   257
176
     1
 90
        1
176
     1
 90
        1
176
     1
 40
1.0
176
     1
 90
        8
176
     1
 62
     7
176
     1
 40
1.0
176
     1
 90
        1
176
     1
 90
        6
176
     1
 90
        2
176
     1
 62
     7
176
     1
 90
        3
176
     1
 90
        0
176
     1
 90
        0
176
     1
290
     0
176
     1
 90
       13
176
     1
 40
0.0
176
     1
 90
        0
176
     1
290
     0
176
     1
290
     1
176
     1
290
     1
176
     1
290
     0
176
     1
290
     0
176
     1
290
     0
176
     1
290
     0
176
     1
290
     0
176
     1
290
     0
176
     1
 90
       50
176
     1
 40
0.0
176
     1
 40
1.0
176
     1
 90
        0
176
     1
 62
    18
420
        0
176
     1
 90
       50
176
     1
 90
        3
176
     1
 62
     5
420
      255
176
     1
290
     0
176
     1
 90
       50
176
     1
 90
       50
176
     1
 90
       50
176
     1
290
     0
176
     1
 90
       50
176
     1
 62
   256
176
     0
 40
1.0
176
     0
 90
        2
176
     1
  1
strokes_ogs.tif
176
     1
290
     0
176
     1
 40
1.0
176
     1
 40
1.0
176
     1
1001
ACAD
1000
AcDbSavedByObjectVersion
1070
     0
  0
DICTIONARYVAR
  5
AF4
102
{ACAD_REACTORS
330
5D
102
}
330
5D
100
DictionaryVariables
280
     0
  1
1:1
  0
DICTIONARYVAR
  5
AF2
102
{ACAD_REACTORS
330
5D
102
}
330
5D
100
DictionaryVariables
280
     0
  1
STANDARD
  0
DICTIONARYVAR
  5
66F
102
{ACAD_REACTORS
330
5D
102
}
330
5D
100
DictionaryVariables
280
     0
  1
STANDARD
  0
DICTIONARYVAR
  5
FFA
102
{ACAD_REACTORS
330
5D
102
}
330
5D
100
DictionaryVariables
280
     0
  1
Metric50
  0
DICTIONARYVAR
  5
FFB
102
{ACAD_REACTORS
330
5D
102
}
330
5D
100
DictionaryVariables
280
     0
  1
Metric50
  0
DICTIONARYVAR
  5
5E
102
{ACAD_REACTORS
330
5D
102
}
330
5D
100
DictionaryVariables
280
     0
  1
0
  0
DICTIONARYVAR
  5
3C7
102
{ACAD_REACTORS
330
5D
102
}
330
5D
100
DictionaryVariables
280
     0
  1
1
  0
DICTIONARYVAR
  5
128
102
{ACAD_REACTORS
330
5D
102
}
330
5D
100
DictionaryVariables
280
     0
  1
1
  0
DICTIONARYVAR
  5
AF6
102
{ACAD_REACTORS
330
5D
102
}
330
5D
100
DictionaryVariables
280
     0
  1
1
  0
DICTIONARYVAR
  5
AF7
102
{ACAD_REACTORS
330
5D
102
}
330
5D
100
DictionaryVariables
280
     0
  1
15
  0
DICTIONARYVAR
  5
AF5
102
{ACAD_REACTORS
330
5D
102
}
330
5D
100
DictionaryVariables
280
     0
  1
0
  0
DICTIONARYVAR
  5
AF3
102
{ACAD_REACTORS
330
5D
102
}
330
5D
100
DictionaryVariables
280
     0
  1
0
  0
DICTIONARY
  5
431E
102
{ACAD_REACTORS
330
431C
102
}
330
431C
100
AcDbDictionary
281
     1
  0
DICTIONARY
  5
431D
102
{ACAD_REACTORS
330
431C
102
}
330
431C
100
AcDbDictionary
281
     1
  3
1626248503008
350
4316
  3
1626248503024
350
4317
  3
1626248503040
350
4318
  3
1626248503056
350
4319
  3
1626248503072
350
431A
  3
1626248503088
350
431B
  0
DICTIONARY
  5
143
102
{ACAD_REACTORS
330
142
102
}
330
142
100
AcDbDictionary
281
     1
  0
XRECORD
  5
47D
102
{ACAD_REACTORS
330
142
102
}
330
142
100
AcDbXrecord
280
     1
 90
-1056964608
  0
XRECORD
  5
84B
102
{ACAD_REACTORS
330
849
102
}
330
849
100
AcDbXrecord
280
     1
  0
DICTIONARY
  5
13F3
102
{ACAD_REACTORS
330
13F2
102
}
330
13F2
100
AcDbDictionary
281
     1
  3
_HasBOM
350
13F9
  3
Comment
350
13F8
  3
Folder
350
13F7
  3
GEN-TITLE-DES1
350
13F5
  3
GEN-TITLE-DES2
350
13F6
  3
GEN-TITLE-NR
350
13F4
  0
LAYER_INDEX
  5
4305
102
{ACAD_REACTORS
330
4304
102
}
330
4304
100
AcDbIndex
 40
2460034.768194445
100
AcDbLayerIndex
  8
0
360
4306
 90
        0
  8
AM_0
360
4307
 90
        1
  8
Defpoints
360
4308
 90
        0
  8
DIM
360
4309
 90
        0
  0
DICTIONARY
  5
4325
330
10E8
100
AcDbDictionary
280
     1
281
     1
  3
ACAD_XREC_ROUNDTRIP
360
4326
  0
DICTIONARY
  5
4321
330
CCC
100
AcDbDictionary
280
     1
281
     1
  3
ACAD_XREC_ROUNDTRIP
360
4322
  0
DICTIONARY
  5
1474
330
169
100
AcDbDictionary
280
     1
281
     1
  0
DICTIONARY
  5
A40
330
A3F
100
AcDbDictionary
280
     1
281
     1
  3
BUMPTILE
360
A42
  3
DIFFUSETILE
360
A41
  3
OPACITYTILE
360
A45
  3
REFLECTIONTILE
360
A44
  3
REFRACTIONTILE
360
A46
  3
SPECULARTILE
360
A43
  0
DICTIONARY
  5
A38
330
A37
100
AcDbDictionary
280
     1
281
     1
  3
BUMPTILE
360
A3A
  3
DIFFUSETILE
360
A39
  3
OPACITYTILE
360
A3D
  3
REFLECTIONTILE
360
A3C
  3
REFRACTIONTILE
360
A3E
  3
SPECULARTILE
360
A3B
  0
DICTIONARY
  5
A48
330
A47
100
AcDbDictionary
280
     1
281
     1
  3
BUMPTILE
360
A4A
  3
DIFFUSETILE
360
A49
  3
OPACITYTILE
360
A4D
  3
REFLECTIONTILE
360
A4C
  3
REFRACTIONTILE
360
A4E
  3
SPECULARTILE
360
A4B
  0
DICTIONARY
  5
1497
330
A73
100
AcDbDictionary
280
     1
281
     1
  3
ACAD_XREC_ROUNDTRIP
360
1498
  0
DICTIONARY
  5
4323
330
10E5
100
AcDbDictionary
280
     1
281
     1
  3
ACAD_XREC_ROUNDTRIP
360
4324
  0
DICTIONARY
  5
431F
330
CCA
100
AcDbDictionary
280
     1
281
     1
  3
ACAD_XREC_ROUNDTRIP
360
4320
  0
DICTIONARY
  5
AED
330
651
100
AcDbDictionary
280
     1
281
     1
  3
ACAD_ROUNDTRIP_2008_TABLESTYLE_CELLSTYLEMAP
360
4314
  0
XRECORD
  5
4316
102
{ACAD_REACTORS
330
431D
102
}
330
431D
100
AcDbXrecord
280
     1
  1
AcDb3DSolid_ASM_Data
102
{ATTRRECORD
341
4318
  2
AcDbDs::TreatedAsObjectData
280
     1
291
     1
102
ATTRRECORD}
102
{ATTRRECORD
341
4319
  2
AcDbDs::Legacy
280
     1
291
     1
102
ATTRRECORD}
  2
AcDbDs::ID
280
    10
 91
        8
102
{ATTRRECORD
341
431A
  2
AcDs:Indexable
280
     1
291
     1
102
ATTRRECORD}
102
{ATTRRECORD
341
431B
  2
AcDbDs::HandleAttribute
280
     7
282
     1
102
ATTRRECORD}
  2
ASM_Data
280
    15
 91
        0
  0
XRECORD
  5
4317
102
{ACAD_REACTORS
330
431D
102
}
330
431D
100
AcDbXrecord
280
     1
  1
AcDb_Thumbnail_Schema
102
{ATTRRECORD
341
4318
  2
AcDbDs::TreatedAsObjectData
280
     1
291
     1
102
ATTRRECORD}
102
{ATTRRECORD
341
4319
  2
AcDbDs::Legacy
280
     1
291
     1
102
ATTRRECORD}
  2
AcDbDs::ID
280
    10
 91
        8
102
{ATTRRECORD
341
431A
  2
AcDs:Indexable
280
     1
291
     1
102
ATTRRECORD}
102
{ATTRRECORD
341
431B
  2
AcDbDs::HandleAttribute
280
     7
282
     1
102
ATTRRECORD}
  2
Thumbnail_Data
280
    15
 91
        0
  0
XRECORD
  5
4318
102
{ACAD_REACTORS
330
431D
102
}
330
431D
100
AcDbXrecord
280
     1
  1
AcDbDs::TreatedAsObjectDataSchema
  2
AcDbDs::TreatedAsObjectData
280
     1
 91
        0
  0
XRECORD
  5
4319
102
{ACAD_REACTORS
330
431D
102
}
330
431D
100
AcDbXrecord
280
     1
  1
AcDbDs::LegacySchema
  2
AcDbDs::Legacy
280
     1
 91
        0
  0
XRECORD
  5
431A
102
{ACAD_REACTORS
330
431D
102
}
330
431D
100
AcDbXrecord
280
     1
  1
AcDbDs::IndexedPropertySchema
  2
AcDs:Indexable
280
     1
 91
        0
  0
XRECORD
  5
431B
102
{ACAD_REACTORS
330
431D
102
}
330
431D
100
AcDbXrecord
280
     1
  1
AcDbDs::HandleAttributeSchema
  2
AcDbDs::HandleAttribute
280
     7
 91
        1
284
     1
  0
XRECORD
  5
13F9
102
{ACAD_REACTORS
330
13F3
102
}
330
13F3
100
AcDbXrecord
280
     1
  1
_HasBOM
  1
False
  0
XRECORD
  5
13F8
102
{ACAD_REACTORS
330
13F3
102
}
330
13F3
100
AcDbXrecord
280
     1
  1
Comment
  1

  0
XRECORD
  5
13F7
102
{ACAD_REACTORS
330
13F3
102
}
330
13F3
100
AcDbXrecord
280
     1
  1
Folder
  1

  0
XRECORD
  5
13F5
102
{ACAD_REACTORS
330
13F3
102
}
330
13F3
100
AcDbXrecord
280
     1
  1
GEN-TITLE-DES1
  1

  0
XRECORD
  5
13F6
102
{ACAD_REACTORS
330
13F3
102
}
330
13F3
100
AcDbXrecord
280
     1
  1
GEN-TITLE-DES2
  1

  0
XRECORD
  5
13F4
102
{ACAD_REACTORS
330
13F3
102
}
330
13F3
100
AcDbXrecord
280
     1
  1
GEN-TITLE-NR
  1

  0
IDBUFFER
  5
4306
330
0
100
AcDbIdBuffer
  0
IDBUFFER
  5
4307
330
0
100
AcDbIdBuffer
330
39EF
  0
IDBUFFER
  5
4308
330
0
100
AcDbIdBuffer
  0
IDBUFFER
  5
4309
330
0
100
AcDbIdBuffer
  0
XRECORD
  5
4326
102
{ACAD_REACTORS
330
4325
102
}
330
4325
100
AcDbXrecord
280
     1
102
DISPLAYNAME
  1
Imperial24
102
FLAGS
 90
        0
  0
XRECORD
  5
4322
102
{ACAD_REACTORS
330
4321
102
}
330
4321
100
AcDbXrecord
280
     1
102
DISPLAYNAME
  1
Metric50
102
FLAGS
 90
        0
  0
XRECORD
  5
A42
102
{ACAD_REACTORS
330
A40
102
}
330
A40
100
AcDbXrecord
280
     1
270
     1
271
     1
  0
XRECORD
  5
A41
102
{ACAD_REACTORS
330
A40
102
}
330
A40
100
AcDbXrecord
280
     1
270
     1
271
     1
  0
XRECORD
  5
A45
102
{ACAD_REACTORS
330
A40
102
}
330
A40
100
AcDbXrecord
280
     1
270
     1
271
     1
  0
XRECORD
  5
A44
102
{ACAD_REACTORS
330
A40
102
}
330
A40
100
AcDbXrecord
280
     1
270
     1
271
     1
  0
XRECORD
  5
A46
102
{ACAD_REACTORS
330
A40
102
}
330
A40
100
AcDbXrecord
280
     1
270
     1
271
     1
  0
XRECORD
  5
A43
102
{ACAD_REACTORS
330
A40
102
}
330
A40
100
AcDbXrecord
280
     1
270
     1
271
     1
  0
XRECORD
  5
A3A
102
{ACAD_REACTORS
330
A38
102
}
330
A38
100
AcDbXrecord
280
     1
270
     1
271
     1
  0
XRECORD
  5
A39
102
{ACAD_REACTORS
330
A38
102
}
330
A38
100
AcDbXrecord
280
     1
270
     1
271
     1
  0
XRECORD
  5
A3D
102
{ACAD_REACTORS
330
A38
102
}
330
A38
100
AcDbXrecord
280
     1
270
     1
271
     1
  0
XRECORD
  5
A3C
102
{ACAD_REACTORS
330
A38
102
}
330
A38
100
AcDbXrecord
280
     1
270
     1
271
     1
  0
XRECORD
  5
A3E
102
{ACAD_REACTORS
330
A38
102
}
330
A38
100
AcDbXrecord
280
     1
270
     1
271
     1
  0
XRECORD
  5
A3B
102
{ACAD_REACTORS
330
A38
102
}
330
A38
100
AcDbXrecord
280
     1
270
     1
271
     1
  0
XRECORD
  5
A4A
102
{ACAD_REACTORS
330
A48
102
}
330
A48
100
AcDbXrecord
280
     1
270
     1
271
     1
  0
XRECORD
  5
A49
102
{ACAD_REACTORS
330
A48
102
}
330
A48
100
AcDbXrecord
280
     1
270
     1
271
     1
  0
XRECORD
  5
A4D
102
{ACAD_REACTORS
330
A48
102
}
330
A48
100
AcDbXrecord
280
     1
270
     1
271
     1
  0
XRECORD
  5
A4C
102
{ACAD_REACTORS
330
A48
102
}
330
A48
100
AcDbXrecord
280
     1
270
     1
271
     1
  0
XRECORD
  5
A4E
102
{ACAD_REACTORS
330
A48
102
}
330
A48
100
AcDbXrecord
280
     1
270
     1
271
     1
  0
XRECORD
  5
A4B
102
{ACAD_REACTORS
330
A48
102
}
330
A48
100
AcDbXrecord
280
     1
270
     1
271
     1
  0
XRECORD
  5
1498
102
{ACAD_REACTORS
330
1497
102
}
330
1497
100
AcDbXrecord
280
     1
102
ACAD_ROUNDTRIP_2012_MLEADER_STYLE
298
     1
  0
XRECORD
  5
4324
102
{ACAD_REACTORS
330
4323
102
}
330
4323
100
AcDbXrecord
280
     1
102
DISPLAYNAME
  1
Imperial24
102
FLAGS
 90
        0
  0
XRECORD
  5
4320
102
{ACAD_REACTORS
330
431F
102
}
330
431F
100
AcDbXrecord
280
     1
102
DISPLAYNAME
  1
Metric50
102
FLAGS
 90
        0
  0
CELLSTYLEMAP
  5
4314
102
{ACAD_REACTORS
330
AED
102
}
330
AED
100
AcDbCellStyleMap
 90
        3
300
CELLSTYLE
  1
TABLEFORMAT_BEGIN
 90
        5
170
     1
 91
        0
 92
    32768
 62
   257
 93
        1
300
CONTENTFORMAT
  1
CONTENTFORMAT_BEGIN
 90
        0
 91
        0
 92
        4
 93
        0
300

 40
0.0
140
1.0
 94
        5
 62
     0
340
10
144
6.0
309
CONTENTFORMAT_END
171
     1
301
MARGIN
  1
CELLMARGIN_BEGIN
 40
1.5
 40
1.5
 40
1.5
 40
1.5
 40
0.18
 40
0.18
309
CELLMARGIN_END
 94
        6
 95
        1
302
GRIDFORMAT
  1
GRIDFORMAT_BEGIN
 90
        0
 91
        1
 62
     0
 92
       -2
340
0
 93
        0
 40
0.045
309
GRIDFORMAT_END
 95
        2
302
GRIDFORMAT
  1
GRIDFORMAT_BEGIN
 90
        0
 91
        1
 62
     0
 92
       -2
340
0
 93
        0
 40
0.045
309
GRIDFORMAT_END
 95
        4
302
GRIDFORMAT
  1
GRIDFORMAT_BEGIN
 90
        0
 91
        1
 62
     0
 92
       -2
340
0
 93
        0
 40
0.045
309
GRIDFORMAT_END
 95
        8
302
GRIDFORMAT
  1
GRIDFORMAT_BEGIN
 90
        0
 91
        1
 62
     0
 92
       -2
340
0
 93
        0
 40
0.045
309
GRIDFORMAT_END
 95
       16
302
GRIDFORMAT
  1
GRIDFORMAT_BEGIN
 90
        0
 91
        1
 62
     0
 92
       -2
340
0
 93
        0
 40
0.045
309
GRIDFORMAT_END
 95
       32
302
GRIDFORMAT
  1
GRIDFORMAT_BEGIN
 90
        0
 91
        1
 62
     0
 92
       -2
340
0
 93
        0
 40
0.045
309
GRIDFORMAT_END
309
TABLEFORMAT_END
  1
CELLSTYLE_BEGIN
 90
        1
 91
        1
300
_TITLE
309
CELLSTYLE_END
300
CELLSTYLE
  1
TABLEFORMAT_BEGIN
 90
        5
170
     1
 91
        0
 92
        0
 62
   257
 93
        1
300
CONTENTFORMAT
  1
CONTENTFORMAT_BEGIN
 90
        0
 91
        0
 92
        4
 93
        0
300

 40
0.0
140
1.0
 94
        5
 62
     0
340
10
144
4.5
309
CONTENTFORMAT_END
171
     1
301
MARGIN
  1
CELLMARGIN_BEGIN
 40
1.5
 40
1.5
 40
1.5
 40
1.5
 40
0.18
 40
0.18
309
CELLMARGIN_END
 94
        6
 95
        1
302
GRIDFORMAT
  1
GRIDFORMAT_BEGIN
 90
        0
 91
        1
 62
     0
 92
       -2
340
0
 93
        0
 40
0.045
309
GRIDFORMAT_END
 95
        2
302
GRIDFORMAT
  1
GRIDFORMAT_BEGIN
 90
        0
 91
        1
 62
     0
 92
       -2
340
0
 93
        0
 40
0.045
309
GRIDFORMAT_END
 95
        4
302
GRIDFORMAT
  1
GRIDFORMAT_BEGIN
 90
        0
 91
        1
 62
     0
 92
       -2
340
0
 93
        0
 40
0.045
309
GRIDFORMAT_END
 95
        8
302
GRIDFORMAT
  1
GRIDFORMAT_BEGIN
 90
        0
 91
        1
 62
     0
 92
       -2
340
0
 93
        0
 40
0.045
309
GRIDFORMAT_END
 95
       16
302
GRIDFORMAT
  1
GRIDFORMAT_BEGIN
 90
        0
 91
        1
 62
     0
 92
       -2
340
0
 93
        0
 40
0.045
309
GRIDFORMAT_END
 95
       32
302
GRIDFORMAT
  1
GRIDFORMAT_BEGIN
 90
        0
 91
        1
 62
     0
 92
       -2
340
0
 93
        0
 40
0.045
309
GRIDFORMAT_END
309
TABLEFORMAT_END
  1
CELLSTYLE_BEGIN
 90
        2
 91
        1
300
_HEADER
309
CELLSTYLE_END
300
CELLSTYLE
  1
TABLEFORMAT_BEGIN
 90
        5
170
     1
 91
        0
 92
        0
 62
   257
 93
        1
300
CONTENTFORMAT
  1
CONTENTFORMAT_BEGIN
 90
        0
 91
        0
 92
        4
 93
        0
300

 40
0.0
140
1.0
 94
        2
 62
     0
340
10
144
4.5
309
CONTENTFORMAT_END
171
     1
301
MARGIN
  1
CELLMARGIN_BEGIN
 40
1.5
 40
1.5
 40
1.5
 40
1.5
 40
0.18
 40
0.18
309
CELLMARGIN_END
 94
        6
 95
        1
302
GRIDFORMAT
  1
GRIDFORMAT_BEGIN
 90
        0
 91
        1
 62
     0
 92
       -2
340
0
 93
        0
 40
0.045
309
GRIDFORMAT_END
 95
        2
302
GRIDFORMAT
  1
GRIDFORMAT_BEGIN
 90
        0
 91
        1
 62
     0
 92
       -2
340
0
 93
        0
 40
0.045
309
GRIDFORMAT_END
 95
        4
302
GRIDFORMAT
  1
GRIDFORMAT_BEGIN
 90
        0
 91
        1
 62
     0
 92
       -2
340
0
 93
        0
 40
0.045
309
GRIDFORMAT_END
 95
        8
302
GRIDFORMAT
  1
GRIDFORMAT_BEGIN
 90
        0
 91
        1
 62
     0
 92
       -2
340
0
 93
        0
 40
0.045
309
GRIDFORMAT_END
 95
       16
302
GRIDFORMAT
  1
GRIDFORMAT_BEGIN
 90
        0
 91
        1
 62
     0
 92
       -2
340
0
 93
        0
 40
0.045
309
GRIDFORMAT_END
 95
       32
302
GRIDFORMAT
  1
GRIDFORMAT_BEGIN
 90
        0
 91
        1
 62
     0
 92
       -2
340
0
 93
        0
 40
0.045
309
GRIDFORMAT_END
309
TABLEFORMAT_END
  1
CELLSTYLE_BEGIN
 90
        3
 91
        2
300
_DATA
309
CELLSTYLE_END
  0
ENDSEC
  0
SECTION
  2
ACDSDATA
 70
     2
 71
     8
  0
ACDSSCHEMA
 90
        0
  1
AcDb3DSolid_ASM_Data
  2
AcDbDs::ID
280
    10
 91
        8
  2
ASM_Data
280
    15
 91
        0
101
ACDSRECORD
 95
        0
 90
        2
  2
AcDbDs::TreatedAsObjectData
280
     1
291
     1
101
ACDSRECORD
 95
        0
 90
        3
  2
AcDbDs::Legacy
280
     1
291
     1
101
ACDSRECORD
  1
AcDbDs::ID
 90
        4
  2
AcDs:Indexable
280
     1
291
     1
101
ACDSRECORD
  1
AcDbDs::ID
 90
        5
  2
AcDbDs::HandleAttribute
280
     7
282
     1
  0
ACDSSCHEMA
 90
        1
  1
AcDb_Thumbnail_Schema
  2
AcDbDs::ID
280
    10
 91
        8
  2
Thumbnail_Data
280
    15
 91
        0
101
ACDSRECORD
 95
        1
 90
        2
  2
AcDbDs::TreatedAsObjectData
280
     1
291
     1
101
ACDSRECORD
 95
        1
 90
        3
  2
AcDbDs::Legacy
280
     1
291
     1
101
ACDSRECORD
  1
AcDbDs::ID
 90
        4
  2
AcDs:Indexable
280
     1
291
     1
101
ACDSRECORD
  1
AcDbDs::ID
 90
        5
  2
AcDbDs::HandleAttribute
280
     7
282
     1
  0
ACDSSCHEMA
 90
        2
  1
AcDbDs::TreatedAsObjectDataSchema
  2
AcDbDs::TreatedAsObjectData
280
     1
 91
        0
  0
ACDSSCHEMA
 90
        3
  1
AcDbDs::LegacySchema
  2
AcDbDs::Legacy
280
     1
 91
        0
  0
ACDSSCHEMA
 90
        4
  1
AcDbDs::IndexedPropertySchema
  2
AcDs:Indexable
280
     1
 91
        0
  0
ACDSSCHEMA
 90
        5
  1
AcDbDs::HandleAttributeSchema
  2
AcDbDs::HandleAttribute
280
     7
 91
        1
284
     1
  0
ACDSRECORD
 90
        1
  2
AcDbDs::ID
280
    10
320
169
  2
Thumbnail_Data
280
    15
 94
     1332
310
89504E470D0A1A0A0000000D49484452000001000000009F080300000021EBF77600000300504C5445212830FFFFFF2128300000000000000000000000000000000000000000000000000000330000660000990000CC0000FF0033000033330033660033990033CC0033FF0066000066330066660066990066CC0066FF0099
310
000099330099660099990099CC0099FF00CC0000CC3300CC6600CC9900CCCC00CCFF00FF0000FF3300FF6600FF9900FFCC00FFFF3300003300333300663300993300CC3300FF3333003333333333663333993333CC3333FF3366003366333366663366993366CC3366FF3399003399333399663399993399CC3399FF33CC00
310
33CC3333CC6633CC9933CCCC33CCFF33FF0033FF3333FF6633FF9933FFCC33FFFF6600006600336600666600996600CC6600FF6633006633336633666633996633CC6633FF6666006666336666666666996666CC6666FF6699006699336699666699996699CC6699FF66CC0066CC3366CC6666CC9966CCCC66CCFF66FF0066
310
FF3366FF6666FF9966FFCC66FFFF9900009900339900669900999900CC9900FF9933009933339933669933999933CC9933FF9966009966339966669966999966CC9966FF9999009999339999669999999999CC9999FF99CC0099CC3399CC6699CC9999CCCC99CCFF99FF0099FF3399FF6699FF9999FFCC99FFFFCC0000CC00
310
33CC0066CC0099CC00CCCC00FFCC3300CC3333CC3366CC3399CC33CCCC33FFCC6600CC6633CC6666CC6699CC66CCCC66FFCC9900CC9933CC9966CC9999CC99CCCC99FFCCCC00CCCC33CCCC66CCCC99CCCCCCCCCCFFCCFF00CCFF33CCFF66CCFF99CCFFCCCCFFFFFF0000FF0033FF0066FF0099FF00CCFF00FFFF3300FF3333
310
FF3366FF3399FF33CCFF33FFFF6600FF6633FF6666FF6699FF66CCFF66FFFF9900FF9933FF9966FF9999FF99CCFF99FFFFCC00FFCC33FFCC66FFCC99FFCCCCFFCCFFFFFF00FFFF33FFFF66FFFF99FFFFCCFFFFFF0000000D0D0D1A1A1A2828283535354343435050505D5D5D6B6B6B787878868686939393A1A1A1AEAEAEBB
310
BBBBC9C9C9D6D6D6E4E4E4F1F1F1FFFFFF0000000000000000000000000000000000000000000000000000000000002E4550F10000017C4944415478DAEDDA4B72C3200C00508EE3FBDF4DFB7EB0419074DA4D37E8BDC93471B392020261B70600000000000000000000C0AF228A87DF558F7EE420CA8DFDF1FB7FFF2D3416
310
EEB89731F0F91E55C640B414F6883CCA8C811E7C7FC5F3A19780A833FDEF79102D2D03456AC0887F0C80999242F15F5F715F71BFAFDFD5D8FBC5A8FDA9F4C5F9C1CF80634A25A1C4EAD77FE93404DAF39FB333F0C4DA9EB5EFFE3056C4C3E7C0B2D3EB5B9F68FB0EF0E88560A976732CAC1BC0D3CBE0CF29A99580D100C772
310
797C02AEA50BDCF42FAEE3FBC09FE27F3609C71F04AC5BC0147E54E887F709904EC69E75E1F8CD70B42D016DBB3CBE08E4F1DF5E2F0B24A0ED752F178202DD709EF4F1A6101EBF0CE468B701114512D066D58FDC129638145EBBDFD91194A880E95C689C832EBD61AB21521794CE880BDD1A8C743B345E0F4B8A64604D40B9
310
9BE4DB1DF18A0F09CC5150FE19895A4F46BC5D146A3F2A54A207FA5331A83C07000000000000000000000000000000000000E09F7D00E1025081E60408CE0000000049454E44AE42608265069CACF144315D3FBC09AC70250588F9ED2F67EF61FDF146FE21FB805F0E680B00B53E19A0FF6FC00C7805C00BBEBEA8CF7D7CCD
310
F5C548820000D838FF9B01CAB6014AFC3780F281852449922449922449922449922449922449926EF70DAF1801257F9AFF7A0000000049454E44AE426082
  0
ACDSRECORD
 90
        1
  2
AcDbDs::ID
280
    10
320
2CA4
  2
Thumbnail_Data
280
    15
 94
      907
310
89504E470D0A1A0A0000000D4948445200000100000000BF08030000002647F24000000300504C5445212830000000C8C8C80000000000000000000000000000000000000000000000000000330000660000990000CC0000FF0033000033330033660033990033CC0033FF0066000066330066660066990066CC0066FF0099
310
000099330099660099990099CC0099FF00CC0000CC3300CC6600CC9900CCCC00CCFF00FF0000FF3300FF6600FF9900FFCC00FFFF3300003300333300663300993300CC3300FF3333003333333333663333993333CC3333FF3366003366333366663366993366CC3366FF3399003399333399663399993399CC3399FF33CC00
310
33CC3333CC6633CC9933CCCC33CCFF33FF0033FF3333FF6633FF9933FFCC33FFFF6600006600336600666600996600CC6600FF6633006633336633666633996633CC6633FF6666006666336666666666996666CC6666FF6699006699336699666699996699CC6699FF66CC0066CC3366CC6666CC9966CCCC66CCFF66FF0066
310
FF3366FF6666FF9966FFCC66FFFF9900009900339900669900999900CC9900FF9933009933339933669933999933CC9933FF9966009966339966669966999966CC9966FF9999009999339999669999999999CC9999FF99CC0099CC3399CC6699CC9999CCCC99CCFF99FF0099FF3399FF6699FF9999FFCC99FFFFCC0000CC00
310
33CC0066CC0099CC00CCCC00FFCC3300CC3333CC3366CC3399CC33CCCC33FFCC6600CC6633CC6666CC6699CC66CCCC66FFCC9900CC9933CC9966CC9999CC99CCCC99FFCCCC00CCCC33CCCC66CCCC99CCCCCCCCCCFFCCFF00CCFF33CCFF66CCFF99CCFFCCCCFFFFFF0000FF0033FF0066FF0099FF00CCFF00FFFF3300FF3333
310
FF3366FF3399FF33CCFF33FFFF6600FF6633FF6666FF6699FF66CCFF66FFFF9900FF9933FF9966FF9999FF99CCFF99FFFFCC00FFCC33FFCC66FFCC99FFCCCCFFCCFFFFFF00FFFF33FFFF66FFFF99FFFFCCFFFFFF0000000D0D0D1A1A1A2828283535354343435050505D5D5D6B6B6B787878868686939393A1A1A1AEAEAEBB
310
BBBBC9C9C9D6D6D6E4E4E4F1F1F1FFFFFF000000000000000000000000000000000000000000000000000000000000B21171F6000000464944415478DAEDC13101000000C2A0F54F6D085FA00000000000000000000000000000000000000000000000000000000000000000000000000000000000000000000000E036BFBF
310
000103F617CF0000000049454E44AE426082
  0
ENDSEC
  0
EOF
