  0
SECTION
  2
HEADER
  9
$ACADVER
  1
AC1027
  9
$ACADMAINTVER
 70
   125
  9
$DWGCODEPAGE
  3
ANSI_1252
  9
$LASTSAVEDBY
  1
se-milkar
  9
$CUSTOMPROPERTYTAG
  1
AmdtFileType
  9
$CUSTOMPROPERTY
  1
84
  9
$REQUIREDVERSIONS
160
                 0
  9
$INSBASE
 10
0.0
 20
0.0
 30
0.0
  9
$EXTMIN
 10
-108.8964835238835
 20
-100.5030664420955
 30
-0.0015258207003583
  9
$EXTMAX
 10
100.5075079301692
 20
100.5075993397129
 30
0.0000000349246037
  9
$LIMMIN
 10
0.0
 20
0.0
  9
$LIMMAX
 10
420.0
 20
297.0
  9
$ORTHOMODE
 70
     1
  9
$REGENMODE
 70
     1
  9
$FILLMODE
 70
     1
  9
$QTEXTMODE
 70
     0
  9
$MIRRTEXT
 70
     0
  9
$LTSCALE
 40
1.0
  9
$ATTMODE
 70
     1
  9
$TEXTSIZE
 40
3.5
  9
$TRACEWID
 40
1.0
  9
$TEXTSTYLE
  7
STANDARD
  9
$CLAYER
  8
AM_0
  9
$CELTYPE
  6
BYLAYER
  9
$CECOLOR
 62
   256
  9
$CELTSCALE
 40
1.0
  9
$DISPSILH
 70
     0
  9
$DIMSCALE
 40
1.0
  9
$DIMASZ
 40
2.5
  9
$DIMEXO
 40
1.0
  9
$DIMDLI
 40
10.0
  9
$DIMRND
 40
0.0
  9
$DIMDLE
 40
0.0
  9
$DIMEXE
 40
1.0
  9
$DIMTP
 40
0.1
  9
$DIMTM
 40
0.1
  9
$DIMTXT
 40
3.5
  9
$DIMCEN
 40
0.0
  9
$DIMTSZ
 40
0.0
  9
$DIMTOL
 70
     0
  9
$DIMLIM
 70
     0
  9
$DIMTIH
 70
     0
  9
$DIMTOH
 70
     0
  9
$DIMSE1
 70
     0
  9
$DIMSE2
 70
     0
  9
$DIMTAD
 70
     1
  9
$DIMZIN
 70
     8
  9
$DIMBLK
  1

  9
$DIMASO
 70
     1
  9
$DIMSHO
 70
     1
  9
$DIMPOST
  1

  9
$DIMAPOST
  1
"
  9
$DIMALT
 70
     0
  9
$DIMALTD
 70
     3
  9
$DIMALTF
 40
0.0393701
  9
$DIMLFAC
 40
1.0
  9
$DIMTOFL
 70
     1
  9
$DIMTVP
 40
0.0
  9
$DIMTIX
 70
     0
  9
$DIMSOXD
 70
     0
  9
$DIMSAH
 70
     0
  9
$DIMBLK1
  1

  9
$DIMBLK2
  1

  9
$DIMSTYLE
  2
AM_ISO
  9
$DIMCLRD
 70
   256
  9
$DIMCLRE
 70
   256
  9
$DIMCLRT
 70
     2
  9
$DIMTFAC
 40
0.71
  9
$DIMGAP
 40
1.5
  9
$DIMJUST
 70
     0
  9
$DIMSD1
 70
     0
  9
$DIMSD2
 70
     0
  9
$DIMTOLJ
 70
     0
  9
$DIMTZIN
 70
     8
  9
$DIMALTZ
 70
     0
  9
$DIMALTTZ
 70
     0
  9
$DIMUPT
 70
     0
  9
$DIMDEC
 70
     2
  9
$DIMTDEC
 70
     2
  9
$DIMALTU
 70
     2
  9
$DIMALTTD
 70
     3
  9
$DIMTXSTY
  7
STANDARD
  9
$DIMAUNIT
 70
     0
  9
$DIMADEC
 70
     0
  9
$DIMALTRND
 40
0.0
  9
$DIMAZIN
 70
     2
  9
$DIMDSEP
 70
    46
  9
$DIMATFIT
 70
     3
  9
$DIMFRAC
 70
     0
  9
$DIMLDRBLK
  1

  9
$DIMLUNIT
 70
     2
  9
$DIMLWD
 70
    -1
  9
$DIMLWE
 70
    -1
  9
$DIMTMOVE
 70
     0
  9
$DIMFXL
 40
1.0
  9
$DIMFXLON
 70
     0
  9
$DIMJOGANG
 40
0.7853981633974483
  9
$DIMTFILL
 70
     0
  9
$DIMTFILLCLR
 70
     0
  9
$DIMARCSYM
 70
     0
  9
$DIMLTYPE
  6

  9
$DIMLTEX1
  6

  9
$DIMLTEX2
  6

  9
$DIMTXTDIRECTION
 70
     0
  9
$LUNITS
 70
     2
  9
$LUPREC
 70
     2
  9
$SKETCHINC
 40
1.0
  9
$FILLETRAD
 40
2.5
  9
$AUNITS
 70
     0
  9
$AUPREC
 70
     0
  9
$MENU
  1
.
  9
$ELEVATION
 40
0.0
  9
$PELEVATION
 40
0.0
  9
$THICKNESS
 40
0.0
  9
$LIMCHECK
 70
     0
  9
$CHAMFERA
 40
2.5
  9
$CHAMFERB
 40
2.5
  9
$CHAMFERC
 40
20.0
  9
$CHAMFERD
 40
0.0
  9
$SKPOLY
 70
     1
  9
$TDCREATE
 40
2460034.701840278
  9
$TDUCREATE
 40
2460034.618506945
  9
$TDUPDATE
 40
2460034.703680555
  9
$TDUUPDATE
 40
2460034.620347222
  9
$TDINDWG
 40
0.0018518519
  9
$TDUSRTIMER
 40
0.0018518519
  9
$USRTIMER
 70
     1
  9
$ANGBASE
 50
0.0
  9
$ANGDIR
 70
     0
  9
$PDMODE
 70
     0
  9
$PDSIZE
 40
0.0
  9
$PLINEWID
 40
0.0
  9
$SPLFRAME
 70
     0
  9
$SPLINETYPE
 70
     6
  9
$SPLINESEGS
 70
     8
  9
$HANDSEED
  5
398C
  9
$SURFTAB1
 70
     6
  9
$SURFTAB2
 70
     6
  9
$SURFTYPE
 70
     6
  9
$SURFU
 70
     6
  9
$SURFV
 70
     6
  9
$UCSBASE
  2

  9
$UCSNAME
  2

  9
$UCSORG
 10
0.0
 20
0.0
 30
0.0
  9
$UCSXDIR
 10
1.0
 20
0.0
 30
0.0
  9
$UCSYDIR
 10
0.0
 20
1.0
 30
0.0
  9
$UCSORTHOREF
  2

  9
$UCSORTHOVIEW
 70
     0
  9
$UCSORGTOP
 10
0.0
 20
0.0
 30
0.0
  9
$UCSORGBOTTOM
 10
0.0
 20
0.0
 30
0.0
  9
$UCSORGLEFT
 10
0.0
 20
0.0
 30
0.0
  9
$UCSORGRIGHT
 10
0.0
 20
0.0
 30
0.0
  9
$UCSORGFRONT
 10
0.0
 20
0.0
 30
0.0
  9
$UCSORGBACK
 10
0.0
 20
0.0
 30
0.0
  9
$PUCSBASE
  2

  9
$PUCSNAME
  2

  9
$PUCSORG
 10
0.0
 20
0.0
 30
0.0
  9
$PUCSXDIR
 10
1.0
 20
0.0
 30
0.0
  9
$PUCSYDIR
 10
0.0
 20
1.0
 30
0.0
  9
$PUCSORTHOREF
  2

  9
$PUCSORTHOVIEW
 70
     0
  9
$PUCSORGTOP
 10
0.0
 20
0.0
 30
0.0
  9
$PUCSORGBOTTOM
 10
0.0
 20
0.0
 30
0.0
  9
$PUCSORGLEFT
 10
0.0
 20
0.0
 30
0.0
  9
$PUCSORGRIGHT
 10
0.0
 20
0.0
 30
0.0
  9
$PUCSORGFRONT
 10
0.0
 20
0.0
 30
0.0
  9
$PUCSORGBACK
 10
0.0
 20
0.0
 30
0.0
  9
$USERI1
 70
     0
  9
$USERI2
 70
     0
  9
$USERI3
 70
     0
  9
$USERI4
 70
     0
  9
$USERI5
 70
     0
  9
$USERR1
 40
0.0
  9
$USERR2
 40
0.0
  9
$USERR3
 40
0.0
  9
$USERR4
 40
0.0
  9
$USERR5
 40
0.0
  9
$WORLDVIEW
 70
     1
  9
$SHADEDGE
 70
     3
  9
$SHADEDIF
 70
    70
  9
$TILEMODE
 70
     1
  9
$MAXACTVP
 70
    48
  9
$PINSBASE
 10
0.0
 20
0.0
 30
0.0
  9
$PLIMCHECK
 70
     0
  9
$PEXTMIN
 10
1.000000000000000E+20
 20
1.000000000000000E+20
 30
1.000000000000000E+20
  9
$PEXTMAX
 10
-1.000000000000000E+20
 20
-1.000000000000000E+20
 30
-1.000000000000000E+20
  9
$PLIMMIN
 10
0.0
 20
0.0
  9
$PLIMMAX
 10
12.0
 20
9.0
  9
$UNITMODE
 70
     0
  9
$VISRETAIN
 70
     1
  9
$PLINEGEN
 70
     0
  9
$PSLTSCALE
 70
     1
  9
$TREEDEPTH
 70
  3020
  9
$CMLSTYLE
  2
STANDARD
  9
$CMLJUST
 70
     0
  9
$CMLSCALE
 40
1.0
  9
$PROXYGRAPHICS
 70
     1
  9
$MEASUREMENT
 70
     1
  9
$CELWEIGHT
370
    -1
  9
$ENDCAPS
280
     0
  9
$JOINSTYLE
280
     0
  9
$LWDISPLAY
290
     0
  9
$INSUNITS
 70
     4
  9
$HYPERLINKBASE
  1

  9
$STYLESHEET
  1
@Layout.ctb
  9
$XEDIT
290
     1
  9
$CEPSNTYPE
380
     0
  9
$PSTYLEMODE
290
     1
  9
$FINGERPRINTGUID
  2
{E46A6DC8-E7D8-B048-9A13-8B92A2DC6C2B}
  9
$VERSIONGUID
  2
{E17B82D9-7C02-D345-9E13-8C188034C089}
  9
$EXTNAMES
290
     1
  9
$PSVPSCALE
 40
0.0
  9
$OLESTARTUP
290
     0
  9
$SORTENTS
280
   127
  9
$INDEXCTL
280
     1
  9
$HIDETEXT
280
     0
  9
$XCLIPFRAME
280
     0
  9
$HALOGAP
280
     0
  9
$OBSCOLOR
 70
   257
  9
$OBSLTYPE
280
     0
  9
$INTERSECTIONDISPLAY
280
     0
  9
$INTERSECTIONCOLOR
 70
   257
  9
$DIMASSOC
280
     2
  9
$PROJECTNAME
  1

  9
$CAMERADISPLAY
290
     0
  9
$LENSLENGTH
 40
50.0
  9
$CAMERAHEIGHT
 40
0.0
  9
$STEPSPERSEC
 40
2.0
  9
$STEPSIZE
 40
6.0
  9
$3DDWFPREC
 40
2.0
  9
$PSOLWIDTH
 40
0.25
  9
$PSOLHEIGHT
 40
4.0
  9
$LOFTANG1
 40
1.570796326794896
  9
$LOFTANG2
 40
1.570796326794896
  9
$LOFTMAG1
 40
0.0
  9
$LOFTMAG2
 40
0.0
  9
$LOFTPARAM
 70
     7
  9
$LOFTNORMALS
280
     1
  9
$LATITUDE
 40
37.795
  9
$LONGITUDE
 40
-122.394
  9
$NORTHDIRECTION
 40
0.0
  9
$TIMEZONE
 70
 -8000
  9
$LIGHTGLYPHDISPLAY
280
     1
  9
$TILEMODELIGHTSYNCH
280
     1
  9
$CMATERIAL
347
A37
  9
$SOLIDHIST
280
     1
  9
$SHOWHIST
280
     1
  9
$DWFFRAME
280
     2
  9
$DGNFRAME
280
     0
  9
$REALWORLDSCALE
290
     1
  9
$INTERFERECOLOR
 62
     1
  9
$INTERFEREOBJVS
345
A59
  9
$INTERFEREVPVS
346
CBF
  9
$CSHADOW
280
     0
  9
$SHADOWPLANELOCATION
 40
0.0
  0
ENDSEC
  0
SECTION
  2
CLASSES
  0
CLASS
  1
DICTIONARYVAR
  2
AcDbDictionaryVar
  3
ObjectDBX Classes
 90
        0
 91
       12
280
     0
281
     0
  0
CLASS
  1
ACMESTATEMGR
  2
AcMeStateMgr
  3
AcMeServices
 90
     1024
 91
        1
280
     0
281
     0
  0
CLASS
  1
ACMESCOPE
  2
AcMeScope
  3
AcMeServices
 90
     1024
 91
        1
280
     0
281
     0
  0
CLASS
  1
ACMECOMMANDHISTORY
  2
AcMeCommandHistory
  3
AcMeServices
 90
     1024
 91
        1
280
     0
281
     0
  0
CLASS
  1
ACRFINSADJUSTERMGR
  2
AcRfInsAdjusterMgr
  3
AcMeServices
 90
     1024
 91
        1
280
     0
281
     0
  0
CLASS
  1
ACMEDRAWINGMAN
  2
AcMeDrawingMan
  3
AcMeServices
 90
     1024
 91
        0
280
     0
281
     0
  0
CLASS
  1
AMATTR
  2
AcMeAttribute
  3
AcMeServices
 90
     1024
 91
        0
280
     0
281
     0
  0
CLASS
  1
ACMEBOMCOLUMN
  2
AcMeBOMColumn
  3
AcMeServices
 90
     1024
 91
        0
280
     0
281
     0
  0
CLASS
  1
ACMEBOMCONF
  2
AcMeBOMConf
  3
AcMeServices
 90
     1024
 91
        0
280
     0
281
     0
  0
CLASS
  1
ACMEBOMTABLE
  2
AcMeBOMTable
  3
AcMeServices
 90
     1024
 91
        0
280
     0
281
     0
  0
CLASS
  1
ACMEBOMENTRY
  2
AcMeBOMEntry
  3
AcMeServices
 90
     1024
 91
        0
280
     0
281
     0
  0
CLASS
  1
ACMEVIEW
  2
AcMeView
  3
AcMeServices
 90
     1024
 91
        0
280
     0
281
     0
  0
CLASS
  1
ACGREFMASTER
  2
AcGrefMaster
  3
AcAttribServices
 90
     1024
 91
        1
280
     0
281
     0
  0
CLASS
  1
AMIMASTER
  2
AmiMaster
  3
AmiServices
 90
     1024
 91
        1
280
     0
281
     0
  0
CLASS
  1
ACASGREFMASTER
  2
AcAsGrefMaster
  3
AutoSurfResolverServices
 90
     1024
 91
        2
280
     0
281
     0
  0
CLASS
  1
ADAPPL
  2
AcAdAppl
  3
DesignerAssemblies
 90
     1024
 91
        0
280
     0
281
     0
  0
CLASS
  1
DEPMGR
  2
AcAdDepMgr
  3
DesignerAssemblies
 90
     1024
 91
        0
280
     0
281
     0
  0
CLASS
  1
PARAMMGR
  2
AcAdParamMgr
  3
DesignerAssemblies
 90
     1024
 91
        0
280
     0
281
     0
  0
CLASS
  1
PARAMSCOPE
  2
AcAdParamScope
  3
DesignerAssemblies
 90
     1024
 91
        0
280
     0
281
     0
  0
CLASS
  1
ACIMSYSVARMAN
  2
AcImSysVarManager
  3
AcMeServices
 90
     1024
 91
        5
280
     0
281
     0
  0
CLASS
  1
ACIMINTSYSVAR
  2
AcImIntSysVar
  3
AcMeServices
 90
     1024
 91
       48
280
     0
281
     0
  0
CLASS
  1
ACIMREALSYSVAR
  2
AcImRealSysVar
  3
AcMeServices
 90
     1024
 91
       16
280
     0
281
     0
  0
CLASS
  1
ACIMSTRSYSVAR
  2
AcImStrSysVar
  3
AcMeServices
 90
     1024
 91
       14
280
     0
281
     0
  0
CLASS
  1
NAMEDAPPL
  2
AcAdNamedAppl
  3
DesignerAssemblies
 90
     1024
 91
        0
280
     0
281
     0
  0
CLASS
  1
ADHNTMPLT
  2
AdHoleNoteTemplateMgr
  3
DesignerServices
 90
     1024
 91
        0
280
     0
281
     0
  0
CLASS
  1
AM_HNTEMPLATE_MGR_NAME
  2
AdHoleNoteTemplateMgrName
  3
DesignerServices
 90
     1024
 91
        0
280
     0
281
     0
  0
CLASS
  1
ACADGREFMODULE
  2
AcAdGrefModule
  3
AdGrefServices
 90
     1024
 91
        2
280
     0
281
     0
  0
CLASS
  1
AM_DRAWING_MGR
  2
AcDmDwgMgr
  3
AcMechDwgViewMgmt
 90
     1024
 91
        0
280
     0
281
     0
  0
CLASS
  1
AM_DWG_DOCUMENT
  2
AcDmDwgDocument
  3
AcMechDwgViewMgmt
 90
     1024
 91
        0
280
     0
281
     0
  0
CLASS
  1
AM_DWG_SHEET
  2
AcDmSheet
  3
AcMechDwgViewMgmt
 90
     1024
 91
        0
280
     0
281
     0
  0
CLASS
  1
AM_VIEWDIMPARMAP
  2
AcDmViewDimParMap
  3
AcMechDwgViewMgmt
 90
     1024
 91
        0
280
     0
281
     0
  0
CLASS
  1
AM_DWGMGR_NAME
  2
AcDmDwgMgrName
  3
AcMechDwgViewMgmt
 90
     1024
 91
        0
280
     0
281
     0
  0
CLASS
  1
ACAMPROJECT
  2
AcAmProject
  3
DesignerAssemblies
 90
     1024
 91
        1
280
     0
281
     0
  0
CLASS
  1
ACAMGRCOMPSET
  2
AcAmGrCompSet
  3
DesignerAssemblies
 90
        0
 91
        0
280
     0
281
     0
  0
CLASS
  1
ACAMGRCOMPDEFSET
  2
AcAmGrCompDefSet
  3
DesignerAssemblies
 90
     1024
 91
        1
280
     0
281
     0
  0
CLASS
  1
ACAMGRCOMPDEF
  2
AcAmGrCompDef
  3
DesignerAssemblies
 90
     1024
 91
        1
280
     0
281
     0
  0
CLASS
  1
ACCMCONTEXT
  2
AcCmContext
  3
DesignerAssemblies
 90
     1024
 91
        1
280
     0
281
     0
  0
CLASS
  1
ACAMCOMPDEF
  2
AcAmCompDef
  3
DesignerAssemblies
 90
     1024
 91
        1
280
     0
281
     0
  0
CLASS
  1
ACAMCOMPDEFMGR
  2
AcAmCompDefMgr
  3
DesignerAssemblies
 90
     1024
 91
        1
280
     0
281
     0
  0
CLASS
  1
AMCONTEXTMGR
  2
AcAmContextMgr
  3
DesignerAssemblies
 90
     1024
 91
        1
280
     0
281
     0
  0
CLASS
  1
ACAMCONTEXTMODELER
  2
AcAmContextModeler
  3
DesignerAssemblies
 90
     1024
 91
        1
280
     0
281
     0
  0
CLASS
  1
ACDMVIEWGEOM
  2
AcDmViewGeometry
  3
AcMechDwgViewMgmt
 90
     1024
 91
        0
280
     0
281
     1
  0
CLASS
  1
CBROWSERAPPOBJECT
  2
CBrowserAppObject
  3
McadcomServices
 90
     1024
 91
        2
280
     0
281
     0
  0
CLASS
  1
IM_STATIC_MAN
  2
AcImStaticVarManager
  3
AcMeServices
 90
     1024
 91
        1
280
     0
281
     0
  0
CLASS
  1
ASAPP
  2
AcAsAppObject
  3
AutoSurfServices
 90
     1024
 91
        2
280
     0
281
     0
  0
CLASS
  1
ACIMDBLSTATICVAR
  2
AcImDblStaticVar
  3
AcMeServices
 90
     1024
 91
       22
280
     0
281
     0
  0
CLASS
  1
ACIMSTRSTATICVAR
  2
AcImStrStaticVar
  3
AcMeServices
 90
     1024
 91
       13
280
     0
281
     0
  0
CLASS
  1
ACIMINTSTATICVAR
  2
AcImIntStaticVar
  3
AcMeServices
 90
     1024
 91
       17
280
     0
281
     0
  0
CLASS
  1
CATALOGSTATE
  2
AcAmCatalogState
  3
DesignerAssemblies_arx
 90
     1024
 91
        0
280
     0
281
     0
  0
CLASS
  1
DM_PLACEHOLDER
  2
AcDmSelsetPlaceholder
  3
McadcomServices
 90
     1024
 91
        1
280
     0
281
     0
  0
CLASS
  1
LAYER_INDEX
  2
AcDbLayerIndex
  3
ObjectDBX Classes
 90
        0
 91
        1
280
     0
281
     0
  0
CLASS
  1
IDBUFFER
  2
AcDbIdBuffer
  3
ObjectDBX Classes
 90
        0
 91
        8
280
     0
281
     0
  0
CLASS
  1
ACMSTANDARDJIS
  2
AcmStandardJIS
  3
"Amdt_StdImp|Product Description: AutoCAD Mechanical|Company: Autodesk, Inc."
 90
     1024
 91
        0
280
     0
281
     0
  0
CLASS
  1
ACMSTANDARDANSI
  2
AcmStandardANSI
  3
"Amdt_StdImp|Product Description: AutoCAD Mechanical|Company: Autodesk, Inc."
 90
     1024
 91
        1
280
     0
281
     0
  0
CLASS
  1
ACMSTANDARDBSI
  2
AcmStandardBSI
  3
"Amdt_StdImp|Product Description: AutoCAD Mechanical|Company: Autodesk, Inc."
 90
     1024
 91
        0
280
     0
281
     0
  0
CLASS
  1
ACMSTANDARDDIN
  2
AcmStandardDIN
  3
"Amdt_StdImp|Product Description: AutoCAD Mechanical|Company: Autodesk, Inc."
 90
     1024
 91
        0
280
     0
281
     0
  0
CLASS
  1
ACMSTANDARDISO
  2
AcmStandardISO
  3
"Amdt_StdImp|Product Description: AutoCAD Mechanical|Company: Autodesk, Inc."
 90
     1024
 91
        1
280
     0
281
     0
  0
CLASS
  1
ACDBDICTIONARYWDFLT
  2
AcDbDictionaryWithDefault
  3
ObjectDBX Classes
 90
        0
 91
        1
280
     0
281
     0
  0
CLASS
  1
ACDBPLACEHOLDER
  2
AcDbPlaceHolder
  3
ObjectDBX Classes
 90
        0
 91
        1
280
     0
281
     0
  0
CLASS
  1
LAYOUT
  2
AcDbLayout
  3
ObjectDBX Classes
 90
        0
 91
        2
280
     0
281
     0
  0
CLASS
  1
ACME_DOCUMENT
  2
AcMeDbDoc
  3
AcMeServices
 90
     1024
 91
        2
280
     0
281
     0
  0
CLASS
  1
AMGSETTINGSOBJ
  2
AmgSettingsObj
  3
"AcadM|Product Description: AutoCAD Mechanical|Company: Autodesk, Inc."
 90
     1024
 91
        4
280
     0
281
     0
  0
CLASS
  1
AMGOBJPROPCFG
  2
AmgObjPropCfg
  3
"AmgLay|Product Description: AutoCAD Mechanical|Company: Autodesk, Inc."
 90
     1024
 91
        1
280
     0
281
     0
  0
CLASS
  1
ACDBENTITYCACHE
  2
AcMeEntityCache
  3
AcMeServices
 90
     1024
 91
        1
280
     0
281
     0
  0
CLASS
  1
GSMANAGER
  2
AcMeGSManager
  3
AcMeServices
 90
     1024
 91
        0
280
     0
281
     0
  0
CLASS
  1
AMDTINTERNALREACTOR
  2
AmdtInternalReactor
  3
AcMeServices
 90
     1024
 91
        0
280
     0
281
     0
  0
CLASS
  1
ACME_DATABASE
  2
AcMeDbDatabase
  3
AcMeServices
 90
     1024
 91
        3
280
     0
281
     0
  0
CLASS
  1
ACGREFACADMASTER
  2
AcGrefacadMaster
  3
AcGrefServices
 90
     1024
 91
        1
280
     0
281
     0
  0
CLASS
  1
AMDTMENUSTATEMGR
  2
AmdtMenuStateMgr
  3
McadcomServices
 90
     1024
 91
        1
280
     0
281
     0
  0
CLASS
  1
AMDTMCOMMENUSTATE
  2
AmdtMcomMenuState
  3
McadcomServices
 90
     1024
 91
        1
280
     0
281
     0
  0
CLASS
  1
MAPIADMODULE
  2
MApiAdModule
  3
MApiAdServices
 90
     1024
 91
        2
280
     0
281
     0
  0
CLASS
  1
AMDTDMMENUSTATE
  2
AmdtDmMenuState
  3
AcMechDwgViewMgmt
 90
     1024
 91
        0
280
     0
281
     0
  0
CLASS
  1
AMDTADMENUSTATE
  2
AmdtAdMenuState
  3
DesignerServices
 90
     1024
 91
        0
280
     0
281
     0
  0
CLASS
  1
AMDTAMMENUSTATE
  2
AmdtAmMenuState
  3
DesignerAssemblies_arx
 90
     1024
 91
        1
280
     0
281
     0
  0
CLASS
  1
ACMDATADICTIONARY
  2
AcmDataDictionary
  3
"AcmSymBB|Product Description: AutoCAD Mechanical|Company: Autodesk, Inc."
 90
     1024
 91
        1
280
     0
281
     0
  0
CLASS
  1
ACMDATAENTRYBLOCK
  2
AcmDataEntryBlock
  3
"AcmSymBB" "Product Description: AutoCAD Mechanical|Company: Autodesk, Inc."
 90
     1024
 91
        2
280
     0
281
     0
  0
CLASS
  1
ACMSURFSTANDARDJIS
  2
AcmSurfTextStdJIS
  3
"Amdt_StdImp|Product Description: AutoCAD Mechanical|Company: Autodesk, Inc."
 90
     1024
 91
        0
280
     0
281
     0
  0
CLASS
  1
ACMFCFSTANDARDJIS
  2
AcmFCFStdJIS
  3
"Amdt_StdImp|Product Description: AutoCAD Mechanical|Company: Autodesk, Inc."
 90
     1024
 91
        0
280
     0
281
     0
  0
CLASS
  1
ACMWELDSTANDARDJIS
  2
AcmWeldingStdJIS
  3
"Amdt_StdImp|Product Description: AutoCAD Mechanical|Company: Autodesk, Inc."
 90
     1024
 91
        0
280
     0
281
     0
  0
CLASS
  1
ACMIDSTANDARDJIS
  2
AcmIdStdJIS
  3
"Amdt_StdImp|Product Description: AutoCAD Mechanical|Company: Autodesk, Inc."
 90
     1024
 91
        0
280
     0
281
     0
  0
CLASS
  1
ACMDATUMSTANDARDJIS
  2
AcmDatumStdJIS
  3
"Amdt_StdImp|Product Description: AutoCAD Mechanical|Company: Autodesk, Inc."
 90
     1024
 91
        0
280
     0
281
     0
  0
CLASS
  1
ACMBOMSTANDARDJIS
  2
AcmBOMStdJIS
  3
"Amdt_StdImp|Product Description: AutoCAD Mechanical|Company: Autodesk, Inc."
 90
     1024
 91
        0
280
     0
281
     0
  0
CLASS
  1
ACMSURFSTANDARDANSI
  2
AcmSurfTextStdANSI
  3
"Amdt_StdImp|Product Description: AutoCAD Mechanical|Company: Autodesk, Inc."
 90
     1024
 91
        1
280
     0
281
     0
  0
CLASS
  1
ACMFCFSTANDARDANSI
  2
AcmFCFStdANSI
  3
"Amdt_StdImp|Product Description: AutoCAD Mechanical|Company: Autodesk, Inc."
 90
     1024
 91
        1
280
     0
281
     0
  0
CLASS
  1
ACMWELDSTANDARDANSI
  2
AcmWeldingStdANSI
  3
"Amdt_StdImp|Product Description: AutoCAD Mechanical|Company: Autodesk, Inc."
 90
     1024
 91
        1
280
     0
281
     0
  0
CLASS
  1
ACMIDSTANDARDANSI
  2
AcmIdStdANSI
  3
"Amdt_StdImp|Product Description: AutoCAD Mechanical|Company: Autodesk, Inc."
 90
     1024
 91
        1
280
     0
281
     0
  0
CLASS
  1
ACMDATUMSTANDARDANSI
  2
AcmDatumStdANSI
  3
"Amdt_StdImp|Product Description: AutoCAD Mechanical|Company: Autodesk, Inc."
 90
     1024
 91
        1
280
     0
281
     0
  0
CLASS
  1
ACMBOMSTANDARDANSI
  2
AcmBOMStdANSI
  3
"Amdt_StdImp|Product Description: AutoCAD Mechanical|Company: Autodesk, Inc."
 90
     1024
 91
        1
280
     0
281
     0
  0
CLASS
  1
ACMSURFSTANDARDBSI
  2
AcmSurfTextStdBSI
  3
"Amdt_StdImp|Product Description: AutoCAD Mechanical|Company: Autodesk, Inc."
 90
     1024
 91
        0
280
     0
281
     0
  0
CLASS
  1
ACMFCFSTANDARDBSI
  2
AcmFCFStdBSI
  3
"Amdt_StdImp|Product Description: AutoCAD Mechanical|Company: Autodesk, Inc."
 90
     1024
 91
        0
280
     0
281
     0
  0
CLASS
  1
ACMWELDSTANDARDBSI
  2
AcmWeldingStdBSI
  3
"Amdt_StdImp|Product Description: AutoCAD Mechanical|Company: Autodesk, Inc."
 90
     1024
 91
        0
280
     0
281
     0
  0
CLASS
  1
ACMIDSTANDARDBSI
  2
AcmIdStdBSI
  3
"Amdt_StdImp|Product Description: AutoCAD Mechanical|Company: Autodesk, Inc."
 90
     1024
 91
        0
280
     0
281
     0
  0
CLASS
  1
ACMDATUMSTANDARDBSI
  2
AcmDatumStdBSI
  3
"Amdt_StdImp|Product Description: AutoCAD Mechanical|Company: Autodesk, Inc."
 90
     1024
 91
        0
280
     0
281
     0
  0
CLASS
  1
ACMBOMSTANDARDBSI
  2
AcmBOMStdBSI
  3
"Amdt_StdImp|Product Description: AutoCAD Mechanical|Company: Autodesk, Inc."
 90
     1024
 91
        0
280
     0
281
     0
  0
CLASS
  1
AMDTEDGESTANDARDDIN
  2
AmdtEdgeStdDIN
  3
"Amdt_StdImp|Product Description: AutoCAD Mechanical|Company: Autodesk, Inc."
 90
     1024
 91
        0
280
     0
281
     0
  0
CLASS
  1
ACMSURFSTANDARDDIN
  2
AcmSurfTextStdDIN
  3
"Amdt_StdImp|Product Description: AutoCAD Mechanical|Company: Autodesk, Inc."
 90
     1024
 91
        0
280
     0
281
     0
  0
CLASS
  1
ACMFCFSTANDARDDIN
  2
AcmFCFStdDIN
  3
"Amdt_StdImp|Product Description: AutoCAD Mechanical|Company: Autodesk, Inc."
 90
     1024
 91
        0
280
     0
281
     0
  0
CLASS
  1
ACMWELDSTANDARDDIN
  2
AcmWeldingStdDIN
  3
"Amdt_StdImp|Product Description: AutoCAD Mechanical|Company: Autodesk, Inc."
 90
     1024
 91
        0
280
     0
281
     0
  0
CLASS
  1
ACMIDSTANDARDDIN
  2
AcmIdStdDIN
  3
"Amdt_StdImp|Product Description: AutoCAD Mechanical|Company: Autodesk, Inc."
 90
     1024
 91
        0
280
     0
281
     0
  0
CLASS
  1
ACMDATUMSTANDARDDIN
  2
AcmDatumStdDIN
  3
"Amdt_StdImp|Product Description: AutoCAD Mechanical|Company: Autodesk, Inc."
 90
     1024
 91
        0
280
     0
281
     0
  0
CLASS
  1
ACMBOMSTANDARDDIN
  2
AcmBOMStdDIN
  3
"Amdt_StdImp|Product Description: AutoCAD Mechanical|Company: Autodesk, Inc."
 90
     1024
 91
        0
280
     0
281
     0
  0
CLASS
  1
ACMSURFSTANDARDISO
  2
AcmSurfTextStdISO
  3
"Amdt_StdImp|Product Description: AutoCAD Mechanical|Company: Autodesk, Inc."
 90
     1024
 91
        1
280
     0
281
     0
  0
CLASS
  1
ACMFCFSTANDARDISO
  2
AcmFCFStdISO
  3
"Amdt_StdImp|Product Description: AutoCAD Mechanical|Company: Autodesk, Inc."
 90
     1024
 91
        1
280
     0
281
     0
  0
CLASS
  1
ACMWELDSTANDARDISO
  2
AcmWeldingStdISO
  3
"Amdt_StdImp|Product Description: AutoCAD Mechanical|Company: Autodesk, Inc."
 90
     1024
 91
        1
280
     0
281
     0
  0
CLASS
  1
ACMIDSTANDARDISO
  2
AcmIdStdISO
  3
"Amdt_StdImp|Product Description: AutoCAD Mechanical|Company: Autodesk, Inc."
 90
     1024
 91
        1
280
     0
281
     0
  0
CLASS
  1
ACMDATUMSTANDARDISO
  2
AcmDatumStdISO
  3
"Amdt_StdImp|Product Description: AutoCAD Mechanical|Company: Autodesk, Inc."
 90
     1024
 91
        1
280
     0
281
     0
  0
CLASS
  1
ACMBOMSTANDARDISO
  2
AcmBOMStdISO
  3
"Amdt_StdImp|Product Description: AutoCAD Mechanical|Company: Autodesk, Inc."
 90
     1024
 91
        1
280
     0
281
     0
  0
CLASS
  1
AMDTBROWSERDBTAB
  2
AmdtBrowserDbTab
  3
McadcomServices
 90
     1024
 91
        1
280
     0
281
     0
  0
CLASS
  1
ACAMGFILTERDAT
  2
AcAmgFilterDat
  3
"AcadM|Product Description: AutoCAD Mechanical|Company: Autodesk, Inc."
 90
     1024
 91
        4
280
     0
281
     0
  0
CLASS
  1
MAPIAMMOUDLE
  2
MApiAmModule
  3
MApiAmServices
 90
     1024
 91
        1
280
     0
281
     0
  0
CLASS
  1
AMDTMAPISURFMOUDULE
  2
AmdtMApiSurfModule
  3
MApiSurfServices
 90
     1024
 91
        2
280
     0
281
     0
  0
CLASS
  1
ACAMGLAYSTD
  2
AcAmgLayStd
  3
"AmgLay|Product Description: AutoCAD Mechanical|Company: Autodesk, Inc."
 90
     1024
 91
        2
280
     0
281
     0
  0
CLASS
  1
ACAMGDIMSTD
  2
AcAmgDimStd
  3
"AmgDim|Product Description: AutoCAD Mechanical|Company: Autodesk, Inc."
 90
     1024
 91
        2
280
     0
281
     0
  0
CLASS
  1
ACAMGTITLESTD
  2
AcAmgTitleStd
  3
"AmgTitle|Product Description: AutoCAD Mechanical|Company: Autodesk, Inc."
 90
     1024
 91
        2
280
     0
281
     0
  0
CLASS
  1
ACMDETAILSTANDARDJIS
  2
AmdtDetailSymStdJIS
  3
"Amdt_StdImp|Product Description: AutoCAD Mechanical|Company: Autodesk, Inc."
 90
     1024
 91
        0
280
     0
281
     0
  0
CLASS
  1
ACMSECTIONSTANDARDJIS
  2
AmdtSectionSymStdJIS
  3
"Amdt_StdImp|Product Description: AutoCAD Mechanical|Company: Autodesk, Inc."
 90
     1024
 91
        0
280
     0
281
     0
  0
CLASS
  1
ACMCENTERLINESTANDARDJIS
  2
AmdtCenterLineStdJIS
  3
"Amdt_StdImp|Product Description: AutoCAD Mechanical|Company: Autodesk, Inc."
 90
     1024
 91
        0
280
     0
281
     0
  0
CLASS
  1
ACMTHREADLINESTANDARDJIS
  2
AmdtThreadLineStdJIS
  3
"Amdt_StdImp|Product Description: AutoCAD Mechanical|Company: Autodesk, Inc."
 90
     1024
 91
        0
280
     0
281
     0
  0
CLASS
  1
ACMDETAILSTANDARDANSI
  2
AmdtDetailSymStdANSI
  3
"Amdt_StdImp|Product Description: AutoCAD Mechanical|Company: Autodesk, Inc."
 90
     1024
 91
        0
280
     0
281
     0
  0
CLASS
  1
ACMSECTIONSTANDARDANSI
  2
AmdtSectionSymStdANSI
  3
"Amdt_StdImp|Product Description: AutoCAD Mechanical|Company: Autodesk, Inc."
 90
     1024
 91
        0
280
     0
281
     0
  0
CLASS
  1
ACMCENTERLINESTANDARDANSI
  2
AmdtCenterLineStdANSI
  3
"Amdt_StdImp|Product Description: AutoCAD Mechanical|Company: Autodesk, Inc."
 90
     1024
 91
        1
280
     0
281
     0
  0
CLASS
  1
ACMTHREADLINESTANDARDANSI
  2
AmdtThreadLineStdANSI
  3
"Amdt_StdImp|Product Description: AutoCAD Mechanical|Company: Autodesk, Inc."
 90
     1024
 91
        1
280
     0
281
     0
  0
CLASS
  1
ACMDETAILSTANDARDBSI
  2
AmdtDetailSymStdBSI
  3
"Amdt_StdImp|Product Description: AutoCAD Mechanical|Company: Autodesk, Inc."
 90
     1024
 91
        0
280
     0
281
     0
  0
CLASS
  1
ACMSECTIONSTANDARDBSI
  2
AmdtSectionSymStdBSI
  3
"Amdt_StdImp|Product Description: AutoCAD Mechanical|Company: Autodesk, Inc."
 90
     1024
 91
        0
280
     0
281
     0
  0
CLASS
  1
ACMCENTERLINESTANDARDBSI
  2
AmdtCenterLineStdBSI
  3
"Amdt_StdImp|Product Description: AutoCAD Mechanical|Company: Autodesk, Inc."
 90
     1024
 91
        0
280
     0
281
     0
  0
CLASS
  1
ACMTHREADLINESTANDARDBSI
  2
AmdtThreadLineStdBSI
  3
"Amdt_StdImp|Product Description: AutoCAD Mechanical|Company: Autodesk, Inc."
 90
     1024
 91
        0
280
     0
281
     0
  0
CLASS
  1
ACMDETAILSTANDARDDIN
  2
AmdtDetailSymStdDIN
  3
"Amdt_StdImp|Product Description: AutoCAD Mechanical|Company: Autodesk, Inc."
 90
     1024
 91
        0
280
     0
281
     0
  0
CLASS
  1
ACMSECTIONSTANDARDDIN
  2
AmdtSectionSymStdDIN
  3
"Amdt_StdImp|Product Description: AutoCAD Mechanical|Company: Autodesk, Inc."
 90
     1024
 91
        0
280
     0
281
     0
  0
CLASS
  1
ACMCENTERLINESTANDARDDIN
  2
AmdtCenterLineStdDIN
  3
"Amdt_StdImp|Product Description: AutoCAD Mechanical|Company: Autodesk, Inc."
 90
     1024
 91
        0
280
     0
281
     0
  0
CLASS
  1
ACMTHREADLINESTANDARDDIN
  2
AmdtThreadLineStdDIN
  3
"Amdt_StdImp|Product Description: AutoCAD Mechanical|Company: Autodesk, Inc."
 90
     1024
 91
        0
280
     0
281
     0
  0
CLASS
  1
AMDTEDGESTANDARDISO
  2
AmdtEdgeStdISO
  3
"Amdt_StdImp|Product Description: AutoCAD Mechanical|Company: Autodesk, Inc."
 90
     1024
 91
        1
280
     0
281
     0
  0
CLASS
  1
ACMDETAILSTANDARDISO
  2
AmdtDetailSymStdISO
  3
"Amdt_StdImp|Product Description: AutoCAD Mechanical|Company: Autodesk, Inc."
 90
     1024
 91
        1
280
     0
281
     0
  0
CLASS
  1
ACMSECTIONSTANDARDISO
  2
AmdtSectionSymStdISO
  3
"Amdt_StdImp|Product Description: AutoCAD Mechanical|Company: Autodesk, Inc."
 90
     1024
 91
        1
280
     0
281
     0
  0
CLASS
  1
ACMCENTERLINESTANDARDISO
  2
AmdtCenterLineStdISO
  3
"Amdt_StdImp|Product Description: AutoCAD Mechanical|Company: Autodesk, Inc."
 90
     1024
 91
        1
280
     0
281
     0
  0
CLASS
  1
ACMTHREADLINESTANDARDISO
  2
AmdtThreadLineStdISO
  3
"Amdt_StdImp|Product Description: AutoCAD Mechanical|Company: Autodesk, Inc."
 90
     1024
 91
        1
280
     0
281
     0
  0
CLASS
  1
ACMNOTESTANDARDISO
  2
AmdtNoteStdISO
  3
"Amdt_StdImp|Product Description: AutoCAD Mechanical|Company: Autodesk, Inc."
 90
     1024
 91
        1
280
     0
281
     0
  0
CLASS
  1
ACAMGHOLECHARTSTDISO
  2
AcAmgHoleChartStdISO
  3
"AmgDim" "Product Description: AutoCAD Mechanical|Company: Autodesk, Inc."
 90
     1024
 91
        1
280
     0
281
     0
  0
CLASS
  1
ACMNOTESTANDARDANSI
  2
AmdtNoteStdANSI
  3
"Amdt_StdImp|Product Description: AutoCAD Mechanical|Company: Autodesk, Inc."
 90
     1024
 91
        1
280
     0
281
     0
  0
CLASS
  1
AMDTNOTETEMPLATEDB
  2
AmdtNoteTemplateDB
  3
"AcmSymBB" "Product Description: AutoCAD Mechanical|Company: Autodesk, Inc."
 90
     1024
 91
        8
280
     0
281
     0
  0
CLASS
  1
ACAMGHOLECHARTSTDANSI
  2
AcAmgHoleChartStdANSI
  3
"AmgDim" "Product Description: AutoCAD Mechanical|Company: Autodesk, Inc."
 90
     1024
 91
        1
280
     0
281
     0
  0
CLASS
  1
TABLESTYLE
  2
AcDbTableStyle
  3
ObjectDBX Classes
 90
     4095
 91
        1
280
     0
281
     0
  0
CLASS
  1
ACAD_TABLE
  2
AcDbTable
  3
ObjectDBX Classes
 90
     1025
 91
        0
280
     0
281
     1
  0
CLASS
  1
MATERIAL
  2
AcDbMaterial
  3
ObjectDBX Classes
 90
     1153
 91
        3
280
     0
281
     0
  0
CLASS
  1
VISUALSTYLE
  2
AcDbVisualStyle
  3
ObjectDBX Classes
 90
     4095
 91
       26
280
     0
281
     0
  0
CLASS
  1
SCALE
  2
AcDbScale
  3
ObjectDBX Classes
 90
     1153
 91
       17
280
     0
281
     0
  0
CLASS
  1
MLEADERSTYLE
  2
AcDbMLeaderStyle
  3
ACDB_MLEADERSTYLE_CLASS
 90
     4095
 91
        1
280
     0
281
     0
  0
CLASS
  1
ACRFATTGENMGR
  2
AcRfAttGeneralMgr
  3
AcAttribServices
 90
     1024
 91
        1
280
     0
281
     0
  0
CLASS
  1
ACRFOBJATTMGR
  2
AcRfObjAttGroupMgr
  3
AcAttribServices
 90
     1024
 91
        1
280
     0
281
     0
  0
CLASS
  1
ACRFMCADAPIATTHOLDER
  2
AcRfMCADAPIAttHolder
  3
AcAttribServices
 90
     1024
 91
        1
280
     0
281
     0
  0
CLASS
  1
AMDTSYSATTR
  2
AmdtSystemAttribute
  3
AcAttribServices
 90
     1024
 91
        5
280
     0
281
     0
  0
CLASS
  1
ACMTAPERSTANDARDISO
  2
AcmTaperStdISO
  3
"Amdt_StdImp|Product Description: AutoCAD Mechanical|Company: Autodesk, Inc."
 90
     1024
 91
        1
280
     0
281
     0
  0
CLASS
  1
ACMANOOTATIONVIEWSTANDARDISO
  2
AmdtAnViewStdISO
  3
"Amdt_StdImp|Product Description: AutoCAD Mechanical|Company: Autodesk, Inc."
 90
     1024
 91
        1
280
     0
281
     0
  0
CLASS
  1
ACMTAPERSTANDARDANSI
  2
AcmTaperStdANSI
  3
"Amdt_StdImp|Product Description: AutoCAD Mechanical|Company: Autodesk, Inc."
 90
     1024
 91
        1
280
     0
281
     0
  0
CLASS
  1
ACMANOOTATIONVIEWSTANDARDANSI
  2
AmdtAnViewStdANSI
  3
"Amdt_StdImp|Product Description: AutoCAD Mechanical|Company: Autodesk, Inc."
 90
     1024
 91
        1
280
     0
281
     0
  0
CLASS
  1
CELLSTYLEMAP
  2
AcDbCellStyleMap
  3
ObjectDBX Classes
 90
     1152
 91
        1
280
     0
281
     0
  0
CLASS
  1
CAMSSTRUCTBTNSTATE
  2
StructBtnState
  3
DesignerAssemblies_arx
 90
     1024
 91
        1
280
     0
281
     0
  0
CLASS
  1
ACDBSECTIONVIEWSTYLE
  2
AcDbSectionViewStyle
  3
ObjectDBX Classes
 90
     1025
 91
        6
280
     0
281
     0
  0
CLASS
  1
ACDBDETAILVIEWSTYLE
  2
AcDbDetailViewStyle
  3
ObjectDBX Classes
 90
     1025
 91
        5
280
     0
281
     0
  0
CLASS
  1
FIELD
  2
AcDbField
  3
ObjectDBX Classes
 90
     1152
 91
       17
280
     0
281
     0
  0
CLASS
  1
SORTENTSTABLE
  2
AcDbSortentsTable
  3
ObjectDBX Classes
 90
        0
 91
        0
280
     0
281
     0
  0
CLASS
  1
FIELDLIST
  2
AcDbFieldList
  3
ObjectDBX Classes
 90
     1152
 91
        1
280
     0
281
     0
  0
CLASS
  1
ACMSECTIONSTANDARDCUSTOM
  2
AmdtSectionSymStdCustom
  3
"Amdt_StdImp|Product Description: AutoCAD Mechanical|Company: Autodesk, Inc."
 90
     1024
 91
       10
280
     0
281
     0
  0
CLASS
  1
ACMDETAILTANDARDCUSTOM
  2
AmdtDetailSymStdCustom
  3
"Amdt_StdImp|Product Description: AutoCAD Mechanical|Company: Autodesk, Inc."
 90
     1024
 91
        8
280
     0
281
     0
  0
CLASS
  1
EXACXREFPANELOBJECT
  2
ExAcXREFPanelObject
  3
EXAC_ESW
 90
     1025
 91
        0
280
     0
281
     0
  0
CLASS
  1
NPOCOLLECTION
  2
AcDbImpNonPersistentObjectsCollection
  3
ObjectDBX Classes
 90
     1153
 91
        0
280
     0
281
     0
  0
CLASS
  1
ACAD_EVALUATION_GRAPH
  2
AcDbEvalGraph
  3
ObjectDBX Classes
 90
     1153
 91
        1
280
     0
281
     0
  0
CLASS
  1
ACAECUSTOBJ
  2
AcAeEditorObj
  3
AcAeEditorObj
 90
     1024
 91
        0
280
     0
281
     0
  0
CLASS
  1
ACDB_DYNAMICBLOCKPURGEPREVENTER_VERSION
  2
AcDbDynamicBlockPurgePreventer
  3
ObjectDBX Classes
 90
     1153
 91
        1
280
     0
281
     0
  0
CLASS
  1
PLOTSETTINGS
  2
AcDbPlotSettings
  3
ObjectDBX Classes
 90
        0
 91
        1
280
     0
281
     0
  0
ENDSEC
  0
SECTION
  2
TABLES
  0
TABLE
  2
VPORT
  5
8
330
0
100
AcDbSymbolTable
 70
     1
1001
ACAD
1000
DbSaveVer
1071
      224
  0
VPORT
  5
A35
330
8
100
AcDbSymbolTableRecord
100
AcDbViewportTableRecord
  2
*Active
 70
     0
 10
0.0
 20
0.0
 11
1.0
 21
1.0
 12
-4.19448779685711
 22
0.0022664488086832
 13
0.0
 23
0.0
 14
2.5
 24
2.5
 15
10.0
 25
10.0
 16
0.0
 26
0.0
 36
1.0
 17
0.0
 27
0.0
 37
0.0
 40
202.2978205253419
 41
1.610042735042735
 42
50.0
 43
0.0
 44
0.0
 50
0.0
 51
0.0
 71
     0
 72
   100
 73
     1
 74
     1
 75
     0
 76
     0
 77
     0
 78
     0
281
     0
 65
     0
110
0.0
120
0.0
130
0.0
111
1.0
121
0.0
131
0.0
112
0.0
122
1.0
132
0.0
 79
     0
146
0.0
348
A55
 60
     3
 61
     5
292
     1
282
     1
141
0.0
142
0.0
 63
   250
421
  3355443
1001
ACAD_NAV_VCDISPLAY
1070
     3
  0
ENDTAB
  0
TABLE
  2
LTYPE
  5
5
330
0
100
AcDbSymbolTable
 70
    19
  0
LTYPE
  5
14
330
5
100
AcDbSymbolTableRecord
100
AcDbLinetypeTableRecord
  2
BYBLOCK
 70
     0
  3

 72
    65
 73
     0
 40
0.0
  0
LTYPE
  5
15
330
5
100
AcDbSymbolTableRecord
100
AcDbLinetypeTableRecord
  2
BYLAYER
 70
     0
  3

 72
    65
 73
     0
 40
0.0
  0
LTYPE
  5
16
330
5
100
AcDbSymbolTableRecord
100
AcDbLinetypeTableRecord
  2
CONTINUOUS
 70
     0
  3
Solid line
 72
    65
 73
     0
 40
0.0
  0
LTYPE
  5
BD
330
5
100
AcDbSymbolTableRecord
100
AcDbLinetypeTableRecord
  2
HIDDEN
 70
     0
  3
__ __ __ __ __ __ __ __ __ __ __ __ __ __ __ __
 72
    65
 73
     2
 40
0.375
 49
0.25
 74
     0
 49
-0.125
 74
     0
  0
LTYPE
  5
BF
330
5
100
AcDbSymbolTableRecord
100
AcDbLinetypeTableRecord
  2
PHANTOM2
 70
     0
  3
___ _ _ ___ _ _ ___ _ _ ___ _ _ ___ _ _ ___ _ _
 72
    65
 73
     6
 40
1.25
 49
0.625
 74
     0
 49
-0.125
 74
     0
 49
0.125
 74
     0
 49
-0.125
 74
     0
 49
0.125
 74
     0
 49
-0.125
 74
     0
  0
LTYPE
  5
CA
330
5
100
AcDbSymbolTableRecord
100
AcDbLinetypeTableRecord
  2
CENTER
 70
     0
  3
____ _ ____ _ ____ _ ____ _ ____ _ ____ _ ____ 
 72
    65
 73
     4
 40
2.0
 49
1.25
 74
     0
 49
-0.25
 74
     0
 49
0.25
 74
     0
 49
-0.25
 74
     0
  0
LTYPE
  5
14D
330
5
100
AcDbSymbolTableRecord
100
AcDbLinetypeTableRecord
  2
ACANSTGB
 70
     0
  3
__ . . __ . .
 72
    65
 73
     6
 40
0.35433070866
 49
0.15748031496
 74
     0
 49
-0.03937007874
 74
     0
 49
0.03937007874
 74
     0
 49
-0.03937007874
 74
     0
 49
0.03937007874
 74
     0
 49
-0.03937007874
 74
     0
  0
LTYPE
  5
14E
330
5
100
AcDbSymbolTableRecord
100
AcDbLinetypeTableRecord
  2
ACANSTGL
 70
     0
  3
_ _ _ _ _
 72
    65
 73
     2
 40
0.11811023622
 49
0.07874015748
 74
     0
 49
-0.03937007874
 74
     0
  0
LTYPE
  5
15B
330
5
100
AcDbSymbolTableRecord
100
AcDbLinetypeTableRecord
  2
ACISOWELD
 70
     0
  3
_ _ _ _ _
 72
    65
 73
     2
 40
2.0
 49
2.0
 74
     0
 49
-1.0
 74
     0
  0
LTYPE
  5
15C
330
5
100
AcDbSymbolTableRecord
100
AcDbLinetypeTableRecord
  2
ACISOTGB
 70
     0
  3
__ . . __ . .
 72
    65
 73
     6
 40
9.0
 49
4.0
 74
     0
 49
-1.0
 74
     0
 49
1.0
 74
     0
 49
-1.0
 74
     0
 49
1.0
 74
     0
 49
-1.0
 74
     0
  0
LTYPE
  5
15D
330
5
100
AcDbSymbolTableRecord
100
AcDbLinetypeTableRecord
  2
ACISOTGL
 70
     0
  3
_ _ _ _ _
 72
    65
 73
     2
 40
3.0
 49
2.0
 74
     0
 49
-1.0
 74
     0
  0
LTYPE
  5
175
330
5
100
AcDbSymbolTableRecord
100
AcDbLinetypeTableRecord
  2
AM_ISO02W050
 70
     0
  3
__ __ __ __ __ __ __ __ __ __ __ __ __ __ __
 72
    65
 73
     2
 40
7.5
 49
6.0
 74
     0
 49
-1.5
 74
     0
  0
LTYPE
  5
176
330
5
100
AcDbSymbolTableRecord
100
AcDbLinetypeTableRecord
  2
AM_ISO08W050
 70
     0
  3
____ . ____ . ____ . ____ . ____ . ____ . ____
 72
    65
 73
     4
 40
18.0
 49
12.0
 74
     0
 49
-1.5
 74
     0
 49
3.0
 74
     0
 49
-1.5
 74
     0
  0
LTYPE
  5
177
330
5
100
AcDbSymbolTableRecord
100
AcDbLinetypeTableRecord
  2
AM_ISO09W050
 70
     0
  3
_____ . . _____ . . _____ . . ____ .. ____
 72
    65
 73
     6
 40
22.5
 49
12.0
 74
     0
 49
-1.5
 74
     0
 49
3.0
 74
     0
 49
-1.5
 74
     0
 49
3.0
 74
     0
 49
-1.5
 74
     0
  0
LTYPE
  5
178
330
5
100
AcDbSymbolTableRecord
100
AcDbLinetypeTableRecord
  2
AM_ISO02W050x2
 70
     0
  3
 _ _ _ _ _ _ _ _ _ _ _ _
 72
    65
 73
     2
 40
3.75
 49
3.0
 74
     0
 49
-0.75
 74
     0
  0
LTYPE
  5
179
330
5
100
AcDbSymbolTableRecord
100
AcDbLinetypeTableRecord
  2
AM_ISO08W050x2
 70
     0
  3
__ . __ . __ . __ . __ . __
 72
    65
 73
     4
 40
9.0
 49
6.0
 74
     0
 49
-0.75
 74
     0
 49
1.5
 74
     0
 49
-0.75
 74
     0
  0
LTYPE
  5
17C
330
5
100
AcDbSymbolTableRecord
100
AcDbLinetypeTableRecord
  2
Amzigzag
 70
     0
  3
/\/-/\/-/\/-/\/-/\/-/\/
 72
    65
 73
     2
 40
11.0001
 49
0.0001
 74
     4
 75
   135
340
17B
 46
0.04
 50
0.0
 44
0.0
 45
0.0
 49
-11.0
 74
     0
  0
LTYPE
  5
2ED
330
5
100
AcDbSymbolTableRecord
100
AcDbLinetypeTableRecord
  2
Amconstr
 70
     0
  3
_______________________
 72
    65
 73
     2
 40
9999.0
 49
9999.0
 74
     0
 49
0.0
 74
     0
  0
LTYPE
  5
2F8
330
5
100
AcDbSymbolTableRecord
100
AcDbLinetypeTableRecord
  2
CENTER2
 70
     0
  3
Center (.5x) ___ _ ___ _ ___ _ ___ _ ___ _ ___
 72
    65
 73
     4
 40
1.125
 49
0.75
 74
     0
 49
-0.125
 74
     0
 49
0.125
 74
     0
 49
-0.125
 74
     0
  0
LTYPE
  5
2F9
330
5
100
AcDbSymbolTableRecord
100
AcDbLinetypeTableRecord
  2
HIDDEN2
 70
     0
  3
Hidden (.5x) _ _ _ _ _ _ _ _ _ _ _ _ _ _ _ _ _
 72
    65
 73
     2
 40
0.1875
 49
0.125
 74
     0
 49
-0.0625
 74
     0
  0
LTYPE
  5
2FA
330
5
100
AcDbSymbolTableRecord
100
AcDbLinetypeTableRecord
  2
Amzigzag2
 70
     0
  3
/\/-/\/-/\/-/\/-/\/-/\/
 72
    65
 73
     2
 40
0.4401
 49
0.0001
 74
     4
 75
   135
340
17B
 46
0.0016
 50
0.0
 44
0.0
 45
0.0
 49
-0.4400000000000001
 74
     0
  0
ENDTAB
  0
TABLE
  2
LAYER
  5
2
102
{ACAD_XDICTIONARY
360
592
102
}
330
0
100
AcDbSymbolTable
 70
    12
  0
LAYER
  5
F
102
{ACAD_XDICTIONARY
360
AB7
102
}
330
2
100
AcDbSymbolTableRecord
100
AcDbLayerTableRecord
  2
0
 70
     0
 62
     7
  6
CONTINUOUS
370
    -3
390
166
347
A47
348
0
  0
LAYER
  5
5CF
102
{ACAD_XDICTIONARY
360
AB9
102
}
330
2
100
AcDbSymbolTableRecord
100
AcDbLayerTableRecord
  2
AM_0
 70
     0
 62
     7
  6
CONTINUOUS
370
    50
390
166
347
A47
348
0
  0
LAYER
  5
3732
102
{ACAD_XDICTIONARY
360
3733
102
}
330
2
100
AcDbSymbolTableRecord
100
AcDbLayerTableRecord
  2
DIM
 70
     0
 62
     3
  6
CONTINUOUS
370
    25
390
166
347
A47
348
0
1001
AcAecLayerStandard
1000

1000

  0
ENDTAB
  0
TABLE
  2
STYLE
  5
3
330
0
100
AcDbSymbolTable
 70
     9
  0
STYLE
  5
10
330
3
100
AcDbSymbolTableRecord
100
AcDbTextStyleTableRecord
  2
STANDARD
 70
     0
 40
0.0
 41
1.0
 50
0.0
 71
     0
 42
3.5
  3
ISOCP.SHX
  4

  0
STYLE
  5
14C
330
3
100
AcDbSymbolTableRecord
100
AcDbTextStyleTableRecord
  2
ACANSGDT
 70
     0
 40
0.0
 41
1.0
 50
0.0
 71
     0
 42
3.5
  3
amgdt.shx
  4

  0
STYLE
  5
159
330
3
100
AcDbSymbolTableRecord
100
AcDbTextStyleTableRecord
  2
ACISOTS
 70
     0
 40
1.0
 41
1.0
 50
0.0
 71
     0
 42
2.5
  3
isocp.shx
  4

  0
STYLE
  5
15A
330
3
100
AcDbSymbolTableRecord
100
AcDbTextStyleTableRecord
  2
ACISOGDT
 70
     0
 40
0.0
 41
1.0
 50
0.0
 71
     0
 42
2.5
  3
amgdt.shx
  4

  0
STYLE
  5
17B
330
3
100
AcDbSymbolTableRecord
100
AcDbTextStyleTableRecord
  2

 70
     1
 40
0.0
 41
1.0
 50
0.0
 71
     0
 42
3.5
  3
ltypeshp.shx
  4

  0
STYLE
  5
425
330
3
100
AcDbSymbolTableRecord
100
AcDbTextStyleTableRecord
  2
ACANSTS
 70
     0
 40
1.0
 41
1.0
 50
0.0
 71
     0
 42
3.5
  3
romans.shx
  4

  0
STYLE
  5
D0A
330
3
100
AcDbSymbolTableRecord
100
AcDbTextStyleTableRecord
  2
ISOCP
 70
     0
 40
0.0
 41
1.0
 50
0.0
 71
     0
 42
3.5
  3
isocp
  4

  0
ENDTAB
  0
TABLE
  2
VIEW
  5
6
330
0
100
AcDbSymbolTable
 70
     9
  0
VIEW
  5
1C8
330
6
100
AcDbSymbolTableRecord
100
AcDbViewTableRecord
  2
AMDTVIEW1
 70
     0
 40
329.0721649484536
 10
210.0
 20
164.5360824742268
 41
420.0
 11
0.0
 21
0.0
 31
1.0
 12
0.0
 22
0.0
 32
0.0
 42
50.0
 43
0.0
 44
0.0
 50
0.0
 71
     0
281
     0
 72
     0
 73
     0
348
A55
  0
VIEW
  5
1C9
330
6
100
AcDbSymbolTableRecord
100
AcDbViewTableRecord
  2
AMDTVIEW2
 70
     0
 40
329.0721649484536
 10
210.0
 20
164.5360824742268
 41
420.0
 11
0.0
 21
0.0
 31
1.0
 12
0.0
 22
0.0
 32
0.0
 42
50.0
 43
0.0
 44
0.0
 50
0.0
 71
     0
281
     0
 72
     0
 73
     0
348
A55
  0
VIEW
  5
1CA
330
6
100
AcDbSymbolTableRecord
100
AcDbViewTableRecord
  2
AMDTVIEW3
 70
     0
 40
329.0721649484536
 10
210.0
 20
164.5360824742268
 41
420.0
 11
0.0
 21
0.0
 31
1.0
 12
0.0
 22
0.0
 32
0.0
 42
50.0
 43
0.0
 44
0.0
 50
0.0
 71
     0
281
     0
 72
     0
 73
     0
348
A55
  0
VIEW
  5
FA2
330
6
100
AcDbSymbolTableRecord
100
AcDbViewTableRecord
  2
AM_VIEW1
 70
     0
 40
148.5
 10
116.6562170706006
 20
222.75
 41
233.3124341412013
 11
0.0
 21
0.0
 31
1.0
 12
0.0
 22
0.0
 32
0.0
 42
50.0
 43
0.0
 44
0.0
 50
0.0
 71
     0
281
     0
 72
     0
 73
     0
  0
VIEW
  5
FA3
330
6
100
AcDbSymbolTableRecord
100
AcDbViewTableRecord
  2
AM_VIEW2
 70
     0
 40
148.5
 10
303.3437829293994
 20
222.75
 41
233.3124341412013
 11
0.0
 21
0.0
 31
1.0
 12
0.0
 22
0.0
 32
0.0
 42
50.0
 43
0.0
 44
0.0
 50
0.0
 71
     0
281
     0
 72
     0
 73
     0
  0
VIEW
  5
FA4
330
6
100
AcDbSymbolTableRecord
100
AcDbViewTableRecord
  2
AM_VIEW3
 70
     0
 40
148.5
 10
116.6562170706006
 20
74.25
 41
233.3124341412013
 11
0.0
 21
0.0
 31
1.0
 12
0.0
 22
0.0
 32
0.0
 42
50.0
 43
0.0
 44
0.0
 50
0.0
 71
     0
281
     0
 72
     0
 73
     0
  0
VIEW
  5
FA5
330
6
100
AcDbSymbolTableRecord
100
AcDbViewTableRecord
  2
AM_VIEW4
 70
     0
 40
148.5
 10
303.3437829293994
 20
74.25
 41
233.3124341412013
 11
0.0
 21
0.0
 31
1.0
 12
0.0
 22
0.0
 32
0.0
 42
50.0
 43
0.0
 44
0.0
 50
0.0
 71
     0
281
     0
 72
     0
 73
     0
  0
VIEW
  5
FA6
330
6
100
AcDbSymbolTableRecord
100
AcDbViewTableRecord
  2
AM_VIEW5
 70
     0
 40
148.5
 10
210.0
 20
148.5
 41
233.3124341412013
 11
0.0
 21
0.0
 31
1.0
 12
0.0
 22
0.0
 32
0.0
 42
50.0
 43
0.0
 44
0.0
 50
0.0
 71
     0
281
     0
 72
     0
 73
     0
  0
VIEW
  5
FA7
330
6
100
AcDbSymbolTableRecord
100
AcDbViewTableRecord
  2
AM_VIEW6
 70
     0
 40
296.99703
 10
210.0
 20
148.5
 41
466.6202020337196
 11
0.0
 21
0.0
 31
1.0
 12
0.0
 22
0.0
 32
0.0
 42
50.0
 43
0.0
 44
0.0
 50
0.0
 71
     0
281
     0
 72
     0
 73
     0
  0
ENDTAB
  0
TABLE
  2
UCS
  5
7
330
0
100
AcDbSymbolTable
 70
     0
  0
ENDTAB
  0
TABLE
  2
APPID
  5
9
330
0
100
AcDbSymbolTable
 70
    39
  0
APPID
  5
11
330
9
100
AcDbSymbolTableRecord
100
AcDbRegAppTableRecord
  2
ACAD
 70
     0
  0
APPID
  5
CD
330
9
100
AcDbSymbolTableRecord
100
AcDbRegAppTableRecord
  2
AD_DRAW
 70
     0
  0
APPID
  5
E7
330
9
100
AcDbSymbolTableRecord
100
AcDbRegAppTableRecord
  2
DESIGNERASSEMBLIES
 70
     0
  0
APPID
  5
EB
330
9
100
AcDbSymbolTableRecord
100
AcDbRegAppTableRecord
  2
MCAD_NO_VIS
 70
     0
  0
APPID
  5
122
330
9
100
AcDbSymbolTableRecord
100
AcDbRegAppTableRecord
  2
ASURF_PCURVE_APPNAME
 70
     0
  0
APPID
  5
17F
330
9
100
AcDbSymbolTableRecord
100
AcDbRegAppTableRecord
  2
ACAD_TEMP_GRAPHIC
 70
     0
  0
APPID
  5
189
330
9
100
AcDbSymbolTableRecord
100
AcDbRegAppTableRecord
  2
ACATTRIBSERVICES
 70
     0
  0
APPID
  5
1C4
330
9
100
AcDbSymbolTableRecord
100
AcDbRegAppTableRecord
  2
ACADM_DIM_EDIT
 70
     0
  0
APPID
  5
1D5
330
9
100
AcDbSymbolTableRecord
100
AcDbRegAppTableRecord
  2
GENIUS_GENDIM_13
 70
     0
  0
APPID
  5
1D6
330
9
100
AcDbSymbolTableRecord
100
AcDbRegAppTableRecord
  2
GENIUS_GENDTOL_13
 70
     0
  0
APPID
  5
1D7
330
9
100
AcDbSymbolTableRecord
100
AcDbRegAppTableRecord
  2
GENIUS_GE3DTOL_13
 70
     0
  0
APPID
  5
2E9
330
9
100
AcDbSymbolTableRecord
100
AcDbRegAppTableRecord
  2
AMG_3D2D_5.0
 70
     0
  0
APPID
  5
3C0
330
9
100
AcDbSymbolTableRecord
100
AcDbRegAppTableRecord
  2
AMDT_DM_ADJ
 70
     0
  0
APPID
  5
82F
330
9
100
AcDbSymbolTableRecord
100
AcDbRegAppTableRecord
  2
ACAD_PSEXT
 70
     0
  0
APPID
  5
84A
330
9
100
AcDbSymbolTableRecord
100
AcDbRegAppTableRecord
  2
DCO15
 70
     0
  0
APPID
  5
892
330
9
100
AcDbSymbolTableRecord
100
AcDbRegAppTableRecord
  2
ACAD_DSTYLE_DIMTEXT_FILL
 70
     0
  0
APPID
  5
A74
330
9
100
AcDbSymbolTableRecord
100
AcDbRegAppTableRecord
  2
ACAD_MLEADERVER
 70
     0
  0
APPID
  5
AB1
330
9
100
AcDbSymbolTableRecord
100
AcDbRegAppTableRecord
  2
AcAecLayerStandard
 70
     0
  0
APPID
  5
CE6
330
9
100
AcDbSymbolTableRecord
100
AcDbRegAppTableRecord
  2
ACAD_NAV_VCDISPLAY
 70
     0
  0
APPID
  5
D0F
330
9
100
AcDbSymbolTableRecord
100
AcDbRegAppTableRecord
  2
ACAD_DSTYLE_DIMARC_LENGTH_SYMBOL
 70
     0
  0
APPID
  5
D10
330
9
100
AcDbSymbolTableRecord
100
AcDbRegAppTableRecord
  2
ACAD_DSTYLE_DIMJOGGED_JOGANGLE_SYMBOL
 70
     0
  0
APPID
  5
D11
330
9
100
AcDbSymbolTableRecord
100
AcDbRegAppTableRecord
  2
ACAD_EXEMPT_FROM_CAD_STANDARDS
 70
     0
  0
APPID
  5
D91
330
9
100
AcDbSymbolTableRecord
100
AcDbRegAppTableRecord
  2
GENIUS_GENTRA_14
 70
     0
  0
APPID
  5
D92
330
9
100
AcDbSymbolTableRecord
100
AcDbRegAppTableRecord
  2
ACAD_DSTYLE_DIMBREAK
 70
     0
  0
APPID
  5
D93
330
9
100
AcDbSymbolTableRecord
100
AcDbRegAppTableRecord
  2
ACAD_DSTYLE_DIMJAG
 70
     0
  0
APPID
  5
D94
330
9
100
AcDbSymbolTableRecord
100
AcDbRegAppTableRecord
  2
ACAD_DSTYLE_DIMTALN
 70
     0
  0
APPID
  5
F9C
330
9
100
AcDbSymbolTableRecord
100
AcDbRegAppTableRecord
  2
GENIUS_GENOBJ-N-TIT_13
 70
     0
  0
APPID
  5
F9D
330
9
100
AcDbSymbolTableRecord
100
AcDbRegAppTableRecord
  2
GENIUS_GENOLIS_13
 70
     0
  0
APPID
  5
F9E
330
9
100
AcDbSymbolTableRecord
100
AcDbRegAppTableRecord
  2
GENIUS_GENODEF_13
 70
     0
  0
APPID
  5
F9F
330
9
100
AcDbSymbolTableRecord
100
AcDbRegAppTableRecord
  2
GENIUS_GENOENT_13
 70
     0
  0
APPID
  5
FA0
330
9
100
AcDbSymbolTableRecord
100
AcDbRegAppTableRecord
  2
GENIUS_GENTITLE_13
 70
     0
  0
APPID
  5
FA1
330
9
100
AcDbSymbolTableRecord
100
AcDbRegAppTableRecord
  2
GENIUS_GENOREF_13
 70
     0
  0
APPID
  5
FA8
330
9
100
AcDbSymbolTableRecord
100
AcDbRegAppTableRecord
  2
GENIUS_GENSCREG_15
 70
     0
  0
APPID
  5
FA9
330
9
100
AcDbSymbolTableRecord
100
AcDbRegAppTableRecord
  2
GENIUS_GENOBJ-N-SDF_13
 70
     0
  0
APPID
  5
14AF
330
9
100
AcDbSymbolTableRecord
100
AcDbRegAppTableRecord
  2
ACAD_OBJECT_CHANGE_GUID
 70
     0
  0
APPID
  5
16D9
330
9
100
AcDbSymbolTableRecord
100
AcDbRegAppTableRecord
  2
ACAUTHENVIRON
 70
     0
  0
APPID
  5
18D6
330
9
100
AcDbSymbolTableRecord
100
AcDbRegAppTableRecord
  2
AcDbDynamicBlockTrueName
 70
     0
  0
APPID
  5
18D7
330
9
100
AcDbSymbolTableRecord
100
AcDbRegAppTableRecord
  2
AcDbDynamicBlockGUID
 70
     0
  0
APPID
  5
2A26
330
9
100
AcDbSymbolTableRecord
100
AcDbRegAppTableRecord
  2
PE_URL
 70
     0
  0
ENDTAB
  0
TABLE
  2
DIMSTYLE
  5
A
330
0
100
AcDbSymbolTable
 70
    18
100
AcDbDimStyleTable
 71
     2
340
344
340
31B
  0
DIMSTYLE
105
31C
330
A
100
AcDbSymbolTableRecord
100
AcDbDimStyleTableRecord
  2
AM_ANSI$3
 70
     0
  4
mm
 41
0.1
 42
0.05
 43
0.5
 44
0.1
 47
0.1
 48
0.1
 78
     7
 79
     2
140
0.12
141
0.0
146
0.71
147
0.06
176
   256
177
   256
178
     2
274
     4
284
     7
288
     1
289
     0
340
10
371
    -1
372
    -1
  0
DIMSTYLE
105
31D
330
A
100
AcDbSymbolTableRecord
100
AcDbDimStyleTableRecord
  2
AM_ANSI$4
 70
     0
  4
mm
 41
0.1
 42
0.05
 43
0.5
 44
0.1
 47
0.1
 48
0.1
 78
     7
 79
     2
140
0.12
141
0.0
146
0.71
147
0.06
176
   256
177
   256
178
     2
274
     4
284
     7
288
     1
289
     0
340
10
371
    -1
372
    -1
  0
DIMSTYLE
105
31E
330
A
100
AcDbSymbolTableRecord
100
AcDbDimStyleTableRecord
  2
AM_ANSI$7
 70
     0
  4
mm
 41
0.1
 42
0.05
 43
0.5
 44
0.1
 47
0.1
 48
0.1
 78
     7
 79
     2
140
0.24
141
0.0
146
0.71
147
0.06
176
   256
177
   256
178
     2
274
     4
284
     7
340
10
371
    -1
372
    -1
  0
DIMSTYLE
105
31F
330
A
100
AcDbSymbolTableRecord
100
AcDbDimStyleTableRecord
  2
AM_ANSI$SF
 70
     0
  4
mm
 41
0.1
 42
0.05
 43
0.5
 44
0.1
 47
0.1
 48
0.1
 75
     1
 76
     1
 78
     7
 79
     2
140
0.12
141
0.0
146
0.71
147
0.06
176
   256
177
   256
178
     2
274
     4
284
     7
340
10
371
    -1
372
    -1
  0
DIMSTYLE
105
320
330
A
100
AcDbSymbolTableRecord
100
AcDbDimStyleTableRecord
  2
AM_ANSI$SH
 70
     0
  4
mm
 41
0.1
 42
0.05
 43
0.5
 44
0.1
 47
0.1
 48
0.1
 75
     1
 76
     1
 78
     7
 79
     2
140
0.12
141
0.0
146
0.71
147
0.06
173
     1
176
   256
177
   256
178
     2
274
     4
284
     7
340
10
343
2F4
371
    -1
372
    -1
  0
DIMSTYLE
105
344
330
A
100
AcDbSymbolTableRecord
100
AcDbDimStyleTableRecord
  2
AM_ISO
 70
     0
  4
"
 41
2.5
 42
1.0
 43
10.0
 44
1.0
 47
0.1
 48
0.1
 73
     0
 74
     0
 77
     1
 78
     8
 79
     2
140
3.5
141
0.0
143
0.0393701
146
0.71
147
1.5
171
     3
172
     1
176
   256
177
   256
178
     2
271
     2
272
     2
274
     3
283
     0
284
     8
340
10
371
    -1
372
    -1
  0
DIMSTYLE
105
345
330
A
100
AcDbSymbolTableRecord
100
AcDbDimStyleTableRecord
  2
AM_ISO$3
 70
     0
  4
"
 41
2.5
 42
1.0
 43
10.0
 44
1.0
 47
0.1
 48
0.1
 73
     0
 77
     1
 78
     8
 79
     2
140
3.5
141
0.0
143
0.0393701
146
0.71
147
1.5
176
   256
177
   256
178
     2
271
     2
272
     3
274
     4
283
     0
284
     8
288
     1
289
     0
340
10
371
    -1
372
    -1
  0
DIMSTYLE
105
346
330
A
100
AcDbSymbolTableRecord
100
AcDbDimStyleTableRecord
  2
AM_ISO$4
 70
     0
  4
"
 41
2.5
 42
1.0
 43
10.0
 44
1.0
 47
0.1
 48
0.1
 73
     0
 77
     1
 78
     8
 79
     2
140
3.5
141
0.0
143
0.0393701
146
0.71
147
1.5
176
   256
177
   256
178
     2
271
     2
272
     3
274
     4
283
     0
284
     8
288
     1
289
     0
340
10
371
    -1
372
    -1
  0
DIMSTYLE
105
347
330
A
100
AcDbSymbolTableRecord
100
AcDbDimStyleTableRecord
  2
AM_ISO$6
 70
     0
  4
"
 41
2.5
 42
1.0
 43
10.0
 44
1.0
 47
0.1
 48
0.1
 73
     0
 74
     0
 78
     8
 79
     2
140
3.5
141
0.0
143
0.0393701
146
0.71
147
1.5
172
     1
176
   256
177
   256
178
     2
271
     2
272
     3
274
     4
283
     0
284
     8
340
10
371
    -1
372
    -1
  0
DIMSTYLE
105
348
330
A
100
AcDbSymbolTableRecord
100
AcDbDimStyleTableRecord
  2
AM_ISO$7
 70
     0
  4
"
 41
2.5
 42
1.0
 43
10.0
 44
1.0
 47
0.1
 48
0.1
 73
     0
 74
     0
 77
     1
 78
     8
 79
     2
140
5.0
141
0.0
143
0.0393701
146
0.71
147
1.5
172
     1
176
   256
177
   256
178
     2
271
     2
272
     3
274
     4
283
     0
284
     8
340
10
371
    -1
372
    -1
  0
DIMSTYLE
105
349
330
A
100
AcDbSymbolTableRecord
100
AcDbDimStyleTableRecord
  2
AM_ISO$SF
 70
     0
  4
"
 41
2.5
 42
1.0
 43
10.0
 44
1.0
 47
0.1
 48
0.1
 73
     0
 74
     0
 75
     1
 76
     1
 77
     1
 78
     8
 79
     2
140
3.5
141
0.0
143
0.0393701
146
0.71
147
1.5
172
     1
176
   256
177
   256
178
     2
271
     2
272
     3
274
     4
283
     0
284
     8
340
10
371
    -1
372
    -1
  0
DIMSTYLE
105
34A
330
A
100
AcDbSymbolTableRecord
100
AcDbDimStyleTableRecord
  2
AM_ISO$SH
 70
     0
  4
"
 41
2.5
 42
1.0
 43
10.0
 44
1.0
 47
0.1
 48
0.1
 73
     0
 74
     0
 75
     1
 76
     1
 77
     1
 78
     8
 79
     2
140
3.5
141
0.0
143
0.0393701
144
2.0
146
0.71
147
1.5
172
     1
173
     1
176
   256
177
   256
178
     2
271
     2
272
     3
274
     4
283
     0
284
     8
340
10
343
2F4
371
    -1
372
    -1
  0
DIMSTYLE
105
31B
330
A
100
AcDbSymbolTableRecord
100
AcDbDimStyleTableRecord
  2
AM_ANSI
 70
     0
  4
mm
 41
0.1
 42
0.05
 43
0.5
 44
0.1
 47
0.1
 48
0.1
 78
     7
 79
     2
140
0.12
141
0.0
146
0.71
147
0.06
176
   256
177
   256
178
     2
274
     4
284
     7
340
10
371
    -1
372
    -1
  0
DIMSTYLE
105
D0D
330
A
100
AcDbSymbolTableRecord
100
AcDbDimStyleTableRecord
  2
STANDARD
 70
     0
 41
3.5
 42
2.0
 43
10.0
 44
1.0
 46
2.0
 73
     0
 74
     0
 77
     1
 78
     8
140
3.5
141
0.0
143
25.39999999999999
145
1.0
147
1.0
172
     1
175
     1
176
   256
177
   256
178
     3
271
     2
272
     2
284
     8
340
D0A
  0
ENDTAB
  0
TABLE
  2
BLOCK_RECORD
  5
1
330
0
100
AcDbSymbolTable
 70
    10
  0
BLOCK_RECORD
  5
1A
102
{ACAD_XDICTIONARY
360
12A
102
}
330
1
100
AcDbSymbolTableRecord
100
AcDbBlockTableRecord
  2
*MODEL_SPACE
340
169
 70
     0
280
     1
281
     0
  0
BLOCK_RECORD
  5
2CA3
330
1
100
AcDbSymbolTableRecord
100
AcDbBlockTableRecord
  2
*Paper_Space
340
2CA4
 70
     0
280
     1
281
     0
  0
BLOCK_RECORD
  5
2F4
330
1
100
AcDbSymbolTableRecord
100
AcDbBlockTableRecord
  2
GENAXEH
340
0
 70
     0
280
     1
281
     0
  0
BLOCK_RECORD
  5
D74
330
1
100
AcDbSymbolTableRecord
100
AcDbBlockTableRecord
  2
_ACMFILLED15
340
0
310
2800000020000000200000000100080000000000000400000000000000000000000000000000000000000000000080000080000000808000800000008000800080800000C0C0C000C0DCC000F0CAA6000020400000206000002080000020A0000020C0000020E00000400000004020000040400000406000004080000040A0
310
000040C0000040E00000600000006020000060400000606000006080000060A0000060C0000060E00000800000008020000080400000806000008080000080A0000080C0000080E00000A0000000A0200000A0400000A0600000A0800000A0A00000A0C00000A0E00000C0000000C0200000C0400000C0600000C0800000C0
310
A00000C0C00000C0E00000E0000000E0200000E0400000E0600000E0800000E0A00000E0C00000E0E00040000000400020004000400040006000400080004000A0004000C0004000E00040200000402020004020400040206000402080004020A0004020C0004020E000404000004040200040404000404060004040800040
310
40A0004040C0004040E00040600000406020004060400040606000406080004060A0004060C0004060E00040800000408020004080400040806000408080004080A0004080C0004080E00040A0000040A0200040A0400040A0600040A0800040A0A00040A0C00040A0E00040C0000040C0200040C0400040C0600040C08000
310
40C0A00040C0C00040C0E00040E0000040E0200040E0400040E0600040E0800040E0A00040E0C00040E0E00080000000800020008000400080006000800080008000A0008000C0008000E00080200000802020008020400080206000802080008020A0008020C0008020E00080400000804020008040400080406000804080
310
008040A0008040C0008040E00080600000806020008060400080606000806080008060A0008060C0008060E00080800000808020008080400080806000808080008080A0008080C0008080E00080A0000080A0200080A0400080A0600080A0800080A0A00080A0C00080A0E00080C0000080C0200080C0400080C0600080C0
310
800080C0A00080C0C00080C0E00080E0000080E0200080E0400080E0600080E0800080E0A00080E0C00080E0E000C0000000C0002000C0004000C0006000C0008000C000A000C000C000C000E000C0200000C0202000C0204000C0206000C0208000C020A000C020C000C020E000C0400000C0402000C0404000C0406000C0
310
408000C040A000C040C000C040E000C0600000C0602000C0604000C0606000C0608000C060A000C060C000C060E000C0800000C0802000C0804000C0806000C0808000C080A000C080C000C080E000C0A00000C0A02000C0A04000C0A06000C0A08000C0A0A000C0A0C000C0A0E000C0C00000C0C02000C0C04000C0C06000
310
C0C08000C0C0A000F0FBFF00A4A0A000808080000000FF0000FF000000FFFF00FF000000FF00FF00FFFF0000FFFFFF0000000000000000000000000000000000000000000000000000000000000000000000000000000000000000000000000000000000000000000000000000000000000000000000000000000000000000
310
00000000000000000000000000000000000000000000000000000000000000000000000000000000000000000000000000000000000000000000000000000000000000000000000000000000000000000000000000000000000000000000000000000000000000000000000000000000000000000000000000000000000000
310
00000000000000000000000000000000000000000000000000000000000000000000000000000000000000000000000000000000000000000000000000000000000000000000000000000000000000000000000000000000000000000000000000000000000000000000000000000000000000000000000000000000000000
310
00000000000000000000000000000000000000000000000000000000000000000000000000000000000000000000000000000000FFFFFFFF00000000000000000000000000000000000000000000000000000000FFFFFFFFFFFFFFFFFFFFFF000000000000000000000000000000000000000000FFFFFFFFFFFFFFFFFFFFFF
310
FFFFFFFFFFFFFFFF00000000000000000000000000FFFFFFFFFFFFFFFFFFFFFFFFFFFFFFFFFFFFFFFFFFFFFFFFFFFF000000000000FFFFFFFFFFFFFFFFFFFFFFFFFFFFFFFFFFFFFFFFFFFFFFFFFFFFFFFFFFFF0000FFFFFFFFFFFFFFFFFFFFFFFFFFFFFFFFFFFFFFFFFFFFFFFFFF00000000000000FFFFFFFFFFFFFFFFFFFF
310
FFFFFFFFFF0000000000000000000000000000000000FFFFFFFFFF00000000000000000000000000000000000000000000000000000000000000000000000000000000000000000000000000000000000000000000000000000000000000000000000000000000000000000000000000000000000000000000000000000000
310
00000000000000000000000000000000000000000000000000000000000000000000000000000000000000000000000000000000000000000000000000000000000000000000000000000000000000000000000000000000000000000000000000000000000000000000000000000000000000000000000000000000000000
310
00000000000000000000000000000000000000000000000000000000000000000000000000000000000000000000000000000000000000000000000000000000000000000000000000000000000000000000000000000000000000000000000000000000000000000000000000000000000000000000000000000000000000
310
0000000000000000000000000000000000000000000000000000000000000000000000000000000000000000000000000000000000000000
 70
     0
280
     1
281
     0
  0
BLOCK_RECORD
  5
D78
330
1
100
AcDbSymbolTableRecord
100
AcDbBlockTableRecord
  2
_ACMFILLED30
340
0
 70
     0
280
     1
281
     0
  0
BLOCK_RECORD
  5
372B
102
{ACAD_XDICTIONARY
360
372C
102
}
330
1
100
AcDbSymbolTableRecord
100
AcDbBlockTableRecord
  2
dimensionBlock
340
0
102
{BLKREFS
331
395D
331
3961
331
3965
331
3969
331
396D
331
3971
102
}
 70
     4
280
     1
281
     0
1001
AcDbDynamicBlockGUID
1000
{ABAE17C1-BD05-CC44-872C-8E51C814C1B1}
  0
BLOCK_RECORD
  5
375C
330
1
100
AcDbSymbolTableRecord
100
AcDbBlockTableRecord
  2
H3_201_0_3X39_68UG
340
0
310
28000000200000002000000001002000000000000010000001000000010000000000000000000000302821FF302821FF302821FF302821FF302821FF302821FF302821FF302821FF302821FF302821FF302821FF302821FF302821FF302821FF302821FF302821FF302821FF302821FF302821FF302821FF302821FF302821
310
FF302821FF302821FF302821FF302821FF302821FF302821FF302821FF302821FF302821FF302821FF302821FF302821FF302821FF302821FF302821FF302821FF302821FF302821FF302821FF302821FF302821FF302821FF302821FF302821FF302821FF302821FF302821FF302821FF302821FF302821FF302821FF3028
310
21FF302821FF302821FF302821FF302821FF302821FF302821FF302821FF302821FF302821FF302821FF302821FF302821FF302821FF302821FF302821FF302821FF302821FF302821FF302821FF302821FF302821FFFFFFFFFFFFFFFFFFFFFFFFFFFFFFFFFFFFFFFFFFFFFFFFFFFFFFFFFFFFFFFFFFFFFFFFFF302821FF30
310
2821FF302821FF302821FF302821FF302821FF302821FF302821FF302821FF302821FF302821FF302821FF302821FF302821FF302821FF302821FF302821FF302821FF302821FF302821FF302821FF302821FFFFFFFFFF302821FFFFFFFFFFFFFFFFFF302821FF302821FF302821FF302821FF302821FF302821FFFFFFFFFF
310
FFFFFFFF302821FFFFFFFFFFFFFFFFFF302821FF302821FF302821FF302821FF302821FF302821FF302821FF302821FF302821FF302821FF302821FF302821FF302821FF302821FF302821FF302821FFFFFFFFFFFFFFFFFFFFFFFFFF302821FF302821FF302821FF302821FFFFFFFFFF302821FF302821FF302821FF302821
310
FF302821FFFFFFFFFFFFFFFFFFFFFFFFFF302821FF302821FF302821FF302821FF302821FF302821FF302821FF302821FF302821FF302821FF302821FF302821FF302821FF302821FFFFFFFFFFFFFFFFFFFFFFFFFFFFFFFFFFFFFFFFFF302821FF302821FF302821FFFFFFFFFFFFFFFFFFFFFFFFFFFFFFFFFF302821FF3028
310
21FFFFFFFFFFFFFFFFFFFFFFFFFFFFFFFFFFFFFFFFFF302821FF302821FF302821FF302821FF302821FF302821FF302821FF302821FF302821FF302821FF302821FF302821FFFFFFFFFFFFFFFFFF302821FFFFFFFFFFFFFFFFFFFFFFFFFF302821FF302821FF302821FFFFFFFFFFFFFFFFFFFFFFFFFFFFFFFFFF302821FF30
310
2821FFFFFFFFFFFFFFFFFFFFFFFFFF302821FFFFFFFFFFFFFFFFFF302821FF302821FF302821FF302821FF302821FF302821FF302821FF302821FF302821FF302821FF302821FFFFFFFFFF302821FF302821FFFFFFFFFFFFFFFFFFFFFFFFFFFFFFFFFF302821FF302821FF302821FF302821FF302821FF302821FF302821FF
310
FFFFFFFFFFFFFFFFFFFFFFFFFFFFFFFF302821FF302821FFFFFFFFFFFFFFFFFF302821FF302821FF302821FF302821FF302821FF302821FF302821FF302821FF302821FFFFFFFFFF302821FFFFFFFFFFFFFFFFFFFFFFFFFFFFFFFFFFFFFFFFFFFFFFFFFFFFFFFFFF302821FF302821FFFFFFFFFFFFFFFFFF302821FFFFFFFF
310
FFFFFFFFFFFFFFFFFFFFFFFFFFFFFFFFFFFFFFFFFFFFFFFFFF302821FFFFFFFFFFFFFFFFFF302821FF302821FF302821FF302821FF302821FF302821FF302821FFFFFFFFFFFFFFFFFFFFFFFFFFFFFFFFFFFFFFFFFFFFFFFFFFFFFFFFFFFFFFFFFFFFFFFFFFFFFFFFFFFFFFFFFFFFFFFFFFFFFFFFFFFFFFFFFFFFFFFFFFFFFF
310
FFFFFFFFFFFFFFFFFFFFFFFFFFFFFFFFFFFFFFFFFFFFFFFFFFFFFFFFFFFFFFFFFFFFFFFFFFFF302821FF302821FF302821FF302821FF302821FF302821FF302821FFFFFFFFFF302821FFFFFFFFFFFFFFFFFFFFFFFFFFFFFFFFFFFFFFFFFFFFFFFFFFFFFFFFFFFFFFFFFFFFFFFFFFFFFFFFFFFFFFFFFFFFFFFFFFFFFFFFFFFF
310
FFFFFFFFFFFFFFFFFFFFFFFFFFFFFFFFFFFFFFFFFFFFFFFFFFFFFFFFFFFFFFFFFFFFFFFFFFFFFFFFFFFFFF302821FF302821FF302821FF302821FF302821FFFFFFFFFFFFFFFFFFFFFFFFFFFFFFFFFFFFFFFFFFFFFFFFFF302821FF302821FF302821FFFFFFFFFFFFFFFFFFFFFFFFFFFFFFFFFFFFFFFFFFFFFFFFFFFFFFFFFF
310
FFFFFFFFFFFFFFFF302821FF302821FF302821FFFFFFFFFFFFFFFFFFFFFFFFFFFFFFFFFF302821FFFFFFFFFF302821FF302821FF302821FF302821FF302821FFFFFFFFFF302821FFFFFFFFFFFFFFFFFFFFFFFFFFFFFFFFFF302821FF302821FF302821FF302821FFFFFFFFFFFFFFFFFFFFFFFFFF302821FFFFFFFFFFFFFFFF
310
FFFFFFFFFF302821FF302821FF302821FF302821FF302821FFFFFFFFFFFFFFFFFFFFFFFFFF302821FFFFFFFFFF302821FF302821FF302821FF302821FF302821FFFFFFFFFF302821FFFFFFFFFFFFFFFFFFFFFFFFFFFFFFFFFF302821FF302821FF302821FFFFFFFFFFFFFFFFFFFFFFFFFFFFFFFFFF302821FFFFFFFFFFFFFF
310
FFFFFFFFFFFFFFFFFFFF302821FF302821FF302821FFFFFFFFFFFFFFFFFFFFFFFFFFFFFFFFFF302821FFFFFFFFFF302821FF302821FF302821FF302821FFFFFFFFFFFFFFFFFFFFFFFFFFFFFFFFFFFFFFFFFFFFFFFFFFFFFFFFFFFFFFFFFF302821FFFFFFFFFFFFFFFFFFFFFFFFFFFFFFFFFFFFFFFFFF302821FFFFFFFFFFFF
310
FFFFFFFFFFFFFFFFFFFFFFFFFFFFFF302821FFFFFFFFFFFFFFFFFFFFFFFFFFFFFFFFFFFFFFFFFFFFFFFFFFFFFFFFFF302821FF302821FF302821FFFFFFFFFFFFFFFFFFFFFFFFFFFFFFFFFFFFFFFFFFFFFFFFFFFFFFFFFFFFFFFFFFFFFFFFFFFFFFFFFFFFFFFFFFFFFFFFFFFFFFFFFFFFFFFFFFFFFFFFFFFFFFFFFFFFFFFFFF
310
FFFFFFFFFFFFFFFFFFFFFFFFFFFFFFFFFFFFFFFFFFFFFFFFFFFFFFFFFFFFFFFFFFFFFFFFFFFFFFFFFFFFFFFFFFFFFFFFFFFFFFFF302821FF302821FF302821FFFFFFFFFFFFFFFFFFFFFFFFFFFFFFFFFF302821FFFFFFFFFFFFFFFFFFFFFFFFFFFFFFFFFFFFFFFFFFFFFFFFFFFFFFFFFFFFFFFFFF302821FFFFFFFFFF302821
310
FFFFFFFFFFFFFFFFFFFFFFFFFFFFFFFFFFFFFFFFFFFFFFFFFFFFFFFFFFFFFFFFFF302821FFFFFFFFFFFFFFFFFFFFFFFFFFFFFFFFFF302821FF302821FF302821FF302821FFFFFFFFFF302821FF302821FF302821FF302821FF302821FFFFFFFFFFFFFFFFFFFFFFFFFFFFFFFFFF302821FF302821FFFFFFFFFFFFFFFFFFFFFF
310
FFFF302821FF302821FFFFFFFFFFFFFFFFFFFFFFFFFFFFFFFFFFFFFFFFFF302821FF302821FF302821FF302821FFFFFFFFFFFFFFFFFF302821FF302821FF302821FF302821FFFFFFFFFF302821FF302821FF302821FF302821FF302821FF302821FFFFFFFFFFFFFFFFFFFFFFFFFFFFFFFFFFFFFFFFFFFFFFFFFFFFFFFFFFFF
310
FFFFFFFFFFFFFFFFFFFFFFFFFFFFFFFFFFFFFFFFFFFFFF302821FF302821FF302821FF302821FF302821FF302821FFFFFFFFFF302821FF302821FF302821FF302821FF302821FFFFFFFFFF302821FF302821FFFFFFFFFFFFFFFFFFFFFFFFFF302821FFFFFFFFFFFFFFFFFFFFFFFFFFFFFFFFFFFFFFFFFFFFFFFFFFFFFFFFFF
310
FFFFFFFFFFFFFFFFFFFFFFFFFFFFFFFFFFFFFFFFFFFFFFFF302821FF302821FFFFFFFFFFFFFFFFFF302821FF302821FFFFFFFFFF302821FF302821FF302821FF302821FF302821FF302821FFFFFFFFFF302821FFFFFFFFFF302821FFFFFFFFFF302821FFFFFFFFFFFFFFFFFFFFFFFFFFFFFFFFFFFFFFFFFFFFFFFFFFFFFFFF
310
FFFFFFFFFFFFFFFFFFFFFFFFFFFFFFFFFFFFFFFFFFFFFFFFFF302821FFFFFFFFFF302821FFFFFFFFFF302821FF302821FFFFFFFFFF302821FF302821FF302821FF302821FF302821FF302821FFFFFFFFFF302821FFFFFFFFFFFFFFFFFFFFFFFFFF302821FF302821FFFFFFFFFFFFFFFFFFFFFFFFFFFFFFFFFF302821FF3028
310
21FF302821FFFFFFFFFFFFFFFFFFFFFFFFFFFFFFFFFF302821FF302821FFFFFFFFFFFFFFFFFFFFFFFFFF302821FFFFFFFFFF302821FF302821FF302821FF302821FF302821FF302821FF302821FF302821FFFFFFFFFF302821FFFFFFFFFFFFFFFFFF302821FF302821FFFFFFFFFFFFFFFFFFFFFFFFFFFFFFFFFF302821FF30
310
2821FF302821FF302821FFFFFFFFFFFFFFFFFFFFFFFFFF302821FF302821FFFFFFFFFFFFFFFFFF302821FF302821FFFFFFFFFF302821FF302821FF302821FF302821FF302821FF302821FF302821FF302821FFFFFFFFFF302821FF302821FF302821FF302821FF302821FFFFFFFFFFFFFFFFFFFFFFFFFFFFFFFFFF302821FF
310
302821FF302821FFFFFFFFFFFFFFFFFFFFFFFFFFFFFFFFFF302821FF302821FF302821FF302821FF302821FFFFFFFFFF302821FF302821FF302821FF302821FF302821FF302821FF302821FF302821FF302821FF302821FFFFFFFFFF302821FF302821FF302821FF302821FFFFFFFFFFFFFFFFFFFFFFFFFFFFFFFFFF302821
310
FF302821FF302821FFFFFFFFFFFFFFFFFFFFFFFFFFFFFFFFFF302821FF302821FF302821FF302821FFFFFFFFFF302821FF302821FF302821FF302821FF302821FF302821FF302821FF302821FF302821FF302821FF302821FF302821FFFFFFFFFF302821FF302821FFFFFFFFFFFFFFFFFFFFFFFFFFFFFFFFFFFFFFFFFFFFFF
310
FFFFFFFFFFFFFFFFFFFFFFFFFFFFFFFFFFFFFFFFFFFFFFFFFFFFFFFFFFFF302821FF302821FFFFFFFFFF302821FF302821FF302821FF302821FF302821FF302821FF302821FF302821FF302821FF302821FF302821FF302821FF302821FF302821FFFFFFFFFF302821FFFFFFFFFFFFFFFFFFFFFFFFFFFFFFFFFFFFFFFFFFFF
310
FFFFFFFFFFFFFFFFFFFFFFFFFFFFFFFFFFFFFFFFFFFFFFFFFFFFFFFFFFFFFFFFFFFFFFFFFFFFFF302821FF302821FF302821FF302821FF302821FF302821FF302821FF302821FF302821FF302821FF302821FF302821FF302821FF302821FF302821FF302821FFFFFFFFFFFFFFFFFFFFFFFFFF302821FF302821FFFFFFFFFF
310
FFFFFFFFFFFFFFFFFFFFFFFFFFFFFFFF302821FF302821FFFFFFFFFFFFFFFFFFFFFFFFFF302821FF302821FF302821FF302821FF302821FF302821FF302821FF302821FF302821FF302821FF302821FF302821FF302821FF302821FF302821FF302821FF302821FF302821FF302821FFFFFFFFFFFFFFFFFF302821FF302821
310
FF302821FFFFFFFFFF302821FF302821FF302821FFFFFFFFFFFFFFFFFFFFFFFFFFFFFFFFFF302821FF302821FF302821FF302821FF302821FF302821FF302821FF302821FF302821FF302821FF302821FF302821FF302821FF302821FF302821FF302821FF302821FF302821FF302821FF302821FF302821FFFFFFFFFFFFFF
310
FFFFFFFFFFFFFFFFFFFFFFFFFFFFFFFFFFFFFFFFFFFFFFFFFFFF302821FFFFFFFFFFFFFFFFFF302821FF302821FF302821FF302821FF302821FF302821FF302821FF302821FF302821FF302821FF302821FF302821FF302821FF302821FF302821FF302821FF302821FF302821FF302821FF302821FF302821FF302821FF30
310
2821FF302821FF302821FF302821FF302821FF302821FF302821FF302821FF302821FF302821FF302821FF302821FF302821FF302821FF302821FF302821FF302821FF302821FF302821FF302821FF302821FF302821FF302821FF302821FF302821FF302821FF302821FF302821FF302821FF302821FF302821FF302821FF
310
302821FF302821FF302821FF302821FF302821FF302821FF302821FF302821FF302821FF302821FF302821FF302821FF302821FF302821FF302821FF302821FF302821FF302821FF
102
{BLKREFS
331
3975
102
}
 70
     4
280
     1
281
     0
  0
ENDTAB
  0
ENDSEC
  0
SECTION
  2
BLOCKS
  0
BLOCK
  5
1B
330
1A
100
AcDbEntity
  8
0
100
AcDbBlockBegin
  2
*MODEL_SPACE
 70
     0
 10
0.0
 20
0.0
 30
0.0
  3
*MODEL_SPACE
  1

  0
ENDBLK
  5
1C
330
1A
100
AcDbEntity
  8
0
100
AcDbBlockEnd
  0
BLOCK
  5
2CA5
330
2CA3
100
AcDbEntity
 67
     1
  8
0
100
AcDbBlockBegin
  2
*Paper_Space
 70
     0
 10
0.0
 20
0.0
 30
0.0
  3
*Paper_Space
  1

  0
ENDBLK
  5
2CA6
330
2CA3
100
AcDbEntity
 67
     1
  8
0
100
AcDbBlockEnd
  0
BLOCK
  5
C49
330
2F4
100
AcDbEntity
  8
0
100
AcDbBlockBegin
  2
GENAXEH
 70
     0
 10
0.0
 20
0.0
 30
0.0
  3
GENAXEH
  1

  0
LINE
  5
C4A
330
2F4
100
AcDbEntity
  8
0
100
AcDbLine
 10
-1.0
 20
0.0
 30
0.0
 11
1.0
 21
0.0
 31
0.0
  0
ENDBLK
  5
C4B
330
2F4
100
AcDbEntity
  8
0
100
AcDbBlockEnd
  0
BLOCK
  5
D75
330
D74
100
AcDbEntity
  8
0
100
AcDbBlockBegin
  2
_ACMFILLED15
 70
     0
 10
0.0
 20
0.0
 30
0.0
  3
_ACMFILLED15
  1

  0
TRACE
  5
D76
330
D74
100
AcDbEntity
  8
AM_0
 62
     0
100
AcDbTrace
 10
-1.0
 20
-0.131652497
 30
0.0
 11
-1.0
 21
0.131652497
 31
0.0
 12
0.0
 22
0.0
 32
0.0
 13
0.0
 23
0.0
 33
0.0
  0
ENDBLK
  5
D77
330
D74
100
AcDbEntity
  8
0
100
AcDbBlockEnd
  0
BLOCK
  5
D79
330
D78
100
AcDbEntity
  8
0
100
AcDbBlockBegin
  2
_ACMFILLED30
 70
     0
 10
0.0
 20
0.0
 30
0.0
  3
_ACMFILLED30
  1

  0
TRACE
  5
D7A
330
D78
100
AcDbEntity
  8
AM_0
 62
     0
100
AcDbTrace
 10
-1.0
 20
-0.26794919
 30
0.0
 11
-1.0
 21
0.26794919
 31
0.0
 12
0.0
 22
0.0
 32
0.0
 13
0.0
 23
0.0
 33
0.0
  0
ENDBLK
  5
D7B
330
D78
100
AcDbEntity
  8
0
100
AcDbBlockEnd
  0
BLOCK
  5
372D
330
372B
100
AcDbEntity
  8
0
100
AcDbBlockBegin
  2
dimensionBlock
 70
     2
 10
0.0
 20
0.0
 30
0.0
  3
dimensionBlock
  1

  0
POINT
  5
372E
330
372B
100
AcDbEntity
  8
0
100
AcDbPoint
 10
0.0
 20
0.0
 30
0.0
  0
ATTDEF
  5
372F
330
372B
100
AcDbEntity
  8
0
100
AcDbText
 10
9.467092950319427
 20
2.891095235479383
 30
0.00000001
 40
5.0
  1

100
AcDbAttributeDefinition
280
     0
  3
bredd
  2
D
 70
     1
280
     1
  0
ATTDEF
  5
3730
330
372B
100
AcDbEntity
  8
0
100
AcDbText
 10
9.467092950319427
 20
-3.592322260641607
 30
0.00000001
 40
5.0
  1

100
AcDbAttributeDefinition
280
     0
  3
Dimension symbol
  2
Dsymbol
 70
     1
280
     1
  0
ENDBLK
  5
3731
330
372B
100
AcDbEntity
  8
0
100
AcDbBlockEnd
  0
BLOCK
  5
375D
330
375C
100
AcDbEntity
  8
0
100
AcDbBlockBegin
  2
H3_201_0_3X39_68UG
 70
     0
 10
0.0
 20
0.0
 30
0.0
  3
H3_201_0_3X39_68UG
  1

  0
LINE
  5
375F
330
375C
100
AcDbEntity
  8
AM_0
100
AcDbLine
 10
0.0000000000012506
 20
15.50000000000113
 30
0.0
 11
0.0000000000012506
 21
0.0000000000011369
 31
0.0
  0
ARC
  5
3760
330
375C
100
AcDbEntity
  8
AM_0
100
AcDbCircle
 10
0.0000000000012506
 20
50.50000000000114
 30
0.0
 40
35.0
100
AcDbArc
 50
270.0
 51
90.0
  0
LINE
  5
3761
330
375C
100
AcDbEntity
  8
AM_0
100
AcDbLine
 10
0.0000000000012506
 20
100.5000000000011
 30
0.0
 11
0.0000000000012506
 21
85.50000000000114
 31
0.0
  0
ARC
  5
3762
330
375C
100
AcDbEntity
  8
AM_0
100
AcDbCircle
 10
0.0000000000012506
 20
0.0000000000011369
 30
0.0
 40
100.4999999999999
100
AcDbArc
 50
329.9999999999995
 51
58.14678837140354
  0
ARC
  5
3763
330
375C
100
AcDbEntity
  8
AM_0
100
AcDbCircle
 10
-0.000000000017792
 20
-0.0000000000353566
 30
0.0
 40
100.5000000000411
100
AcDbArc
 50
61.32050930707961
 51
63.40978939550179
  0
ARC
  5
3764
330
375C
100
AcDbEntity
  8
AM_0
100
AcDbCircle
 10
0.0000000000012506
 20
0.0000000000011369
 30
0.0
 40
100.5
100
AcDbArc
 50
66.71407587043237
 51
90.0
  0
LINE
  5
3765
330
375C
100
AcDbEntity
  8
AM_0
100
AcDbLine
 10
74.04517202357084
 20
-42.74999999999891
 30
0.0
 11
87.03555308033736
 21
-50.24999999999891
 31
0.0
  0
ARC
  5
3766
330
375C
100
AcDbEntity
  8
AM_0
100
AcDbCircle
 10
43.73428289111553
 20
-25.24999999999892
 30
0.0
 40
35.0
100
AcDbArc
 50
329.9999999999995
 51
149.9999999999994
  0
LINE
  5
3767
330
375C
100
AcDbEntity
  8
AM_0
100
AcDbLine
 10
0.0000000000012506
 20
0.0000000000011369
 30
0.0
 11
13.42339375866004
 21
-7.749999999998919
 31
0.0
  0
LINE
  5
3768
330
375C
100
AcDbEntity
  8
AM_0
100
AcDbLine
 10
-13.42339375865748
 20
-7.749999999998919
 30
0.0
 11
0.0000000000012506
 21
0.0000000000011369
 31
0.0
  0
ARC
  5
3769
330
375C
100
AcDbEntity
  8
AM_0
100
AcDbCircle
 10
-43.73428289111291
 20
-25.24999999999892
 30
0.0
 40
35.0
100
AcDbArc
 50
30.00000000000055
 51
210.0000000000005
  0
LINE
  5
376A
330
375C
100
AcDbEntity
  8
AM_0
100
AcDbLine
 10
-87.03555308033491
 20
-50.24999999999891
 30
0.0
 11
-74.04517202356834
 21
-42.74999999999891
 31
0.0
  0
ARC
  5
376B
330
375C
100
AcDbEntity
  8
AM_0
100
AcDbCircle
 10
0.0000000000012506
 20
0.0000000000011369
 30
0.0
 40
100.4999999999999
100
AcDbArc
 50
90.0
 51
178.1467883714026
  0
ARC
  5
376C
330
375C
100
AcDbEntity
  8
AM_0
100
AcDbCircle
 10
0.0000000000221121
 20
0.0000000000021032
 30
0.0
 40
100.5000000000209
100
AcDbArc
 50
181.3205093070815
 51
183.4097893954997
  0
ARC
  5
376D
330
375C
100
AcDbEntity
  8
AM_0
100
AcDbCircle
 10
0.0000000000009095
 20
0.0000000000009095
 30
0.0
 40
100.4999999999996
100
AcDbArc
 50
186.7140758704312
 51
210.0000000000005
  0
LINE
  5
376E
330
375C
100
AcDbEntity
  8
AM_0
100
AcDbLine
 10
0.0000000000012506
 20
85.50000000000114
 30
0.0
 11
0.0000000000012506
 21
100.5000000000011
 31
0.0
  0
ARC
  5
376F
330
375C
100
AcDbEntity
  8
AM_0
100
AcDbCircle
 10
0.0000000000012506
 20
50.50000000000114
 30
0.0
 40
35.0
100
AcDbArc
 50
90.0
 51
270.0
  0
LINE
  5
3770
330
375C
100
AcDbEntity
  8
AM_0
100
AcDbLine
 10
0.0000000000012506
 20
0.0000000000011369
 30
0.0
 11
0.0000000000012506
 21
15.50000000000113
 31
0.0
  0
LINE
  5
3771
330
375C
100
AcDbEntity
  8
AM_0
100
AcDbLine
 10
13.42339375866004
 20
-7.749999999998976
 30
0.0
 11
0.0000000000012506
 21
0.0000000000011369
 31
0.0
  0
ARC
  5
3772
330
375C
100
AcDbEntity
  8
AM_0
100
AcDbCircle
 10
43.73428289111541
 20
-25.24999999999898
 30
0.0
 40
35.0
100
AcDbArc
 50
149.9999999999994
 51
329.9999999999995
  0
LINE
  5
3773
330
375C
100
AcDbEntity
  8
AM_0
100
AcDbLine
 10
87.03555308033736
 20
-50.24999999999898
 30
0.0
 11
74.04517202357067
 21
-42.74999999999898
 31
0.0
  0
ARC
  5
3774
330
375C
100
AcDbEntity
  8
AM_0
100
AcDbCircle
 10
0.0000000000012506
 20
0.0000000000010232
 30
0.0
 40
100.4999999999999
100
AcDbArc
 50
210.0000000000005
 51
298.1467883714012
  0
ARC
  5
3775
330
375C
100
AcDbEntity
  8
AM_0
100
AcDbCircle
 10
0.0000000000263185
 20
-0.0000000000381988
 30
0.0
 40
100.4999999999534
100
AcDbArc
 50
301.320509307082
 51
303.4097893954997
  0
ARC
  5
3776
330
375C
100
AcDbEntity
  8
AM_0
100
AcDbCircle
 10
0.0000000000015916
 20
0.0000000000007958
 30
0.0
 40
100.4999999999996
100
AcDbArc
 50
306.7140758704297
 51
329.9999999999995
  0
LINE
  5
3777
330
375C
100
AcDbEntity
  8
AM_0
100
AcDbLine
 10
-74.04517202356828
 20
-42.74999999999898
 30
0.0
 11
-87.03555308033481
 21
-50.24999999999898
 31
0.0
  0
ARC
  5
3778
330
375C
100
AcDbEntity
  8
AM_0
100
AcDbCircle
 10
-43.73428289111291
 20
-25.24999999999898
 30
0.0
 40
35.0
100
AcDbArc
 50
210.0000000000005
 51
30.00000000000055
  0
LINE
  5
3779
330
375C
100
AcDbEntity
  8
AM_0
100
AcDbLine
 10
0.0000000000012506
 20
0.0000000000011369
 30
0.0
 11
-13.42339375865748
 21
-7.749999999998976
 31
0.0
  0
ARC
  5
377A
330
375C
100
AcDbEntity
  8
AM_0
100
AcDbCircle
 10
0.0000000000012506
 20
50.50000000000114
 30
0.0
 40
33.90000000000021
100
AcDbArc
 50
270.0
 51
90.0
  0
LINE
  5
377B
330
375C
100
AcDbEntity
  8
AM_0
100
AcDbLine
 10
0.0000000000012506
 20
84.40000000000129
 30
0.0
 11
0.0000000000012506
 21
83.30000000000131
 31
0.0
  0
ARC
  5
377C
330
375C
100
AcDbEntity
  8
AM_0
100
AcDbCircle
 10
0.0000000000012506
 20
50.50000000000114
 30
0.0
 40
32.80000000000021
100
AcDbArc
 50
270.0
 51
90.0
  0
LINE
  5
377D
330
375C
100
AcDbEntity
  8
AM_0
100
AcDbLine
 10
0.0000000000012506
 20
16.60000000000087
 30
0.0
 11
0.0000000000012506
 21
17.7000000000009
 31
0.0
  0
ARC
  5
377E
330
375C
100
AcDbEntity
  8
AM_0
100
AcDbCircle
 10
0.0000000000012506
 20
50.50000000000114
 30
0.0
 40
31.7000000000002
100
AcDbArc
 50
270.0
 51
90.0
  0
LINE
  5
377F
330
375C
100
AcDbEntity
  8
AM_0
100
AcDbLine
 10
0.0000000000012506
 20
82.2000000000013
 30
0.0
 11
0.0000000000012506
 21
81.10000000000127
 31
0.0
  0
ARC
  5
3780
330
375C
100
AcDbEntity
  8
AM_0
100
AcDbCircle
 10
0.0000000000012506
 20
50.50000000000114
 30
0.0
 40
30.6000000000002
100
AcDbArc
 50
270.0
 51
90.0
  0
LINE
  5
3781
330
375C
100
AcDbEntity
  8
AM_0
100
AcDbLine
 10
0.0000000000012506
 20
18.80000000000092
 30
0.0
 11
0.0000000000012506
 21
19.90000000000089
 31
0.0
  0
ARC
  5
3782
330
375C
100
AcDbEntity
  8
AM_0
100
AcDbCircle
 10
0.0000000000012506
 20
50.50000000000114
 30
0.0
 40
29.50000000000019
100
AcDbArc
 50
270.0
 51
90.0
  0
LINE
  5
3783
330
375C
100
AcDbEntity
  8
AM_0
100
AcDbLine
 10
0.0000000000012506
 20
80.00000000000126
 30
0.0
 11
0.0000000000012506
 21
78.90000000000128
 31
0.0
  0
ARC
  5
3784
330
375C
100
AcDbEntity
  8
AM_0
100
AcDbCircle
 10
0.0000000000012506
 20
50.50000000000114
 30
0.0
 40
28.40000000000019
100
AcDbArc
 50
270.0
 51
90.0
  0
LINE
  5
3785
330
375C
100
AcDbEntity
  8
AM_0
100
AcDbLine
 10
0.0000000000012506
 20
21.00000000000091
 30
0.0
 11
0.0000000000012506
 21
22.10000000000093
 31
0.0
  0
ARC
  5
3786
330
375C
100
AcDbEntity
  8
AM_0
100
AcDbCircle
 10
0.0000000000012506
 20
50.50000000000114
 30
0.0
 40
27.30000000000018
100
AcDbArc
 50
270.0
 51
90.0
  0
LINE
  5
3787
330
375C
100
AcDbEntity
  8
AM_0
100
AcDbLine
 10
0.0000000000012506
 20
77.80000000000132
 30
0.0
 11
0.0000000000012506
 21
76.70000000000129
 31
0.0
  0
ARC
  5
3788
330
375C
100
AcDbEntity
  8
AM_0
100
AcDbCircle
 10
0.0000000000012506
 20
50.50000000000114
 30
0.0
 40
26.20000000000017
100
AcDbArc
 50
270.0
 51
90.0
  0
LINE
  5
3789
330
375C
100
AcDbEntity
  8
AM_0
100
AcDbLine
 10
0.0000000000012506
 20
23.2000000000009
 30
0.0
 11
0.0000000000012506
 21
24.30000000000098
 31
0.0
  0
ARC
  5
378A
330
375C
100
AcDbEntity
  8
AM_0
100
AcDbCircle
 10
0.0000000000012506
 20
50.50000000000114
 30
0.0
 40
25.10000000000017
100
AcDbArc
 50
270.0
 51
90.0
  0
LINE
  5
378B
330
375C
100
AcDbEntity
  8
AM_0
100
AcDbLine
 10
0.0000000000012506
 20
75.60000000000122
 30
0.0
 11
0.0000000000012506
 21
74.50000000000125
 31
0.0
  0
ARC
  5
378C
330
375C
100
AcDbEntity
  8
AM_0
100
AcDbCircle
 10
0.0000000000012506
 20
50.50000000000114
 30
0.0
 40
24.00000000000016
100
AcDbArc
 50
270.0
 51
90.0
  0
LINE
  5
378D
330
375C
100
AcDbEntity
  8
AM_0
100
AcDbLine
 10
0.0000000000012506
 20
25.40000000000089
 30
0.0
 11
0.0000000000012506
 21
26.50000000000091
 31
0.0
  0
ARC
  5
378E
330
375C
100
AcDbEntity
  8
AM_0
100
AcDbCircle
 10
0.0000000000012506
 20
50.50000000000114
 30
0.0
 40
22.90000000000016
100
AcDbArc
 50
270.0
 51
90.0
  0
LINE
  5
378F
330
375C
100
AcDbEntity
  8
AM_0
100
AcDbLine
 10
0.0000000000012506
 20
73.40000000000123
 30
0.0
 11
0.0000000000012506
 21
72.30000000000121
 31
0.0
  0
ARC
  5
3790
330
375C
100
AcDbEntity
  8
AM_0
100
AcDbCircle
 10
0.0000000000012506
 20
50.50000000000114
 30
0.0
 40
21.80000000000015
100
AcDbArc
 50
270.0
 51
90.0
  0
LINE
  5
3791
330
375C
100
AcDbEntity
  8
AM_0
100
AcDbLine
 10
0.0000000000012506
 20
27.60000000000105
 30
0.0
 11
0.0000000000012506
 21
28.70000000000101
 31
0.0
  0
ARC
  5
3792
330
375C
100
AcDbEntity
  8
AM_0
100
AcDbCircle
 10
0.0000000000012506
 20
50.50000000000114
 30
0.0
 40
20.70000000000014
100
AcDbArc
 50
270.0
 51
90.0
  0
LINE
  5
3793
330
375C
100
AcDbEntity
  8
AM_0
100
AcDbLine
 10
0.0000000000012506
 20
71.20000000000118
 30
0.0
 11
0.0000000000012506
 21
70.10000000000122
 31
0.0
  0
ARC
  5
3794
330
375C
100
AcDbEntity
  8
AM_0
100
AcDbCircle
 10
0.0000000000012506
 20
50.50000000000114
 30
0.0
 40
19.60000000000013
100
AcDbArc
 50
270.0
 51
90.0
  0
LINE
  5
3795
330
375C
100
AcDbEntity
  8
AM_0
100
AcDbLine
 10
0.0000000000012506
 20
29.80000000000098
 30
0.0
 11
0.0000000000012506
 21
30.900000000001
 31
0.0
  0
LINE
  5
3796
330
375C
100
AcDbEntity
  8
AM_0
100
AcDbLine
 10
72.13991613524519
 20
-41.64999999999889
 30
0.0
 11
73.09254407940807
 21
-42.19999999999896
 31
0.0
  0
ARC
  5
3797
330
375C
100
AcDbEntity
  8
AM_0
100
AcDbCircle
 10
43.73428289111553
 20
-25.24999999999892
 30
0.0
 40
33.90000000000012
100
AcDbArc
 50
329.9999999999995
 51
149.9999999999994
  0
LINE
  5
3798
330
375C
100
AcDbEntity
  8
AM_0
100
AcDbLine
 10
15.32864964698581
 20
-8.849999999998885
 30
0.0
 11
14.37602170282287
 21
-8.299999999998931
 31
0.0
  0
ARC
  5
3799
330
375C
100
AcDbEntity
  8
AM_0
100
AcDbCircle
 10
43.73428289111553
 20
-25.24999999999892
 30
0.0
 40
32.80000000000011
100
AcDbArc
 50
329.9999999999995
 51
149.9999999999994
  0
LINE
  5
379A
330
375C
100
AcDbEntity
  8
AM_0
100
AcDbLine
 10
70.23466024691936
 20
-40.54999999999899
 30
0.0
 11
71.1872881910823
 21
-41.09999999999888
 31
0.0
  0
ARC
  5
379B
330
375C
100
AcDbEntity
  8
AM_0
100
AcDbCircle
 10
43.73428289111553
 20
-25.24999999999892
 30
0.0
 40
31.70000000000012
100
AcDbArc
 50
329.9999999999995
 51
149.9999999999994
  0
LINE
  5
379C
330
375C
100
AcDbEntity
  8
AM_0
100
AcDbLine
 10
17.23390553531158
 20
-9.949999999998908
 30
0.0
 11
16.28127759114869
 21
-9.399999999998897
 31
0.0
  0
ARC
  5
379D
330
375C
100
AcDbEntity
  8
AM_0
100
AcDbCircle
 10
43.73428289111553
 20
-25.24999999999892
 30
0.0
 40
30.60000000000012
100
AcDbArc
 50
329.9999999999995
 51
149.9999999999994
  0
LINE
  5
379E
330
375C
100
AcDbEntity
  8
AM_0
100
AcDbLine
 10
68.32940435859359
 20
-39.44999999999891
 30
0.0
 11
69.28203230275653
 21
-39.99999999999892
 31
0.0
  0
ARC
  5
379F
330
375C
100
AcDbEntity
  8
AM_0
100
AcDbCircle
 10
43.73428289111553
 20
-25.24999999999892
 30
0.0
 40
29.50000000000012
100
AcDbArc
 50
329.9999999999995
 51
149.9999999999994
  0
LINE
  5
37A0
330
375C
100
AcDbEntity
  8
AM_0
100
AcDbLine
 10
19.13916142363735
 20
-11.04999999999893
 30
0.0
 11
18.18653347947452
 21
-10.49999999999892
 31
0.0
  0
ARC
  5
37A1
330
375C
100
AcDbEntity
  8
AM_0
100
AcDbCircle
 10
43.73428289111553
 20
-25.24999999999892
 30
0.0
 40
28.40000000000011
100
AcDbArc
 50
329.9999999999995
 51
149.9999999999994
  0
LINE
  5
37A2
330
375C
100
AcDbEntity
  8
AM_0
100
AcDbLine
 10
66.42414847026788
 20
-38.349999999999
 30
0.0
 11
67.3767764144307
 21
-38.89999999999901
 31
0.0
  0
ARC
  5
37A3
330
375C
100
AcDbEntity
  8
AM_0
100
AcDbCircle
 10
43.73428289111553
 20
-25.24999999999892
 30
0.0
 40
27.30000000000011
100
AcDbArc
 50
329.9999999999995
 51
149.9999999999994
  0
LINE
  5
37A4
330
375C
100
AcDbEntity
  8
AM_0
100
AcDbLine
 10
21.04441731196306
 20
-12.14999999999889
 30
0.0
 11
20.09178936780029
 21
-11.59999999999888
 31
0.0
  0
ARC
  5
37A5
330
375C
100
AcDbEntity
  8
AM_0
100
AcDbCircle
 10
43.73428289111553
 20
-25.24999999999892
 30
0.0
 40
26.2000000000001
100
AcDbArc
 50
329.9999999999995
 51
149.9999999999994
  0
LINE
  5
37A6
330
375C
100
AcDbEntity
  8
AM_0
100
AcDbLine
 10
64.51889258194206
 20
-37.24999999999898
 30
0.0
 11
65.47152052610499
 21
-37.79999999999893
 31
0.0
  0
ARC
  5
37A7
330
375C
100
AcDbEntity
  8
AM_0
100
AcDbCircle
 10
43.73428289111553
 20
-25.24999999999892
 30
0.0
 40
25.10000000000009
100
AcDbArc
 50
329.9999999999995
 51
149.9999999999994
  0
LINE
  5
37A8
330
375C
100
AcDbEntity
  8
AM_0
100
AcDbLine
 10
22.94967320028883
 20
-13.24999999999892
 30
0.0
 11
21.997045256126
 21
-12.69999999999891
 31
0.0
  0
ARC
  5
37A9
330
375C
100
AcDbEntity
  8
AM_0
100
AcDbCircle
 10
43.73428289111553
 20
-25.24999999999892
 30
0.0
 40
24.00000000000009
100
AcDbArc
 50
329.9999999999995
 51
149.9999999999994
  0
LINE
  5
37AA
330
375C
100
AcDbEntity
  8
AM_0
100
AcDbLine
 10
62.61363669361628
 20
-36.14999999999901
 30
0.0
 11
63.56626463777923
 21
-36.69999999999897
 31
0.0
  0
ARC
  5
37AB
330
375C
100
AcDbEntity
  8
AM_0
100
AcDbCircle
 10
43.73428289111553
 20
-25.24999999999892
 30
0.0
 40
22.9000000000001
100
AcDbArc
 50
329.9999999999995
 51
149.9999999999994
  0
LINE
  5
37AC
330
375C
100
AcDbEntity
  8
AM_0
100
AcDbLine
 10
24.85492908861471
 20
-14.34999999999888
 30
0.0
 11
23.90230114445177
 21
-13.79999999999893
 31
0.0
  0
ARC
  5
37AD
330
375C
100
AcDbEntity
  8
AM_0
100
AcDbCircle
 10
43.73428289111553
 20
-25.24999999999892
 30
0.0
 40
21.8000000000001
100
AcDbArc
 50
329.9999999999995
 51
149.9999999999994
  0
LINE
  5
37AE
330
375C
100
AcDbEntity
  8
AM_0
100
AcDbLine
 10
60.70838080529057
 20
-35.04999999999899
 30
0.0
 11
61.66100874945334
 21
-35.599999999999
 31
0.0
  0
ARC
  5
37AF
330
375C
100
AcDbEntity
  8
AM_0
100
AcDbCircle
 10
43.73428289111553
 20
-25.24999999999892
 30
0.0
 40
20.70000000000009
100
AcDbArc
 50
329.9999999999995
 51
149.9999999999994
  0
LINE
  5
37B0
330
375C
100
AcDbEntity
  8
AM_0
100
AcDbLine
 10
26.76018497694037
 20
-15.44999999999891
 30
0.0
 11
25.80755703277754
 21
-14.8999999999989
 31
0.0
  0
ARC
  5
37B1
330
375C
100
AcDbEntity
  8
AM_0
100
AcDbCircle
 10
43.73428289111553
 20
-25.24999999999892
 30
0.0
 40
19.60000000000008
100
AcDbArc
 50
329.9999999999995
 51
149.9999999999994
  0
ARC
  5
37B2
330
375C
100
AcDbEntity
  8
AM_0
100
AcDbCircle
 10
-43.73428289111291
 20
-25.24999999999892
 30
0.0
 40
33.90000000000022
100
AcDbArc
 50
30.00000000000055
 51
210.0000000000005
  0
LINE
  5
37B3
330
375C
100
AcDbEntity
  8
AM_0
100
AcDbLine
 10
-73.09254407940568
 20
-42.19999999999896
 30
0.0
 11
-72.13991613524274
 21
-41.64999999999901
 31
0.0
  0
ARC
  5
37B4
330
375C
100
AcDbEntity
  8
AM_0
100
AcDbCircle
 10
-43.73428289111291
 20
-25.24999999999892
 30
0.0
 40
32.80000000000021
100
AcDbArc
 50
30.00000000000055
 51
210.0000000000005
  0
LINE
  5
37B5
330
375C
100
AcDbEntity
  8
AM_0
100
AcDbLine
 10
-14.37602170282031
 20
-8.299999999998817
 30
0.0
 11
-15.32864964698319
 21
-8.849999999998772
 31
0.0
  0
ARC
  5
37B6
330
375C
100
AcDbEntity
  8
AM_0
100
AcDbCircle
 10
-43.73428289111291
 20
-25.24999999999892
 30
0.0
 40
31.70000000000021
100
AcDbArc
 50
30.00000000000055
 51
210.0000000000005
  0
LINE
  5
37B7
330
375C
100
AcDbEntity
  8
AM_0
100
AcDbLine
 10
-71.1872881910798
 20
-41.09999999999899
 30
0.0
 11
-70.23466024691692
 21
-40.54999999999899
 31
0.0
  0
ARC
  5
37B8
330
375C
100
AcDbEntity
  8
AM_0
100
AcDbCircle
 10
-43.73428289111291
 20
-25.24999999999892
 30
0.0
 40
30.6000000000002
100
AcDbArc
 50
30.00000000000055
 51
210.0000000000005
  0
LINE
  5
37B9
330
375C
100
AcDbEntity
  8
AM_0
100
AcDbLine
 10
-16.28127759114613
 20
-9.399999999998783
 30
0.0
 11
-17.2339055353089
 21
-9.949999999998794
 31
0.0
  0
ARC
  5
37BA
330
375C
100
AcDbEntity
  8
AM_0
100
AcDbCircle
 10
-43.73428289111291
 20
-25.24999999999892
 30
0.0
 40
29.5000000000002
100
AcDbArc
 50
30.00000000000055
 51
210.0000000000005
  0
LINE
  5
37BB
330
375C
100
AcDbEntity
  8
AM_0
100
AcDbLine
 10
-69.28203230275403
 20
-39.99999999999898
 30
0.0
 11
-68.32940435859109
 21
-39.44999999999897
 31
0.0
  0
ARC
  5
37BC
330
375C
100
AcDbEntity
  8
AM_0
100
AcDbCircle
 10
-43.73428289111291
 20
-25.24999999999892
 30
0.0
 40
28.40000000000019
100
AcDbArc
 50
30.00000000000055
 51
210.0000000000005
  0
LINE
  5
37BD
330
375C
100
AcDbEntity
  8
AM_0
100
AcDbLine
 10
-18.1865334794719
 20
-10.49999999999892
 30
0.0
 11
-19.13916142363473
 21
-11.04999999999882
 31
0.0
  0
ARC
  5
37BE
330
375C
100
AcDbEntity
  8
AM_0
100
AcDbCircle
 10
-43.73428289111291
 20
-25.24999999999892
 30
0.0
 40
27.30000000000018
100
AcDbArc
 50
30.00000000000055
 51
210.0000000000005
  0
LINE
  5
37BF
330
375C
100
AcDbEntity
  8
AM_0
100
AcDbLine
 10
-67.37677641442821
 20
-38.89999999999901
 30
0.0
 11
-66.42414847026532
 21
-38.349999999999
 31
0.0
  0
ARC
  5
37C0
330
375C
100
AcDbEntity
  8
AM_0
100
AcDbCircle
 10
-43.73428289111291
 20
-25.24999999999892
 30
0.0
 40
26.20000000000017
100
AcDbArc
 50
30.00000000000055
 51
210.0000000000005
  0
LINE
  5
37C1
330
375C
100
AcDbEntity
  8
AM_0
100
AcDbLine
 10
-20.09178936779762
 20
-11.59999999999888
 30
0.0
 11
-21.0444173119605
 21
-12.14999999999889
 31
0.0
  0
ARC
  5
37C2
330
375C
100
AcDbEntity
  8
AM_0
100
AcDbCircle
 10
-43.73428289111291
 20
-25.24999999999892
 30
0.0
 40
25.10000000000017
100
AcDbArc
 50
30.00000000000055
 51
210.0000000000005
  0
LINE
  5
37C3
330
375C
100
AcDbEntity
  8
AM_0
100
AcDbLine
 10
-65.47152052610238
 20
-37.79999999999899
 30
0.0
 11
-64.5188925819395
 21
-37.24999999999898
 31
0.0
  0
ARC
  5
37C4
330
375C
100
AcDbEntity
  8
AM_0
100
AcDbCircle
 10
-43.73428289111291
 20
-25.24999999999892
 30
0.0
 40
24.00000000000016
100
AcDbArc
 50
30.00000000000055
 51
210.0000000000005
  0
LINE
  5
37C5
330
375C
100
AcDbEntity
  8
AM_0
100
AcDbLine
 10
-21.99704525612344
 20
-12.69999999999891
 30
0.0
 11
-22.94967320028633
 21
-13.24999999999892
 31
0.0
  0
ARC
  5
37C6
330
375C
100
AcDbEntity
  8
AM_0
100
AcDbCircle
 10
-43.73428289111291
 20
-25.24999999999892
 30
0.0
 40
22.90000000000016
100
AcDbArc
 50
30.00000000000055
 51
210.0000000000005
  0
LINE
  5
37C7
330
375C
100
AcDbEntity
  8
AM_0
100
AcDbLine
 10
-63.56626463777672
 20
-36.69999999999897
 30
0.0
 11
-62.61363669361379
 21
-36.14999999999901
 31
0.0
  0
ARC
  5
37C8
330
375C
100
AcDbEntity
  8
AM_0
100
AcDbCircle
 10
-43.73428289111291
 20
-25.24999999999892
 30
0.0
 40
21.80000000000015
100
AcDbArc
 50
30.00000000000055
 51
210.0000000000005
  0
LINE
  5
37C9
330
375C
100
AcDbEntity
  8
AM_0
100
AcDbLine
 10
-23.9023011444491
 20
-13.79999999999893
 30
0.0
 11
-24.85492908861204
 21
-14.34999999999877
 31
0.0
  0
ARC
  5
37CA
330
375C
100
AcDbEntity
  8
AM_0
100
AcDbCircle
 10
-43.73428289111291
 20
-25.24999999999892
 30
0.0
 40
20.70000000000014
100
AcDbArc
 50
30.00000000000055
 51
210.0000000000005
  0
LINE
  5
37CB
330
375C
100
AcDbEntity
  8
AM_0
100
AcDbLine
 10
-61.6610087494509
 20
-35.599999999999
 30
0.0
 11
-60.70838080528801
 21
-35.04999999999899
 31
0.0
  0
ARC
  5
37CC
330
375C
100
AcDbEntity
  8
AM_0
100
AcDbCircle
 10
-43.73428289111291
 20
-25.24999999999892
 30
0.0
 40
19.60000000000013
100
AcDbArc
 50
30.00000000000055
 51
210.0000000000005
  0
LINE
  5
37CD
330
375C
100
AcDbEntity
  8
AM_0
100
AcDbLine
 10
-25.80755703277498
 20
-14.89999999999878
 30
0.0
 11
-26.76018497693781
 21
-15.44999999999891
 31
0.0
  0
LINE
  5
37CE
330
375C
100
AcDbEntity
  8
AM_0
100
AcDbLine
 10
0.0000000000012506
 20
83.3000000000012
 30
0.0
 11
0.0000000000012506
 21
84.40000000000123
 31
0.0
  0
ARC
  5
37CF
330
375C
100
AcDbEntity
  8
AM_0
100
AcDbCircle
 10
0.0000000000012506
 20
50.50000000000114
 30
0.0
 40
33.90000000000013
100
AcDbArc
 50
90.0
 51
270.0
  0
LINE
  5
37D0
330
375C
100
AcDbEntity
  8
AM_0
100
AcDbLine
 10
0.0000000000012506
 20
17.70000000000112
 30
0.0
 11
0.0000000000012506
 21
16.60000000000116
 31
0.0
  0
ARC
  5
37D1
330
375C
100
AcDbEntity
  8
AM_0
100
AcDbCircle
 10
0.0000000000012506
 20
50.50000000000114
 30
0.0
 40
32.80000000000011
100
AcDbArc
 50
90.0
 51
270.0
  0
LINE
  5
37D2
330
375C
100
AcDbEntity
  8
AM_0
100
AcDbLine
 10
0.0000000000012506
 20
81.10000000000122
 30
0.0
 11
0.0000000000012506
 21
82.20000000000117
 31
0.0
  0
ARC
  5
37D3
330
375C
100
AcDbEntity
  8
AM_0
100
AcDbCircle
 10
0.0000000000012506
 20
50.50000000000114
 30
0.0
 40
31.70000000000012
100
AcDbArc
 50
90.0
 51
270.0
  0
LINE
  5
37D4
330
375C
100
AcDbEntity
  8
AM_0
100
AcDbLine
 10
0.0000000000012506
 20
19.900000000001
 30
0.0
 11
0.0000000000012506
 21
18.80000000000103
 31
0.0
  0
ARC
  5
37D5
330
375C
100
AcDbEntity
  8
AM_0
100
AcDbCircle
 10
0.0000000000012506
 20
50.50000000000114
 30
0.0
 40
30.60000000000012
100
AcDbArc
 50
90.0
 51
270.0
  0
LINE
  5
37D6
330
375C
100
AcDbEntity
  8
AM_0
100
AcDbLine
 10
0.0000000000012506
 20
78.90000000000123
 30
0.0
 11
0.0000000000012506
 21
80.00000000000119
 31
0.0
  0
ARC
  5
37D7
330
375C
100
AcDbEntity
  8
AM_0
100
AcDbCircle
 10
0.0000000000012506
 20
50.50000000000114
 30
0.0
 40
29.50000000000012
100
AcDbArc
 50
90.0
 51
270.0
  0
LINE
  5
37D8
330
375C
100
AcDbEntity
  8
AM_0
100
AcDbLine
 10
0.0000000000012506
 20
22.10000000000116
 30
0.0
 11
0.0000000000012506
 21
21.00000000000114
 31
0.0
  0
ARC
  5
37D9
330
375C
100
AcDbEntity
  8
AM_0
100
AcDbCircle
 10
0.0000000000012506
 20
50.50000000000114
 30
0.0
 40
28.40000000000011
100
AcDbArc
 50
90.0
 51
270.0
  0
LINE
  5
37DA
330
375C
100
AcDbEntity
  8
AM_0
100
AcDbLine
 10
0.0000000000012506
 20
76.70000000000129
 30
0.0
 11
0.0000000000012506
 21
77.80000000000121
 31
0.0
  0
ARC
  5
37DB
330
375C
100
AcDbEntity
  8
AM_0
100
AcDbCircle
 10
0.0000000000012506
 20
50.50000000000114
 30
0.0
 40
27.30000000000011
100
AcDbArc
 50
90.0
 51
270.0
  0
LINE
  5
37DC
330
375C
100
AcDbEntity
  8
AM_0
100
AcDbLine
 10
0.0000000000012506
 20
24.30000000000109
 30
0.0
 11
0.0000000000012506
 21
23.20000000000101
 31
0.0
  0
ARC
  5
37DD
330
375C
100
AcDbEntity
  8
AM_0
100
AcDbCircle
 10
0.0000000000012506
 20
50.50000000000114
 30
0.0
 40
26.2000000000001
100
AcDbArc
 50
90.0
 51
270.0
  0
LINE
  5
37DE
330
375C
100
AcDbEntity
  8
AM_0
100
AcDbLine
 10
0.0000000000012506
 20
74.5000000000012
 30
0.0
 11
0.0000000000012506
 21
75.60000000000122
 31
0.0
  0
ARC
  5
37DF
330
375C
100
AcDbEntity
  8
AM_0
100
AcDbCircle
 10
0.0000000000012506
 20
50.50000000000114
 30
0.0
 40
25.1000000000001
100
AcDbArc
 50
90.0
 51
270.0
  0
LINE
  5
37E0
330
375C
100
AcDbEntity
  8
AM_0
100
AcDbLine
 10
0.0000000000012506
 20
26.50000000000102
 30
0.0
 11
0.0000000000012506
 21
25.40000000000111
 31
0.0
  0
ARC
  5
37E1
330
375C
100
AcDbEntity
  8
AM_0
100
AcDbCircle
 10
0.0000000000012506
 20
50.50000000000114
 30
0.0
 40
24.0000000000001
100
AcDbArc
 50
90.0
 51
270.0
  0
LINE
  5
37E2
330
375C
100
AcDbEntity
  8
AM_0
100
AcDbLine
 10
0.0000000000012506
 20
72.30000000000121
 30
0.0
 11
0.0000000000012506
 21
73.40000000000123
 31
0.0
  0
ARC
  5
37E3
330
375C
100
AcDbEntity
  8
AM_0
100
AcDbCircle
 10
0.0000000000012506
 20
50.50000000000114
 30
0.0
 40
22.9000000000001
100
AcDbArc
 50
90.0
 51
270.0
  0
LINE
  5
37E4
330
375C
100
AcDbEntity
  8
AM_0
100
AcDbLine
 10
0.0000000000012506
 20
28.70000000000113
 30
0.0
 11
0.0000000000012506
 21
27.60000000000105
 31
0.0
  0
ARC
  5
37E5
330
375C
100
AcDbEntity
  8
AM_0
100
AcDbCircle
 10
0.0000000000012506
 20
50.50000000000114
 30
0.0
 40
21.8000000000001
100
AcDbArc
 50
90.0
 51
270.0
  0
LINE
  5
37E6
330
375C
100
AcDbEntity
  8
AM_0
100
AcDbLine
 10
0.0000000000012506
 20
70.10000000000122
 30
0.0
 11
0.0000000000012506
 21
71.20000000000118
 31
0.0
  0
ARC
  5
37E7
330
375C
100
AcDbEntity
  8
AM_0
100
AcDbCircle
 10
0.0000000000012506
 20
50.50000000000114
 30
0.0
 40
20.70000000000009
100
AcDbArc
 50
90.0
 51
270.0
  0
LINE
  5
37E8
330
375C
100
AcDbEntity
  8
AM_0
100
AcDbLine
 10
0.0000000000012506
 20
30.900000000001
 30
0.0
 11
0.0000000000012506
 21
29.80000000000109
 31
0.0
  0
ARC
  5
37E9
330
375C
100
AcDbEntity
  8
AM_0
100
AcDbCircle
 10
0.0000000000012506
 20
50.50000000000114
 30
0.0
 40
19.60000000000008
100
AcDbArc
 50
90.0
 51
270.0
  0
ARC
  5
37EA
330
375C
100
AcDbEntity
  8
AM_0
100
AcDbCircle
 10
43.73428289111541
 20
-25.24999999999898
 30
0.0
 40
33.90000000000021
100
AcDbArc
 50
149.9999999999994
 51
329.9999999999995
  0
LINE
  5
37EB
330
375C
100
AcDbEntity
  8
AM_0
100
AcDbLine
 10
73.09254407940802
 20
-42.19999999999896
 30
0.0
 11
72.13991613524519
 21
-41.64999999999901
 31
0.0
  0
ARC
  5
37EC
330
375C
100
AcDbEntity
  8
AM_0
100
AcDbCircle
 10
43.73428289111541
 20
-25.24999999999898
 30
0.0
 40
32.80000000000021
100
AcDbArc
 50
149.9999999999994
 51
329.9999999999995
  0
LINE
  5
37ED
330
375C
100
AcDbEntity
  8
AM_0
100
AcDbLine
 10
14.3760217028227
 20
-8.299999999998817
 30
0.0
 11
15.32864964698569
 21
-8.849999999998772
 31
0.0
  0
ARC
  5
37EE
330
375C
100
AcDbEntity
  8
AM_0
100
AcDbCircle
 10
43.73428289111541
 20
-25.24999999999898
 30
0.0
 40
31.70000000000021
100
AcDbArc
 50
149.9999999999994
 51
329.9999999999995
  0
LINE
  5
37EF
330
375C
100
AcDbEntity
  8
AM_0
100
AcDbLine
 10
71.18728819108219
 20
-41.09999999999911
 30
0.0
 11
70.23466024691936
 21
-40.5499999999991
 31
0.0
  0
ARC
  5
37F0
330
375C
100
AcDbEntity
  8
AM_0
100
AcDbCircle
 10
43.73428289111541
 20
-25.24999999999898
 30
0.0
 40
30.6000000000002
100
AcDbArc
 50
149.9999999999994
 51
329.9999999999995
  0
LINE
  5
37F1
330
375C
100
AcDbEntity
  8
AM_0
100
AcDbLine
 10
16.28127759114852
 20
-9.399999999998783
 30
0.0
 11
17.23390553531152
 21
-9.949999999998794
 31
0.0
  0
ARC
  5
37F2
330
375C
100
AcDbEntity
  8
AM_0
100
AcDbCircle
 10
43.73428289111541
 20
-25.24999999999898
 30
0.0
 40
29.50000000000019
100
AcDbArc
 50
149.9999999999994
 51
329.9999999999995
  0
LINE
  5
37F3
330
375C
100
AcDbEntity
  8
AM_0
100
AcDbLine
 10
69.28203230275653
 20
-39.99999999999909
 30
0.0
 11
68.32940435859359
 21
-39.44999999999897
 31
0.0
  0
ARC
  5
37F4
330
375C
100
AcDbEntity
  8
AM_0
100
AcDbCircle
 10
43.73428289111541
 20
-25.24999999999898
 30
0.0
 40
28.40000000000019
100
AcDbArc
 50
149.9999999999994
 51
329.9999999999995
  0
LINE
  5
37F5
330
375C
100
AcDbEntity
  8
AM_0
100
AcDbLine
 10
18.18653347947429
 20
-10.49999999999892
 30
0.0
 11
19.13916142363735
 21
-11.04999999999893
 31
0.0
  0
ARC
  5
37F6
330
375C
100
AcDbEntity
  8
AM_0
100
AcDbCircle
 10
43.73428289111541
 20
-25.24999999999898
 30
0.0
 40
27.30000000000018
100
AcDbArc
 50
149.9999999999994
 51
329.9999999999995
  0
LINE
  5
37F7
330
375C
100
AcDbEntity
  8
AM_0
100
AcDbLine
 10
67.3767764144307
 20
-38.89999999999913
 30
0.0
 11
66.42414847026782
 21
-38.34999999999912
 31
0.0
  0
ARC
  5
37F8
330
375C
100
AcDbEntity
  8
AM_0
100
AcDbCircle
 10
43.73428289111541
 20
-25.24999999999898
 30
0.0
 40
26.20000000000017
100
AcDbArc
 50
149.9999999999994
 51
329.9999999999995
  0
LINE
  5
37F9
330
375C
100
AcDbEntity
  8
AM_0
100
AcDbLine
 10
20.09178936780006
 20
-11.59999999999888
 30
0.0
 11
21.044417311963
 21
-12.14999999999889
 31
0.0
  0
ARC
  5
37FA
330
375C
100
AcDbEntity
  8
AM_0
100
AcDbCircle
 10
43.73428289111541
 20
-25.24999999999898
 30
0.0
 40
25.10000000000017
100
AcDbArc
 50
149.9999999999994
 51
329.9999999999995
  0
LINE
  5
37FB
330
375C
100
AcDbEntity
  8
AM_0
100
AcDbLine
 10
65.47152052610499
 20
-37.79999999999899
 30
0.0
 11
64.51889258194206
 21
-37.24999999999898
 31
0.0
  0
ARC
  5
37FC
330
375C
100
AcDbEntity
  8
AM_0
100
AcDbCircle
 10
43.73428289111541
 20
-25.24999999999898
 30
0.0
 40
24.00000000000016
100
AcDbArc
 50
149.9999999999994
 51
329.9999999999995
  0
LINE
  5
37FD
330
375C
100
AcDbEntity
  8
AM_0
100
AcDbLine
 10
21.99704525612589
 20
-12.69999999999891
 30
0.0
 11
22.94967320028883
 21
-13.24999999999892
 31
0.0
  0
ARC
  5
37FE
330
375C
100
AcDbEntity
  8
AM_0
100
AcDbCircle
 10
43.73428289111541
 20
-25.24999999999898
 30
0.0
 40
22.90000000000016
100
AcDbArc
 50
149.9999999999994
 51
329.9999999999995
  0
LINE
  5
37FF
330
375C
100
AcDbEntity
  8
AM_0
100
AcDbLine
 10
63.56626463777923
 20
-36.69999999999897
 30
0.0
 11
62.61363669361628
 21
-36.14999999999901
 31
0.0
  0
ARC
  5
3800
330
375C
100
AcDbEntity
  8
AM_0
100
AcDbCircle
 10
43.73428289111541
 20
-25.24999999999898
 30
0.0
 40
21.80000000000015
100
AcDbArc
 50
149.9999999999994
 51
329.9999999999995
  0
LINE
  5
3801
330
375C
100
AcDbEntity
  8
AM_0
100
AcDbLine
 10
23.90230114445166
 20
-13.79999999999893
 30
0.0
 11
24.85492908861454
 21
-14.34999999999888
 31
0.0
  0
ARC
  5
3802
330
375C
100
AcDbEntity
  8
AM_0
100
AcDbCircle
 10
43.73428289111541
 20
-25.24999999999898
 30
0.0
 40
20.70000000000014
100
AcDbArc
 50
149.9999999999994
 51
329.9999999999995
  0
LINE
  5
3803
330
375C
100
AcDbEntity
  8
AM_0
100
AcDbLine
 10
61.66100874945334
 20
-35.599999999999
 30
0.0
 11
60.70838080529057
 21
-35.04999999999899
 31
0.0
  0
ARC
  5
3804
330
375C
100
AcDbEntity
  8
AM_0
100
AcDbCircle
 10
43.73428289111541
 20
-25.24999999999898
 30
0.0
 40
19.60000000000013
100
AcDbArc
 50
149.9999999999994
 51
329.9999999999995
  0
LINE
  5
3805
330
375C
100
AcDbEntity
  8
AM_0
100
AcDbLine
 10
25.80755703277737
 20
-14.8999999999989
 30
0.0
 11
26.76018497694031
 21
-15.44999999999891
 31
0.0
  0
LINE
  5
3806
330
375C
100
AcDbEntity
  8
AM_0
100
AcDbLine
 10
-72.13991613524263
 20
-41.64999999999901
 30
0.0
 11
-73.09254407940557
 21
-42.19999999999896
 31
0.0
  0
ARC
  5
3807
330
375C
100
AcDbEntity
  8
AM_0
100
AcDbCircle
 10
-43.73428289111291
 20
-25.24999999999898
 30
0.0
 40
33.90000000000012
100
AcDbArc
 50
210.0000000000005
 51
30.00000000000055
  0
LINE
  5
3808
330
375C
100
AcDbEntity
  8
AM_0
100
AcDbLine
 10
-15.32864964698319
 20
-8.849999999998999
 30
0.0
 11
-14.37602170282036
 21
-8.299999999998931
 31
0.0
  0
ARC
  5
3809
330
375C
100
AcDbEntity
  8
AM_0
100
AcDbCircle
 10
-43.73428289111291
 20
-25.24999999999898
 30
0.0
 40
32.80000000000011
100
AcDbArc
 50
210.0000000000005
 51
30.00000000000055
  0
LINE
  5
380A
330
375C
100
AcDbEntity
  8
AM_0
100
AcDbLine
 10
-70.2346602469168
 20
-40.54999999999899
 30
0.0
 11
-71.18728819107968
 21
-41.09999999999899
 31
0.0
  0
ARC
  5
380B
330
375C
100
AcDbEntity
  8
AM_0
100
AcDbCircle
 10
-43.73428289111291
 20
-25.24999999999898
 30
0.0
 40
31.70000000000011
100
AcDbArc
 50
210.0000000000005
 51
30.00000000000055
  0
LINE
  5
380C
330
375C
100
AcDbEntity
  8
AM_0
100
AcDbLine
 10
-17.23390553530896
 20
-9.949999999998965
 30
0.0
 11
-16.28127759114613
 21
-9.39999999999901
 31
0.0
  0
ARC
  5
380D
330
375C
100
AcDbEntity
  8
AM_0
100
AcDbCircle
 10
-43.73428289111291
 20
-25.24999999999898
 30
0.0
 40
30.60000000000011
100
AcDbArc
 50
210.0000000000005
 51
30.00000000000055
  0
LINE
  5
380E
330
375C
100
AcDbEntity
  8
AM_0
100
AcDbLine
 10
-68.32940435859109
 20
-39.44999999999897
 30
0.0
 11
-69.28203230275392
 21
-39.99999999999898
 31
0.0
  0
ARC
  5
380F
330
375C
100
AcDbEntity
  8
AM_0
100
AcDbCircle
 10
-43.73428289111291
 20
-25.24999999999898
 30
0.0
 40
29.50000000000011
100
AcDbArc
 50
210.0000000000005
 51
30.00000000000055
  0
LINE
  5
3810
330
375C
100
AcDbEntity
  8
AM_0
100
AcDbLine
 10
-19.13916142363484
 20
-11.04999999999893
 30
0.0
 11
-18.1865334794719
 21
-10.49999999999892
 31
0.0
  0
ARC
  5
3811
330
375C
100
AcDbEntity
  8
AM_0
100
AcDbCircle
 10
-43.73428289111291
 20
-25.24999999999898
 30
0.0
 40
28.4000000000001
100
AcDbArc
 50
210.0000000000005
 51
30.00000000000055
  0
LINE
  5
3812
330
375C
100
AcDbEntity
  8
AM_0
100
AcDbLine
 10
-66.42414847026532
 20
-38.349999999999
 30
0.0
 11
-67.37677641442821
 21
-38.89999999999901
 31
0.0
  0
ARC
  5
3813
330
375C
100
AcDbEntity
  8
AM_0
100
AcDbCircle
 10
-43.73428289111291
 20
-25.24999999999898
 30
0.0
 40
27.30000000000011
100
AcDbArc
 50
210.0000000000005
 51
30.00000000000055
  0
LINE
  5
3814
330
375C
100
AcDbEntity
  8
AM_0
100
AcDbLine
 10
-21.0444173119605
 20
-12.14999999999901
 30
0.0
 11
-20.09178936779773
 21
-11.59999999999888
 31
0.0
  0
ARC
  5
3815
330
375C
100
AcDbEntity
  8
AM_0
100
AcDbCircle
 10
-43.73428289111291
 20
-25.24999999999898
 30
0.0
 40
26.2000000000001
100
AcDbArc
 50
210.0000000000005
 51
30.00000000000055
  0
LINE
  5
3816
330
375C
100
AcDbEntity
  8
AM_0
100
AcDbLine
 10
-64.5188925819395
 20
-37.24999999999898
 30
0.0
 11
-65.47152052610238
 21
-37.79999999999899
 31
0.0
  0
ARC
  5
3817
330
375C
100
AcDbEntity
  8
AM_0
100
AcDbCircle
 10
-43.73428289111291
 20
-25.24999999999898
 30
0.0
 40
25.10000000000009
100
AcDbArc
 50
210.0000000000005
 51
30.00000000000055
  0
LINE
  5
3818
330
375C
100
AcDbEntity
  8
AM_0
100
AcDbLine
 10
-22.94967320028638
 20
-13.24999999999892
 30
0.0
 11
-21.99704525612344
 21
-12.69999999999891
 31
0.0
  0
ARC
  5
3819
330
375C
100
AcDbEntity
  8
AM_0
100
AcDbCircle
 10
-43.73428289111291
 20
-25.24999999999898
 30
0.0
 40
24.00000000000009
100
AcDbArc
 50
210.0000000000005
 51
30.00000000000055
  0
LINE
  5
381A
330
375C
100
AcDbEntity
  8
AM_0
100
AcDbLine
 10
-62.61363669361379
 20
-36.14999999999901
 30
0.0
 11
-63.56626463777661
 21
-36.69999999999897
 31
0.0
  0
ARC
  5
381B
330
375C
100
AcDbEntity
  8
AM_0
100
AcDbCircle
 10
-43.73428289111291
 20
-25.24999999999898
 30
0.0
 40
22.90000000000009
100
AcDbArc
 50
210.0000000000005
 51
30.00000000000055
  0
LINE
  5
381C
330
375C
100
AcDbEntity
  8
AM_0
100
AcDbLine
 10
-24.85492908861215
 20
-14.34999999999888
 30
0.0
 11
-23.90230114444921
 21
-13.79999999999893
 31
0.0
  0
ARC
  5
381D
330
375C
100
AcDbEntity
  8
AM_0
100
AcDbCircle
 10
-43.73428289111291
 20
-25.24999999999898
 30
0.0
 40
21.80000000000009
100
AcDbArc
 50
210.0000000000005
 51
30.00000000000055
  0
LINE
  5
381E
330
375C
100
AcDbEntity
  8
AM_0
100
AcDbLine
 10
-60.70838080528801
 20
-35.04999999999899
 30
0.0
 11
-61.66100874945084
 21
-35.599999999999
 31
0.0
  0
ARC
  5
381F
330
375C
100
AcDbEntity
  8
AM_0
100
AcDbCircle
 10
-43.73428289111291
 20
-25.24999999999898
 30
0.0
 40
20.70000000000008
100
AcDbArc
 50
210.0000000000005
 51
30.00000000000055
  0
LINE
  5
3820
330
375C
100
AcDbEntity
  8
AM_0
100
AcDbLine
 10
-26.76018497693792
 20
-15.44999999999896
 30
0.0
 11
-25.80755703277498
 21
-14.89999999999901
 31
0.0
  0
ARC
  5
3821
330
375C
100
AcDbEntity
  8
AM_0
100
AcDbCircle
 10
-43.73428289111291
 20
-25.24999999999898
 30
0.0
 40
19.60000000000007
100
AcDbArc
 50
210.0000000000005
 51
30.00000000000055
  0
LINE
  5
3822
330
375C
100
AcDbEntity
  8
AM_0
100
AcDbLine
 10
0.0000000000012506
 20
85.50000000000125
 30
0.0
 11
0.0000000000012506
 21
84.40000000000129
 31
0.0
  0
ARC
  5
3823
330
375C
100
AcDbEntity
  8
AM_0
100
AcDbCircle
 10
0.0000000000012506
 20
50.50000000000114
 30
0.0
 40
33.90000000000021
100
AcDbArc
 50
270.0
 51
90.0
  0
LINE
  5
3824
330
375C
100
AcDbEntity
  8
AM_0
100
AcDbLine
 10
0.0000000000012506
 20
15.50000000000091
 30
0.0
 11
0.0000000000012506
 21
16.60000000000087
 31
0.0
  0
ARC
  5
3825
330
375C
100
AcDbEntity
  8
AM_0
100
AcDbCircle
 10
0.0000000000012506
 20
50.50000000000114
 30
0.0
 40
32.80000000000021
100
AcDbArc
 50
270.0
 51
90.0
  0
LINE
  5
3826
330
375C
100
AcDbEntity
  8
AM_0
100
AcDbLine
 10
0.0000000000012506
 20
83.30000000000131
 30
0.0
 11
0.0000000000012506
 21
82.2000000000013
 31
0.0
  0
ARC
  5
3827
330
375C
100
AcDbEntity
  8
AM_0
100
AcDbCircle
 10
0.0000000000012506
 20
50.50000000000114
 30
0.0
 40
31.7000000000002
100
AcDbArc
 50
270.0
 51
90.0
  0
LINE
  5
3828
330
375C
100
AcDbEntity
  8
AM_0
100
AcDbLine
 10
0.0000000000012506
 20
17.7000000000009
 30
0.0
 11
0.0000000000012506
 21
18.80000000000092
 31
0.0
  0
ARC
  5
3829
330
375C
100
AcDbEntity
  8
AM_0
100
AcDbCircle
 10
0.0000000000012506
 20
50.50000000000114
 30
0.0
 40
30.6000000000002
100
AcDbArc
 50
270.0
 51
90.0
  0
LINE
  5
382A
330
375C
100
AcDbEntity
  8
AM_0
100
AcDbLine
 10
0.0000000000012506
 20
81.10000000000127
 30
0.0
 11
0.0000000000012506
 21
80.00000000000126
 31
0.0
  0
ARC
  5
382B
330
375C
100
AcDbEntity
  8
AM_0
100
AcDbCircle
 10
0.0000000000012506
 20
50.50000000000114
 30
0.0
 40
29.50000000000019
100
AcDbArc
 50
270.0
 51
90.0
  0
LINE
  5
382C
330
375C
100
AcDbEntity
  8
AM_0
100
AcDbLine
 10
0.0000000000012506
 20
19.90000000000089
 30
0.0
 11
0.0000000000012506
 21
21.00000000000091
 31
0.0
  0
ARC
  5
382D
330
375C
100
AcDbEntity
  8
AM_0
100
AcDbCircle
 10
0.0000000000012506
 20
50.50000000000114
 30
0.0
 40
28.40000000000019
100
AcDbArc
 50
270.0
 51
90.0
  0
LINE
  5
382E
330
375C
100
AcDbEntity
  8
AM_0
100
AcDbLine
 10
0.0000000000012506
 20
78.90000000000128
 30
0.0
 11
0.0000000000012506
 21
77.80000000000132
 31
0.0
  0
ARC
  5
382F
330
375C
100
AcDbEntity
  8
AM_0
100
AcDbCircle
 10
0.0000000000012506
 20
50.50000000000114
 30
0.0
 40
27.30000000000018
100
AcDbArc
 50
270.0
 51
90.0
  0
LINE
  5
3830
330
375C
100
AcDbEntity
  8
AM_0
100
AcDbLine
 10
0.0000000000012506
 20
22.10000000000093
 30
0.0
 11
0.0000000000012506
 21
23.2000000000009
 31
0.0
  0
ARC
  5
3831
330
375C
100
AcDbEntity
  8
AM_0
100
AcDbCircle
 10
0.0000000000012506
 20
50.50000000000114
 30
0.0
 40
26.20000000000017
100
AcDbArc
 50
270.0
 51
90.0
  0
LINE
  5
3832
330
375C
100
AcDbEntity
  8
AM_0
100
AcDbLine
 10
0.0000000000012506
 20
76.70000000000129
 30
0.0
 11
0.0000000000012506
 21
75.60000000000122
 31
0.0
  0
ARC
  5
3833
330
375C
100
AcDbEntity
  8
AM_0
100
AcDbCircle
 10
0.0000000000012506
 20
50.50000000000114
 30
0.0
 40
25.10000000000017
100
AcDbArc
 50
270.0
 51
90.0
  0
LINE
  5
3834
330
375C
100
AcDbEntity
  8
AM_0
100
AcDbLine
 10
0.0000000000012506
 20
24.30000000000098
 30
0.0
 11
0.0000000000012506
 21
25.40000000000089
 31
0.0
  0
ARC
  5
3835
330
375C
100
AcDbEntity
  8
AM_0
100
AcDbCircle
 10
0.0000000000012506
 20
50.50000000000114
 30
0.0
 40
24.00000000000016
100
AcDbArc
 50
270.0
 51
90.0
  0
LINE
  5
3836
330
375C
100
AcDbEntity
  8
AM_0
100
AcDbLine
 10
0.0000000000012506
 20
74.50000000000125
 30
0.0
 11
0.0000000000012506
 21
73.40000000000123
 31
0.0
  0
ARC
  5
3837
330
375C
100
AcDbEntity
  8
AM_0
100
AcDbCircle
 10
0.0000000000012506
 20
50.50000000000114
 30
0.0
 40
22.90000000000016
100
AcDbArc
 50
270.0
 51
90.0
  0
LINE
  5
3838
330
375C
100
AcDbEntity
  8
AM_0
100
AcDbLine
 10
0.0000000000012506
 20
26.50000000000091
 30
0.0
 11
0.0000000000012506
 21
27.60000000000105
 31
0.0
  0
ARC
  5
3839
330
375C
100
AcDbEntity
  8
AM_0
100
AcDbCircle
 10
0.0000000000012506
 20
50.50000000000114
 30
0.0
 40
21.80000000000015
100
AcDbArc
 50
270.0
 51
90.0
  0
LINE
  5
383A
330
375C
100
AcDbEntity
  8
AM_0
100
AcDbLine
 10
0.0000000000012506
 20
72.30000000000121
 30
0.0
 11
0.0000000000012506
 21
71.20000000000118
 31
0.0
  0
ARC
  5
383B
330
375C
100
AcDbEntity
  8
AM_0
100
AcDbCircle
 10
0.0000000000012506
 20
50.50000000000114
 30
0.0
 40
20.70000000000014
100
AcDbArc
 50
270.0
 51
90.0
  0
LINE
  5
383C
330
375C
100
AcDbEntity
  8
AM_0
100
AcDbLine
 10
0.0000000000012506
 20
28.70000000000101
 30
0.0
 11
0.0000000000012506
 21
29.80000000000098
 31
0.0
  0
LINE
  5
383D
330
375C
100
AcDbEntity
  8
AM_0
100
AcDbLine
 10
73.09254407940802
 20
-42.19999999999896
 30
0.0
 11
74.0451720235709
 21
-42.74999999999898
 31
0.0
  0
LINE
  5
383E
330
375C
100
AcDbEntity
  8
AM_0
100
AcDbLine
 10
14.37602170282287
 20
-8.299999999998931
 30
0.0
 11
13.42339375866004
 21
-7.749999999998919
 31
0.0
  0
ARC
  5
383F
330
375C
100
AcDbEntity
  8
AM_0
100
AcDbCircle
 10
43.73428289111553
 20
-25.24999999999892
 30
0.0
 40
33.90000000000012
100
AcDbArc
 50
329.9999999999995
 51
149.9999999999994
  0
LINE
  5
3840
330
375C
100
AcDbEntity
  8
AM_0
100
AcDbLine
 10
71.18728819108219
 20
-41.09999999999888
 30
0.0
 11
72.13991613524519
 21
-41.64999999999889
 31
0.0
  0
ARC
  5
3841
330
375C
100
AcDbEntity
  8
AM_0
100
AcDbCircle
 10
43.73428289111553
 20
-25.24999999999892
 30
0.0
 40
32.80000000000011
100
AcDbArc
 50
329.9999999999995
 51
149.9999999999994
  0
LINE
  5
3842
330
375C
100
AcDbEntity
  8
AM_0
100
AcDbLine
 10
16.28127759114869
 20
-9.399999999998897
 30
0.0
 11
15.32864964698581
 21
-8.849999999998885
 31
0.0
  0
ARC
  5
3843
330
375C
100
AcDbEntity
  8
AM_0
100
AcDbCircle
 10
43.73428289111553
 20
-25.24999999999892
 30
0.0
 40
31.70000000000012
100
AcDbArc
 50
329.9999999999995
 51
149.9999999999994
  0
LINE
  5
3844
330
375C
100
AcDbEntity
  8
AM_0
100
AcDbLine
 10
69.28203230275653
 20
-39.99999999999898
 30
0.0
 11
70.23466024691936
 21
-40.54999999999899
 31
0.0
  0
ARC
  5
3845
330
375C
100
AcDbEntity
  8
AM_0
100
AcDbCircle
 10
43.73428289111553
 20
-25.24999999999892
 30
0.0
 40
30.60000000000012
100
AcDbArc
 50
329.9999999999995
 51
149.9999999999994
  0
LINE
  5
3846
330
375C
100
AcDbEntity
  8
AM_0
100
AcDbLine
 10
18.18653347947452
 20
-10.49999999999892
 30
0.0
 11
17.23390553531158
 21
-9.949999999998908
 31
0.0
  0
ARC
  5
3847
330
375C
100
AcDbEntity
  8
AM_0
100
AcDbCircle
 10
43.73428289111553
 20
-25.24999999999892
 30
0.0
 40
29.50000000000012
100
AcDbArc
 50
329.9999999999995
 51
149.9999999999994
  0
LINE
  5
3848
330
375C
100
AcDbEntity
  8
AM_0
100
AcDbLine
 10
67.3767764144307
 20
-38.89999999999901
 30
0.0
 11
68.32940435859359
 21
-39.44999999999891
 31
0.0
  0
ARC
  5
3849
330
375C
100
AcDbEntity
  8
AM_0
100
AcDbCircle
 10
43.73428289111553
 20
-25.24999999999892
 30
0.0
 40
28.40000000000011
100
AcDbArc
 50
329.9999999999995
 51
149.9999999999994
  0
LINE
  5
384A
330
375C
100
AcDbEntity
  8
AM_0
100
AcDbLine
 10
20.09178936780029
 20
-11.59999999999888
 30
0.0
 11
19.13916142363735
 21
-11.04999999999893
 31
0.0
  0
ARC
  5
384B
330
375C
100
AcDbEntity
  8
AM_0
100
AcDbCircle
 10
43.73428289111553
 20
-25.24999999999892
 30
0.0
 40
27.30000000000011
100
AcDbArc
 50
329.9999999999995
 51
149.9999999999994
  0
LINE
  5
384C
330
375C
100
AcDbEntity
  8
AM_0
100
AcDbLine
 10
65.47152052610499
 20
-37.79999999999893
 30
0.0
 11
66.42414847026788
 21
-38.349999999999
 31
0.0
  0
ARC
  5
384D
330
375C
100
AcDbEntity
  8
AM_0
100
AcDbCircle
 10
43.73428289111553
 20
-25.24999999999892
 30
0.0
 40
26.2000000000001
100
AcDbArc
 50
329.9999999999995
 51
149.9999999999994
  0
LINE
  5
384E
330
375C
100
AcDbEntity
  8
AM_0
100
AcDbLine
 10
21.997045256126
 20
-12.69999999999891
 30
0.0
 11
21.04441731196306
 21
-12.14999999999889
 31
0.0
  0
ARC
  5
384F
330
375C
100
AcDbEntity
  8
AM_0
100
AcDbCircle
 10
43.73428289111553
 20
-25.24999999999892
 30
0.0
 40
25.10000000000009
100
AcDbArc
 50
329.9999999999995
 51
149.9999999999994
  0
LINE
  5
3850
330
375C
100
AcDbEntity
  8
AM_0
100
AcDbLine
 10
63.56626463777923
 20
-36.69999999999897
 30
0.0
 11
64.51889258194206
 21
-37.24999999999898
 31
0.0
  0
ARC
  5
3851
330
375C
100
AcDbEntity
  8
AM_0
100
AcDbCircle
 10
43.73428289111553
 20
-25.24999999999892
 30
0.0
 40
24.00000000000009
100
AcDbArc
 50
329.9999999999995
 51
149.9999999999994
  0
LINE
  5
3852
330
375C
100
AcDbEntity
  8
AM_0
100
AcDbLine
 10
23.90230114445177
 20
-13.79999999999893
 30
0.0
 11
22.94967320028883
 21
-13.24999999999892
 31
0.0
  0
ARC
  5
3853
330
375C
100
AcDbEntity
  8
AM_0
100
AcDbCircle
 10
43.73428289111553
 20
-25.24999999999892
 30
0.0
 40
22.9000000000001
100
AcDbArc
 50
329.9999999999995
 51
149.9999999999994
  0
LINE
  5
3854
330
375C
100
AcDbEntity
  8
AM_0
100
AcDbLine
 10
61.66100874945351
 20
-35.599999999999
 30
0.0
 11
62.61363669361628
 21
-36.14999999999901
 31
0.0
  0
ARC
  5
3855
330
375C
100
AcDbEntity
  8
AM_0
100
AcDbCircle
 10
43.73428289111553
 20
-25.24999999999892
 30
0.0
 40
21.8000000000001
100
AcDbArc
 50
329.9999999999995
 51
149.9999999999994
  0
LINE
  5
3856
330
375C
100
AcDbEntity
  8
AM_0
100
AcDbLine
 10
25.80755703277754
 20
-14.8999999999989
 30
0.0
 11
24.85492908861471
 21
-14.34999999999888
 31
0.0
  0
ARC
  5
3857
330
375C
100
AcDbEntity
  8
AM_0
100
AcDbCircle
 10
43.73428289111553
 20
-25.24999999999892
 30
0.0
 40
20.70000000000009
100
AcDbArc
 50
329.9999999999995
 51
149.9999999999994
  0
LINE
  5
3858
330
375C
100
AcDbEntity
  8
AM_0
100
AcDbLine
 10
-74.04517202356851
 20
-42.74999999999898
 30
0.0
 11
-73.09254407940568
 21
-42.19999999999896
 31
0.0
  0
ARC
  5
3859
330
375C
100
AcDbEntity
  8
AM_0
100
AcDbCircle
 10
-43.73428289111291
 20
-25.24999999999892
 30
0.0
 40
33.90000000000022
100
AcDbArc
 50
30.00000000000055
 51
210.0000000000005
  0
LINE
  5
385A
330
375C
100
AcDbEntity
  8
AM_0
100
AcDbLine
 10
-13.42339375865742
 20
-7.749999999998806
 30
0.0
 11
-14.37602170282031
 21
-8.299999999998817
 31
0.0
  0
ARC
  5
385B
330
375C
100
AcDbEntity
  8
AM_0
100
AcDbCircle
 10
-43.73428289111291
 20
-25.24999999999892
 30
0.0
 40
32.80000000000021
100
AcDbArc
 50
30.00000000000055
 51
210.0000000000005
  0
LINE
  5
385C
330
375C
100
AcDbEntity
  8
AM_0
100
AcDbLine
 10
-72.13991613524274
 20
-41.64999999999901
 30
0.0
 11
-71.1872881910798
 21
-41.09999999999899
 31
0.0
  0
ARC
  5
385D
330
375C
100
AcDbEntity
  8
AM_0
100
AcDbCircle
 10
-43.73428289111291
 20
-25.24999999999892
 30
0.0
 40
31.70000000000021
100
AcDbArc
 50
30.00000000000055
 51
210.0000000000005
  0
LINE
  5
385E
330
375C
100
AcDbEntity
  8
AM_0
100
AcDbLine
 10
-15.32864964698319
 20
-8.849999999998772
 30
0.0
 11
-16.28127759114613
 21
-9.399999999998783
 31
0.0
  0
ARC
  5
385F
330
375C
100
AcDbEntity
  8
AM_0
100
AcDbCircle
 10
-43.73428289111291
 20
-25.24999999999892
 30
0.0
 40
30.6000000000002
100
AcDbArc
 50
30.00000000000055
 51
210.0000000000005
  0
LINE
  5
3860
330
375C
100
AcDbEntity
  8
AM_0
100
AcDbLine
 10
-70.23466024691692
 20
-40.54999999999899
 30
0.0
 11
-69.28203230275403
 21
-39.99999999999898
 31
0.0
  0
ARC
  5
3861
330
375C
100
AcDbEntity
  8
AM_0
100
AcDbCircle
 10
-43.73428289111291
 20
-25.24999999999892
 30
0.0
 40
29.5000000000002
100
AcDbArc
 50
30.00000000000055
 51
210.0000000000005
  0
LINE
  5
3862
330
375C
100
AcDbEntity
  8
AM_0
100
AcDbLine
 10
-17.2339055353089
 20
-9.949999999998794
 30
0.0
 11
-18.18653347947179
 21
-10.49999999999892
 31
0.0
  0
ARC
  5
3863
330
375C
100
AcDbEntity
  8
AM_0
100
AcDbCircle
 10
-43.73428289111291
 20
-25.24999999999892
 30
0.0
 40
28.40000000000019
100
AcDbArc
 50
30.00000000000055
 51
210.0000000000005
  0
LINE
  5
3864
330
375C
100
AcDbEntity
  8
AM_0
100
AcDbLine
 10
-68.32940435859109
 20
-39.44999999999897
 30
0.0
 11
-67.37677641442821
 21
-38.89999999999901
 31
0.0
  0
ARC
  5
3865
330
375C
100
AcDbEntity
  8
AM_0
100
AcDbCircle
 10
-43.73428289111291
 20
-25.24999999999892
 30
0.0
 40
27.30000000000018
100
AcDbArc
 50
30.00000000000055
 51
210.0000000000005
  0
LINE
  5
3866
330
375C
100
AcDbEntity
  8
AM_0
100
AcDbLine
 10
-19.13916142363473
 20
-11.04999999999882
 30
0.0
 11
-20.09178936779762
 21
-11.59999999999888
 31
0.0
  0
ARC
  5
3867
330
375C
100
AcDbEntity
  8
AM_0
100
AcDbCircle
 10
-43.73428289111291
 20
-25.24999999999892
 30
0.0
 40
26.20000000000017
100
AcDbArc
 50
30.00000000000055
 51
210.0000000000005
  0
LINE
  5
3868
330
375C
100
AcDbEntity
  8
AM_0
100
AcDbLine
 10
-66.42414847026532
 20
-38.349999999999
 30
0.0
 11
-65.47152052610238
 21
-37.79999999999899
 31
0.0
  0
ARC
  5
3869
330
375C
100
AcDbEntity
  8
AM_0
100
AcDbCircle
 10
-43.73428289111291
 20
-25.24999999999892
 30
0.0
 40
25.10000000000017
100
AcDbArc
 50
30.00000000000055
 51
210.0000000000005
  0
LINE
  5
386A
330
375C
100
AcDbEntity
  8
AM_0
100
AcDbLine
 10
-21.0444173119605
 20
-12.14999999999889
 30
0.0
 11
-21.99704525612344
 21
-12.69999999999891
 31
0.0
  0
ARC
  5
386B
330
375C
100
AcDbEntity
  8
AM_0
100
AcDbCircle
 10
-43.73428289111291
 20
-25.24999999999892
 30
0.0
 40
24.00000000000016
100
AcDbArc
 50
30.00000000000055
 51
210.0000000000005
  0
LINE
  5
386C
330
375C
100
AcDbEntity
  8
AM_0
100
AcDbLine
 10
-64.5188925819395
 20
-37.24999999999898
 30
0.0
 11
-63.56626463777672
 21
-36.69999999999897
 31
0.0
  0
ARC
  5
386D
330
375C
100
AcDbEntity
  8
AM_0
100
AcDbCircle
 10
-43.73428289111291
 20
-25.24999999999892
 30
0.0
 40
22.90000000000016
100
AcDbArc
 50
30.00000000000055
 51
210.0000000000005
  0
LINE
  5
386E
330
375C
100
AcDbEntity
  8
AM_0
100
AcDbLine
 10
-22.94967320028633
 20
-13.24999999999892
 30
0.0
 11
-23.9023011444491
 21
-13.79999999999893
 31
0.0
  0
ARC
  5
386F
330
375C
100
AcDbEntity
  8
AM_0
100
AcDbCircle
 10
-43.73428289111291
 20
-25.24999999999892
 30
0.0
 40
21.80000000000015
100
AcDbArc
 50
30.00000000000055
 51
210.0000000000005
  0
LINE
  5
3870
330
375C
100
AcDbEntity
  8
AM_0
100
AcDbLine
 10
-62.61363669361379
 20
-36.14999999999901
 30
0.0
 11
-61.6610087494509
 21
-35.599999999999
 31
0.0
  0
ARC
  5
3871
330
375C
100
AcDbEntity
  8
AM_0
100
AcDbCircle
 10
-43.73428289111291
 20
-25.24999999999892
 30
0.0
 40
20.70000000000014
100
AcDbArc
 50
30.00000000000055
 51
210.0000000000005
  0
LINE
  5
3872
330
375C
100
AcDbEntity
  8
AM_0
100
AcDbLine
 10
-24.85492908861204
 20
-14.34999999999877
 30
0.0
 11
-25.80755703277493
 21
-14.89999999999878
 31
0.0
  0
LINE
  5
3873
330
375C
100
AcDbEntity
  8
AM_0
100
AcDbLine
 10
0.0000000000012506
 20
84.40000000000123
 30
0.0
 11
0.0000000000012506
 21
85.50000000000125
 31
0.0
  0
LINE
  5
3874
330
375C
100
AcDbEntity
  8
AM_0
100
AcDbLine
 10
0.0000000000012506
 20
16.60000000000116
 30
0.0
 11
0.0000000000012506
 21
15.50000000000102
 31
0.0
  0
ARC
  5
3875
330
375C
100
AcDbEntity
  8
AM_0
100
AcDbCircle
 10
0.0000000000012506
 20
50.50000000000114
 30
0.0
 40
33.90000000000013
100
AcDbArc
 50
90.0
 51
270.0
  0
LINE
  5
3876
330
375C
100
AcDbEntity
  8
AM_0
100
AcDbLine
 10
0.0000000000012506
 20
82.20000000000117
 30
0.0
 11
0.0000000000012506
 21
83.3000000000012
 31
0.0
  0
ARC
  5
3877
330
375C
100
AcDbEntity
  8
AM_0
100
AcDbCircle
 10
0.0000000000012506
 20
50.50000000000114
 30
0.0
 40
32.80000000000011
100
AcDbArc
 50
90.0
 51
270.0
  0
LINE
  5
3878
330
375C
100
AcDbEntity
  8
AM_0
100
AcDbLine
 10
0.0000000000012506
 20
18.80000000000103
 30
0.0
 11
0.0000000000012506
 21
17.70000000000112
 31
0.0
  0
ARC
  5
3879
330
375C
100
AcDbEntity
  8
AM_0
100
AcDbCircle
 10
0.0000000000012506
 20
50.50000000000114
 30
0.0
 40
31.70000000000012
100
AcDbArc
 50
90.0
 51
270.0
  0
LINE
  5
387A
330
375C
100
AcDbEntity
  8
AM_0
100
AcDbLine
 10
0.0000000000012506
 20
80.00000000000119
 30
0.0
 11
0.0000000000012506
 21
81.10000000000122
 31
0.0
  0
ARC
  5
387B
330
375C
100
AcDbEntity
  8
AM_0
100
AcDbCircle
 10
0.0000000000012506
 20
50.50000000000114
 30
0.0
 40
30.60000000000012
100
AcDbArc
 50
90.0
 51
270.0
  0
LINE
  5
387C
330
375C
100
AcDbEntity
  8
AM_0
100
AcDbLine
 10
0.0000000000012506
 20
21.00000000000114
 30
0.0
 11
0.0000000000012506
 21
19.900000000001
 31
0.0
  0
ARC
  5
387D
330
375C
100
AcDbEntity
  8
AM_0
100
AcDbCircle
 10
0.0000000000012506
 20
50.50000000000114
 30
0.0
 40
29.50000000000012
100
AcDbArc
 50
90.0
 51
270.0
  0
LINE
  5
387E
330
375C
100
AcDbEntity
  8
AM_0
100
AcDbLine
 10
0.0000000000012506
 20
77.80000000000121
 30
0.0
 11
0.0000000000012506
 21
78.90000000000123
 31
0.0
  0
ARC
  5
387F
330
375C
100
AcDbEntity
  8
AM_0
100
AcDbCircle
 10
0.0000000000012506
 20
50.50000000000114
 30
0.0
 40
28.40000000000011
100
AcDbArc
 50
90.0
 51
270.0
  0
LINE
  5
3880
330
375C
100
AcDbEntity
  8
AM_0
100
AcDbLine
 10
0.0000000000012506
 20
23.20000000000101
 30
0.0
 11
0.0000000000012506
 21
22.10000000000116
 31
0.0
  0
ARC
  5
3881
330
375C
100
AcDbEntity
  8
AM_0
100
AcDbCircle
 10
0.0000000000012506
 20
50.50000000000114
 30
0.0
 40
27.30000000000011
100
AcDbArc
 50
90.0
 51
270.0
  0
LINE
  5
3882
330
375C
100
AcDbEntity
  8
AM_0
100
AcDbLine
 10
0.0000000000012506
 20
75.60000000000122
 30
0.0
 11
0.0000000000012506
 21
76.70000000000129
 31
0.0
  0
ARC
  5
3883
330
375C
100
AcDbEntity
  8
AM_0
100
AcDbCircle
 10
0.0000000000012506
 20
50.50000000000114
 30
0.0
 40
26.2000000000001
100
AcDbArc
 50
90.0
 51
270.0
  0
LINE
  5
3884
330
375C
100
AcDbEntity
  8
AM_0
100
AcDbLine
 10
0.0000000000012506
 20
25.40000000000111
 30
0.0
 11
0.0000000000012506
 21
24.30000000000109
 31
0.0
  0
ARC
  5
3885
330
375C
100
AcDbEntity
  8
AM_0
100
AcDbCircle
 10
0.0000000000012506
 20
50.50000000000114
 30
0.0
 40
25.1000000000001
100
AcDbArc
 50
90.0
 51
270.0
  0
LINE
  5
3886
330
375C
100
AcDbEntity
  8
AM_0
100
AcDbLine
 10
0.0000000000012506
 20
73.40000000000123
 30
0.0
 11
0.0000000000012506
 21
74.5000000000012
 31
0.0
  0
ARC
  5
3887
330
375C
100
AcDbEntity
  8
AM_0
100
AcDbCircle
 10
0.0000000000012506
 20
50.50000000000114
 30
0.0
 40
24.0000000000001
100
AcDbArc
 50
90.0
 51
270.0
  0
LINE
  5
3888
330
375C
100
AcDbEntity
  8
AM_0
100
AcDbLine
 10
0.0000000000012506
 20
27.60000000000105
 30
0.0
 11
0.0000000000012506
 21
26.50000000000102
 31
0.0
  0
ARC
  5
3889
330
375C
100
AcDbEntity
  8
AM_0
100
AcDbCircle
 10
0.0000000000012506
 20
50.50000000000114
 30
0.0
 40
22.9000000000001
100
AcDbArc
 50
90.0
 51
270.0
  0
LINE
  5
388A
330
375C
100
AcDbEntity
  8
AM_0
100
AcDbLine
 10
0.0000000000012506
 20
71.20000000000118
 30
0.0
 11
0.0000000000012506
 21
72.30000000000121
 31
0.0
  0
ARC
  5
388B
330
375C
100
AcDbEntity
  8
AM_0
100
AcDbCircle
 10
0.0000000000012506
 20
50.50000000000114
 30
0.0
 40
21.8000000000001
100
AcDbArc
 50
90.0
 51
270.0
  0
LINE
  5
388C
330
375C
100
AcDbEntity
  8
AM_0
100
AcDbLine
 10
0.0000000000012506
 20
29.80000000000109
 30
0.0
 11
0.0000000000012506
 21
28.70000000000113
 31
0.0
  0
ARC
  5
388D
330
375C
100
AcDbEntity
  8
AM_0
100
AcDbCircle
 10
0.0000000000012506
 20
50.50000000000114
 30
0.0
 40
20.70000000000009
100
AcDbArc
 50
90.0
 51
270.0
  0
LINE
  5
388E
330
375C
100
AcDbEntity
  8
AM_0
100
AcDbLine
 10
74.0451720235709
 20
-42.74999999999908
 30
0.0
 11
73.09254407940802
 21
-42.19999999999896
 31
0.0
  0
ARC
  5
388F
330
375C
100
AcDbEntity
  8
AM_0
100
AcDbCircle
 10
43.73428289111541
 20
-25.24999999999898
 30
0.0
 40
33.90000000000021
100
AcDbArc
 50
149.9999999999994
 51
329.9999999999995
  0
LINE
  5
3890
330
375C
100
AcDbEntity
  8
AM_0
100
AcDbLine
 10
13.42339375865987
 20
-7.749999999998919
 30
0.0
 11
14.3760217028227
 21
-8.299999999998817
 31
0.0
  0
ARC
  5
3891
330
375C
100
AcDbEntity
  8
AM_0
100
AcDbCircle
 10
43.73428289111541
 20
-25.24999999999898
 30
0.0
 40
32.80000000000021
100
AcDbArc
 50
149.9999999999994
 51
329.9999999999995
  0
LINE
  5
3892
330
375C
100
AcDbEntity
  8
AM_0
100
AcDbLine
 10
72.13991613524519
 20
-41.64999999999901
 30
0.0
 11
71.18728819108219
 21
-41.09999999999911
 31
0.0
  0
ARC
  5
3893
330
375C
100
AcDbEntity
  8
AM_0
100
AcDbCircle
 10
43.73428289111541
 20
-25.24999999999898
 30
0.0
 40
31.70000000000021
100
AcDbArc
 50
149.9999999999994
 51
329.9999999999995
  0
LINE
  5
3894
330
375C
100
AcDbEntity
  8
AM_0
100
AcDbLine
 10
15.32864964698569
 20
-8.849999999998772
 30
0.0
 11
16.28127759114852
 21
-9.399999999998783
 31
0.0
  0
ARC
  5
3895
330
375C
100
AcDbEntity
  8
AM_0
100
AcDbCircle
 10
43.73428289111541
 20
-25.24999999999898
 30
0.0
 40
30.6000000000002
100
AcDbArc
 50
149.9999999999994
 51
329.9999999999995
  0
LINE
  5
3896
330
375C
100
AcDbEntity
  8
AM_0
100
AcDbLine
 10
70.23466024691936
 20
-40.5499999999991
 30
0.0
 11
69.28203230275653
 21
-39.99999999999909
 31
0.0
  0
ARC
  5
3897
330
375C
100
AcDbEntity
  8
AM_0
100
AcDbCircle
 10
43.73428289111541
 20
-25.24999999999898
 30
0.0
 40
29.50000000000019
100
AcDbArc
 50
149.9999999999994
 51
329.9999999999995
  0
LINE
  5
3898
330
375C
100
AcDbEntity
  8
AM_0
100
AcDbLine
 10
17.23390553531152
 20
-9.949999999998794
 30
0.0
 11
18.18653347947429
 21
-10.49999999999892
 31
0.0
  0
ARC
  5
3899
330
375C
100
AcDbEntity
  8
AM_0
100
AcDbCircle
 10
43.73428289111541
 20
-25.24999999999898
 30
0.0
 40
28.40000000000019
100
AcDbArc
 50
149.9999999999994
 51
329.9999999999995
  0
LINE
  5
389A
330
375C
100
AcDbEntity
  8
AM_0
100
AcDbLine
 10
68.32940435859359
 20
-39.44999999999897
 30
0.0
 11
67.3767764144307
 21
-38.89999999999913
 31
0.0
  0
ARC
  5
389B
330
375C
100
AcDbEntity
  8
AM_0
100
AcDbCircle
 10
43.73428289111541
 20
-25.24999999999898
 30
0.0
 40
27.30000000000018
100
AcDbArc
 50
149.9999999999994
 51
329.9999999999995
  0
LINE
  5
389C
330
375C
100
AcDbEntity
  8
AM_0
100
AcDbLine
 10
19.13916142363735
 20
-11.04999999999893
 30
0.0
 11
20.09178936780006
 21
-11.59999999999888
 31
0.0
  0
ARC
  5
389D
330
375C
100
AcDbEntity
  8
AM_0
100
AcDbCircle
 10
43.73428289111541
 20
-25.24999999999898
 30
0.0
 40
26.20000000000017
100
AcDbArc
 50
149.9999999999994
 51
329.9999999999995
  0
LINE
  5
389E
330
375C
100
AcDbEntity
  8
AM_0
100
AcDbLine
 10
66.42414847026782
 20
-38.34999999999912
 30
0.0
 11
65.47152052610499
 21
-37.79999999999899
 31
0.0
  0
ARC
  5
389F
330
375C
100
AcDbEntity
  8
AM_0
100
AcDbCircle
 10
43.73428289111541
 20
-25.24999999999898
 30
0.0
 40
25.10000000000017
100
AcDbArc
 50
149.9999999999994
 51
329.9999999999995
  0
LINE
  5
38A0
330
375C
100
AcDbEntity
  8
AM_0
100
AcDbLine
 10
21.044417311963
 20
-12.14999999999889
 30
0.0
 11
21.99704525612589
 21
-12.69999999999891
 31
0.0
  0
ARC
  5
38A1
330
375C
100
AcDbEntity
  8
AM_0
100
AcDbCircle
 10
43.73428289111541
 20
-25.24999999999898
 30
0.0
 40
24.00000000000016
100
AcDbArc
 50
149.9999999999994
 51
329.9999999999995
  0
LINE
  5
38A2
330
375C
100
AcDbEntity
  8
AM_0
100
AcDbLine
 10
64.51889258194199
 20
-37.24999999999898
 30
0.0
 11
63.56626463777923
 21
-36.69999999999897
 31
0.0
  0
ARC
  5
38A3
330
375C
100
AcDbEntity
  8
AM_0
100
AcDbCircle
 10
43.73428289111541
 20
-25.24999999999898
 30
0.0
 40
22.90000000000016
100
AcDbArc
 50
149.9999999999994
 51
329.9999999999995
  0
LINE
  5
38A4
330
375C
100
AcDbEntity
  8
AM_0
100
AcDbLine
 10
22.94967320028883
 20
-13.24999999999892
 30
0.0
 11
23.90230114445166
 21
-13.79999999999893
 31
0.0
  0
ARC
  5
38A5
330
375C
100
AcDbEntity
  8
AM_0
100
AcDbCircle
 10
43.73428289111541
 20
-25.24999999999898
 30
0.0
 40
21.80000000000015
100
AcDbArc
 50
149.9999999999994
 51
329.9999999999995
  0
LINE
  5
38A6
330
375C
100
AcDbEntity
  8
AM_0
100
AcDbLine
 10
62.61363669361628
 20
-36.14999999999901
 30
0.0
 11
61.66100874945334
 21
-35.599999999999
 31
0.0
  0
ARC
  5
38A7
330
375C
100
AcDbEntity
  8
AM_0
100
AcDbCircle
 10
43.73428289111541
 20
-25.24999999999898
 30
0.0
 40
20.70000000000014
100
AcDbArc
 50
149.9999999999994
 51
329.9999999999995
  0
LINE
  5
38A8
330
375C
100
AcDbEntity
  8
AM_0
100
AcDbLine
 10
24.85492908861454
 20
-14.34999999999888
 30
0.0
 11
25.80755703277737
 21
-14.8999999999989
 31
0.0
  0
LINE
  5
38A9
330
375C
100
AcDbEntity
  8
AM_0
100
AcDbLine
 10
-73.09254407940557
 20
-42.19999999999896
 30
0.0
 11
-74.04517202356846
 21
-42.74999999999898
 31
0.0
  0
LINE
  5
38AA
330
375C
100
AcDbEntity
  8
AM_0
100
AcDbLine
 10
-14.37602170282036
 20
-8.299999999998931
 30
0.0
 11
-13.42339375865748
 21
-7.749999999998919
 31
0.0
  0
ARC
  5
38AB
330
375C
100
AcDbEntity
  8
AM_0
100
AcDbCircle
 10
-43.73428289111291
 20
-25.24999999999898
 30
0.0
 40
33.90000000000012
100
AcDbArc
 50
210.0000000000005
 51
30.00000000000055
  0
LINE
  5
38AC
330
375C
100
AcDbEntity
  8
AM_0
100
AcDbLine
 10
-71.18728819107968
 20
-41.09999999999899
 30
0.0
 11
-72.13991613524263
 21
-41.64999999999901
 31
0.0
  0
ARC
  5
38AD
330
375C
100
AcDbEntity
  8
AM_0
100
AcDbCircle
 10
-43.73428289111291
 20
-25.24999999999898
 30
0.0
 40
32.80000000000011
100
AcDbArc
 50
210.0000000000005
 51
30.00000000000055
  0
LINE
  5
38AE
330
375C
100
AcDbEntity
  8
AM_0
100
AcDbLine
 10
-16.28127759114613
 20
-9.39999999999901
 30
0.0
 11
-15.32864964698319
 21
-8.849999999998885
 31
0.0
  0
ARC
  5
38AF
330
375C
100
AcDbEntity
  8
AM_0
100
AcDbCircle
 10
-43.73428289111291
 20
-25.24999999999898
 30
0.0
 40
31.70000000000011
100
AcDbArc
 50
210.0000000000005
 51
30.00000000000055
  0
LINE
  5
38B0
330
375C
100
AcDbEntity
  8
AM_0
100
AcDbLine
 10
-69.28203230275392
 20
-39.99999999999898
 30
0.0
 11
-70.23466024691692
 21
-40.54999999999899
 31
0.0
  0
ARC
  5
38B1
330
375C
100
AcDbEntity
  8
AM_0
100
AcDbCircle
 10
-43.73428289111291
 20
-25.24999999999898
 30
0.0
 40
30.60000000000011
100
AcDbArc
 50
210.0000000000005
 51
30.00000000000055
  0
LINE
  5
38B2
330
375C
100
AcDbEntity
  8
AM_0
100
AcDbLine
 10
-18.1865334794719
 20
-10.49999999999892
 30
0.0
 11
-17.23390553530896
 21
-9.949999999998965
 31
0.0
  0
ARC
  5
38B3
330
375C
100
AcDbEntity
  8
AM_0
100
AcDbCircle
 10
-43.73428289111291
 20
-25.24999999999898
 30
0.0
 40
29.50000000000011
100
AcDbArc
 50
210.0000000000005
 51
30.00000000000055
  0
LINE
  5
38B4
330
375C
100
AcDbEntity
  8
AM_0
100
AcDbLine
 10
-67.37677641442821
 20
-38.89999999999901
 30
0.0
 11
-68.32940435859109
 21
-39.44999999999897
 31
0.0
  0
ARC
  5
38B5
330
375C
100
AcDbEntity
  8
AM_0
100
AcDbCircle
 10
-43.73428289111291
 20
-25.24999999999898
 30
0.0
 40
28.4000000000001
100
AcDbArc
 50
210.0000000000005
 51
30.00000000000055
  0
LINE
  5
38B6
330
375C
100
AcDbEntity
  8
AM_0
100
AcDbLine
 10
-20.09178936779773
 20
-11.59999999999888
 30
0.0
 11
-19.13916142363484
 21
-11.04999999999893
 31
0.0
  0
ARC
  5
38B7
330
375C
100
AcDbEntity
  8
AM_0
100
AcDbCircle
 10
-43.73428289111291
 20
-25.24999999999898
 30
0.0
 40
27.30000000000011
100
AcDbArc
 50
210.0000000000005
 51
30.00000000000055
  0
LINE
  5
38B8
330
375C
100
AcDbEntity
  8
AM_0
100
AcDbLine
 10
-65.47152052610238
 20
-37.79999999999899
 30
0.0
 11
-66.42414847026532
 21
-38.349999999999
 31
0.0
  0
ARC
  5
38B9
330
375C
100
AcDbEntity
  8
AM_0
100
AcDbCircle
 10
-43.73428289111291
 20
-25.24999999999898
 30
0.0
 40
26.2000000000001
100
AcDbArc
 50
210.0000000000005
 51
30.00000000000055
  0
LINE
  5
38BA
330
375C
100
AcDbEntity
  8
AM_0
100
AcDbLine
 10
-21.99704525612344
 20
-12.69999999999891
 30
0.0
 11
-21.0444173119605
 21
-12.14999999999901
 31
0.0
  0
ARC
  5
38BB
330
375C
100
AcDbEntity
  8
AM_0
100
AcDbCircle
 10
-43.73428289111291
 20
-25.24999999999898
 30
0.0
 40
25.10000000000009
100
AcDbArc
 50
210.0000000000005
 51
30.00000000000055
  0
LINE
  5
38BC
330
375C
100
AcDbEntity
  8
AM_0
100
AcDbLine
 10
-63.56626463777661
 20
-36.69999999999897
 30
0.0
 11
-64.5188925819395
 21
-37.24999999999898
 31
0.0
  0
ARC
  5
38BD
330
375C
100
AcDbEntity
  8
AM_0
100
AcDbCircle
 10
-43.73428289111291
 20
-25.24999999999898
 30
0.0
 40
24.00000000000009
100
AcDbArc
 50
210.0000000000005
 51
30.00000000000055
  0
LINE
  5
38BE
330
375C
100
AcDbEntity
  8
AM_0
100
AcDbLine
 10
-23.90230114444921
 20
-13.79999999999893
 30
0.0
 11
-22.94967320028638
 21
-13.24999999999892
 31
0.0
  0
ARC
  5
38BF
330
375C
100
AcDbEntity
  8
AM_0
100
AcDbCircle
 10
-43.73428289111291
 20
-25.24999999999898
 30
0.0
 40
22.90000000000009
100
AcDbArc
 50
210.0000000000005
 51
30.00000000000055
  0
LINE
  5
38C0
330
375C
100
AcDbEntity
  8
AM_0
100
AcDbLine
 10
-61.66100874945084
 20
-35.599999999999
 30
0.0
 11
-62.61363669361379
 21
-36.14999999999901
 31
0.0
  0
ARC
  5
38C1
330
375C
100
AcDbEntity
  8
AM_0
100
AcDbCircle
 10
-43.73428289111291
 20
-25.24999999999898
 30
0.0
 40
21.80000000000009
100
AcDbArc
 50
210.0000000000005
 51
30.00000000000055
  0
LINE
  5
38C2
330
375C
100
AcDbEntity
  8
AM_0
100
AcDbLine
 10
-25.80755703277498
 20
-14.89999999999901
 30
0.0
 11
-24.85492908861215
 21
-14.34999999999888
 31
0.0
  0
ARC
  5
38C3
330
375C
100
AcDbEntity
  8
AM_0
100
AcDbCircle
 10
-43.73428289111291
 20
-25.24999999999898
 30
0.0
 40
20.70000000000008
100
AcDbArc
 50
210.0000000000005
 51
30.00000000000055
  0
CIRCLE
  5
38C4
330
375C
100
AcDbEntity
  8
AM_0
100
AcDbCircle
 10
86.89613394870617
 20
-4.249929972217216
 30
0.0
 40
3.323440000000021
  0
CIRCLE
  5
38C5
330
375C
100
AcDbEntity
  8
AM_0
100
AcDbCircle
 10
38.97114317030099
 20
22.50000000000114
 30
0.0
 40
3.323440000000042
  0
CIRCLE
  5
38C6
330
375C
100
AcDbEntity
  8
AM_0
100
AcDbCircle
 10
-38.97114317029849
 20
22.50000000000114
 30
0.0
 40
3.323440000000044
  0
CIRCLE
  5
38C7
330
375C
100
AcDbEntity
  8
AM_0
100
AcDbCircle
 10
-39.76751965410528
 20
77.37922447634389
 30
0.0
 40
3.323440000000021
  0
CIRCLE
  5
38C8
330
375C
100
AcDbEntity
  8
AM_0
100
AcDbCircle
 10
0.0000000000012506
 20
-44.99999999999892
 30
0.0
 40
3.323440000000042
  0
CIRCLE
  5
38C9
330
375C
100
AcDbEntity
  8
AM_0
100
AcDbCircle
 10
-47.12861429459707
 20
-73.12929450412361
 30
0.0
 40
3.323440000000021
  0
CIRCLE
  5
38CA
330
375C
100
AcDbEntity
  8
AM_0
100
AcDbCircle
 10
39.76751965410768
 20
77.379224476344
 30
0.0
 40
3.323440000000037
  0
CIRCLE
  5
38CB
330
375C
100
AcDbEntity
  8
AM_0
100
AcDbCircle
 10
-86.89613394870354
 20
-4.24992997221733
 30
0.0
 40
3.323440000000037
  0
CIRCLE
  5
38CC
330
375C
100
AcDbEntity
  8
AM_0
100
AcDbCircle
 10
47.12861429459951
 20
-73.12929450412349
 30
0.0
 40
3.323440000000037
  0
CIRCLE
  5
38CD
330
375C
100
AcDbEntity
  8
AM_0
100
AcDbCircle
 10
86.8961339487061
 20
-4.249929972217103
 30
0.0
 40
4.000082346706603
  0
CIRCLE
  5
38CE
330
375C
100
AcDbEntity
  8
AM_0
100
AcDbCircle
 10
86.8961339487061
 20
-4.249929972217103
 30
0.0
 40
5.800000000000017
  0
SPLINE
  5
38CF
330
375C
100
AcDbEntity
  8
AM_0
100
AcDbSpline
210
0.0
220
0.0
230
1.0
 70
    28
 71
     2
 72
     6
 73
     3
 74
     0
 42
0.000000001
 43
0.0000000001
 40
0.0
 40
0.0
 40
0.0
 40
0.759483489750648
 40
0.759483489750648
 40
0.759483489750648
 10
94.40168744817128
 20
-4.249929972216989
 30
0.0
 41
1.0
 10
92.52529907330501
 20
-7.499929972217104
 30
0.0
 41
1.154700538379251
 10
90.64891069843866
 20
-10.7499299722171
 30
0.0
 41
1.0
  0
SPLINE
  5
38D0
330
375C
100
AcDbEntity
  8
AM_0
100
AcDbSpline
210
0.0
220
0.0
230
1.0
 70
    28
 71
     2
 72
     6
 73
     3
 74
     0
 42
0.000000001
 43
0.0000000001
 40
0.0
 40
0.0
 40
0.0
 40
0.7594834897506491
 40
0.7594834897506491
 40
0.7594834897506491
 10
90.64891069843856
 20
2.250070027782896
 30
0.0
 41
1.0
 10
92.52529907330501
 20
-0.9999299722171031
 30
0.0
 41
1.154700538379251
 10
94.40168744817128
 20
-4.249929972216989
 30
0.0
 41
1.0
  0
SPLINE
  5
38D1
330
375C
100
AcDbEntity
  8
AM_0
100
AcDbSpline
210
0.0
220
0.0
230
1.0
 70
    28
 71
     2
 72
     6
 73
     3
 74
     0
 42
0.000000001
 43
0.0000000001
 40
0.0
 40
0.0
 40
0.0
 40
0.759483489750648
 40
0.759483489750648
 40
0.759483489750648
 10
83.14335719897348
 20
2.250070027782896
 30
0.0
 41
1.0
 10
86.89613394870605
 20
2.250070027782896
 30
0.0
 41
1.154700538379251
 10
90.64891069843856
 20
2.250070027782896
 30
0.0
 41
1.0
  0
SPLINE
  5
38D2
330
375C
100
AcDbEntity
  8
AM_0
100
AcDbSpline
210
0.0
220
0.0
230
1.0
 70
    28
 71
     2
 72
     6
 73
     3
 74
     0
 42
0.000000001
 43
0.0000000001
 40
0.0
 40
0.0
 40
0.0
 40
0.7594834897506492
 40
0.7594834897506492
 40
0.7594834897506492
 10
79.39058044924087
 20
-4.249929972217216
 30
0.0
 41
1.0
 10
81.2669688241071
 20
-0.9999299722171031
 30
0.0
 41
1.154700538379254
 10
83.14335719897348
 20
2.250070027782896
 30
0.0
 41
1.0
  0
SPLINE
  5
38D3
330
375C
100
AcDbEntity
  8
AM_0
100
AcDbSpline
210
0.0
220
0.0
230
1.0
 70
    28
 71
     2
 72
     6
 73
     3
 74
     0
 42
0.000000001
 43
0.0000000001
 40
0.0
 40
0.0
 40
0.0
 40
0.7594834897506452
 40
0.7594834897506452
 40
0.7594834897506452
 10
83.14335719897348
 20
-10.74992997221716
 30
0.0
 41
1.0
 10
81.26696882410721
 20
-7.499929972217159
 30
0.0
 41
1.154700538379251
 10
79.39058044924087
 20
-4.249929972217216
 30
0.0
 41
1.0
  0
SPLINE
  5
38D4
330
375C
100
AcDbEntity
  8
AM_0
100
AcDbSpline
210
0.0
220
0.0
230
1.0
 70
    28
 71
     2
 72
     6
 73
     3
 74
     0
 42
0.000000001
 43
0.0000000001
 40
0.0
 40
0.0
 40
0.0
 40
0.7594834897506463
 40
0.7594834897506463
 40
0.7594834897506463
 10
90.64891069843866
 20
-10.7499299722171
 30
0.0
 41
1.0
 10
86.89613394870617
 20
-10.7499299722171
 30
0.0
 41
1.154700538379248
 10
83.14335719897348
 20
-10.74992997221716
 30
0.0
 41
1.0
  0
CIRCLE
  5
38D5
330
375C
100
AcDbEntity
  8
AM_0
100
AcDbCircle
 10
38.97114317030105
 20
22.50000000000103
 30
0.0
 40
4.000082346706628
  0
CIRCLE
  5
38D6
330
375C
100
AcDbEntity
  8
AM_0
100
AcDbCircle
 10
38.97114317030105
 20
22.50000000000103
 30
0.0
 40
5.800000000000052
  0
SPLINE
  5
38D7
330
375C
100
AcDbEntity
  8
AM_0
100
AcDbSpline
210
0.0
220
0.0
230
1.0
 70
    28
 71
     2
 72
     6
 73
     3
 74
     0
 42
0.000000001
 43
0.0000000001
 40
0.0
 40
0.0
 40
0.0
 40
0.759483489750648
 40
0.759483489750648
 40
0.759483489750648
 10
31.46558967083581
 20
22.50000000000103
 30
0.0
 41
1.0
 10
33.34197804570209
 20
25.75000000000102
 30
0.0
 41
1.154700538379251
 10
35.21836642056849
 20
29.00000000000114
 30
0.0
 41
1.0
  0
SPLINE
  5
38D8
330
375C
100
AcDbEntity
  8
AM_0
100
AcDbSpline
210
0.0
220
0.0
230
1.0
 70
    28
 71
     2
 72
     6
 73
     3
 74
     0
 42
0.000000001
 43
0.0000000001
 40
0.0
 40
0.0
 40
0.0
 40
0.7594834897506491
 40
0.7594834897506491
 40
0.7594834897506491
 10
35.21836642056849
 20
16.00000000000091
 30
0.0
 41
1.0
 10
33.34197804570221
 20
19.25000000000102
 30
0.0
 41
1.154700538379251
 10
31.46558967083581
 20
22.50000000000103
 30
0.0
 41
1.0
  0
SPLINE
  5
38D9
330
375C
100
AcDbEntity
  8
AM_0
100
AcDbSpline
210
0.0
220
0.0
230
1.0
 70
    28
 71
     2
 72
     6
 73
     3
 74
     0
 42
0.000000001
 43
0.0000000001
 40
0.0
 40
0.0
 40
0.0
 40
0.759483489750648
 40
0.759483489750648
 40
0.759483489750648
 10
42.72391992003366
 20
16.00000000000102
 30
0.0
 41
1.0
 10
38.97114317030105
 20
16.00000000000091
 30
0.0
 41
1.154700538379251
 10
35.21836642056849
 20
16.00000000000091
 30
0.0
 41
1.0
  0
SPLINE
  5
38DA
330
375C
100
AcDbEntity
  8
AM_0
100
AcDbSpline
210
0.0
220
0.0
230
1.0
 70
    28
 71
     2
 72
     6
 73
     3
 74
     0
 42
0.000000001
 43
0.0000000001
 40
0.0
 40
0.0
 40
0.0
 40
0.7594834897506492
 40
0.7594834897506492
 40
0.7594834897506492
 10
46.47669666976634
 20
22.50000000000114
 30
0.0
 41
1.0
 10
44.6003082949
 20
19.25000000000102
 30
0.0
 41
1.154700538379254
 10
42.72391992003366
 20
16.00000000000091
 30
0.0
 41
1.0
  0
SPLINE
  5
38DB
330
375C
100
AcDbEntity
  8
AM_0
100
AcDbSpline
210
0.0
220
0.0
230
1.0
 70
    28
 71
     2
 72
     6
 73
     3
 74
     0
 42
0.000000001
 43
0.0000000001
 40
0.0
 40
0.0
 40
0.0
 40
0.7594834897506452
 40
0.7594834897506452
 40
0.7594834897506452
 10
42.72391992003355
 20
29.00000000000114
 30
0.0
 41
1.0
 10
44.6003082949
 20
25.75000000000102
 30
0.0
 41
1.154700538379251
 10
46.47669666976634
 20
22.50000000000114
 30
0.0
 41
1.0
  0
SPLINE
  5
38DC
330
375C
100
AcDbEntity
  8
AM_0
100
AcDbSpline
210
0.0
220
0.0
230
1.0
 70
    28
 71
     2
 72
     6
 73
     3
 74
     0
 42
0.000000001
 43
0.0000000001
 40
0.0
 40
0.0
 40
0.0
 40
0.7594834897506463
 40
0.7594834897506463
 40
0.7594834897506463
 10
35.21836642056837
 20
29.00000000000103
 30
0.0
 41
1.0
 10
38.97114317030105
 20
29.00000000000114
 30
0.0
 41
1.154700538379248
 10
42.72391992003355
 20
29.00000000000114
 30
0.0
 41
1.0
  0
CIRCLE
  5
38DD
330
375C
100
AcDbEntity
  8
AM_0
100
AcDbCircle
 10
-38.97114317029849
 20
22.50000000000114
 30
0.0
 40
4.00008234670663
  0
CIRCLE
  5
38DE
330
375C
100
AcDbEntity
  8
AM_0
100
AcDbCircle
 10
-38.97114317029849
 20
22.50000000000114
 30
0.0
 40
5.800000000000054
  0
SPLINE
  5
38DF
330
375C
100
AcDbEntity
  8
AM_0
100
AcDbSpline
210
0.0
220
0.0
230
1.0
 70
    28
 71
     2
 72
     6
 73
     3
 74
     0
 42
0.000000001
 43
0.0000000001
 40
0.0
 40
0.0
 40
0.0
 40
0.759483489750648
 40
0.759483489750648
 40
0.759483489750648
 10
-35.21836642056582
 20
16.00000000000114
 30
0.0
 41
1.0
 10
-38.97114317029843
 20
16.00000000000102
 30
0.0
 41
1.154700538379251
 10
-42.72391992003099
 20
16.00000000000102
 30
0.0
 41
1.0
  0
SPLINE
  5
38E0
330
375C
100
AcDbEntity
  8
AM_0
100
AcDbSpline
210
0.0
220
0.0
230
1.0
 70
    28
 71
     2
 72
     6
 73
     3
 74
     0
 42
0.000000001
 43
0.0000000001
 40
0.0
 40
0.0
 40
0.0
 40
0.7594834897506491
 40
0.7594834897506491
 40
0.7594834897506491
 10
-31.46558967083331
 20
22.50000000000114
 30
0.0
 41
1.0
 10
-33.34197804569953
 20
19.25000000000114
 30
0.0
 41
1.154700538379251
 10
-35.21836642056582
 20
16.00000000000102
 30
0.0
 41
1.0
  0
SPLINE
  5
38E1
330
375C
100
AcDbEntity
  8
AM_0
100
AcDbSpline
210
0.0
220
0.0
230
1.0
 70
    28
 71
     2
 72
     6
 73
     3
 74
     0
 42
0.000000001
 43
0.0000000001
 40
0.0
 40
0.0
 40
0.0
 40
0.759483489750648
 40
0.759483489750648
 40
0.759483489750648
 10
-35.21836642056587
 20
29.00000000000119
 30
0.0
 41
1.0
 10
-33.34197804569953
 20
25.75000000000114
 30
0.0
 41
1.154700538379251
 10
-31.46558967083331
 20
22.50000000000114
 30
0.0
 41
1.0
  0
SPLINE
  5
38E2
330
375C
100
AcDbEntity
  8
AM_0
100
AcDbSpline
210
0.0
220
0.0
230
1.0
 70
    28
 71
     2
 72
     6
 73
     3
 74
     0
 42
0.000000001
 43
0.0000000001
 40
0.0
 40
0.0
 40
0.0
 40
0.7594834897506492
 40
0.7594834897506492
 40
0.7594834897506492
 10
-42.7239199200311
 20
29.00000000000114
 30
0.0
 41
1.0
 10
-38.97114317029838
 20
29.00000000000114
 30
0.0
 41
1.154700538379254
 10
-35.21836642056587
 20
29.00000000000119
 30
0.0
 41
1.0
  0
SPLINE
  5
38E3
330
375C
100
AcDbEntity
  8
AM_0
100
AcDbSpline
210
0.0
220
0.0
230
1.0
 70
    28
 71
     2
 72
     6
 73
     3
 74
     0
 42
0.000000001
 43
0.0000000001
 40
0.0
 40
0.0
 40
0.0
 40
0.7594834897506452
 40
0.7594834897506452
 40
0.7594834897506452
 10
-46.47669666976367
 20
22.50000000000114
 30
0.0
 41
1.0
 10
-44.60030829489738
 20
25.75000000000102
 30
0.0
 41
1.154700538379251
 10
-42.7239199200311
 20
29.00000000000114
 30
0.0
 41
1.0
  0
SPLINE
  5
38E4
330
375C
100
AcDbEntity
  8
AM_0
100
AcDbSpline
210
0.0
220
0.0
230
1.0
 70
    28
 71
     2
 72
     6
 73
     3
 74
     0
 42
0.000000001
 43
0.0000000001
 40
0.0
 40
0.0
 40
0.0
 40
0.7594834897506463
 40
0.7594834897506463
 40
0.7594834897506463
 10
-42.72391992003099
 20
16.00000000000102
 30
0.0
 41
1.0
 10
-44.60030829489745
 20
19.25000000000102
 30
0.0
 41
1.154700538379248
 10
-46.47669666976367
 20
22.50000000000103
 30
0.0
 41
1.0
  0
CIRCLE
  5
38E5
330
375C
100
AcDbEntity
  8
AM_0
100
AcDbCircle
 10
-39.76751965410528
 20
77.37922447634389
 30
0.0
 40
4.000082346706603
  0
CIRCLE
  5
38E6
330
375C
100
AcDbEntity
  8
AM_0
100
AcDbCircle
 10
-39.76751965410528
 20
77.37922447634389
 30
0.0
 40
5.800000000000017
  0
SPLINE
  5
38E7
330
375C
100
AcDbEntity
  8
AM_0
100
AcDbSpline
210
0.0
220
0.0
230
1.0
 70
    28
 71
     2
 72
     6
 73
     3
 74
     0
 42
0.000000001
 43
0.0000000001
 40
0.0
 40
0.0
 40
0.0
 40
0.759483489750648
 40
0.759483489750648
 40
0.759483489750648
 10
-43.52029640383796
 20
83.87922447634389
 30
0.0
 41
1.0
 10
-39.76751965410528
 20
83.879224476344
 30
0.0
 41
1.154700538379251
 10
-36.01474290437272
 20
83.879224476344
 30
0.0
 41
1.0
  0
SPLINE
  5
38E8
330
375C
100
AcDbEntity
  8
AM_0
100
AcDbSpline
210
0.0
220
0.0
230
1.0
 70
    28
 71
     2
 72
     6
 73
     3
 74
     0
 42
0.000000001
 43
0.0000000001
 40
0.0
 40
0.0
 40
0.0
 40
0.7594834897506491
 40
0.7594834897506491
 40
0.7594834897506491
 10
-47.27307315357052
 20
77.37922447634389
 30
0.0
 41
1.0
 10
-45.39668477870418
 20
80.62922447634395
 30
0.0
 41
1.154700538379251
 10
-43.52029640383796
 20
83.879224476344
 30
0.0
 41
1.0
  0
SPLINE
  5
38E9
330
375C
100
AcDbEntity
  8
AM_0
100
AcDbSpline
210
0.0
220
0.0
230
1.0
 70
    28
 71
     2
 72
     6
 73
     3
 74
     0
 42
0.000000001
 43
0.0000000001
 40
0.0
 40
0.0
 40
0.0
 40
0.759483489750648
 40
0.759483489750648
 40
0.759483489750648
 10
-43.52029640383796
 20
70.87922447634389
 30
0.0
 41
1.0
 10
-45.39668477870418
 20
74.12922447634372
 30
0.0
 41
1.154700538379251
 10
-47.27307315357052
 20
77.37922447634389
 30
0.0
 41
1.0
  0
SPLINE
  5
38EA
330
375C
100
AcDbEntity
  8
AM_0
100
AcDbSpline
210
0.0
220
0.0
230
1.0
 70
    28
 71
     2
 72
     6
 73
     3
 74
     0
 42
0.000000001
 43
0.0000000001
 40
0.0
 40
0.0
 40
0.0
 40
0.7594834897506492
 40
0.7594834897506492
 40
0.7594834897506492
 10
-36.01474290437272
 20
70.87922447634389
 30
0.0
 41
1.0
 10
-39.76751965410528
 20
70.87922447634395
 30
0.0
 41
1.154700538379254
 10
-43.52029640383796
 20
70.87922447634389
 30
0.0
 41
1.0
  0
SPLINE
  5
38EB
330
375C
100
AcDbEntity
  8
AM_0
100
AcDbSpline
210
0.0
220
0.0
230
1.0
 70
    28
 71
     2
 72
     6
 73
     3
 74
     0
 42
0.000000001
 43
0.0000000001
 40
0.0
 40
0.0
 40
0.0
 40
0.7594834897506452
 40
0.7594834897506452
 40
0.7594834897506452
 10
-32.26196615464011
 20
77.37922447634389
 30
0.0
 41
1.0
 10
-34.13835452950639
 20
74.1292244763439
 30
0.0
 41
1.154700538379251
 10
-36.01474290437272
 20
70.87922447634389
 30
0.0
 41
1.0
  0
SPLINE
  5
38EC
330
375C
100
AcDbEntity
  8
AM_0
100
AcDbSpline
210
0.0
220
0.0
230
1.0
 70
    28
 71
     2
 72
     6
 73
     3
 74
     0
 42
0.000000001
 43
0.0000000001
 40
0.0
 40
0.0
 40
0.0
 40
0.7594834897506463
 40
0.7594834897506463
 40
0.7594834897506463
 10
-36.01474290437272
 20
83.879224476344
 30
0.0
 41
1.0
 10
-34.13835452950639
 20
80.62922447634401
 30
0.0
 41
1.154700538379248
 10
-32.26196615464011
 20
77.379224476344
 30
0.0
 41
1.0
  0
CIRCLE
  5
38ED
330
375C
100
AcDbEntity
  8
AM_0
100
AcDbCircle
 10
0.0000000000011937
 20
-44.99999999999892
 30
0.0
 40
4.000082346706627
  0
CIRCLE
  5
38EE
330
375C
100
AcDbEntity
  8
AM_0
100
AcDbCircle
 10
0.0000000000011937
 20
-44.99999999999892
 30
0.0
 40
5.800000000000052
  0
SPLINE
  5
38EF
330
375C
100
AcDbEntity
  8
AM_0
100
AcDbSpline
210
0.0
220
0.0
230
1.0
 70
    28
 71
     2
 72
     6
 73
     3
 74
     0
 42
0.000000001
 43
0.0000000001
 40
0.0
 40
0.0
 40
0.0
 40
0.759483489750648
 40
0.759483489750648
 40
0.759483489750648
 10
3.752776749733754
 20
-38.49999999999892
 30
0.0
 41
1.0
 10
5.629165124600092
 20
-41.74999999999892
 30
0.0
 41
1.154700538379251
 10
7.505553499466373
 20
-44.99999999999892
 30
0.0
 41
1.0
  0
SPLINE
  5
38F0
330
375C
100
AcDbEntity
  8
AM_0
100
AcDbSpline
210
0.0
220
0.0
230
1.0
 70
    28
 71
     2
 72
     6
 73
     3
 74
     0
 42
0.000000001
 43
0.0000000001
 40
0.0
 40
0.0
 40
0.0
 40
0.7594834897506491
 40
0.7594834897506491
 40
0.7594834897506491
 10
-3.752776749731538
 20
-38.49999999999892
 30
0.0
 41
1.0
 10
0.00000000000108
 20
-38.49999999999892
 30
0.0
 41
1.154700538379251
 10
3.752776749733754
 20
-38.49999999999892
 30
0.0
 41
1.0
  0
SPLINE
  5
38F1
330
375C
100
AcDbEntity
  8
AM_0
100
AcDbSpline
210
0.0
220
0.0
230
1.0
 70
    28
 71
     2
 72
     6
 73
     3
 74
     0
 42
0.000000001
 43
0.0000000001
 40
0.0
 40
0.0
 40
0.0
 40
0.759483489750648
 40
0.759483489750648
 40
0.759483489750648
 10
-7.505553499463985
 20
-44.99999999999897
 30
0.0
 41
1.0
 10
-5.629165124597818
 20
-41.74999999999892
 30
0.0
 41
1.154700538379251
 10
-3.752776749731424
 20
-38.49999999999892
 30
0.0
 41
1.0
  0
SPLINE
  5
38F2
330
375C
100
AcDbEntity
  8
AM_0
100
AcDbSpline
210
0.0
220
0.0
230
1.0
 70
    28
 71
     2
 72
     6
 73
     3
 74
     0
 42
0.000000001
 43
0.0000000001
 40
0.0
 40
0.0
 40
0.0
 40
0.7594834897506492
 40
0.7594834897506492
 40
0.7594834897506492
 10
-3.75277674973131
 20
-51.49999999999898
 30
0.0
 41
1.0
 10
-5.629165124597705
 20
-48.24999999999892
 30
0.0
 41
1.154700538379254
 10
-7.505553499463985
 20
-44.99999999999892
 30
0.0
 41
1.0
  0
SPLINE
  5
38F3
330
375C
100
AcDbEntity
  8
AM_0
100
AcDbSpline
210
0.0
220
0.0
230
1.0
 70
    28
 71
     2
 72
     6
 73
     3
 74
     0
 42
0.000000001
 43
0.0000000001
 40
0.0
 40
0.0
 40
0.0
 40
0.7594834897506452
 40
0.7594834897506452
 40
0.7594834897506452
 10
3.752776749733754
 20
-51.49999999999898
 30
0.0
 41
1.0
 10
0.0000000000012506
 20
-51.49999999999898
 30
0.0
 41
1.154700538379251
 10
-3.75277674973131
 20
-51.49999999999898
 30
0.0
 41
1.0
  0
SPLINE
  5
38F4
330
375C
100
AcDbEntity
  8
AM_0
100
AcDbSpline
210
0.0
220
0.0
230
1.0
 70
    28
 71
     2
 72
     6
 73
     3
 74
     0
 42
0.000000001
 43
0.0000000001
 40
0.0
 40
0.0
 40
0.0
 40
0.7594834897506463
 40
0.7594834897506463
 40
0.7594834897506463
 10
7.505553499466373
 20
-44.99999999999892
 30
0.0
 41
1.0
 10
5.629165124600092
 20
-48.24999999999903
 30
0.0
 41
1.154700538379248
 10
3.752776749733754
 20
-51.49999999999898
 30
0.0
 41
1.0
  0
CIRCLE
  5
38F5
330
375C
100
AcDbEntity
  8
AM_0
100
AcDbCircle
 10
-47.12861429459707
 20
-73.12929450412361
 30
0.0
 40
4.000082346706602
  0
CIRCLE
  5
38F6
330
375C
100
AcDbEntity
  8
AM_0
100
AcDbCircle
 10
-47.12861429459707
 20
-73.12929450412361
 30
0.0
 40
5.800000000000017
  0
SPLINE
  5
38F7
330
375C
100
AcDbEntity
  8
AM_0
100
AcDbSpline
210
0.0
220
0.0
230
1.0
 70
    28
 71
     2
 72
     6
 73
     3
 74
     0
 42
0.000000001
 43
0.0000000001
 40
0.0
 40
0.0
 40
0.0
 40
0.759483489750648
 40
0.759483489750648
 40
0.759483489750648
 10
-50.88139104432952
 20
-79.62929450412366
 30
0.0
 41
1.0
 10
-52.75777941919597
 20
-76.37929450412366
 30
0.0
 41
1.154700538379251
 10
-54.6341677940622
 20
-73.12929450412366
 30
0.0
 41
1.0
  0
SPLINE
  5
38F8
330
375C
100
AcDbEntity
  8
AM_0
100
AcDbSpline
210
0.0
220
0.0
230
1.0
 70
    28
 71
     2
 72
     6
 73
     3
 74
     0
 42
0.000000001
 43
0.0000000001
 40
0.0
 40
0.0
 40
0.0
 40
0.7594834897506491
 40
0.7594834897506491
 40
0.7594834897506491
 10
-43.37583754486451
 20
-79.6292945041236
 30
0.0
 41
1.0
 10
-47.12861429459707
 20
-79.62929450412355
 30
0.0
 41
1.154700538379251
 10
-50.88139104432952
 20
-79.62929450412366
 30
0.0
 41
1.0
  0
SPLINE
  5
38F9
330
375C
100
AcDbEntity
  8
AM_0
100
AcDbSpline
210
0.0
220
0.0
230
1.0
 70
    28
 71
     2
 72
     6
 73
     3
 74
     0
 42
0.000000001
 43
0.0000000001
 40
0.0
 40
0.0
 40
0.0
 40
0.759483489750648
 40
0.759483489750648
 40
0.759483489750648
 10
-39.62306079513189
 20
-73.12929450412361
 30
0.0
 41
1.0
 10
-41.49944916999817
 20
-76.37929450412355
 30
0.0
 41
1.154700538379251
 10
-43.37583754486451
 20
-79.6292945041236
 30
0.0
 41
1.0
  0
SPLINE
  5
38FA
330
375C
100
AcDbEntity
  8
AM_0
100
AcDbSpline
210
0.0
220
0.0
230
1.0
 70
    28
 71
     2
 72
     6
 73
     3
 74
     0
 42
0.000000001
 43
0.0000000001
 40
0.0
 40
0.0
 40
0.0
 40
0.7594834897506492
 40
0.7594834897506492
 40
0.7594834897506492
 10
-43.37583754486451
 20
-66.62929450412349
 30
0.0
 41
1.0
 10
-41.49944916999817
 20
-69.87929450412355
 30
0.0
 41
1.154700538379254
 10
-39.62306079513189
 20
-73.12929450412361
 30
0.0
 41
1.0
  0
SPLINE
  5
38FB
330
375C
100
AcDbEntity
  8
AM_0
100
AcDbSpline
210
0.0
220
0.0
230
1.0
 70
    28
 71
     2
 72
     6
 73
     3
 74
     0
 42
0.000000001
 43
0.0000000001
 40
0.0
 40
0.0
 40
0.0
 40
0.7594834897506452
 40
0.7594834897506452
 40
0.7594834897506452
 10
-50.88139104432968
 20
-66.62929450412367
 30
0.0
 41
1.0
 10
-47.12861429459707
 20
-66.62929450412367
 30
0.0
 41
1.154700538379251
 10
-43.37583754486451
 20
-66.62929450412349
 30
0.0
 41
1.0
  0
SPLINE
  5
38FC
330
375C
100
AcDbEntity
  8
AM_0
100
AcDbSpline
210
0.0
220
0.0
230
1.0
 70
    28
 71
     2
 72
     6
 73
     3
 74
     0
 42
0.000000001
 43
0.0000000001
 40
0.0
 40
0.0
 40
0.0
 40
0.7594834897506463
 40
0.7594834897506463
 40
0.7594834897506463
 10
-54.6341677940622
 20
-73.12929450412366
 30
0.0
 41
1.0
 10
-52.75777941919597
 20
-69.87929450412366
 30
0.0
 41
1.154700538379248
 10
-50.88139104432968
 20
-66.62929450412367
 30
0.0
 41
1.0
  0
CIRCLE
  5
38FD
330
375C
100
AcDbEntity
  8
AM_0
100
AcDbCircle
 10
39.76751965410768
 20
77.379224476344
 30
0.0
 40
4.000082346706619
  0
CIRCLE
  5
38FE
330
375C
100
AcDbEntity
  8
AM_0
100
AcDbCircle
 10
39.76751965410768
 20
77.379224476344
 30
0.0
 40
5.80000000000004
  0
SPLINE
  5
38FF
330
375C
100
AcDbEntity
  8
AM_0
100
AcDbSpline
210
0.0
220
0.0
230
1.0
 70
    28
 71
     2
 72
     6
 73
     3
 74
     0
 42
0.000000001
 43
0.0000000001
 40
0.0
 40
0.0
 40
0.0
 40
0.759483489750648
 40
0.759483489750648
 40
0.759483489750648
 10
34.41165886752333
 20
72.12107950230006
 30
0.0
 41
1.0
 10
33.47378050201769
 20
75.75477149596861
 30
0.0
 41
1.154700538379251
 10
32.53590213651205
 20
79.38846348963704
 30
0.0
 41
1.0
  0
SPLINE
  5
3900
330
375C
100
AcDbEntity
  8
AM_0
100
AcDbSpline
210
0.0
220
0.0
230
1.0
 70
    28
 71
     2
 72
     6
 73
     3
 74
     0
 42
0.000000001
 43
0.0000000001
 40
0.0
 40
0.0
 40
0.0
 40
0.7594834897506491
 40
0.7594834897506491
 40
0.7594834897506491
 10
41.64327638511889
 20
70.11184048900713
 30
0.0
 41
1.0
 10
38.02746762632109
 20
71.1164599956536
 30
0.0
 41
1.154700538379251
 10
34.41165886752333
 20
72.12107950230017
 30
0.0
 41
1.0
  0
SPLINE
  5
3901
330
375C
100
AcDbEntity
  8
AM_0
100
AcDbSpline
210
0.0
220
0.0
230
1.0
 70
    28
 71
     2
 72
     6
 73
     3
 74
     0
 42
0.000000001
 43
0.0000000001
 40
0.0
 40
0.0
 40
0.0
 40
0.759483489750648
 40
0.759483489750648
 40
0.759483489750648
 10
46.99913717170329
 20
75.36998546305091
 30
0.0
 41
1.0
 10
44.32120677841107
 20
72.74091297602899
 30
0.0
 41
1.154700538379251
 10
41.64327638511889
 20
70.11184048900713
 30
0.0
 41
1.0
  0
SPLINE
  5
3902
330
375C
100
AcDbEntity
  8
AM_0
100
AcDbSpline
210
0.0
220
0.0
230
1.0
 70
    28
 71
     2
 72
     6
 73
     3
 74
     0
 42
0.000000001
 43
0.0000000001
 40
0.0
 40
0.0
 40
0.0
 40
0.7594834897506492
 40
0.7594834897506492
 40
0.7594834897506492
 10
45.12338044069202
 20
82.63736945038777
 30
0.0
 41
1.0
 10
46.06125880619754
 20
79.0036774567194
 30
0.0
 41
1.154700538379254
 10
46.99913717170329
 20
75.36998546305091
 30
0.0
 41
1.0
  0
SPLINE
  5
3903
330
375C
100
AcDbEntity
  8
AM_0
100
AcDbSpline
210
0.0
220
0.0
230
1.0
 70
    28
 71
     2
 72
     6
 73
     3
 74
     0
 42
0.000000001
 43
0.0000000001
 40
0.0
 40
0.0
 40
0.0
 40
0.7594834897506452
 40
0.7594834897506452
 40
0.7594834897506452
 10
37.89176292309634
 20
84.64660846368076
 30
0.0
 41
1.0
 10
41.50757168189421
 20
83.64198895703429
 30
0.0
 41
1.154700538379251
 10
45.12338044069202
 20
82.63736945038777
 30
0.0
 41
1.0
  0
SPLINE
  5
3904
330
375C
100
AcDbEntity
  8
AM_0
100
AcDbSpline
210
0.0
220
0.0
230
1.0
 70
    28
 71
     2
 72
     6
 73
     3
 74
     0
 42
0.000000001
 43
0.0000000001
 40
0.0
 40
0.0
 40
0.0
 40
0.7594834897506463
 40
0.7594834897506463
 40
0.7594834897506463
 10
32.53590213651205
 20
79.38846348963704
 30
0.0
 41
1.0
 10
35.21383252980434
 20
82.0175359766589
 30
0.0
 41
1.154700538379248
 10
37.89176292309634
 20
84.64660846368076
 30
0.0
 41
1.0
  0
CIRCLE
  5
3905
330
375C
100
AcDbEntity
  8
AM_0
100
AcDbCircle
 10
-86.89613394870354
 20
-4.24992997221733
 30
0.0
 40
4.00008234670662
  0
CIRCLE
  5
3906
330
375C
100
AcDbEntity
  8
AM_0
100
AcDbCircle
 10
-86.89613394870354
 20
-4.24992997221733
 30
0.0
 40
5.800000000000043
  0
SPLINE
  5
3907
330
375C
100
AcDbEntity
  8
AM_0
100
AcDbSpline
210
0.0
220
0.0
230
1.0
 70
    28
 71
     2
 72
     6
 73
     3
 74
     0
 42
0.000000001
 43
0.0000000001
 40
0.0
 40
0.0
 40
0.0
 40
0.759483489750648
 40
0.759483489750648
 40
0.759483489750648
 10
-79.66451643110793
 20
-6.259168985510314
 30
0.0
 41
1.0
 10
-82.3424468244001
 20
-8.888241472532172
 30
0.0
 41
1.154700538379251
 10
-85.02037721769239
 20
-11.51731395955408
 30
0.0
 41
1.0
  0
SPLINE
  5
3908
330
375C
100
AcDbEntity
  8
AM_0
100
AcDbSpline
210
0.0
220
0.0
230
1.0
 70
    28
 71
     2
 72
     6
 73
     3
 74
     0
 42
0.000000001
 43
0.0000000001
 40
0.0
 40
0.0
 40
0.0
 40
0.7594834897506491
 40
0.7594834897506491
 40
0.7594834897506491
 10
-81.54027316211921
 20
1.008215001826613
 30
0.0
 41
1.0
 10
-80.60239479661362
 20
-2.625476991841878
 30
0.0
 41
1.154700538379251
 10
-79.66451643110793
 20
-6.259168985510314
 30
0.0
 41
1.0
  0
SPLINE
  5
3909
330
375C
100
AcDbEntity
  8
AM_0
100
AcDbSpline
210
0.0
220
0.0
230
1.0
 70
    28
 71
     2
 72
     6
 73
     3
 74
     0
 42
0.000000001
 43
0.0000000001
 40
0.0
 40
0.0
 40
0.0
 40
0.759483489750648
 40
0.759483489750648
 40
0.759483489750648
 10
-88.77189067971483
 20
3.017454015119596
 30
0.0
 41
1.0
 10
-85.15608192091702
 20
2.012834508473133
 30
0.0
 41
1.154700538379251
 10
-81.54027316211921
 20
1.008215001826613
 30
0.0
 41
1.0
  0
SPLINE
  5
390A
330
375C
100
AcDbEntity
  8
AM_0
100
AcDbSpline
210
0.0
220
0.0
230
1.0
 70
    28
 71
     2
 72
     6
 73
     3
 74
     0
 42
0.000000001
 43
0.0000000001
 40
0.0
 40
0.0
 40
0.0
 40
0.7594834897506492
 40
0.7594834897506492
 40
0.7594834897506492
 10
-94.12775146629916
 20
-2.240690958924176
 30
0.0
 41
1.0
 10
-91.44982107300705
 20
0.3883815280977387
 30
0.0
 41
1.154700538379254
 10
-88.77189067971483
 20
3.017454015119596
 30
0.0
 41
1.0
  0
SPLINE
  5
390B
330
375C
100
AcDbEntity
  8
AM_0
100
AcDbSpline
210
0.0
220
0.0
230
1.0
 70
    28
 71
     2
 72
     6
 73
     3
 74
     0
 42
0.000000001
 43
0.0000000001
 40
0.0
 40
0.0
 40
0.0
 40
0.7594834897506452
 40
0.7594834897506452
 40
0.7594834897506452
 10
-92.25199473528784
 20
-9.508074946261103
 30
0.0
 41
1.0
 10
-93.18987310079354
 20
-5.874382952592725
 30
0.0
 41
1.154700538379251
 10
-94.12775146629916
 20
-2.240690958924176
 30
0.0
 41
1.0
  0
SPLINE
  5
390C
330
375C
100
AcDbEntity
  8
AM_0
100
AcDbSpline
210
0.0
220
0.0
230
1.0
 70
    28
 71
     2
 72
     6
 73
     3
 74
     0
 42
0.000000001
 43
0.0000000001
 40
0.0
 40
0.0
 40
0.0
 40
0.7594834897506463
 40
0.7594834897506463
 40
0.7594834897506463
 10
-85.02037721769239
 20
-11.51731395955408
 30
0.0
 41
1.0
 10
-88.6361859764902
 20
-10.51269445290762
 30
0.0
 41
1.154700538379248
 10
-92.25199473528784
 20
-9.508074946261103
 30
0.0
 41
1.0
  0
CIRCLE
  5
390D
330
375C
100
AcDbEntity
  8
AM_0
100
AcDbCircle
 10
47.12861429459951
 20
-73.12929450412349
 30
0.0
 40
4.000082346706619
  0
CIRCLE
  5
390E
330
375C
100
AcDbEntity
  8
AM_0
100
AcDbCircle
 10
47.12861429459951
 20
-73.12929450412349
 30
0.0
 40
5.800000000000043
  0
SPLINE
  5
390F
330
375C
100
AcDbEntity
  8
AM_0
100
AcDbSpline
210
0.0
220
0.0
230
1.0
 70
    28
 71
     2
 72
     6
 73
     3
 74
     0
 42
0.000000001
 43
0.0000000001
 40
0.0
 40
0.0
 40
0.0
 40
0.759483489750648
 40
0.759483489750648
 40
0.759483489750648
 10
45.25285756358835
 20
-65.86191051678657
 30
0.0
 41
1.0
 10
48.86866632238611
 20
-66.86653002343314
 30
0.0
 41
1.154700538379251
 10
52.48447508118397
 20
-67.87114953007966
 30
0.0
 41
1.0
  0
SPLINE
  5
3910
330
375C
100
AcDbEntity
  8
AM_0
100
AcDbSpline
210
0.0
220
0.0
230
1.0
 70
    28
 71
     2
 72
     6
 73
     3
 74
     0
 42
0.000000001
 43
0.0000000001
 40
0.0
 40
0.0
 40
0.0
 40
0.7594834897506491
 40
0.7594834897506491
 40
0.7594834897506491
 10
39.89699677700395
 20
-71.12005549083045
 30
0.0
 41
1.0
 10
42.57492717029612
 20
-68.49098300380854
 30
0.0
 41
1.154700538379251
 10
45.25285756358835
 20
-65.86191051678657
 30
0.0
 41
1.0
  0
SPLINE
  5
3911
330
375C
100
AcDbEntity
  8
AM_0
100
AcDbSpline
210
0.0
220
0.0
230
1.0
 70
    28
 71
     2
 72
     6
 73
     3
 74
     0
 42
0.000000001
 43
0.0000000001
 40
0.0
 40
0.0
 40
0.0
 40
0.759483489750648
 40
0.759483489750648
 40
0.759483489750648
 10
41.77275350801522
 20
-78.38743947816732
 30
0.0
 41
1.0
 10
40.83487514250964
 20
-74.75374748449889
 30
0.0
 41
1.154700538379251
 10
39.89699677700395
 20
-71.12005549083045
 30
0.0
 41
1.0
  0
SPLINE
  5
3912
330
375C
100
AcDbEntity
  8
AM_0
100
AcDbSpline
210
0.0
220
0.0
230
1.0
 70
    28
 71
     2
 72
     6
 73
     3
 74
     0
 42
0.000000001
 43
0.0000000001
 40
0.0
 40
0.0
 40
0.0
 40
0.7594834897506492
 40
0.7594834897506492
 40
0.7594834897506492
 10
49.00437102561085
 20
-80.39667849146042
 30
0.0
 41
1.0
 10
45.38856226681298
 20
-79.39205898481379
 30
0.0
 41
1.154700538379254
 10
41.77275350801522
 20
-78.38743947816732
 30
0.0
 41
1.0
  0
SPLINE
  5
3913
330
375C
100
AcDbEntity
  8
AM_0
100
AcDbSpline
210
0.0
220
0.0
230
1.0
 70
    28
 71
     2
 72
     6
 73
     3
 74
     0
 42
0.000000001
 43
0.0000000001
 40
0.0
 40
0.0
 40
0.0
 40
0.7594834897506452
 40
0.7594834897506452
 40
0.7594834897506452
 10
54.36023181219514
 20
-75.13853351741653
 30
0.0
 41
1.0
 10
51.68230141890302
 20
-77.76760600443839
 30
0.0
 41
1.154700538379251
 10
49.00437102561085
 20
-80.39667849146042
 30
0.0
 41
1.0
  0
SPLINE
  5
3914
330
375C
100
AcDbEntity
  8
AM_0
100
AcDbSpline
210
0.0
220
0.0
230
1.0
 70
    28
 71
     2
 72
     6
 73
     3
 74
     0
 42
0.000000001
 43
0.0000000001
 40
0.0
 40
0.0
 40
0.0
 40
0.7594834897506463
 40
0.7594834897506463
 40
0.7594834897506463
 10
52.48447508118397
 20
-67.87114953007966
 30
0.0
 41
1.0
 10
53.42235344668949
 20
-71.50484152374815
 30
0.0
 41
1.154700538379248
 10
54.36023181219514
 20
-75.13853351741653
 30
0.0
 41
1.0
  0
CIRCLE
  5
3915
330
375C
100
AcDbEntity
  8
AM_0
100
AcDbCircle
 10
86.89613394870617
 20
-4.249929972217216
 30
0.0
 40
8.000000000000037
  0
CIRCLE
  5
3916
330
375C
100
AcDbEntity
  8
AM_0
100
AcDbCircle
 10
38.97114317030099
 20
22.50000000000114
 30
0.0
 40
8.000000000000088
  0
CIRCLE
  5
3917
330
375C
100
AcDbEntity
  8
AM_0
100
AcDbCircle
 10
-38.97114317029849
 20
22.50000000000103
 30
0.0
 40
8.000000000000088
  0
CIRCLE
  5
3918
330
375C
100
AcDbEntity
  8
AM_0
100
AcDbCircle
 10
-39.76751965410528
 20
77.379224476344
 30
0.0
 40
8.000000000000037
  0
CIRCLE
  5
3919
330
375C
100
AcDbEntity
  8
AM_0
100
AcDbCircle
 10
0.0000000000012506
 20
-44.99999999999892
 30
0.0
 40
8.000000000000088
  0
CIRCLE
  5
391A
330
375C
100
AcDbEntity
  8
AM_0
100
AcDbCircle
 10
-47.12861429459707
 20
-73.12929450412361
 30
0.0
 40
8.000000000000037
  0
CIRCLE
  5
391B
330
375C
100
AcDbEntity
  8
AM_0
100
AcDbCircle
 10
47.76751965410767
 20
91.23563093689501
 30
0.0
 40
3.099999999999998
  0
ARC
  5
391C
330
375C
100
AcDbEntity
  8
AM_0
100
AcDbCircle
 10
39.51751965410768
 20
76.94621177445174
 30
0.0
 40
7.499999999999995
100
AcDbArc
 50
149.9999999999994
 51
329.9999999999995
  0
ARC
  5
391D
330
375C
100
AcDbEntity
  8
AM_0
100
AcDbCircle
 10
47.01751965410767
 20
89.93659283121827
 30
0.0
 40
7.499999999999996
100
AcDbArc
 50
329.9999999999995
 51
149.9999999999994
  0
LINE
  5
391E
330
375C
100
AcDbEntity
  8
AM_0
100
AcDbLine
 10
46.01271018249099
 20
73.19621177445174
 30
0.0
 11
53.51271018249088
 21
86.18659283121827
 31
0.0
  0
LINE
  5
391F
330
375C
100
AcDbEntity
  8
AM_0
100
AcDbLine
 10
40.52232912572435
 20
93.68659283121827
 30
0.0
 11
33.02232912572435
 21
80.69621177445174
 31
0.0
  0
CIRCLE
  5
3920
330
375C
100
AcDbEntity
  8
AM_0
100
AcDbCircle
 10
-102.8961339487035
 20
-4.24992997221733
 30
0.0
 40
3.099999999999998
  0
ARC
  5
3921
330
375C
100
AcDbEntity
  8
AM_0
100
AcDbCircle
 10
-86.39613394870366
 20
-4.24992997221733
 30
0.0
 40
7.499999999999996
100
AcDbArc
 50
270.0
 51
90.0
  0
ARC
  5
3922
330
375C
100
AcDbEntity
  8
AM_0
100
AcDbCircle
 10
-101.3961339487036
 20
-4.24992997221733
 30
0.0
 40
7.499999999999996
100
AcDbArc
 50
90.0
 51
270.0
  0
LINE
  5
3923
330
375C
100
AcDbEntity
  8
AM_0
100
AcDbLine
 10
-86.39613394870366
 20
3.250070027782669
 30
0.0
 11
-101.3961339487035
 21
3.250070027782669
 31
0.0
  0
LINE
  5
3924
330
375C
100
AcDbEntity
  8
AM_0
100
AcDbLine
 10
-101.3961339487036
 20
-11.74992997221733
 30
0.0
 11
-86.39613394870366
 21
-11.74992997221733
 31
0.0
  0
CIRCLE
  5
3925
330
375C
100
AcDbEntity
  8
AM_0
100
AcDbCircle
 10
55.12861429459945
 20
-86.98570096467449
 30
0.0
 40
3.099999999999996
  0
ARC
  5
3926
330
375C
100
AcDbEntity
  8
AM_0
100
AcDbCircle
 10
46.87861429459951
 20
-72.69628180223117
 30
0.0
 40
7.499999999999993
100
AcDbArc
 50
30.00000000000055
 51
210.0000000000005
  0
ARC
  5
3927
330
375C
100
AcDbEntity
  8
AM_0
100
AcDbCircle
 10
54.37861429459951
 20
-85.68666285899775
 30
0.0
 40
7.499999999999993
100
AcDbArc
 50
210.0000000000005
 51
30.00000000000055
  0
LINE
  5
3928
330
375C
100
AcDbEntity
  8
AM_0
100
AcDbLine
 10
40.38342376621625
 20
-76.44628180223128
 30
0.0
 11
47.88342376621625
 21
-89.43666285899775
 31
0.0
  0
LINE
  5
3929
330
375C
100
AcDbEntity
  8
AM_0
100
AcDbLine
 10
60.87380482298283
 20
-81.93666285899775
 30
0.0
 11
53.37380482298283
 21
-68.94628180223117
 31
0.0
  0
CIRCLE
  5
392A
330
375C
100
AcDbEntity
  8
AM_0
100
AcDbCircle
 10
43.73428289111553
 20
-25.24999999999892
 30
0.0
 40
19.5
  0
CIRCLE
  5
392B
330
375C
100
AcDbEntity
  8
AM_0
100
AcDbCircle
 10
0.0000000000012506
 20
50.50000000000114
 30
0.0
 40
19.5
  0
CIRCLE
  5
392C
330
375C
100
AcDbEntity
  8
AM_0
100
AcDbCircle
 10
-43.73428289111291
 20
-25.24999999999898
 30
0.0
 40
19.5
  0
ARC
  5
392D
330
375C
100
AcDbEntity
  8
AM_0
100
AcDbCircle
 10
85.4642781187319
 20
-45.87872236280446
 30
0.0
 40
1.999999999999953
100
AcDbArc
 50
239.9999999999995
 51
331.7723170405723
  0
ARC
  5
392E
330
375C
100
AcDbEntity
  8
AM_0
100
AcDbCircle
 10
78.90919937207832
 20
-42.09414588386493
 30
0.0
 40
1.999999999999931
100
AcDbArc
 50
154.4117257857745
 51
239.9999999999995
  0
ARC
  5
392F
330
375C
100
AcDbEntity
  8
AM_0
100
AcDbCircle
 10
11.5593664101496
 20
-3.209701693419788
 30
0.0
 40
1.999999999999945
100
AcDbArc
 50
239.9999999999995
 51
325.5882742142308
  0
ARC
  5
3930
330
375C
100
AcDbEntity
  8
AM_0
100
AcDbCircle
 10
3.000000000001023
 20
1.732050807572136
 30
0.0
 40
1.999999999999945
100
AcDbArc
 50
180.0
 51
239.9999999999995
  0
ARC
  5
3931
330
375C
100
AcDbEntity
  8
AM_0
100
AcDbCircle
 10
3.000000000001364
 20
89.38444419044703
 30
0.0
 40
1.99999999999993
100
AcDbArc
 50
180.0
 51
265.5882742142288
  0
ARC
  5
3932
330
375C
100
AcDbEntity
  8
AM_0
100
AcDbCircle
 10
3.00000000000108
 20
11.61555580955519
 30
0.0
 40
1.999999999999939
100
AcDbArc
 50
94.411725785768
 51
180.0
  0
ARC
  5
3933
330
375C
100
AcDbEntity
  8
AM_0
100
AcDbCircle
 10
3.000000000001364
 20
96.95359714832626
 30
0.0
 40
1.99999999999996
100
AcDbArc
 50
88.22768295943028
 51
180.0
  0
LINE
  5
3934
330
375C
100
AcDbEntity
  8
AM_0
100
AcDbLine
 10
77.90919937207831
 20
-43.82619669143378
 30
0.0
 11
84.46427811873178
 21
-47.61077317037342
 31
0.0
  0
LINE
  5
3935
330
375C
100
AcDbEntity
  8
AM_0
100
AcDbLine
 10
2.00000000000108
 20
0.0000000000031832
 30
0.0
 11
10.55936641014961
 21
-4.94175250098857
 31
0.0
  0
ARC
  5
3936
330
375C
100
AcDbEntity
  8
AM_0
100
AcDbCircle
 10
0.0000000000012506
 20
50.50000000000114
 30
0.0
 40
36.99999999999885
100
AcDbArc
 50
274.411725785768
 51
85.58827421422874
  0
LINE
  5
3937
330
375C
100
AcDbEntity
  8
AM_0
100
AcDbLine
 10
1.000000000001193
 20
11.61555580955519
 30
0.0
 11
1.00000000000108
 21
1.732050807572136
 31
0.0
  0
ARC
  5
3938
330
375C
100
AcDbEntity
  8
AM_0
100
AcDbCircle
 10
0.0000000000010232
 20
0.0000000000026716
 30
0.0
 40
98.99999999999737
100
AcDbArc
 50
331.7723170405723
 51
58.11869938748381
  0
ARC
  5
3939
330
375C
100
AcDbEntity
  8
AM_0
100
AcDbCircle
 10
0.00000000000108
 20
0.000000000002899
 30
0.0
 40
98.999999999997
100
AcDbArc
 50
66.81628328841568
 51
88.22768295943028
  0
LINE
  5
393A
330
375C
100
AcDbEntity
  8
AM_0
100
AcDbLine
 10
1.000000000001477
 20
96.95359714832626
 30
0.0
 11
1.000000000001477
 21
89.38444419044703
 31
0.0
  0
ARC
  5
393B
330
375C
100
AcDbEntity
  8
AM_0
100
AcDbCircle
 10
43.73428289111382
 20
-25.24999999999597
 30
0.0
 40
36.99999999999902
100
AcDbArc
 50
334.4117257857745
 51
145.5882742142308
  0
ELLIPSE
  5
393C
330
375C
100
AcDbEntity
  8
AM_0
100
AcDbEllipse
 10
64.95190528383204
 20
37.50000000000216
 30
0.0
 11
-5.624999999999787
 21
9.742785792574574
 31
0.0
210
0.0
220
0.0
230
1.0
 40
0.6000000000000064
 41
0.0
 42
6.283185307179585
  0
ARC
  5
393D
330
375C
100
AcDbEntity
  8
AM_0
100
AcDbCircle
 10
-3.000000000001136
 20
96.95359714832314
 30
0.0
 40
1.999999999999953
100
AcDbArc
 50
0.0
 51
91.77231704056971
  0
ARC
  5
393E
330
375C
100
AcDbEntity
  8
AM_0
100
AcDbCircle
 10
-3.000000000001136
 20
89.3844441904439
 30
0.0
 40
1.999999999999931
100
AcDbArc
 50
274.4117257857713
 51
0.0
  0
ARC
  5
393F
330
375C
100
AcDbEntity
  8
AM_0
100
AcDbCircle
 10
-3.000000000000511
 20
11.6155558095524
 30
0.0
 40
1.999999999999945
100
AcDbArc
 50
0.0
 51
85.58827421422874
  0
ARC
  5
3940
330
375C
100
AcDbEntity
  8
AM_0
100
AcDbCircle
 10
-3.000000000000397
 20
1.732050807568668
 30
0.0
 40
1.999999999999945
100
AcDbArc
 50
300.0000000000005
 51
0.0
  0
ARC
  5
3941
330
375C
100
AcDbEntity
  8
AM_0
100
AcDbCircle
 10
-78.9091993720774
 20
-42.09414588386851
 30
0.0
 40
1.99999999999993
100
AcDbArc
 50
300.0000000000005
 51
25.58827421422549
  0
ARC
  5
3942
330
375C
100
AcDbEntity
  8
AM_0
100
AcDbCircle
 10
-11.55936641014853
 20
-3.2097016934228
 30
0.0
 40
1.999999999999941
100
AcDbArc
 50
214.4117257857692
 51
300.0000000000005
  0
ARC
  5
3943
330
375C
100
AcDbEntity
  8
AM_0
100
AcDbCircle
 10
-85.46427811873092
 20
-45.8787223628081
 30
0.0
 40
1.99999999999996
100
AcDbArc
 50
208.2276829594349
 51
300.0000000000005
  0
LINE
  5
3944
330
375C
100
AcDbEntity
  8
AM_0
100
AcDbLine
 10
-1.000000000001136
 20
89.3844441904439
 30
0.0
 11
-1.000000000001193
 21
96.95359714832314
 31
0.0
  0
LINE
  5
3945
330
375C
100
AcDbEntity
  8
AM_0
100
AcDbLine
 10
-1.000000000000511
 20
1.732050807568668
 30
0.0
 11
-1.000000000000511
 21
11.6155558095524
 31
0.0
  0
ARC
  5
3946
330
375C
100
AcDbEntity
  8
AM_0
100
AcDbCircle
 10
-43.73428289111291
 20
-25.24999999999892
 30
0.0
 40
36.99999999999885
100
AcDbArc
 50
34.41172578576918
 51
205.5882742142255
  0
LINE
  5
3947
330
375C
100
AcDbEntity
  8
AM_0
100
AcDbLine
 10
-10.55936641014841
 20
-4.941752500991583
 30
0.0
 11
-2.000000000000397
 21
-0.0000000000001137
 31
0.0
  0
ARC
  5
3948
330
375C
100
AcDbEntity
  8
AM_0
100
AcDbCircle
 10
0.0
 20
0.0
 30
0.0
 40
98.99999999999732
100
AcDbArc
 50
91.77231704056971
 51
178.1186993874843
  0
ARC
  5
3949
330
375C
100
AcDbEntity
  8
AM_0
100
AcDbCircle
 10
-0.0000000000002842
 20
0.0
 30
0.0
 40
98.999999999997
100
AcDbArc
 50
186.8162832884153
 51
208.2276829594277
  0
LINE
  5
394A
330
375C
100
AcDbEntity
  8
AM_0
100
AcDbLine
 10
-84.46427811873105
 20
-47.61077317037688
 30
0.0
 11
-77.90919937207752
 21
-43.8261966914373
 31
0.0
  0
ARC
  5
394B
330
375C
100
AcDbEntity
  8
AM_0
100
AcDbCircle
 10
-0.0000000000003979
 20
50.49999999999818
 30
0.0
 40
36.99999999999902
100
AcDbArc
 50
94.41172578577125
 51
265.5882742142288
  0
ELLIPSE
  5
394C
330
375C
100
AcDbEntity
  8
AM_0
100
AcDbEllipse
 10
-64.95190528383147
 20
37.49999999999881
 30
0.0
 11
-5.624999999999791
 21
-9.742785792574572
 31
0.0
210
0.0
220
0.0
230
1.0
 40
0.6000000000000063
 41
0.0
 42
6.283185307179585
  0
ARC
  5
394D
330
375C
100
AcDbEntity
  8
AM_0
100
AcDbCircle
 10
-82.46427811872695
 20
-51.07487478551542
 30
0.0
 40
1.999999999999953
100
AcDbArc
 50
120.0000000000005
 51
211.7723170405715
  0
ARC
  5
394E
330
375C
100
AcDbEntity
  8
AM_0
100
AcDbCircle
 10
-75.90919937207343
 20
-47.29029830657566
 30
0.0
 40
1.999999999999931
100
AcDbArc
 50
34.41172578576918
 51
120.0000000000005
  0
ARC
  5
394F
330
375C
100
AcDbEntity
  8
AM_0
100
AcDbCircle
 10
-8.559366410145287
 20
-8.405854116129603
 30
0.0
 40
1.999999999999945
100
AcDbArc
 50
120.0000000000005
 51
205.5882742142328
  0
ARC
  5
3950
330
375C
100
AcDbEntity
  8
AM_0
100
AcDbCircle
 10
0.0000000000031832
 20
-3.464101615137508
 30
0.0
 40
1.999999999999945
100
AcDbArc
 50
59.99999999999946
 51
120.0000000000005
  0
ARC
  5
3951
330
375C
100
AcDbEntity
  8
AM_0
100
AcDbCircle
 10
75.9091993720798
 20
-47.29029830657538
 30
0.0
 40
1.99999999999993
100
AcDbArc
 50
59.99999999999664
 51
145.5882742142236
  0
ARC
  5
3952
330
375C
100
AcDbEntity
  8
AM_0
100
AcDbCircle
 10
8.559366410151199
 20
-8.405854116129148
 30
0.0
 40
1.999999999999939
100
AcDbArc
 50
334.4117257857745
 51
59.99999999999946
  0
ARC
  5
3953
330
375C
100
AcDbEntity
  8
AM_0
100
AcDbCircle
 10
82.46427811873321
 20
-51.07487478551502
 30
0.0
 40
1.99999999999996
100
AcDbArc
 50
328.2276829594358
 51
59.99999999999946
  0
LINE
  5
3954
330
375C
100
AcDbEntity
  8
AM_0
100
AcDbLine
 10
-76.90919937207343
 20
-45.55824749900693
 30
0.0
 11
-83.46427811872695
 21
-49.34282397794646
 31
0.0
  0
LINE
  5
3955
330
375C
100
AcDbEntity
  8
AM_0
100
AcDbLine
 10
-0.9999999999968167
 20
-1.732050807568839
 30
0.0
 11
-9.559366410145287
 21
-6.67380330856065
 31
0.0
  0
ARC
  5
3956
330
375C
100
AcDbEntity
  8
AM_0
100
AcDbCircle
 10
43.73428289111541
 20
-25.24999999999898
 30
0.0
 40
36.99999999999885
100
AcDbArc
 50
154.4117257857672
 51
325.5882742142308
  0
LINE
  5
3957
330
375C
100
AcDbEntity
  8
AM_0
100
AcDbLine
 10
9.559366410151085
 20
-6.673803308560309
 30
0.0
 11
1.000000000003183
 21
-1.732050807568839
 31
0.0
  0
ARC
  5
3958
330
375C
100
AcDbEntity
  8
AM_0
100
AcDbCircle
 10
0.0000000000028422
 20
0.0000000000003979
 30
0.0
 40
98.99999999999728
100
AcDbArc
 50
211.7723170405715
 51
298.1186993874845
  0
ARC
  5
3959
330
375C
100
AcDbEntity
  8
AM_0
100
AcDbCircle
 10
0.0000000000029559
 20
0.0000000000002274
 30
0.0
 40
98.999999999997
100
AcDbArc
 50
306.8162832884177
 51
328.2276829594285
  0
LINE
  5
395A
330
375C
100
AcDbEntity
  8
AM_0
100
AcDbLine
 10
83.4642781187332
 20
-49.34282397794618
 30
0.0
 11
76.90919937207969
 21
-45.55824749900648
 31
0.0
  0
ARC
  5
395B
330
375C
100
AcDbEntity
  8
AM_0
100
AcDbCircle
 10
-43.73428289110961
 20
-25.24999999999898
 30
0.0
 40
36.99999999999902
100
AcDbArc
 50
214.4117257857692
 51
25.58827421423277
  0
ELLIPSE
  5
395C
330
375C
100
AcDbEntity
  8
AM_0
100
AcDbEllipse
 10
0.0000000000030127
 20
-74.99999999999761
 30
0.0
 11
11.24999999999957
 21
-0.0000000000000051
 31
0.0
210
0.0
220
0.0
230
1.0
 40
0.6000000000000063
 41
0.0
 42
6.283185307179585
  0
INSERT
  5
395D
330
375C
100
AcDbEntity
  8
DIM
100
AcDbBlockReference
 66
     1
  2
dimensionBlock
 10
-100.4999999999986
 20
0.0000000000011369
 30
0.0
  0
ATTRIB
  5
395E
330
395D
100
AcDbEntity
  8
0
100
AcDbText
 10
-91.03290704967912
 20
2.89109523548052
 30
0.00000001
 40
5.0
  1
x3
100
AcDbAttribute
280
     0
  2
D
 70
     1
280
     1
  0
ATTRIB
  5
395F
330
395D
100
AcDbEntity
  8
0
100
AcDbText
 10
-91.03290704967912
 20
-3.592322260640457
 30
0.00000001
 40
5.0
  1
ø
100
AcDbAttribute
280
     0
  2
Dsymbol
 70
     1
280
     1
  0
SEQEND
  5
3960
330
395D
100
AcDbEntity
  8
DIM
  0
INSERT
  5
3961
330
375C
100
AcDbEntity
  8
DIM
100
AcDbBlockReference
 66
     1
  2
dimensionBlock
 10
100.5000000000011
 20
0.0000000000026716
 30
0.0
  0
ATTRIB
  5
3962
330
3961
100
AcDbEntity
  8
0
100
AcDbText
 10
109.9670929503206
 20
2.891095235482055
 30
0.00000001
 40
5.0
  1
x3
100
AcDbAttribute
280
     0
  2
D
 70
     1
280
     1
  0
ATTRIB
  5
3963
330
3961
100
AcDbEntity
  8
0
100
AcDbText
 10
109.9670929503206
 20
-3.592322260638923
 30
0.00000001
 40
5.0
  1
ø
100
AcDbAttribute
280
     0
  2
Dsymbol
 70
     1
280
     1
  0
SEQEND
  5
3964
330
3961
100
AcDbEntity
  8
DIM
  0
INSERT
  5
3965
330
375C
100
AcDbEntity
  8
DIM
100
AcDbBlockReference
 66
     1
  2
dimensionBlock
 10
-34.99999999999875
 20
50.50000000000114
 30
0.0
  0
ATTRIB
  5
3966
330
3965
100
AcDbEntity
  8
0
100
AcDbText
 10
-25.53290704967924
 20
53.39109523548052
 30
0.00000001
 40
5.0
  1
x2
100
AcDbAttribute
280
     0
  2
D
 70
     1
280
     1
  0
ATTRIB
  5
3967
330
3965
100
AcDbEntity
  8
0
100
AcDbText
 10
-25.53290704967924
 20
46.90767773935954
 30
0.00000001
 40
5.0
  1
ø
100
AcDbAttribute
280
     0
  2
Dsymbol
 70
     1
280
     1
  0
SEQEND
  5
3968
330
3965
100
AcDbEntity
  8
DIM
  0
INSERT
  5
3969
330
375C
100
AcDbEntity
  8
DIM
100
AcDbBlockReference
 66
     1
  2
dimensionBlock
 10
35.00000000000125
 20
50.50000000000114
 30
0.0
  0
ATTRIB
  5
396A
330
3969
100
AcDbEntity
  8
0
100
AcDbText
 10
44.46709295032076
 20
53.39109523548052
 30
0.00000001
 40
5.0
  1
x2
100
AcDbAttribute
280
     0
  2
D
 70
     1
280
     1
  0
ATTRIB
  5
396B
330
3969
100
AcDbEntity
  8
0
100
AcDbText
 10
44.46709295032076
 20
46.90767773935954
 30
0.00000001
 40
5.0
  1
ø
100
AcDbAttribute
280
     0
  2
Dsymbol
 70
     1
280
     1
  0
SEQEND
  5
396C
330
3969
100
AcDbEntity
  8
DIM
  0
INSERT
  5
396D
330
375C
100
AcDbEntity
  8
DIM
100
AcDbBlockReference
 66
     1
  2
dimensionBlock
 10
-19.49999999999875
 20
50.50000000000114
 30
0.0
  0
ATTRIB
  5
396E
330
396D
100
AcDbEntity
  8
0
100
AcDbText
 10
-10.03290704967924
 20
53.39109523548052
 30
0.00000001
 40
5.0
  1
x1
100
AcDbAttribute
280
     0
  2
D
 70
     1
280
     1
  0
ATTRIB
  5
396F
330
396D
100
AcDbEntity
  8
0
100
AcDbText
 10
-10.03290704967924
 20
46.90767773935954
 30
0.00000001
 40
5.0
  1
ø
100
AcDbAttribute
280
     0
  2
Dsymbol
 70
     1
280
     1
  0
SEQEND
  5
3970
330
396D
100
AcDbEntity
  8
DIM
  0
INSERT
  5
3971
330
375C
100
AcDbEntity
  8
DIM
100
AcDbBlockReference
 66
     1
  2
dimensionBlock
 10
19.50000000000125
 20
50.50000000000114
 30
0.0
  0
ATTRIB
  5
3972
330
3971
100
AcDbEntity
  8
0
100
AcDbText
 10
28.96709295032076
 20
53.39109523548052
 30
0.00000001
 40
5.0
  1
x1
100
AcDbAttribute
280
     0
  2
D
 70
     1
280
     1
  0
ATTRIB
  5
3973
330
3971
100
AcDbEntity
  8
0
100
AcDbText
 10
28.96709295032076
 20
46.90767773935954
 30
0.00000001
 40
5.0
  1
ø
100
AcDbAttribute
280
     0
  2
Dsymbol
 70
     1
280
     1
  0
SEQEND
  5
3974
330
3971
100
AcDbEntity
  8
DIM
  0
ENDBLK
  5
375E
330
375C
100
AcDbEntity
  8
0
100
AcDbBlockEnd
  0
ENDSEC
  0
SECTION
  2
ENTITIES
  0
INSERT
  5
3975
330
1A
100
AcDbEntity
  8
AM_0
100
AcDbBlockReference
  2
H3_201_0_3X39_68UG
 10
0.0
 20
0.0
 30
0.0
  0
VIEWPORT
  5
2CAA
102
{ACAD_XDICTIONARY
360
2CAB
102
}
330
2CA3
100
AcDbEntity
 67
     1
  8
0
100
AcDbViewport
 10
128.5
 20
97.5
 30
0.0
 40
349.2069620253165
 41
222.18
 68
     1
 69
     1
 12
128.5
 22
97.5
 13
0.0
 23
0.0
 14
10.0
 24
10.0
 15
10.0
 25
10.0
 16
0.0
 26
0.0
 36
1.0
 17
0.0
 27
0.0
 37
0.0
 42
50.0
 43
0.0
 44
0.0
 45
222.18
 50
0.0
 51
0.0
 72
   100
 90
   819232
  1

281
     0
 71
     1
 74
     0
110
0.0
120
0.0
130
0.0
111
1.0
121
0.0
131
0.0
112
0.0
122
1.0
132
0.0
 79
     0
146
0.0
170
     0
 61
     5
348
A55
292
     1
282
     1
141
0.0
142
0.0
 63
   250
421
  3355443
  0
ENDSEC
  0
SECTION
  2
OBJECTS
  0
DICTIONARY
  5
C
330
0
100
AcDbDictionary
281
     1
  3
ACAD_CIP_PREVIOUS_PRODUCT_INFO
350
CD7
  3
ACAD_COLOR
350
3CA
  3
ACAD_DETAILVIEWSTYLE
350
CCB
  3
ACAD_FIELDLIST
350
D6A
  3
ACAD_GROUP
350
D
  3
ACAD_LAYOUT
350
167
  3
ACAD_MATERIAL
350
3C9
  3
ACAD_MLEADERSTYLE
350
A72
  3
ACAD_MLINESTYLE
350
E
  3
ACAD_PLOTSETTINGS
350
168
  3
ACAD_PLOTSTYLENAME
350
165
  3
ACAD_SCALELIST
350
A60
  3
ACAD_SECTIONVIEWSTYLE
350
CC9
  3
ACAD_TABLESTYLE
350
650
  3
ACAD_VISUALSTYLE
350
A4F
  3
ACASAPPOBJECT
350
EE
  3
ACASGREF_MASTER
350
9B
  3
ACDB_RECOMPOSE_DATA
350
397A
  3
ACDBVARIABLEDICTIONARY
350
5D
  3
AcDsDecomposeData
350
3981
  3
ACMDICTIONARY
350
142
  3
AD_GREF_MODULE
350
AF
  3
AD_MAPI_MODULE
350
18E
  3
AMG
350
171
  3
AMGSNAPSETTINGS
350
1F2
  3
ASE_INDEX_DICTIONARY
350
849
  3
coolorange
350
13F2
  3
MAPISURF_MODULE
350
2E8
  0
DICTIONARY
  5
592
330
2
100
AcDbDictionary
280
     1
281
     1
  3
ACAD_LAYERFILTERS
360
C7C
  3
ACAD_LAYERSTATES
360
822
  3
ACLYDICTIONARY
360
C7B
  3
AMLAYER_GROUPCOLORS
360
593
  0
DICTIONARY
  5
AB7
330
F
100
AcDbDictionary
280
     1
281
     1
  3
ADSK_XREC_LAYER_RECONCILED
360
3976
  0
DICTIONARY
  5
AB9
330
5CF
100
AcDbDictionary
280
     1
281
     1
  3
ADSK_XREC_LAYER_RECONCILED
360
3977
  0
DICTIONARY
  5
3733
330
3732
100
AcDbDictionary
280
     1
281
     1
  3
ADSK_XREC_LAYER_RECONCILED
360
3978
  0
DICTIONARY
  5
12A
330
1A
100
AcDbDictionary
280
     1
281
     1
  3
ACAD_INDEX
360
30C4
  0
DICTIONARY
  5
372C
330
372B
100
AcDbDictionary
280
     1
281
     1
  0
DICTIONARY
  5
2CAB
330
2CAA
100
AcDbDictionary
280
     1
281
     1
  3
ASDK_XREC_ANNOTATION_SCALE_INFO
360
2CAC
  0
XRECORD
  5
CD7
102
{ACAD_REACTORS
330
C
102
}
330
C
100
AcDbXrecord
280
     1
300
AMECH_PP
300
2021
300

  0
DICTIONARY
  5
3CA
102
{ACAD_REACTORS
330
C
102
}
330
C
100
AcDbDictionary
281
     1
  0
DICTIONARY
  5
CCB
102
{ACAD_REACTORS
330
C
102
}
330
C
100
AcDbDictionary
281
     1
  3
Imperial24
350
10E8
  3
Metric50
350
CCC
  0
FIELDLIST
  5
D6A
102
{ACAD_REACTORS
330
C
102
}
330
C
100
AcDbIdSet
 90
       17
330
314E
330
314F
330
3150
330
31E2
330
31E3
330
31E4
330
31E5
330
31E9
330
31EA
330
31EB
330
31EF
330
31F0
330
31F1
330
31F2
330
32CE
330
32CF
330
32D0
100
AcDbFieldList
  0
DICTIONARY
  5
D
102
{ACAD_REACTORS
330
C
102
}
330
C
100
AcDbDictionary
281
     1
  0
DICTIONARY
  5
167
102
{ACAD_REACTORS
330
C
102
}
330
C
100
AcDbDictionary
281
     1
  3
Layout1
350
2CA4
  3
Model
350
169
  0
DICTIONARY
  5
3C9
102
{ACAD_REACTORS
330
C
102
}
330
C
100
AcDbDictionary
281
     1
  3
ByBlock
350
A3F
  3
ByLayer
350
A37
  3
Global
350
A47
  0
DICTIONARY
  5
A72
102
{ACAD_REACTORS
330
C
102
}
330
C
100
AcDbDictionary
281
     1
  3
Standard
350
A73
  0
DICTIONARY
  5
E
102
{ACAD_REACTORS
330
C
102
}
330
C
100
AcDbDictionary
281
     1
  3
STANDARD
350
13
  0
DICTIONARY
  5
168
102
{ACAD_REACTORS
330
C
102
}
330
C
100
AcDbDictionary
281
     1
  3
Setup1
350
2C89
  0
ACDBDICTIONARYWDFLT
  5
165
102
{ACAD_REACTORS
330
C
102
}
330
C
100
AcDbDictionary
281
     1
  3
Normal
350
166
100
AcDbDictionaryWithDefault
340
166
  0
DICTIONARY
  5
A60
102
{ACAD_REACTORS
330
C
102
}
330
C
100
AcDbDictionary
281
     1
  3
A0
350
A61
  3
A1
350
A62
  3
A2
350
A63
  3
A3
350
A64
  3
A4
350
A65
  3
A5
350
A66
  3
A6
350
A67
  3
A7
350
A68
  3
A8
350
A69
  3
A9
350
A6A
  3
B0
350
A6B
  3
B1
350
A6C
  3
B2
350
A6D
  3
B3
350
A6E
  3
B4
350
A6F
  3
B5
350
A70
  3
B6
350
A71
  0
DICTIONARY
  5
CC9
102
{ACAD_REACTORS
330
C
102
}
330
C
100
AcDbDictionary
281
     1
  3
Imperial24
350
10E5
  3
Metric50
350
CCA
  0
DICTIONARY
  5
650
102
{ACAD_REACTORS
330
C
102
}
330
C
100
AcDbDictionary
281
     1
  3
Standard
350
651
  0
DICTIONARY
  5
A4F
102
{ACAD_REACTORS
330
C
102
}
330
C
100
AcDbDictionary
281
     1
  3
2dWireframe
350
A55
  3
3D Hidden
350
A57
  3
3dWireframe
350
A56
  3
Basic
350
A54
  3
Brighten
350
A5B
  3
ColorChange
350
A5F
  3
Conceptual
350
A58
  3
Dim
350
A5A
  3
EdgeColorOff
350
CC8
  3
Facepattern
350
A5E
  3
Flat
350
A50
  3
FlatWithEdges
350
A51
  3
Gouraud
350
A52
  3
GouraudWithEdges
350
A53
  3
Hidden
350
CC0
  3
JitterOff
350
CC6
  3
Linepattern
350
A5D
  3
OverhangOff
350
CC7
  3
Realistic
350
A59
  3
Shaded
350
CC5
  3
Shaded with edges
350
CC4
  3
Shades of Gray
350
CC1
  3
Sketchy
350
CC2
  3
Thicken
350
A5C
  3
Wireframe
350
CBF
  3
X-Ray
350
CC3
  0
ACAD_PROXY_OBJECT
  5
EE
102
{ACAD_REACTORS
330
C
102
}
330
C
100
AcDbProxyObject
 90
      499
 91
      544
 95
  3276827
 70
     0
162
                 0
161
                10
310
404C
 94
        0
  0
ACAD_PROXY_OBJECT
  5
9B
102
{ACAD_REACTORS
330
C
102
}
330
C
100
AcDbProxyObject
 90
      499
 91
      514
 95
  3276827
 70
     0
162
                 0
161
                34
310
010000404C
 94
        0
  0
XRECORD
  5
397A
102
{ACAD_REACTORS
330
C
102
}
330
C
100
AcDbXrecord
280
     1
 90
        1
330
651
  0
DICTIONARY
  5
5D
102
{ACAD_REACTORS
330
C
102
}
330
C
100
AcDbDictionary
281
     1
  3
CANNOSCALE
350
AF4
  3
CMLEADERSTYLE
350
AF2
  3
CTABLESTYLE
350
66F
  3
CVIEWDETAILSTYLE
350
FFA
  3
CVIEWSECTIONSTYLE
350
FFB
  3
DIMADEC
350
5E
  3
DIMASSOC
350
3C7
  3
INDEXCTL
350
128
  3
LAYEREVAL
350
AF6
  3
LAYERNOTIFY
350
AF7
  3
LIGHTINGUNITS
350
AF5
  3
MSLTSCALE
350
AF3
  0
DICTIONARY
  5
3981
102
{ACAD_REACTORS
330
C
102
}
330
C
100
AcDbDictionary
281
     1
  3
AcDsRecords
350
3983
  3
AcDsSchemas
350
3982
1001
ACAD
1070
     2
  0
DICTIONARY
  5
142
102
{ACAD_REACTORS
330
C
102
}
330
C
100
AcDbDictionary
281
     1
  3
ACMSTDDICTIONARY
350
143
  3
AMDTSECTSYM_ARROWCOLOR
350
47D
  0
ACAD_PROXY_OBJECT
  5
AF
102
{ACAD_REACTORS
330
C
102
}
330
C
100
AcDbProxyObject
 90
      499
 91
      526
 95
  3276827
 70
     0
162
                 0
161
               114
310
00000043800000000000000000000C
 94
        0
  0
ACAD_PROXY_OBJECT
  5
18E
102
{ACAD_REACTORS
330
C
102
}
330
C
100
AcDbProxyObject
 90
      499
 91
      570
 95
  3276827
 70
     0
162
                 0
161
                34
310
05000044CC
 94
        0
  0
DICTIONARY
  5
171
102
{ACAD_REACTORS
330
C
102
}
330
C
100
AcDbDictionary
281
     1
  0
DICTIONARY
  5
1F2
102
{ACAD_REACTORS
330
C
102
}
330
C
100
AcDbDictionary
281
     1
  0
DICTIONARY
  5
849
102
{ACAD_REACTORS
330
C
102
}
330
C
100
AcDbDictionary
281
     1
  3
ASEBlockHierarchyIndexRecord
350
84B
1001
DCO15
1040
1524370329.156
  0
DICTIONARY
  5
13F2
102
{ACAD_REACTORS
330
C
102
}
330
C
100
AcDbDictionary
281
     1
  3
myviewproperty
350
13F3
  0
ACAD_PROXY_OBJECT
  5
2E8
102
{ACAD_REACTORS
330
C
102
}
330
C
100
AcDbProxyObject
 90
      499
 91
      610
 95
  3276827
 70
     0
162
                 0
161
                 8
310
0400
 94
        0
  0
DICTIONARY
  5
C7C
102
{ACAD_REACTORS
330
592
102
}
330
592
100
AcDbDictionary
281
     1
  0
DICTIONARY
  5
822
102
{ACAD_REACTORS
330
592
102
}
330
592
100
AcDbDictionary
281
     1
  0
DICTIONARY
  5
C7B
102
{ACAD_REACTORS
330
592
102
}
330
592
100
AcDbDictionary
281
     1
1001
ACAD
1000
<All
  0
DICTIONARY
  5
593
102
{ACAD_REACTORS
330
592
102
}
330
592
100
AcDbDictionary
280
     1
281
     1
  0
XRECORD
  5
3976
102
{ACAD_REACTORS
330
AB7
102
}
330
AB7
100
AcDbXrecord
280
     1
290
     1
  0
XRECORD
  5
3977
102
{ACAD_REACTORS
330
AB9
102
}
330
AB9
100
AcDbXrecord
280
     1
290
     1
  0
XRECORD
  5
3978
102
{ACAD_REACTORS
330
3733
102
}
330
3733
100
AcDbXrecord
280
     1
290
     1
  0
DICTIONARY
  5
30C4
102
{ACAD_REACTORS
330
12A
102
}
330
12A
100
AcDbDictionary
281
     1
  3
*A1
350
30C5
  0
XRECORD
  5
2CAC
102
{ACAD_REACTORS
330
2CAB
102
}
330
2CAB
100
AcDbXrecord
280
     1
 90
        1
340
A61
  0
ACDBDETAILVIEWSTYLE
  5
10E8
102
{ACAD_XDICTIONARY
360
398A
102
}
102
{ACAD_REACTORS
330
CCB
330
3147
330
3156
102
}
330
CCB
100
AcDbModelDocViewStyle
 70
     0
  3
Imperial24
290
     0
100
AcDbDetailViewStyle
 70
     0
 71
     0
 90
        3
 71
     1
340
10
 62
   256
 40
0.24
340
0
 62
   256
 40
0.24
300

 40
0.36
280
     3
 71
     2
340
16
 90
       25
 62
   256
 71
     3
340
10
 62
   256
 40
0.24
 90
        1
 40
0.75
 90
        1
300
%<\AcVar ViewType \f "%tc1">% %<\AcVar ViewDetailId>%\PSCALE %<\AcVar ViewScale \f "%sn">%
 71
     4
340
16
 90
       25
 62
   256
340
16
 90
       25
 62
   256
280
     0
  0
ACDBDETAILVIEWSTYLE
  5
CCC
102
{ACAD_XDICTIONARY
360
3986
102
}
102
{ACAD_REACTORS
330
CCB
330
3149
330
3158
102
}
330
CCB
100
AcDbModelDocViewStyle
 70
     0
  3
Metric50
290
     0
100
AcDbDetailViewStyle
 70
     0
 71
     0
 90
        3
 71
     1
340
10
 62
   256
 40
5.0
340
0
 62
   256
 40
5.0
300

 40
0.0
280
     1
 71
     2
340
16
 90
       25
 62
   256
 71
     3
340
10
 62
   256
 40
5.0
 90
        0
 40
15.0
 90
        1
300
%<\AcVar ViewDetailId>% (%<\AcVar ViewScale \f "%sn">%)
 71
     4
340
16
 90
       25
 62
   256
340
16
 90
       25
 62
   256
280
     0
  0
LAYOUT
  5
2CA4
102
{ACAD_REACTORS
330
167
102
}
330
167
100
AcDbPlotSettings
  1

  2
none_device
  4
ISO_A4_(210.00_x_297.00_MM)
  6

 40
7.5
 41
20.0
 42
7.5
 43
20.0
 44
210.0
 45
297.0
 46
0.0
 47
0.0
 48
0.0
 49
0.0
140
0.0
141
0.0
142
1.0
143
2.0
 70
   688
 72
     1
 73
     1
 74
     5
  7
@Layout.ctb
 75
    17
147
0.5
 76
     0
 77
     2
 78
   300
148
0.0
149
0.0
100
AcDbLayout
  1
Layout1
 70
     1
 71
     1
 10
0.0
 20
0.0
 11
12.0
 21
9.0
 12
0.0
 22
0.0
 32
0.0
 14
1.000000000000000E+20
 24
1.000000000000000E+20
 34
1.000000000000000E+20
 15
-1.000000000000000E+20
 25
-1.000000000000000E+20
 35
-1.000000000000000E+20
146
0.0
 13
0.0
 23
0.0
 33
0.0
 16
1.0
 26
0.0
 36
0.0
 17
0.0
 27
1.0
 37
0.0
 76
     0
330
2CA3
331
2CAA
1001
ACAD_PSEXT
1000
None
1000
None
1000
Not applicable
1000
The layout will not be plotted unless a new plotter configuration name is selected.
1070
     0
  0
LAYOUT
  5
169
102
{ACAD_XDICTIONARY
360
1474
102
}
102
{ACAD_REACTORS
330
167
102
}
330
167
100
AcDbPlotSettings
  1

  2
none_device
  4
Letter_(8.50_x_11.00_Inches)
  6

 40
6.349999904632568
 41
6.349999904632568
 42
6.350006103515625
 43
6.350006103515625
 44
215.8999938964844
 45
279.3999938964844
 46
38.1308720290886
 47
0.0
 48
0.0
 49
0.0
140
0.0
141
0.0
142
1.0
143
24.24127445441685
 70
 11956
 72
     0
 73
     1
 74
     0
  7
@Layout.ctb
 75
     0
147
0.0412519565289521
 76
     0
 77
     2
 78
   300
148
8019.824937415057
149
-189.2331007602539
100
AcDbLayout
  1
Model
 70
     1
 71
     0
 10
0.0
 20
0.0
 11
12.0
 21
9.0
 12
0.0
 22
0.0
 32
0.0
 14
0.0
 24
0.0
 34
0.0
 15
0.0
 25
0.0
 35
0.0
146
0.0
 13
0.0
 23
0.0
 33
0.0
 16
1.0
 26
0.0
 36
0.0
 17
0.0
 27
1.0
 37
0.0
 76
     0
330
1A
331
A35
1001
ACAD_PSEXT
1000
None
1000
None
1000
Not applicable
1000
The layout will not be plotted unless a new plotter configuration name is selected.
1070
     0
  0
MATERIAL
  5
A3F
102
{ACAD_XDICTIONARY
360
A40
102
}
102
{ACAD_REACTORS
330
3C9
102
}
330
3C9
100
AcDbMaterial
  1
ByBlock
 72
     0
 43
0.0008202099737533
 43
0.0
 43
0.0
 43
0.0
 43
0.0
 43
0.0008202099737533
 43
0.0
 43
0.0
 43
0.0
 43
0.0
 43
1.0
 43
0.0
 43
0.0
 43
0.0
 43
0.0
 43
1.0
 77
     0
 47
0.0008202099737533
 47
0.0
 47
0.0
 47
0.0
 47
0.0
 47
0.0008202099737533
 47
0.0
 47
0.0
 47
0.0
 47
0.0
 47
1.0
 47
0.0
 47
0.0
 47
0.0
 47
0.0
 47
1.0
171
     0
 49
0.0008202099737533
 49
0.0
 49
0.0
 49
0.0
 49
0.0
 49
0.0008202099737533
 49
0.0
 49
0.0
 49
0.0
 49
0.0
 49
1.0
 49
0.0
 49
0.0
 49
0.0
 49
0.0
 49
1.0
175
     0
142
0.0008202099737533
142
0.0
142
0.0
142
0.0
142
0.0
142
0.0008202099737533
142
0.0
142
0.0
142
0.0
142
0.0
142
1.0
142
0.0
142
0.0
142
0.0
142
0.0
142
1.0
179
     0
144
0.0008202099737533
144
0.0
144
0.0
144
0.0
144
0.0
144
0.0008202099737533
144
0.0
144
0.0
144
0.0
144
0.0
144
1.0
144
0.0
144
0.0
144
0.0
144
0.0
144
1.0
147
0.0008202099737533
147
0.0
147
0.0
147
0.0
147
0.0
147
0.0008202099737533
147
0.0
147
0.0
147
0.0
147
0.0
147
1.0
147
0.0
147
0.0
147
0.0
147
0.0
147
1.0
  0
MATERIAL
  5
A37
102
{ACAD_XDICTIONARY
360
A38
102
}
102
{ACAD_REACTORS
330
3C9
102
}
330
3C9
100
AcDbMaterial
  1
ByLayer
 72
     0
 43
0.0008202099737533
 43
0.0
 43
0.0
 43
0.0
 43
0.0
 43
0.0008202099737533
 43
0.0
 43
0.0
 43
0.0
 43
0.0
 43
1.0
 43
0.0
 43
0.0
 43
0.0
 43
0.0
 43
1.0
 77
     0
 47
0.0008202099737533
 47
0.0
 47
0.0
 47
0.0
 47
0.0
 47
0.0008202099737533
 47
0.0
 47
0.0
 47
0.0
 47
0.0
 47
1.0
 47
0.0
 47
0.0
 47
0.0
 47
0.0
 47
1.0
171
     0
 49
0.0008202099737533
 49
0.0
 49
0.0
 49
0.0
 49
0.0
 49
0.0008202099737533
 49
0.0
 49
0.0
 49
0.0
 49
0.0
 49
1.0
 49
0.0
 49
0.0
 49
0.0
 49
0.0
 49
1.0
175
     0
142
0.0008202099737533
142
0.0
142
0.0
142
0.0
142
0.0
142
0.0008202099737533
142
0.0
142
0.0
142
0.0
142
0.0
142
1.0
142
0.0
142
0.0
142
0.0
142
0.0
142
1.0
179
     0
144
0.0008202099737533
144
0.0
144
0.0
144
0.0
144
0.0
144
0.0008202099737533
144
0.0
144
0.0
144
0.0
144
0.0
144
1.0
144
0.0
144
0.0
144
0.0
144
0.0
144
1.0
147
0.0008202099737533
147
0.0
147
0.0
147
0.0
147
0.0
147
0.0008202099737533
147
0.0
147
0.0
147
0.0
147
0.0
147
1.0
147
0.0
147
0.0
147
0.0
147
0.0
147
1.0
  0
MATERIAL
  5
A47
102
{ACAD_XDICTIONARY
360
A48
102
}
102
{ACAD_REACTORS
330
3C9
102
}
330
3C9
100
AcDbMaterial
  1
Global
 72
     0
 43
0.0008202099737533
 43
0.0
 43
0.0
 43
0.0
 43
0.0
 43
0.0008202099737533
 43
0.0
 43
0.0
 43
0.0
 43
0.0
 43
1.0
 43
0.0
 43
0.0
 43
0.0
 43
0.0
 43
1.0
 77
     0
 47
0.0008202099737533
 47
0.0
 47
0.0
 47
0.0
 47
0.0
 47
0.0008202099737533
 47
0.0
 47
0.0
 47
0.0
 47
0.0
 47
1.0
 47
0.0
 47
0.0
 47
0.0
 47
0.0
 47
1.0
171
     0
 49
0.0008202099737533
 49
0.0
 49
0.0
 49
0.0
 49
0.0
 49
0.0008202099737533
 49
0.0
 49
0.0
 49
0.0
 49
0.0
 49
1.0
 49
0.0
 49
0.0
 49
0.0
 49
0.0
 49
1.0
175
     0
142
0.0008202099737533
142
0.0
142
0.0
142
0.0
142
0.0
142
0.0008202099737533
142
0.0
142
0.0
142
0.0
142
0.0
142
1.0
142
0.0
142
0.0
142
0.0
142
0.0
142
1.0
179
     0
144
0.0008202099737533
144
0.0
144
0.0
144
0.0
144
0.0
144
0.0008202099737533
144
0.0
144
0.0
144
0.0
144
0.0
144
1.0
144
0.0
144
0.0
144
0.0
144
0.0
144
1.0
147
0.0008202099737533
147
0.0
147
0.0
147
0.0
147
0.0
147
0.0008202099737533
147
0.0
147
0.0
147
0.0
147
0.0
147
1.0
147
0.0
147
0.0
147
0.0
147
0.0
147
1.0
  0
MLEADERSTYLE
  5
A73
102
{ACAD_XDICTIONARY
360
1497
102
}
102
{ACAD_REACTORS
330
A72
102
}
330
A72
100
AcDbMLeaderStyle
179
     2
170
     2
171
     1
172
     0
 90
        2
 40
0.0
 41
0.0
173
     1
 91
-1056964608
340
14
 92
       -2
290
     1
 42
2.0
291
     1
 43
0.36
  3
Standard
 44
4.0
300

342
10
174
     1
178
     6
175
     1
176
     0
 93
-1056964608
 45
4.0
292
     0
297
     0
 46
4.0
 94
-1056964608
 47
1.0
 49
1.0
140
1.0
293
     1
141
0.0
294
     1
177
     0
142
1.0
295
     0
296
     0
143
0.125
271
     0
272
     9
273
     9
298
     1
  0
MLINESTYLE
  5
13
102
{ACAD_REACTORS
330
E
102
}
330
E
100
AcDbMlineStyle
  2
STANDARD
 70
     0
  3

 62
     0
 51
90.0
 52
90.0
 71
     2
 49
0.5
 62
   256
  6
BYLAYER
 49
-0.5
 62
   256
  6
BYLAYER
  0
PLOTSETTINGS
  5
2C89
102
{ACAD_REACTORS
330
168
102
}
330
168
100
AcDbPlotSettings
  1
Setup1
  2
none_device
  4
ISO_A4_(210.00_x_297.00_MM)
  6

 40
7.5
 41
20.0
 42
7.5
 43
20.0
 44
210.0
 45
297.0
 46
0.0
 47
0.0
 48
0.0
 49
0.0
140
0.0
141
0.0
142
1.0
143
2.0
 70
   688
 72
     1
 73
     1
 74
     5
  7
@Layout.ctb
 75
    17
147
0.5
 76
     0
 77
     2
 78
   300
148
0.0
149
0.0
1001
ACAD_PSEXT
1000
None
1000
None
1000
Not applicable
1000
The layout will not be plotted unless a new plotter configuration name is selected.
1070
     0
  0
ACDBPLACEHOLDER
  5
166
102
{ACAD_REACTORS
330
165
102
}
330
165
  0
SCALE
  5
A61
102
{ACAD_REACTORS
330
A60
102
}
330
A60
100
AcDbScale
 70
     0
300
1:1
140
1.0
141
1.0
290
     1
  0
SCALE
  5
A62
102
{ACAD_REACTORS
330
A60
102
}
330
A60
100
AcDbScale
 70
     0
300
1:2
140
1.0
141
2.0
290
     0
  0
SCALE
  5
A63
102
{ACAD_REACTORS
330
A60
102
}
330
A60
100
AcDbScale
 70
     0
300
1:4
140
1.0
141
4.0
290
     0
  0
SCALE
  5
A64
102
{ACAD_REACTORS
330
A60
102
}
330
A60
100
AcDbScale
 70
     0
300
1:5
140
1.0
141
5.0
290
     0
  0
SCALE
  5
A65
102
{ACAD_REACTORS
330
A60
102
}
330
A60
100
AcDbScale
 70
     0
300
1:8
140
1.0
141
8.0
290
     0
  0
SCALE
  5
A66
102
{ACAD_REACTORS
330
A60
102
}
330
A60
100
AcDbScale
 70
     0
300
1:10
140
1.0
141
10.0
290
     0
  0
SCALE
  5
A67
102
{ACAD_REACTORS
330
A60
102
}
330
A60
100
AcDbScale
 70
     0
300
1:16
140
1.0
141
16.0
290
     0
  0
SCALE
  5
A68
102
{ACAD_REACTORS
330
A60
102
}
330
A60
100
AcDbScale
 70
     0
300
1:20
140
1.0
141
20.0
290
     0
  0
SCALE
  5
A69
102
{ACAD_REACTORS
330
A60
102
}
330
A60
100
AcDbScale
 70
     0
300
1:30
140
1.0
141
30.0
290
     0
  0
SCALE
  5
A6A
102
{ACAD_REACTORS
330
A60
102
}
330
A60
100
AcDbScale
 70
     0
300
1:40
140
1.0
141
40.0
290
     0
  0
SCALE
  5
A6B
102
{ACAD_REACTORS
330
A60
102
}
330
A60
100
AcDbScale
 70
     0
300
1:50
140
1.0
141
50.0
290
     0
  0
SCALE
  5
A6C
102
{ACAD_REACTORS
330
A60
102
}
330
A60
100
AcDbScale
 70
     0
300
1:100
140
1.0
141
100.0
290
     0
  0
SCALE
  5
A6D
102
{ACAD_REACTORS
330
A60
102
}
330
A60
100
AcDbScale
 70
     0
300
2:1
140
2.0
141
1.0
290
     0
  0
SCALE
  5
A6E
102
{ACAD_REACTORS
330
A60
102
}
330
A60
100
AcDbScale
 70
     0
300
4:1
140
4.0
141
1.0
290
     0
  0
SCALE
  5
A6F
102
{ACAD_REACTORS
330
A60
102
}
330
A60
100
AcDbScale
 70
     0
300
8:1
140
8.0
141
1.0
290
     0
  0
SCALE
  5
A70
102
{ACAD_REACTORS
330
A60
102
}
330
A60
100
AcDbScale
 70
     0
300
10:1
140
10.0
141
1.0
290
     0
  0
SCALE
  5
A71
102
{ACAD_REACTORS
330
A60
102
}
330
A60
100
AcDbScale
 70
     0
300
100:1
140
100.0
141
1.0
290
     0
  0
ACDBSECTIONVIEWSTYLE
  5
10E5
102
{ACAD_XDICTIONARY
360
3988
102
}
102
{ACAD_REACTORS
330
CC9
330
3143
330
3152
102
}
330
CC9
100
AcDbModelDocViewStyle
 70
     0
  3
Imperial24
290
     0
100
AcDbSectionViewStyle
 70
     0
 71
     0
 90
       78
 71
     1
340
10
 62
   256
 40
0.24
340
0
340
0
 62
   256
 40
0.24
300
I, O, Q, S, X, Z
 40
0.48
 90
        3
 40
0.18
 90
        1
 71
     2
340
16
 90
       25
 62
   256
340
16
 90
       50
 62
   256
 40
0.24
 40
0.0
 40
0.24
 71
     3
340
10
 62
   256
 40
0.24
 90
        1
 40
0.75
 90
        1
300
%<\AcVar ViewType \f "%tc1">% %<\AcVar ViewSectionStartId>%-%<\AcVar ViewSectionEndId>%\PSCALE %<\AcVar ViewScale \f "%sn">%
 71
     4
 62
   256
 62
   257
300
ANSI31
 40
1.0
 90
        0
290
     0
290
     0
 90
        6
 40
0.0
 40
1.570796326794896
 40
0.2617993877991494
 40
1.308996938995747
 40
-0.2617993877991494
 40
1.832595714594046
  0
ACDBSECTIONVIEWSTYLE
  5
CCA
102
{ACAD_XDICTIONARY
360
3984
102
}
102
{ACAD_REACTORS
330
CC9
330
3145
330
3154
102
}
330
CC9
100
AcDbModelDocViewStyle
 70
     0
  3
Metric50
290
     0
100
AcDbSectionViewStyle
 70
     0
 71
     0
 90
      102
 71
     1
340
10
 62
   256
 40
5.0
340
0
340
0
 62
   256
 40
5.0
300
I, O, Q, S, X, Z
 40
10.0
 90
        0
 40
2.5
 90
        0
 71
     2
340
16
 90
       25
 62
   256
340
16
 90
       50
 62
   256
 40
5.0
 40
2.5
 40
5.0
 71
     3
340
10
 62
   256
 40
5.0
 90
        0
 40
15.0
 90
        1
300
%<\AcVar ViewSectionStartId>%-%<\AcVar ViewSectionEndId>% (%<\AcVar ViewScale \f "%sn">%)
 71
     4
 62
   256
 62
   257
300
ANSI31
 40
1.0
 90
        0
290
     0
290
     0
 90
        6
 40
0.0
 40
1.570796326794896
 40
0.2617993877991494
 40
1.308996938995747
 40
-0.2617993877991494
 40
1.832595714594046
  0
TABLESTYLE
  5
651
102
{ACAD_XDICTIONARY
360
AED
102
}
102
{ACAD_REACTORS
330
650
102
}
330
650
100
AcDbTableStyle
280
     0
  3
Standard
 70
     0
 71
     0
 40
1.5
 41
1.5
280
     0
281
     0
  7
STANDARD
140
4.5
170
     2
 62
     0
 63
     7
283
     0
 90
        4
 91
        0
  1

274
    -2
284
     1
 64
     0
275
    -2
285
     1
 65
     0
276
    -2
286
     1
 66
     0
277
    -2
287
     1
 67
     0
278
    -2
288
     1
 68
     0
279
    -2
289
     1
 69
     0
  7
STANDARD
140
6.0
170
     5
 62
     0
 63
     7
283
     0
 90
        4
 91
        0
  1

274
    -2
284
     1
 64
     0
275
    -2
285
     1
 65
     0
276
    -2
286
     1
 66
     0
277
    -2
287
     1
 67
     0
278
    -2
288
     1
 68
     0
279
    -2
289
     1
 69
     0
  7
STANDARD
140
4.5
170
     5
 62
     0
 63
     7
283
     0
 90
        4
 91
        0
  1

274
    -2
284
     1
 64
     0
275
    -2
285
     1
 65
     0
276
    -2
286
     1
 66
     0
277
    -2
287
     1
 67
     0
278
    -2
288
     1
 68
     0
279
    -2
289
     1
 69
     0
  0
VISUALSTYLE
  5
A55
102
{ACAD_REACTORS
330
A4F
102
}
330
A4F
100
AcDbVisualStyle
  2
2dWireframe
 70
     4
177
     3
291
     0
 70
    58
 90
        0
176
     1
 90
        2
176
     1
 90
        0
176
     1
 90
        0
176
     1
 40
0.6
176
     1
 40
30.0
176
     1
 62
     7
420
 16777215
176
     1
 90
        1
176
     1
 90
        4
176
     1
 62
     7
176
     1
 62
   257
176
     1
 90
        1
176
     1
 90
        1
176
     1
 40
1.0
176
     1
 90
        0
176
     1
 62
   257
176
     1
 40
1.0
176
     1
 90
        1
176
     1
 90
        6
176
     1
 90
        2
176
     1
 62
     7
176
     1
 90
        5
176
     1
 90
        0
176
     1
 90
        0
176
     1
290
     0
176
     1
 90
        1
176
     1
 40
0.0
176
     1
 90
        0
176
     1
290
     1
176
     1
290
     1
176
     1
290
     0
176
     1
290
     0
176
     1
290
     0
176
     1
290
     0
176
     1
290
     0
176
     1
290
     0
176
     1
290
     0
176
     1
 90
       50
176
     1
 40
0.0
176
     1
 40
1.0
176
     1
 90
        0
176
     1
 62
    18
420
        0
176
     1
 90
       50
176
     1
 90
        3
176
     1
 62
     5
420
      255
176
     1
290
     0
176
     1
 90
       50
176
     1
 90
       50
176
     1
 90
       50
176
     1
290
     0
176
     1
 90
       50
176
     1
 62
   256
176
     0
 40
1.0
176
     0
 90
        2
176
     1
  1
strokes_ogs.tif
176
     1
290
     0
176
     1
 40
1.0
176
     1
 40
1.0
176
     1
1001
ACAD
1000
AcDbSavedByObjectVersion
1070
     0
  0
VISUALSTYLE
  5
A57
102
{ACAD_REACTORS
330
A4F
102
}
330
A4F
100
AcDbVisualStyle
  2
3D Hidden
 70
     6
177
     3
291
     0
 70
    58
 90
        1
176
     1
 90
        2
176
     1
 90
        2
176
     1
 90
        0
176
     1
 40
0.6
176
     1
 40
30.0
176
     1
 62
     7
420
 16777215
176
     1
 90
        2
176
     1
 90
        2
176
     1
 62
     7
176
     1
 62
   257
176
     1
 90
        2
176
     1
 90
        1
176
     1
 40
40.0
176
     1
 90
        0
176
     1
 62
   257
176
     1
 40
1.0
176
     1
 90
        1
176
     1
 90
        6
176
     1
 90
        2
176
     1
 62
     7
176
     1
 90
        3
176
     1
 90
        0
176
     1
 90
        0
176
     1
290
     0
176
     1
 90
        1
176
     1
 40
0.0
176
     1
 90
        0
176
     1
290
     0
176
     1
290
     1
176
     1
290
     1
176
     1
290
     0
176
     1
290
     0
176
     1
290
     0
176
     1
290
     0
176
     1
290
     0
176
     1
290
     0
176
     1
 90
       50
176
     1
 40
0.0
176
     1
 40
1.0
176
     1
 90
        0
176
     1
 62
    18
420
        0
176
     1
 90
       50
176
     1
 90
        3
176
     1
 62
     5
420
      255
176
     1
290
     0
176
     1
 90
       50
176
     1
 90
       50
176
     1
 90
       50
176
     1
290
     0
176
     1
 90
       50
176
     1
 62
   256
176
     0
 40
1.0
176
     0
 90
        2
176
     1
  1
strokes_ogs.tif
176
     1
290
     0
176
     1
 40
1.0
176
     1
 40
1.0
176
     1
1001
ACAD
1000
AcDbSavedByObjectVersion
1070
     0
  0
VISUALSTYLE
  5
A56
102
{ACAD_REACTORS
330
A4F
102
}
330
A4F
100
AcDbVisualStyle
  2
3dWireframe
 70
     5
177
     3
291
     0
 70
    58
 90
        0
176
     1
 90
        2
176
     1
 90
        0
176
     1
 90
        0
176
     1
 40
0.6
176
     1
 40
30.0
176
     1
 62
     7
420
 16777215
176
     1
 90
        1
176
     1
 90
        4
176
     1
 62
     7
176
     1
 62
   257
176
     1
 90
        1
176
     1
 90
        1
176
     1
 40
1.0
176
     1
 90
        0
176
     1
 62
   257
176
     1
 40
1.0
176
     1
 90
        1
176
     1
 90
        6
176
     1
 90
        2
176
     1
 62
     7
176
     1
 90
        5
176
     1
 90
        0
176
     1
 90
        0
176
     1
290
     0
176
     1
 90
        1
176
     1
 40
0.0
176
     1
 90
        0
176
     1
290
     0
176
     1
290
     1
176
     1
290
     1
176
     1
290
     0
176
     1
290
     0
176
     1
290
     0
176
     1
290
     0
176
     1
290
     0
176
     1
290
     0
176
     1
 90
       50
176
     1
 40
0.0
176
     1
 40
1.0
176
     1
 90
        0
176
     1
 62
    18
420
        0
176
     1
 90
       50
176
     1
 90
        3
176
     1
 62
     5
420
      255
176
     1
290
     0
176
     1
 90
       50
176
     1
 90
       50
176
     1
 90
       50
176
     1
290
     0
176
     1
 90
       50
176
     1
 62
   256
176
     0
 40
1.0
176
     0
 90
        2
176
     1
  1
strokes_ogs.tif
176
     1
290
     0
176
     1
 40
1.0
176
     1
 40
1.0
176
     1
1001
ACAD
1000
AcDbSavedByObjectVersion
1070
     0
  0
VISUALSTYLE
  5
A54
102
{ACAD_REACTORS
330
A4F
102
}
330
A4F
100
AcDbVisualStyle
  2
Basic
 70
     7
177
     3
291
     1
 70
    58
 90
        1
176
     1
 90
        0
176
     1
 90
        1
176
     1
 90
        0
176
     1
 40
0.6
176
     1
 40
30.0
176
     1
 62
     7
420
 16777215
176
     1
 90
        0
176
     1
 90
        4
176
     1
 62
     7
176
     1
 62
   257
176
     1
 90
        1
176
     1
 90
        1
176
     1
 40
1.0
176
     1
 90
        8
176
     1
 62
     7
176
     1
 40
1.0
176
     1
 90
        1
176
     1
 90
        6
176
     1
 90
        2
176
     1
 62
     7
176
     1
 90
        5
176
     1
 90
        0
176
     1
 90
        0
176
     1
290
     0
176
     1
 90
        1
176
     1
 40
0.0
176
     1
 90
        0
176
     1
290
     0
176
     1
290
     1
176
     1
290
     1
176
     1
290
     0
176
     1
290
     0
176
     1
290
     0
176
     1
290
     0
176
     1
290
     0
176
     1
290
     0
176
     1
 90
       50
176
     1
 40
0.0
176
     1
 40
1.0
176
     1
 90
        0
176
     1
 62
    18
420
        0
176
     1
 90
       50
176
     1
 90
        3
176
     1
 62
     5
420
      255
176
     1
290
     0
176
     1
 90
       50
176
     1
 90
       50
176
     1
 90
       50
176
     1
290
     0
176
     1
 90
       50
176
     1
 62
   256
176
     0
 40
1.0
176
     0
 90
        2
176
     1
  1
strokes_ogs.tif
176
     1
290
     0
176
     1
 40
1.0
176
     1
 40
1.0
176
     1
1001
ACAD
1000
AcDbSavedByObjectVersion
1070
     0
  0
VISUALSTYLE
  5
A5B
102
{ACAD_REACTORS
330
A4F
102
}
330
A4F
100
AcDbVisualStyle
  2
Brighten
 70
    12
177
     3
291
     1
 70
    58
 90
        2
176
     1
 90
        2
176
     1
 90
        0
176
     1
 90
        0
176
     1
 40
0.6
176
     1
 40
30.0
176
     1
 62
     7
420
 16777215
176
     1
 90
        1
176
     1
 90
        4
176
     1
 62
     7
176
     1
 62
   257
176
     1
 90
        1
176
     1
 90
        1
176
     1
 40
1.0
176
     1
 90
        8
176
     1
 62
     7
176
     1
 40
1.0
176
     1
 90
        1
176
     1
 90
        6
176
     1
 90
        2
176
     1
 62
     7
176
     1
 90
        5
176
     1
 90
        0
176
     1
 90
        0
176
     1
290
     0
176
     1
 90
        1
176
     1
 40
50.0
176
     1
 90
        0
176
     1
290
     0
176
     1
290
     1
176
     1
290
     1
176
     1
290
     0
176
     1
290
     0
176
     1
290
     0
176
     1
290
     0
176
     1
290
     0
176
     1
290
     0
176
     1
 90
       50
176
     1
 40
0.0
176
     1
 40
1.0
176
     1
 90
        0
176
     1
 62
    18
420
        0
176
     1
 90
       50
176
     1
 90
        3
176
     1
 62
     5
420
      255
176
     1
290
     0
176
     1
 90
       50
176
     1
 90
       50
176
     1
 90
       50
176
     1
290
     0
176
     1
 90
       50
176
     1
 62
   256
176
     0
 40
1.0
176
     0
 90
        2
176
     1
  1
strokes_ogs.tif
176
     1
290
     0
176
     1
 40
1.0
176
     1
 40
1.0
176
     1
1001
ACAD
1000
AcDbSavedByObjectVersion
1070
     0
  0
VISUALSTYLE
  5
A5F
102
{ACAD_REACTORS
330
A4F
102
}
330
A4F
100
AcDbVisualStyle
  2
ColorChange
 70
    16
177
     3
291
     1
 70
    58
 90
        2
176
     1
 90
        2
176
     1
 90
        3
176
     1
 90
        0
176
     1
 40
0.6
176
     1
 40
30.0
176
     1
 62
     8
420
  8421504
176
     1
 90
        1
176
     1
 90
        4
176
     1
 62
     7
176
     1
 62
   257
176
     1
 90
        1
176
     1
 90
        1
176
     1
 40
1.0
176
     1
 90
        8
176
     1
 62
     8
420
  8421504
176
     1
 40
1.0
176
     1
 90
        1
176
     1
 90
        6
176
     1
 90
        2
176
     1
 62
     7
176
     1
 90
        5
176
     1
 90
        0
176
     1
 90
        0
176
     1
290
     0
176
     1
 90
        1
176
     1
 40
0.0
176
     1
 90
        0
176
     1
290
     0
176
     1
290
     1
176
     1
290
     1
176
     1
290
     0
176
     1
290
     0
176
     1
290
     0
176
     1
290
     0
176
     1
290
     0
176
     1
290
     0
176
     1
 90
       50
176
     1
 40
0.0
176
     1
 40
1.0
176
     1
 90
        0
176
     1
 62
    18
420
        0
176
     1
 90
       50
176
     1
 90
        3
176
     1
 62
     5
420
      255
176
     1
290
     0
176
     1
 90
       50
176
     1
 90
       50
176
     1
 90
       50
176
     1
290
     0
176
     1
 90
       50
176
     1
 62
   256
176
     0
 40
1.0
176
     0
 90
        2
176
     1
  1
strokes_ogs.tif
176
     1
290
     0
176
     1
 40
1.0
176
     1
 40
1.0
176
     1
1001
ACAD
1000
AcDbSavedByObjectVersion
1070
     0
  0
VISUALSTYLE
  5
A58
102
{ACAD_REACTORS
330
A4F
102
}
330
A4F
100
AcDbVisualStyle
  2
Conceptual
 70
     9
177
     3
291
     0
 70
    58
 90
        3
176
     1
 90
        2
176
     1
 90
        0
176
     1
 90
        0
176
     1
 40
0.6
176
     1
 40
30.0
176
     1
 62
     7
420
 16777215
176
     1
 90
        2
176
     1
 90
        2
176
     1
 62
     7
176
     1
 62
   257
176
     1
 90
        1
176
     1
 90
        1
176
     1
 40
40.0
176
     1
 90
        8
176
     1
 62
     7
176
     1
 40
1.0
176
     1
 90
        1
176
     1
 90
        6
176
     1
 90
        2
176
     1
 62
     7
176
     1
 90
        3
176
     1
 90
        0
176
     1
 90
        0
176
     1
290
     0
176
     1
 90
        1
176
     1
 40
0.0
176
     1
 90
        0
176
     1
290
     0
176
     1
290
     1
176
     1
290
     1
176
     1
290
     0
176
     1
290
     0
176
     1
290
     0
176
     1
290
     0
176
     1
290
     0
176
     1
290
     0
176
     1
 90
       50
176
     1
 40
0.0
176
     1
 40
1.0
176
     1
 90
        0
176
     1
 62
    18
420
        0
176
     1
 90
       50
176
     1
 90
        3
176
     1
 62
     5
420
      255
176
     1
290
     0
176
     1
 90
       50
176
     1
 90
       50
176
     1
 90
       50
176
     1
290
     0
176
     1
 90
       50
176
     1
 62
   256
176
     0
 40
1.0
176
     0
 90
        2
176
     1
  1
strokes_ogs.tif
176
     1
290
     0
176
     1
 40
1.0
176
     1
 40
1.0
176
     1
1001
ACAD
1000
AcDbSavedByObjectVersion
1070
     0
  0
VISUALSTYLE
  5
A5A
102
{ACAD_REACTORS
330
A4F
102
}
330
A4F
100
AcDbVisualStyle
  2
Dim
 70
    11
177
     3
291
     1
 70
    58
 90
        2
176
     1
 90
        2
176
     1
 90
        0
176
     1
 90
        0
176
     1
 40
0.6
176
     1
 40
30.0
176
     1
 62
     7
420
 16777215
176
     1
 90
        1
176
     1
 90
        4
176
     1
 62
     7
176
     1
 62
   257
176
     1
 90
        1
176
     1
 90
        1
176
     1
 40
1.0
176
     1
 90
        8
176
     1
 62
     7
176
     1
 40
1.0
176
     1
 90
        1
176
     1
 90
        6
176
     1
 90
        2
176
     1
 62
     7
176
     1
 90
        5
176
     1
 90
        0
176
     1
 90
        0
176
     1
290
     0
176
     1
 90
        1
176
     1
 40
-50.0
176
     1
 90
        0
176
     1
290
     0
176
     1
290
     1
176
     1
290
     1
176
     1
290
     0
176
     1
290
     0
176
     1
290
     0
176
     1
290
     0
176
     1
290
     0
176
     1
290
     0
176
     1
 90
       50
176
     1
 40
0.0
176
     1
 40
1.0
176
     1
 90
        0
176
     1
 62
    18
420
        0
176
     1
 90
       50
176
     1
 90
        3
176
     1
 62
     5
420
      255
176
     1
290
     0
176
     1
 90
       50
176
     1
 90
       50
176
     1
 90
       50
176
     1
290
     0
176
     1
 90
       50
176
     1
 62
   256
176
     0
 40
1.0
176
     0
 90
        2
176
     1
  1
strokes_ogs.tif
176
     1
290
     0
176
     1
 40
1.0
176
     1
 40
1.0
176
     1
1001
ACAD
1000
AcDbSavedByObjectVersion
1070
     0
  0
VISUALSTYLE
  5
CC8
102
{ACAD_REACTORS
330
A4F
102
}
330
A4F
100
AcDbVisualStyle
  2
EdgeColorOff
 70
    22
177
     3
291
     1
 70
    58
 90
        2
176
     0
 90
        2
176
     0
 90
        0
176
     0
 90
        0
176
     0
 40
0.6
176
     0
 40
30.0
176
     0
 62
     7
420
 16777215
176
     0
 90
        1
176
     0
 90
        4
176
     0
 62
     7
176
     0
 62
   257
176
     0
 90
        1
176
     0
 90
        1
176
     0
 40
1.0
176
     0
 90
        8
176
     2
 62
     7
176
     0
 40
1.0
176
     0
 90
        1
176
     0
 90
        6
176
     0
 90
        2
176
     0
 62
     7
176
     0
 90
        5
176
     0
 90
        0
176
     0
 90
        0
176
     0
290
     0
176
     0
 90
        1
176
     0
 40
0.0
176
     0
 90
        0
176
     0
290
     0
176
     0
290
     1
176
     0
290
     1
176
     0
290
     0
176
     0
290
     0
176
     0
290
     0
176
     0
290
     0
176
     0
290
     0
176
     0
290
     0
176
     0
 90
       50
176
     0
 40
0.0
176
     0
 40
1.0
176
     0
 90
        0
176
     0
 62
    18
420
        0
176
     0
 90
       50
176
     0
 90
        3
176
     0
 62
     5
420
      255
176
     0
290
     0
176
     0
 90
       50
176
     0
 90
       50
176
     0
 90
       50
176
     0
290
     0
176
     0
 90
       50
176
     0
 62
   256
176
     0
 40
1.0
176
     0
 90
        2
176
     0
  1
strokes_ogs.tif
176
     0
290
     0
176
     0
 40
1.0
176
     0
 40
1.0
176
     0
1001
ACAD
1000
AcDbSavedByObjectVersion
1070
     0
  0
VISUALSTYLE
  5
A5E
102
{ACAD_REACTORS
330
A4F
102
}
330
A4F
100
AcDbVisualStyle
  2
Facepattern
 70
    15
177
     3
291
     1
 70
    58
 90
        2
176
     1
 90
        2
176
     1
 90
        0
176
     1
 90
        0
176
     1
 40
0.6
176
     1
 40
30.0
176
     1
 62
     7
420
 16777215
176
     1
 90
        1
176
     1
 90
        4
176
     1
 62
     7
176
     1
 62
   257
176
     1
 90
        1
176
     1
 90
        1
176
     1
 40
1.0
176
     1
 90
        8
176
     1
 62
     7
176
     1
 40
1.0
176
     1
 90
        1
176
     1
 90
        6
176
     1
 90
        2
176
     1
 62
     7
176
     1
 90
        5
176
     1
 90
        0
176
     1
 90
        0
176
     1
290
     0
176
     1
 90
        1
176
     1
 40
0.0
176
     1
 90
        0
176
     1
290
     0
176
     1
290
     1
176
     1
290
     1
176
     1
290
     0
176
     1
290
     0
176
     1
290
     0
176
     1
290
     0
176
     1
290
     0
176
     1
290
     0
176
     1
 90
       50
176
     1
 40
0.0
176
     1
 40
1.0
176
     1
 90
        0
176
     1
 62
    18
420
        0
176
     1
 90
       50
176
     1
 90
        3
176
     1
 62
     5
420
      255
176
     1
290
     0
176
     1
 90
       50
176
     1
 90
       50
176
     1
 90
       50
176
     1
290
     0
176
     1
 90
       50
176
     1
 62
   256
176
     0
 40
1.0
176
     0
 90
        2
176
     1
  1
strokes_ogs.tif
176
     1
290
     0
176
     1
 40
1.0
176
     1
 40
1.0
176
     1
1001
ACAD
1000
AcDbSavedByObjectVersion
1070
     0
  0
VISUALSTYLE
  5
A50
102
{ACAD_REACTORS
330
A4F
102
}
330
A4F
100
AcDbVisualStyle
  2
Flat
 70
     0
177
     3
291
     1
 70
    58
 90
        2
176
     1
 90
        1
176
     1
 90
        1
176
     1
 90
        2
176
     1
 40
0.6
176
     1
 40
30.0
176
     1
 62
     7
420
 16777215
176
     1
 90
        0
176
     1
 90
        4
176
     1
 62
     7
176
     1
 62
   257
176
     1
 90
        1
176
     1
 90
        1
176
     1
 40
1.0
176
     1
 90
        8
176
     1
 62
     7
176
     1
 40
1.0
176
     1
 90
        1
176
     1
 90
        6
176
     1
 90
        2
176
     1
 62
     7
176
     1
 90
        5
176
     1
 90
        0
176
     1
 90
        0
176
     1
290
     0
176
     1
 90
       13
176
     1
 40
0.0
176
     1
 90
        0
176
     1
290
     0
176
     1
290
     1
176
     1
290
     1
176
     1
290
     0
176
     1
290
     0
176
     1
290
     0
176
     1
290
     0
176
     1
290
     0
176
     1
290
     0
176
     1
 90
       50
176
     1
 40
0.0
176
     1
 40
1.0
176
     1
 90
        0
176
     1
 62
    18
420
        0
176
     1
 90
       50
176
     1
 90
        3
176
     1
 62
     5
420
      255
176
     1
290
     0
176
     1
 90
       50
176
     1
 90
       50
176
     1
 90
       50
176
     1
290
     0
176
     1
 90
       50
176
     1
 62
   256
176
     0
 40
1.0
176
     0
 90
        2
176
     1
  1
strokes_ogs.tif
176
     1
290
     0
176
     1
 40
1.0
176
     1
 40
1.0
176
     1
1001
ACAD
1000
AcDbSavedByObjectVersion
1070
     0
  0
VISUALSTYLE
  5
A51
102
{ACAD_REACTORS
330
A4F
102
}
330
A4F
100
AcDbVisualStyle
  2
FlatWithEdges
 70
     1
177
     3
291
     1
 70
    58
 90
        2
176
     1
 90
        1
176
     1
 90
        1
176
     1
 90
        2
176
     1
 40
0.6
176
     1
 40
30.0
176
     1
 62
     7
420
 16777215
176
     1
 90
        1
176
     1
 90
        4
176
     1
 62
     7
176
     1
 62
   257
176
     1
 90
        1
176
     1
 90
        1
176
     1
 40
1.0
176
     1
 90
        0
176
     1
 62
   257
176
     1
 40
1.0
176
     1
 90
        1
176
     1
 90
        6
176
     1
 90
        2
176
     1
 62
     7
176
     1
 90
        5
176
     1
 90
        0
176
     1
 90
        0
176
     1
290
     0
176
     1
 90
       13
176
     1
 40
0.0
176
     1
 90
        0
176
     1
290
     0
176
     1
290
     1
176
     1
290
     1
176
     1
290
     0
176
     1
290
     0
176
     1
290
     0
176
     1
290
     0
176
     1
290
     0
176
     1
290
     0
176
     1
 90
       50
176
     1
 40
0.0
176
     1
 40
1.0
176
     1
 90
        0
176
     1
 62
    18
420
        0
176
     1
 90
       50
176
     1
 90
        3
176
     1
 62
     5
420
      255
176
     1
290
     0
176
     1
 90
       50
176
     1
 90
       50
176
     1
 90
       50
176
     1
290
     0
176
     1
 90
       50
176
     1
 62
   256
176
     0
 40
1.0
176
     0
 90
        2
176
     1
  1
strokes_ogs.tif
176
     1
290
     0
176
     1
 40
1.0
176
     1
 40
1.0
176
     1
1001
ACAD
1000
AcDbSavedByObjectVersion
1070
     0
  0
VISUALSTYLE
  5
A52
102
{ACAD_REACTORS
330
A4F
102
}
330
A4F
100
AcDbVisualStyle
  2
Gouraud
 70
     2
177
     3
291
     1
 70
    58
 90
        2
176
     1
 90
        2
176
     1
 90
        1
176
     1
 90
        2
176
     1
 40
0.6
176
     1
 40
30.0
176
     1
 62
     7
420
 16777215
176
     1
 90
        0
176
     1
 90
        4
176
     1
 62
     7
176
     1
 62
   257
176
     1
 90
        1
176
     1
 90
        1
176
     1
 40
1.0
176
     1
 90
        0
176
     1
 62
     7
176
     1
 40
1.0
176
     1
 90
        1
176
     1
 90
        6
176
     1
 90
        2
176
     1
 62
     7
176
     1
 90
        5
176
     1
 90
        0
176
     1
 90
        0
176
     1
290
     0
176
     1
 90
       13
176
     1
 40
0.0
176
     1
 90
        0
176
     1
290
     0
176
     1
290
     1
176
     1
290
     1
176
     1
290
     0
176
     1
290
     0
176
     1
290
     0
176
     1
290
     0
176
     1
290
     0
176
     1
290
     0
176
     1
 90
       50
176
     1
 40
0.0
176
     1
 40
1.0
176
     1
 90
        0
176
     1
 62
    18
420
        0
176
     1
 90
       50
176
     1
 90
        3
176
     1
 62
     5
420
      255
176
     1
290
     0
176
     1
 90
       50
176
     1
 90
       50
176
     1
 90
       50
176
     1
290
     0
176
     1
 90
       50
176
     1
 62
   256
176
     0
 40
1.0
176
     0
 90
        2
176
     1
  1
strokes_ogs.tif
176
     1
290
     0
176
     1
 40
1.0
176
     1
 40
1.0
176
     1
1001
ACAD
1000
AcDbSavedByObjectVersion
1070
     0
  0
VISUALSTYLE
  5
A53
102
{ACAD_REACTORS
330
A4F
102
}
330
A4F
100
AcDbVisualStyle
  2
GouraudWithEdges
 70
     3
177
     3
291
     1
 70
    58
 90
        2
176
     1
 90
        2
176
     1
 90
        1
176
     1
 90
        2
176
     1
 40
0.6
176
     1
 40
30.0
176
     1
 62
     7
420
 16777215
176
     1
 90
        1
176
     1
 90
        4
176
     1
 62
     7
176
     1
 62
   257
176
     1
 90
        1
176
     1
 90
        1
176
     1
 40
1.0
176
     1
 90
        0
176
     1
 62
   257
176
     1
 40
1.0
176
     1
 90
        1
176
     1
 90
        6
176
     1
 90
        2
176
     1
 62
     7
176
     1
 90
        5
176
     1
 90
        0
176
     1
 90
        0
176
     1
290
     0
176
     1
 90
       13
176
     1
 40
0.0
176
     1
 90
        0
176
     1
290
     0
176
     1
290
     1
176
     1
290
     1
176
     1
290
     0
176
     1
290
     0
176
     1
290
     0
176
     1
290
     0
176
     1
290
     0
176
     1
290
     0
176
     1
 90
       50
176
     1
 40
0.0
176
     1
 40
1.0
176
     1
 90
        0
176
     1
 62
    18
420
        0
176
     1
 90
       50
176
     1
 90
        3
176
     1
 62
     5
420
      255
176
     1
290
     0
176
     1
 90
       50
176
     1
 90
       50
176
     1
 90
       50
176
     1
290
     0
176
     1
 90
       50
176
     1
 62
   256
176
     0
 40
1.0
176
     0
 90
        2
176
     1
  1
strokes_ogs.tif
176
     1
290
     0
176
     1
 40
1.0
176
     1
 40
1.0
176
     1
1001
ACAD
1000
AcDbSavedByObjectVersion
1070
     0
  0
VISUALSTYLE
  5
CC0
102
{ACAD_REACTORS
330
A4F
102
}
330
A4F
100
AcDbVisualStyle
  2
Hidden
 70
     6
177
     3
291
     0
 70
    58
 90
        1
176
     1
 90
        2
176
     1
 90
        2
176
     1
 90
        0
176
     1
 40
0.6
176
     1
 40
30.0
176
     1
 62
     7
420
 16777215
176
     1
 90
        2
176
     1
 90
        2
176
     1
 62
     7
176
     1
 62
   257
176
     1
 90
        2
176
     1
 90
        1
176
     1
 40
40.0
176
     1
 90
        0
176
     1
 62
   257
176
     1
 40
1.0
176
     1
 90
        1
176
     1
 90
        6
176
     1
 90
        2
176
     1
 62
     7
176
     1
 90
        3
176
     1
 90
        0
176
     1
 90
        0
176
     1
290
     0
176
     1
 90
        1
176
     1
 40
0.0
176
     1
 90
        0
176
     1
290
     0
176
     1
290
     1
176
     1
290
     1
176
     1
290
     0
176
     1
290
     0
176
     1
290
     0
176
     1
290
     0
176
     1
290
     0
176
     1
290
     0
176
     1
 90
       50
176
     1
 40
0.0
176
     1
 40
1.0
176
     1
 90
        0
176
     1
 62
    18
420
        0
176
     1
 90
       50
176
     1
 90
        3
176
     1
 62
     5
420
      255
176
     1
290
     0
176
     1
 90
       50
176
     1
 90
       50
176
     1
 90
       50
176
     1
290
     0
176
     1
 90
       50
176
     1
 62
   256
176
     0
 40
1.0
176
     0
 90
        2
176
     1
  1
strokes_ogs.tif
176
     1
290
     0
176
     1
 40
1.0
176
     1
 40
1.0
176
     1
1001
ACAD
1000
AcDbSavedByObjectVersion
1070
     0
  0
VISUALSTYLE
  5
CC6
102
{ACAD_REACTORS
330
A4F
102
}
330
A4F
100
AcDbVisualStyle
  2
JitterOff
 70
    20
177
     3
291
     1
 70
    58
 90
        2
176
     0
 90
        2
176
     0
 90
        0
176
     0
 90
        0
176
     0
 40
0.6
176
     0
 40
30.0
176
     0
 62
     7
420
 16777215
176
     0
 90
        1
176
     0
 90
        4
176
     0
 62
     7
176
     0
 62
   257
176
     0
 90
        1
176
     0
 90
        1
176
     0
 40
1.0
176
     0
 90
       10
176
     2
 62
     7
176
     0
 40
1.0
176
     0
 90
        1
176
     0
 90
        6
176
     0
 90
        2
176
     0
 62
     7
176
     0
 90
        5
176
     0
 90
        0
176
     0
 90
        0
176
     0
290
     0
176
     0
 90
        1
176
     0
 40
0.0
176
     0
 90
        0
176
     0
290
     0
176
     0
290
     1
176
     0
290
     1
176
     0
290
     0
176
     0
290
     0
176
     0
290
     0
176
     0
290
     0
176
     0
290
     0
176
     0
290
     0
176
     0
 90
       50
176
     0
 40
0.0
176
     0
 40
1.0
176
     0
 90
        0
176
     0
 62
    18
420
        0
176
     0
 90
       50
176
     0
 90
        3
176
     0
 62
     5
420
      255
176
     0
290
     0
176
     0
 90
       50
176
     0
 90
       50
176
     0
 90
       50
176
     0
290
     0
176
     0
 90
       50
176
     0
 62
   256
176
     0
 40
1.0
176
     0
 90
        2
176
     0
  1
strokes_ogs.tif
176
     0
290
     0
176
     0
 40
1.0
176
     0
 40
1.0
176
     0
1001
ACAD
1000
AcDbSavedByObjectVersion
1070
     0
  0
VISUALSTYLE
  5
A5D
102
{ACAD_REACTORS
330
A4F
102
}
330
A4F
100
AcDbVisualStyle
  2
Linepattern
 70
    14
177
     3
291
     1
 70
    58
 90
        2
176
     1
 90
        2
176
     1
 90
        0
176
     1
 90
        0
176
     1
 40
0.6
176
     1
 40
30.0
176
     1
 62
     7
420
 16777215
176
     1
 90
        1
176
     1
 90
        4
176
     1
 62
     7
176
     1
 62
   257
176
     1
 90
        7
176
     1
 90
        7
176
     1
 40
1.0
176
     1
 90
        8
176
     1
 62
     7
176
     1
 40
1.0
176
     1
 90
        1
176
     1
 90
        6
176
     1
 90
        2
176
     1
 62
     7
176
     1
 90
        5
176
     1
 90
        0
176
     1
 90
        0
176
     1
290
     0
176
     1
 90
        1
176
     1
 40
0.0
176
     1
 90
        0
176
     1
290
     0
176
     1
290
     1
176
     1
290
     1
176
     1
290
     0
176
     1
290
     0
176
     1
290
     0
176
     1
290
     0
176
     1
290
     0
176
     1
290
     0
176
     1
 90
       50
176
     1
 40
0.0
176
     1
 40
1.0
176
     1
 90
        0
176
     1
 62
    18
420
        0
176
     1
 90
       50
176
     1
 90
        3
176
     1
 62
     5
420
      255
176
     1
290
     0
176
     1
 90
       50
176
     1
 90
       50
176
     1
 90
       50
176
     1
290
     0
176
     1
 90
       50
176
     1
 62
   256
176
     0
 40
1.0
176
     0
 90
        2
176
     1
  1
strokes_ogs.tif
176
     1
290
     0
176
     1
 40
1.0
176
     1
 40
1.0
176
     1
1001
ACAD
1000
AcDbSavedByObjectVersion
1070
     0
  0
VISUALSTYLE
  5
CC7
102
{ACAD_REACTORS
330
A4F
102
}
330
A4F
100
AcDbVisualStyle
  2
OverhangOff
 70
    21
177
     3
291
     1
 70
    58
 90
        2
176
     0
 90
        2
176
     0
 90
        0
176
     0
 90
        0
176
     0
 40
0.6
176
     0
 40
30.0
176
     0
 62
     7
420
 16777215
176
     0
 90
        1
176
     0
 90
        4
176
     0
 62
     7
176
     0
 62
   257
176
     0
 90
        1
176
     0
 90
        1
176
     0
 40
1.0
176
     0
 90
        9
176
     2
 62
     7
176
     0
 40
1.0
176
     0
 90
        1
176
     0
 90
        6
176
     0
 90
        2
176
     0
 62
     7
176
     0
 90
        5
176
     0
 90
        0
176
     0
 90
        0
176
     0
290
     0
176
     0
 90
        1
176
     0
 40
0.0
176
     0
 90
        0
176
     0
290
     0
176
     0
290
     1
176
     0
290
     1
176
     0
290
     0
176
     0
290
     0
176
     0
290
     0
176
     0
290
     0
176
     0
290
     0
176
     0
290
     0
176
     0
 90
       50
176
     0
 40
0.0
176
     0
 40
1.0
176
     0
 90
        0
176
     0
 62
    18
420
        0
176
     0
 90
       50
176
     0
 90
        3
176
     0
 62
     5
420
      255
176
     0
290
     0
176
     0
 90
       50
176
     0
 90
       50
176
     0
 90
       50
176
     0
290
     0
176
     0
 90
       50
176
     0
 62
   256
176
     0
 40
1.0
176
     0
 90
        2
176
     0
  1
strokes_ogs.tif
176
     0
290
     0
176
     0
 40
1.0
176
     0
 40
1.0
176
     0
1001
ACAD
1000
AcDbSavedByObjectVersion
1070
     0
  0
VISUALSTYLE
  5
A59
102
{ACAD_REACTORS
330
A4F
102
}
330
A4F
100
AcDbVisualStyle
  2
Realistic
 70
     8
177
     3
291
     0
 70
    58
 90
        2
176
     1
 90
        2
176
     1
 90
        0
176
     1
 90
        0
176
     1
 40
0.6
176
     1
 40
30.0
176
     1
 62
     7
420
 16777215
176
     1
 90
        1
176
     1
 90
        0
176
     1
 62
     7
176
     1
 62
   257
176
     1
 90
        1
176
     1
 90
        1
176
     1
 40
1.0
176
     1
 90
        8
176
     1
 62
     8
420
  7895160
176
     1
 40
1.0
176
     1
 90
        1
176
     1
 90
        6
176
     1
 90
        2
176
     1
 62
     7
176
     1
 90
        5
176
     1
 90
        0
176
     1
 90
        0
176
     1
290
     0
176
     1
 90
       13
176
     1
 40
0.0
176
     1
 90
        0
176
     1
290
     0
176
     1
290
     1
176
     1
290
     1
176
     1
290
     0
176
     1
290
     0
176
     1
290
     0
176
     1
290
     0
176
     1
290
     0
176
     1
290
     0
176
     1
 90
       50
176
     1
 40
0.0
176
     1
 40
1.0
176
     1
 90
        0
176
     1
 62
    18
420
        0
176
     1
 90
       50
176
     1
 90
        3
176
     1
 62
     5
420
      255
176
     1
290
     0
176
     1
 90
       50
176
     1
 90
       50
176
     1
 90
       50
176
     1
290
     0
176
     1
 90
       50
176
     1
 62
   256
176
     0
 40
1.0
176
     0
 90
        2
176
     1
  1
strokes_ogs.tif
176
     1
290
     0
176
     1
 40
1.0
176
     1
 40
1.0
176
     1
1001
ACAD
1000
AcDbSavedByObjectVersion
1070
     0
  0
VISUALSTYLE
  5
CC5
102
{ACAD_REACTORS
330
A4F
102
}
330
A4F
100
AcDbVisualStyle
  2
Shaded
 70
    27
177
     3
291
     0
 70
    58
 90
        2
176
     1
 90
        2
176
     1
 90
        1
176
     1
 90
        2
176
     1
 40
0.6
176
     1
 40
30.0
176
     1
 62
     7
420
 16777215
176
     1
 90
        0
176
     1
 90
        4
176
     1
 62
     7
176
     1
 62
   257
176
     1
 90
        1
176
     1
 90
        1
176
     1
 40
1.0
176
     1
 90
        8
176
     1
 62
   257
176
     1
 40
1.0
176
     1
 90
        1
176
     1
 90
        6
176
     1
 90
        2
176
     1
 62
     8
420
  7895160
176
     1
 90
        3
176
     1
 90
        0
176
     1
 90
        0
176
     1
290
     0
176
     1
 90
        5
176
     1
 40
0.0
176
     1
 90
        0
176
     1
290
     0
176
     1
290
     1
176
     1
290
     1
176
     1
290
     0
176
     1
290
     0
176
     1
290
     0
176
     1
290
     0
176
     1
290
     0
176
     1
290
     0
176
     1
 90
       50
176
     1
 40
0.0
176
     1
 40
1.0
176
     1
 90
        0
176
     1
 62
    18
420
        0
176
     1
 90
       50
176
     1
 90
        3
176
     1
 62
     5
420
      255
176
     1
290
     0
176
     1
 90
       50
176
     1
 90
       50
176
     1
 90
       50
176
     1
290
     0
176
     1
 90
       50
176
     1
 62
   256
176
     0
 40
1.0
176
     0
 90
        2
176
     1
  1
strokes_ogs.tif
176
     1
290
     0
176
     1
 40
1.0
176
     1
 40
1.0
176
     1
1001
ACAD
1000
AcDbSavedByObjectVersion
1070
     0
  0
VISUALSTYLE
  5
CC4
102
{ACAD_REACTORS
330
A4F
102
}
330
A4F
100
AcDbVisualStyle
  2
Shaded with edges
 70
    26
177
     3
291
     0
 70
    58
 90
        2
176
     1
 90
        2
176
     1
 90
        1
176
     1
 90
        2
176
     1
 40
0.6
176
     1
 40
30.0
176
     1
 62
     7
420
 16777215
176
     1
 90
        1
176
     1
 90
        2
176
     1
 62
     7
176
     1
 62
   257
176
     1
 90
        2
176
     1
 90
        1
176
     1
 40
1.0
176
     1
 90
        8
176
     1
 62
   257
176
     1
 40
1.0
176
     1
 90
        1
176
     1
 90
        6
176
     1
 90
        2
176
     1
 62
     7
176
     1
 90
        3
176
     1
 90
        0
176
     1
 90
        0
176
     1
290
     0
176
     1
 90
        5
176
     1
 40
0.0
176
     1
 90
        0
176
     1
290
     0
176
     1
290
     1
176
     1
290
     1
176
     1
290
     0
176
     1
290
     0
176
     1
290
     0
176
     1
290
     0
176
     1
290
     0
176
     1
290
     0
176
     1
 90
       50
176
     1
 40
0.0
176
     1
 40
1.0
176
     1
 90
        0
176
     1
 62
    18
420
        0
176
     1
 90
       50
176
     1
 90
        3
176
     1
 62
     5
420
      255
176
     1
290
     0
176
     1
 90
       50
176
     1
 90
       50
176
     1
 90
       50
176
     1
290
     0
176
     1
 90
       50
176
     1
 62
   256
176
     0
 40
1.0
176
     0
 90
        2
176
     1
  1
strokes_ogs.tif
176
     1
290
     0
176
     1
 40
1.0
176
     1
 40
1.0
176
     1
1001
ACAD
1000
AcDbSavedByObjectVersion
1070
     0
  0
VISUALSTYLE
  5
CC1
102
{ACAD_REACTORS
330
A4F
102
}
330
A4F
100
AcDbVisualStyle
  2
Shades of Gray
 70
    23
177
     3
291
     0
 70
    58
 90
        2
176
     1
 90
        2
176
     1
 90
        3
176
     1
 90
        0
176
     1
 40
0.6
176
     1
 40
30.0
176
     1
 62
     7
420
 16777215
176
     1
 90
        2
176
     1
 90
        2
176
     1
 62
     7
176
     1
 62
     7
176
     1
 90
        1
176
     1
 90
        1
176
     1
 40
40.0
176
     1
 90
        8
176
     1
 62
     7
176
     1
 40
1.0
176
     1
 90
        1
176
     1
 90
        6
176
     1
 90
        2
176
     1
 62
     7
176
     1
 90
        3
176
     1
 90
        0
176
     1
 90
        0
176
     1
290
     0
176
     1
 90
        1
176
     1
 40
0.0
176
     1
 90
        0
176
     1
290
     0
176
     1
290
     1
176
     1
290
     1
176
     1
290
     0
176
     1
290
     0
176
     1
290
     0
176
     1
290
     0
176
     1
290
     0
176
     1
290
     0
176
     1
 90
       50
176
     1
 40
0.0
176
     1
 40
1.0
176
     1
 90
        0
176
     1
 62
    18
420
        0
176
     1
 90
       50
176
     1
 90
        3
176
     1
 62
     5
420
      255
176
     1
290
     0
176
     1
 90
       50
176
     1
 90
       50
176
     1
 90
       50
176
     1
290
     0
176
     1
 90
       50
176
     1
 62
   256
176
     0
 40
1.0
176
     0
 90
        2
176
     1
  1
strokes_ogs.tif
176
     1
290
     0
176
     1
 40
1.0
176
     1
 40
1.0
176
     1
1001
ACAD
1000
AcDbSavedByObjectVersion
1070
     0
  0
VISUALSTYLE
  5
CC2
102
{ACAD_REACTORS
330
A4F
102
}
330
A4F
100
AcDbVisualStyle
  2
Sketchy
 70
    24
177
     3
291
     0
 70
    58
 90
        1
176
     1
 90
        2
176
     1
 90
        2
176
     1
 90
        0
176
     1
 40
0.6
176
     1
 40
30.0
176
     1
 62
     7
420
 16777215
176
     1
 90
        2
176
     1
 90
        2
176
     1
 62
     7
176
     1
 62
     7
176
     1
 90
        1
176
     1
 90
        1
176
     1
 40
40.0
176
     1
 90
       11
176
     1
 62
     7
176
     1
 40
1.0
176
     1
 90
        1
176
     1
 90
        6
176
     1
 90
        2
176
     1
 62
     7
176
     1
 90
        6
176
     1
 90
        0
176
     1
 90
        0
176
     1
290
     0
176
     1
 90
        1
176
     1
 40
0.0
176
     1
 90
        0
176
     1
290
     0
176
     1
290
     1
176
     1
290
     1
176
     1
290
     0
176
     1
290
     0
176
     1
290
     0
176
     1
290
     0
176
     1
290
     0
176
     1
290
     0
176
     1
 90
       50
176
     1
 40
0.0
176
     1
 40
1.0
176
     1
 90
        0
176
     1
 62
    18
420
        0
176
     1
 90
       50
176
     1
 90
        3
176
     1
 62
     5
420
      255
176
     1
290
     0
176
     1
 90
       50
176
     1
 90
       50
176
     1
 90
       50
176
     1
290
     0
176
     1
 90
       50
176
     1
 62
   256
176
     0
 40
1.0
176
     0
 90
        2
176
     1
  1
strokes_ogs.tif
176
     1
290
     0
176
     1
 40
1.0
176
     1
 40
1.0
176
     1
1001
ACAD
1000
AcDbSavedByObjectVersion
1070
     0
  0
VISUALSTYLE
  5
A5C
102
{ACAD_REACTORS
330
A4F
102
}
330
A4F
100
AcDbVisualStyle
  2
Thicken
 70
    13
177
     3
291
     1
 70
    58
 90
        2
176
     1
 90
        2
176
     1
 90
        0
176
     1
 90
        0
176
     1
 40
0.6
176
     1
 40
30.0
176
     1
 62
     7
420
 16777215
176
     1
 90
        1
176
     1
 90
        4
176
     1
 62
     7
176
     1
 62
   257
176
     1
 90
        1
176
     1
 90
        1
176
     1
 40
1.0
176
     1
 90
       12
176
     1
 62
     7
176
     1
 40
1.0
176
     1
 90
        1
176
     1
 90
        6
176
     1
 90
        2
176
     1
 62
     7
176
     1
 90
        5
176
     1
 90
        0
176
     1
 90
        0
176
     1
290
     0
176
     1
 90
        1
176
     1
 40
0.0
176
     1
 90
        0
176
     1
290
     0
176
     1
290
     1
176
     1
290
     1
176
     1
290
     0
176
     1
290
     0
176
     1
290
     0
176
     1
290
     0
176
     1
290
     0
176
     1
290
     0
176
     1
 90
       50
176
     1
 40
0.0
176
     1
 40
1.0
176
     1
 90
        0
176
     1
 62
    18
420
        0
176
     1
 90
       50
176
     1
 90
        3
176
     1
 62
     5
420
      255
176
     1
290
     0
176
     1
 90
       50
176
     1
 90
       50
176
     1
 90
       50
176
     1
290
     0
176
     1
 90
       50
176
     1
 62
   256
176
     0
 40
1.0
176
     0
 90
        2
176
     1
  1
strokes_ogs.tif
176
     1
290
     0
176
     1
 40
1.0
176
     1
 40
1.0
176
     1
1001
ACAD
1000
AcDbSavedByObjectVersion
1070
     0
  0
VISUALSTYLE
  5
CBF
102
{ACAD_REACTORS
330
A4F
102
}
330
A4F
100
AcDbVisualStyle
  2
Wireframe
 70
     5
177
     3
291
     0
 70
    58
 90
        0
176
     1
 90
        2
176
     1
 90
        0
176
     1
 90
        0
176
     1
 40
0.6
176
     1
 40
30.0
176
     1
 62
     7
420
 16777215
176
     1
 90
        1
176
     1
 90
        4
176
     1
 62
     7
176
     1
 62
   257
176
     1
 90
        1
176
     1
 90
        1
176
     1
 40
1.0
176
     1
 90
        0
176
     1
 62
   257
176
     1
 40
1.0
176
     1
 90
        1
176
     1
 90
        6
176
     1
 90
        2
176
     1
 62
     7
176
     1
 90
        3
176
     1
 90
        0
176
     1
 90
        0
176
     1
290
     0
176
     1
 90
        1
176
     1
 40
0.0
176
     1
 90
        0
176
     1
290
     0
176
     1
290
     1
176
     1
290
     1
176
     1
290
     0
176
     1
290
     0
176
     1
290
     0
176
     1
290
     0
176
     1
290
     0
176
     1
290
     0
176
     1
 90
       50
176
     1
 40
0.0
176
     1
 40
1.0
176
     1
 90
        0
176
     1
 62
    18
420
        0
176
     1
 90
       50
176
     1
 90
        3
176
     1
 62
     5
420
      255
176
     1
290
     0
176
     1
 90
       50
176
     1
 90
       50
176
     1
 90
       50
176
     1
290
     0
176
     1
 90
       50
176
     1
 62
   256
176
     0
 40
1.0
176
     0
 90
        2
176
     1
  1
strokes_ogs.tif
176
     1
290
     0
176
     1
 40
1.0
176
     1
 40
1.0
176
     1
1001
ACAD
1000
AcDbSavedByObjectVersion
1070
     0
  0
VISUALSTYLE
  5
CC3
102
{ACAD_REACTORS
330
A4F
102
}
330
A4F
100
AcDbVisualStyle
  2
X-Ray
 70
    25
177
     3
291
     0
 70
    58
 90
        2
176
     1
 90
        2
176
     1
 90
        1
176
     1
 90
        1
176
     1
 40
0.5
176
     1
 40
30.0
176
     1
 62
     7
420
 16777215
176
     1
 90
        1
176
     1
 90
        0
176
     1
 62
     7
176
     1
 62
   257
176
     1
 90
        1
176
     1
 90
        1
176
     1
 40
1.0
176
     1
 90
        8
176
     1
 62
     7
176
     1
 40
1.0
176
     1
 90
        1
176
     1
 90
        6
176
     1
 90
        2
176
     1
 62
     7
176
     1
 90
        3
176
     1
 90
        0
176
     1
 90
        0
176
     1
290
     0
176
     1
 90
       13
176
     1
 40
0.0
176
     1
 90
        0
176
     1
290
     0
176
     1
290
     1
176
     1
290
     1
176
     1
290
     0
176
     1
290
     0
176
     1
290
     0
176
     1
290
     0
176
     1
290
     0
176
     1
290
     0
176
     1
 90
       50
176
     1
 40
0.0
176
     1
 40
1.0
176
     1
 90
        0
176
     1
 62
    18
420
        0
176
     1
 90
       50
176
     1
 90
        3
176
     1
 62
     5
420
      255
176
     1
290
     0
176
     1
 90
       50
176
     1
 90
       50
176
     1
 90
       50
176
     1
290
     0
176
     1
 90
       50
176
     1
 62
   256
176
     0
 40
1.0
176
     0
 90
        2
176
     1
  1
strokes_ogs.tif
176
     1
290
     0
176
     1
 40
1.0
176
     1
 40
1.0
176
     1
1001
ACAD
1000
AcDbSavedByObjectVersion
1070
     0
  0
DICTIONARYVAR
  5
AF4
102
{ACAD_REACTORS
330
5D
102
}
330
5D
100
DictionaryVariables
280
     0
  1
1:1
  0
DICTIONARYVAR
  5
AF2
102
{ACAD_REACTORS
330
5D
102
}
330
5D
100
DictionaryVariables
280
     0
  1
STANDARD
  0
DICTIONARYVAR
  5
66F
102
{ACAD_REACTORS
330
5D
102
}
330
5D
100
DictionaryVariables
280
     0
  1
STANDARD
  0
DICTIONARYVAR
  5
FFA
102
{ACAD_REACTORS
330
5D
102
}
330
5D
100
DictionaryVariables
280
     0
  1
Metric50
  0
DICTIONARYVAR
  5
FFB
102
{ACAD_REACTORS
330
5D
102
}
330
5D
100
DictionaryVariables
280
     0
  1
Metric50
  0
DICTIONARYVAR
  5
5E
102
{ACAD_REACTORS
330
5D
102
}
330
5D
100
DictionaryVariables
280
     0
  1
0
  0
DICTIONARYVAR
  5
3C7
102
{ACAD_REACTORS
330
5D
102
}
330
5D
100
DictionaryVariables
280
     0
  1
1
  0
DICTIONARYVAR
  5
128
102
{ACAD_REACTORS
330
5D
102
}
330
5D
100
DictionaryVariables
280
     0
  1
1
  0
DICTIONARYVAR
  5
AF6
102
{ACAD_REACTORS
330
5D
102
}
330
5D
100
DictionaryVariables
280
     0
  1
1
  0
DICTIONARYVAR
  5
AF7
102
{ACAD_REACTORS
330
5D
102
}
330
5D
100
DictionaryVariables
280
     0
  1
15
  0
DICTIONARYVAR
  5
AF5
102
{ACAD_REACTORS
330
5D
102
}
330
5D
100
DictionaryVariables
280
     0
  1
0
  0
DICTIONARYVAR
  5
AF3
102
{ACAD_REACTORS
330
5D
102
}
330
5D
100
DictionaryVariables
280
     0
  1
0
  0
DICTIONARY
  5
3983
102
{ACAD_REACTORS
330
3981
102
}
330
3981
100
AcDbDictionary
281
     1
  0
DICTIONARY
  5
3982
102
{ACAD_REACTORS
330
3981
102
}
330
3981
100
AcDbDictionary
281
     1
  3
1626237451056
350
397B
  3
1626237451072
350
397C
  3
1626237451088
350
397D
  3
1626237451104
350
397E
  3
1626237451120
350
397F
  3
1626237451136
350
3980
  0
DICTIONARY
  5
143
102
{ACAD_REACTORS
330
142
102
}
330
142
100
AcDbDictionary
281
     1
  0
XRECORD
  5
47D
102
{ACAD_REACTORS
330
142
102
}
330
142
100
AcDbXrecord
280
     1
 90
-1056964608
  0
XRECORD
  5
84B
102
{ACAD_REACTORS
330
849
102
}
330
849
100
AcDbXrecord
280
     1
  0
DICTIONARY
  5
13F3
102
{ACAD_REACTORS
330
13F2
102
}
330
13F2
100
AcDbDictionary
281
     1
  3
_HasBOM
350
13F9
  3
Comment
350
13F8
  3
Folder
350
13F7
  3
GEN-TITLE-DES1
350
13F5
  3
GEN-TITLE-DES2
350
13F6
  3
GEN-TITLE-NR
350
13F4
  0
LAYER_INDEX
  5
30C5
102
{ACAD_REACTORS
330
30C4
102
}
330
30C4
100
AcDbIndex
 40
2460034.703680555
100
AcDbLayerIndex
  8
0
360
316C
 90
        0
  8
AM_0
360
316D
 90
        1
  8
DIM
360
316E
 90
        0
  0
DICTIONARY
  5
398A
330
10E8
100
AcDbDictionary
280
     1
281
     1
  3
ACAD_XREC_ROUNDTRIP
360
398B
  0
DICTIONARY
  5
3986
330
CCC
100
AcDbDictionary
280
     1
281
     1
  3
ACAD_XREC_ROUNDTRIP
360
3987
  0
DICTIONARY
  5
1474
330
169
100
AcDbDictionary
280
     1
281
     1
  0
DICTIONARY
  5
A40
330
A3F
100
AcDbDictionary
280
     1
281
     1
  3
BUMPTILE
360
A42
  3
DIFFUSETILE
360
A41
  3
OPACITYTILE
360
A45
  3
REFLECTIONTILE
360
A44
  3
REFRACTIONTILE
360
A46
  3
SPECULARTILE
360
A43
  0
DICTIONARY
  5
A38
330
A37
100
AcDbDictionary
280
     1
281
     1
  3
BUMPTILE
360
A3A
  3
DIFFUSETILE
360
A39
  3
OPACITYTILE
360
A3D
  3
REFLECTIONTILE
360
A3C
  3
REFRACTIONTILE
360
A3E
  3
SPECULARTILE
360
A3B
  0
DICTIONARY
  5
A48
330
A47
100
AcDbDictionary
280
     1
281
     1
  3
BUMPTILE
360
A4A
  3
DIFFUSETILE
360
A49
  3
OPACITYTILE
360
A4D
  3
REFLECTIONTILE
360
A4C
  3
REFRACTIONTILE
360
A4E
  3
SPECULARTILE
360
A4B
  0
DICTIONARY
  5
1497
330
A73
100
AcDbDictionary
280
     1
281
     1
  3
ACAD_XREC_ROUNDTRIP
360
1498
  0
DICTIONARY
  5
3988
330
10E5
100
AcDbDictionary
280
     1
281
     1
  3
ACAD_XREC_ROUNDTRIP
360
3989
  0
DICTIONARY
  5
3984
330
CCA
100
AcDbDictionary
280
     1
281
     1
  3
ACAD_XREC_ROUNDTRIP
360
3985
  0
DICTIONARY
  5
AED
330
651
100
AcDbDictionary
280
     1
281
     1
  3
ACAD_ROUNDTRIP_2008_TABLESTYLE_CELLSTYLEMAP
360
3979
  0
XRECORD
  5
397B
102
{ACAD_REACTORS
330
3982
102
}
330
3982
100
AcDbXrecord
280
     1
  1
AcDb3DSolid_ASM_Data
102
{ATTRRECORD
341
397D
  2
AcDbDs::TreatedAsObjectData
280
     1
291
     1
102
ATTRRECORD}
102
{ATTRRECORD
341
397E
  2
AcDbDs::Legacy
280
     1
291
     1
102
ATTRRECORD}
  2
AcDbDs::ID
280
    10
 91
        8
102
{ATTRRECORD
341
397F
  2
AcDs:Indexable
280
     1
291
     1
102
ATTRRECORD}
102
{ATTRRECORD
341
3980
  2
AcDbDs::HandleAttribute
280
     7
282
     1
102
ATTRRECORD}
  2
ASM_Data
280
    15
 91
        0
  0
XRECORD
  5
397C
102
{ACAD_REACTORS
330
3982
102
}
330
3982
100
AcDbXrecord
280
     1
  1
AcDb_Thumbnail_Schema
102
{ATTRRECORD
341
397D
  2
AcDbDs::TreatedAsObjectData
280
     1
291
     1
102
ATTRRECORD}
102
{ATTRRECORD
341
397E
  2
AcDbDs::Legacy
280
     1
291
     1
102
ATTRRECORD}
  2
AcDbDs::ID
280
    10
 91
        8
102
{ATTRRECORD
341
397F
  2
AcDs:Indexable
280
     1
291
     1
102
ATTRRECORD}
102
{ATTRRECORD
341
3980
  2
AcDbDs::HandleAttribute
280
     7
282
     1
102
ATTRRECORD}
  2
Thumbnail_Data
280
    15
 91
        0
  0
XRECORD
  5
397D
102
{ACAD_REACTORS
330
3982
102
}
330
3982
100
AcDbXrecord
280
     1
  1
AcDbDs::TreatedAsObjectDataSchema
  2
AcDbDs::TreatedAsObjectData
280
     1
 91
        0
  0
XRECORD
  5
397E
102
{ACAD_REACTORS
330
3982
102
}
330
3982
100
AcDbXrecord
280
     1
  1
AcDbDs::LegacySchema
  2
AcDbDs::Legacy
280
     1
 91
        0
  0
XRECORD
  5
397F
102
{ACAD_REACTORS
330
3982
102
}
330
3982
100
AcDbXrecord
280
     1
  1
AcDbDs::IndexedPropertySchema
  2
AcDs:Indexable
280
     1
 91
        0
  0
XRECORD
  5
3980
102
{ACAD_REACTORS
330
3982
102
}
330
3982
100
AcDbXrecord
280
     1
  1
AcDbDs::HandleAttributeSchema
  2
AcDbDs::HandleAttribute
280
     7
 91
        1
284
     1
  0
XRECORD
  5
13F9
102
{ACAD_REACTORS
330
13F3
102
}
330
13F3
100
AcDbXrecord
280
     1
  1
_HasBOM
  1
False
  0
XRECORD
  5
13F8
102
{ACAD_REACTORS
330
13F3
102
}
330
13F3
100
AcDbXrecord
280
     1
  1
Comment
  1

  0
XRECORD
  5
13F7
102
{ACAD_REACTORS
330
13F3
102
}
330
13F3
100
AcDbXrecord
280
     1
  1
Folder
  1

  0
XRECORD
  5
13F5
102
{ACAD_REACTORS
330
13F3
102
}
330
13F3
100
AcDbXrecord
280
     1
  1
GEN-TITLE-DES1
  1

  0
XRECORD
  5
13F6
102
{ACAD_REACTORS
330
13F3
102
}
330
13F3
100
AcDbXrecord
280
     1
  1
GEN-TITLE-DES2
  1

  0
XRECORD
  5
13F4
102
{ACAD_REACTORS
330
13F3
102
}
330
13F3
100
AcDbXrecord
280
     1
  1
GEN-TITLE-NR
  1

  0
IDBUFFER
  5
316C
330
0
100
AcDbIdBuffer
  0
IDBUFFER
  5
316D
330
0
100
AcDbIdBuffer
330
3975
  0
IDBUFFER
  5
316E
330
0
100
AcDbIdBuffer
  0
XRECORD
  5
398B
102
{ACAD_REACTORS
330
398A
102
}
330
398A
100
AcDbXrecord
280
     1
102
DISPLAYNAME
  1
Imperial24
102
FLAGS
 90
        0
  0
XRECORD
  5
3987
102
{ACAD_REACTORS
330
3986
102
}
330
3986
100
AcDbXrecord
280
     1
102
DISPLAYNAME
  1
Metric50
102
FLAGS
 90
        0
  0
XRECORD
  5
A42
102
{ACAD_REACTORS
330
A40
102
}
330
A40
100
AcDbXrecord
280
     1
270
     1
271
     1
  0
XRECORD
  5
A41
102
{ACAD_REACTORS
330
A40
102
}
330
A40
100
AcDbXrecord
280
     1
270
     1
271
     1
  0
XRECORD
  5
A45
102
{ACAD_REACTORS
330
A40
102
}
330
A40
100
AcDbXrecord
280
     1
270
     1
271
     1
  0
XRECORD
  5
A44
102
{ACAD_REACTORS
330
A40
102
}
330
A40
100
AcDbXrecord
280
     1
270
     1
271
     1
  0
XRECORD
  5
A46
102
{ACAD_REACTORS
330
A40
102
}
330
A40
100
AcDbXrecord
280
     1
270
     1
271
     1
  0
XRECORD
  5
A43
102
{ACAD_REACTORS
330
A40
102
}
330
A40
100
AcDbXrecord
280
     1
270
     1
271
     1
  0
XRECORD
  5
A3A
102
{ACAD_REACTORS
330
A38
102
}
330
A38
100
AcDbXrecord
280
     1
270
     1
271
     1
  0
XRECORD
  5
A39
102
{ACAD_REACTORS
330
A38
102
}
330
A38
100
AcDbXrecord
280
     1
270
     1
271
     1
  0
XRECORD
  5
A3D
102
{ACAD_REACTORS
330
A38
102
}
330
A38
100
AcDbXrecord
280
     1
270
     1
271
     1
  0
XRECORD
  5
A3C
102
{ACAD_REACTORS
330
A38
102
}
330
A38
100
AcDbXrecord
280
     1
270
     1
271
     1
  0
XRECORD
  5
A3E
102
{ACAD_REACTORS
330
A38
102
}
330
A38
100
AcDbXrecord
280
     1
270
     1
271
     1
  0
XRECORD
  5
A3B
102
{ACAD_REACTORS
330
A38
102
}
330
A38
100
AcDbXrecord
280
     1
270
     1
271
     1
  0
XRECORD
  5
A4A
102
{ACAD_REACTORS
330
A48
102
}
330
A48
100
AcDbXrecord
280
     1
270
     1
271
     1
  0
XRECORD
  5
A49
102
{ACAD_REACTORS
330
A48
102
}
330
A48
100
AcDbXrecord
280
     1
270
     1
271
     1
  0
XRECORD
  5
A4D
102
{ACAD_REACTORS
330
A48
102
}
330
A48
100
AcDbXrecord
280
     1
270
     1
271
     1
  0
XRECORD
  5
A4C
102
{ACAD_REACTORS
330
A48
102
}
330
A48
100
AcDbXrecord
280
     1
270
     1
271
     1
  0
XRECORD
  5
A4E
102
{ACAD_REACTORS
330
A48
102
}
330
A48
100
AcDbXrecord
280
     1
270
     1
271
     1
  0
XRECORD
  5
A4B
102
{ACAD_REACTORS
330
A48
102
}
330
A48
100
AcDbXrecord
280
     1
270
     1
271
     1
  0
XRECORD
  5
1498
102
{ACAD_REACTORS
330
1497
102
}
330
1497
100
AcDbXrecord
280
     1
102
ACAD_ROUNDTRIP_2012_MLEADER_STYLE
298
     1
  0
XRECORD
  5
3989
102
{ACAD_REACTORS
330
3988
102
}
330
3988
100
AcDbXrecord
280
     1
102
DISPLAYNAME
  1
Imperial24
102
FLAGS
 90
        0
  0
XRECORD
  5
3985
102
{ACAD_REACTORS
330
3984
102
}
330
3984
100
AcDbXrecord
280
     1
102
DISPLAYNAME
  1
Metric50
102
FLAGS
 90
        0
  0
CELLSTYLEMAP
  5
3979
102
{ACAD_REACTORS
330
AED
102
}
330
AED
100
AcDbCellStyleMap
 90
        3
300
CELLSTYLE
  1
TABLEFORMAT_BEGIN
 90
        5
170
     1
 91
        0
 92
    32768
 62
   257
 93
        1
300
CONTENTFORMAT
  1
CONTENTFORMAT_BEGIN
 90
        0
 91
        0
 92
        4
 93
        0
300

 40
0.0
140
1.0
 94
        5
 62
     0
340
10
144
6.0
309
CONTENTFORMAT_END
171
     1
301
MARGIN
  1
CELLMARGIN_BEGIN
 40
1.5
 40
1.5
 40
1.5
 40
1.5
 40
0.18
 40
0.18
309
CELLMARGIN_END
 94
        6
 95
        1
302
GRIDFORMAT
  1
GRIDFORMAT_BEGIN
 90
        0
 91
        1
 62
     0
 92
       -2
340
0
 93
        0
 40
0.045
309
GRIDFORMAT_END
 95
        2
302
GRIDFORMAT
  1
GRIDFORMAT_BEGIN
 90
        0
 91
        1
 62
     0
 92
       -2
340
0
 93
        0
 40
0.045
309
GRIDFORMAT_END
 95
        4
302
GRIDFORMAT
  1
GRIDFORMAT_BEGIN
 90
        0
 91
        1
 62
     0
 92
       -2
340
0
 93
        0
 40
0.045
309
GRIDFORMAT_END
 95
        8
302
GRIDFORMAT
  1
GRIDFORMAT_BEGIN
 90
        0
 91
        1
 62
     0
 92
       -2
340
0
 93
        0
 40
0.045
309
GRIDFORMAT_END
 95
       16
302
GRIDFORMAT
  1
GRIDFORMAT_BEGIN
 90
        0
 91
        1
 62
     0
 92
       -2
340
0
 93
        0
 40
0.045
309
GRIDFORMAT_END
 95
       32
302
GRIDFORMAT
  1
GRIDFORMAT_BEGIN
 90
        0
 91
        1
 62
     0
 92
       -2
340
0
 93
        0
 40
0.045
309
GRIDFORMAT_END
309
TABLEFORMAT_END
  1
CELLSTYLE_BEGIN
 90
        1
 91
        1
300
_TITLE
309
CELLSTYLE_END
300
CELLSTYLE
  1
TABLEFORMAT_BEGIN
 90
        5
170
     1
 91
        0
 92
        0
 62
   257
 93
        1
300
CONTENTFORMAT
  1
CONTENTFORMAT_BEGIN
 90
        0
 91
        0
 92
        4
 93
        0
300

 40
0.0
140
1.0
 94
        5
 62
     0
340
10
144
4.5
309
CONTENTFORMAT_END
171
     1
301
MARGIN
  1
CELLMARGIN_BEGIN
 40
1.5
 40
1.5
 40
1.5
 40
1.5
 40
0.18
 40
0.18
309
CELLMARGIN_END
 94
        6
 95
        1
302
GRIDFORMAT
  1
GRIDFORMAT_BEGIN
 90
        0
 91
        1
 62
     0
 92
       -2
340
0
 93
        0
 40
0.045
309
GRIDFORMAT_END
 95
        2
302
GRIDFORMAT
  1
GRIDFORMAT_BEGIN
 90
        0
 91
        1
 62
     0
 92
       -2
340
0
 93
        0
 40
0.045
309
GRIDFORMAT_END
 95
        4
302
GRIDFORMAT
  1
GRIDFORMAT_BEGIN
 90
        0
 91
        1
 62
     0
 92
       -2
340
0
 93
        0
 40
0.045
309
GRIDFORMAT_END
 95
        8
302
GRIDFORMAT
  1
GRIDFORMAT_BEGIN
 90
        0
 91
        1
 62
     0
 92
       -2
340
0
 93
        0
 40
0.045
309
GRIDFORMAT_END
 95
       16
302
GRIDFORMAT
  1
GRIDFORMAT_BEGIN
 90
        0
 91
        1
 62
     0
 92
       -2
340
0
 93
        0
 40
0.045
309
GRIDFORMAT_END
 95
       32
302
GRIDFORMAT
  1
GRIDFORMAT_BEGIN
 90
        0
 91
        1
 62
     0
 92
       -2
340
0
 93
        0
 40
0.045
309
GRIDFORMAT_END
309
TABLEFORMAT_END
  1
CELLSTYLE_BEGIN
 90
        2
 91
        1
300
_HEADER
309
CELLSTYLE_END
300
CELLSTYLE
  1
TABLEFORMAT_BEGIN
 90
        5
170
     1
 91
        0
 92
        0
 62
   257
 93
        1
300
CONTENTFORMAT
  1
CONTENTFORMAT_BEGIN
 90
        0
 91
        0
 92
        4
 93
        0
300

 40
0.0
140
1.0
 94
        2
 62
     0
340
10
144
4.5
309
CONTENTFORMAT_END
171
     1
301
MARGIN
  1
CELLMARGIN_BEGIN
 40
1.5
 40
1.5
 40
1.5
 40
1.5
 40
0.18
 40
0.18
309
CELLMARGIN_END
 94
        6
 95
        1
302
GRIDFORMAT
  1
GRIDFORMAT_BEGIN
 90
        0
 91
        1
 62
     0
 92
       -2
340
0
 93
        0
 40
0.045
309
GRIDFORMAT_END
 95
        2
302
GRIDFORMAT
  1
GRIDFORMAT_BEGIN
 90
        0
 91
        1
 62
     0
 92
       -2
340
0
 93
        0
 40
0.045
309
GRIDFORMAT_END
 95
        4
302
GRIDFORMAT
  1
GRIDFORMAT_BEGIN
 90
        0
 91
        1
 62
     0
 92
       -2
340
0
 93
        0
 40
0.045
309
GRIDFORMAT_END
 95
        8
302
GRIDFORMAT
  1
GRIDFORMAT_BEGIN
 90
        0
 91
        1
 62
     0
 92
       -2
340
0
 93
        0
 40
0.045
309
GRIDFORMAT_END
 95
       16
302
GRIDFORMAT
  1
GRIDFORMAT_BEGIN
 90
        0
 91
        1
 62
     0
 92
       -2
340
0
 93
        0
 40
0.045
309
GRIDFORMAT_END
 95
       32
302
GRIDFORMAT
  1
GRIDFORMAT_BEGIN
 90
        0
 91
        1
 62
     0
 92
       -2
340
0
 93
        0
 40
0.045
309
GRIDFORMAT_END
309
TABLEFORMAT_END
  1
CELLSTYLE_BEGIN
 90
        3
 91
        2
300
_DATA
309
CELLSTYLE_END
  0
ENDSEC
  0
SECTION
  2
ACDSDATA
 70
     2
 71
     8
  0
ACDSSCHEMA
 90
        0
  1
AcDb3DSolid_ASM_Data
  2
AcDbDs::ID
280
    10
 91
        8
  2
ASM_Data
280
    15
 91
        0
101
ACDSRECORD
 95
        0
 90
        2
  2
AcDbDs::TreatedAsObjectData
280
     1
291
     1
101
ACDSRECORD
 95
        0
 90
        3
  2
AcDbDs::Legacy
280
     1
291
     1
101
ACDSRECORD
  1
AcDbDs::ID
 90
        4
  2
AcDs:Indexable
280
     1
291
     1
101
ACDSRECORD
  1
AcDbDs::ID
 90
        5
  2
AcDbDs::HandleAttribute
280
     7
282
     1
  0
ACDSSCHEMA
 90
        1
  1
AcDb_Thumbnail_Schema
  2
AcDbDs::ID
280
    10
 91
        8
  2
Thumbnail_Data
280
    15
 91
        0
101
ACDSRECORD
 95
        1
 90
        2
  2
AcDbDs::TreatedAsObjectData
280
     1
291
     1
101
ACDSRECORD
 95
        1
 90
        3
  2
AcDbDs::Legacy
280
     1
291
     1
101
ACDSRECORD
  1
AcDbDs::ID
 90
        4
  2
AcDs:Indexable
280
     1
291
     1
101
ACDSRECORD
  1
AcDbDs::ID
 90
        5
  2
AcDbDs::HandleAttribute
280
     7
282
     1
  0
ACDSSCHEMA
 90
        2
  1
AcDbDs::TreatedAsObjectDataSchema
  2
AcDbDs::TreatedAsObjectData
280
     1
 91
        0
  0
ACDSSCHEMA
 90
        3
  1
AcDbDs::LegacySchema
  2
AcDbDs::Legacy
280
     1
 91
        0
  0
ACDSSCHEMA
 90
        4
  1
AcDbDs::IndexedPropertySchema
  2
AcDs:Indexable
280
     1
 91
        0
  0
ACDSSCHEMA
 90
        5
  1
AcDbDs::HandleAttributeSchema
  2
AcDbDs::HandleAttribute
280
     7
 91
        1
284
     1
  0
ACDSRECORD
 90
        1
  2
AcDbDs::ID
280
    10
320
2CA4
  2
Thumbnail_Data
280
    15
 94
      907
310
89504E470D0A1A0A0000000D4948445200000100000000BF08030000002647F24000000300504C5445212830000000C8C8C80000000000000000000000000000000000000000000000000000330000660000990000CC0000FF0033000033330033660033990033CC0033FF0066000066330066660066990066CC0066FF0099
310
000099330099660099990099CC0099FF00CC0000CC3300CC6600CC9900CCCC00CCFF00FF0000FF3300FF6600FF9900FFCC00FFFF3300003300333300663300993300CC3300FF3333003333333333663333993333CC3333FF3366003366333366663366993366CC3366FF3399003399333399663399993399CC3399FF33CC00
310
33CC3333CC6633CC9933CCCC33CCFF33FF0033FF3333FF6633FF9933FFCC33FFFF6600006600336600666600996600CC6600FF6633006633336633666633996633CC6633FF6666006666336666666666996666CC6666FF6699006699336699666699996699CC6699FF66CC0066CC3366CC6666CC9966CCCC66CCFF66FF0066
310
FF3366FF6666FF9966FFCC66FFFF9900009900339900669900999900CC9900FF9933009933339933669933999933CC9933FF9966009966339966669966999966CC9966FF9999009999339999669999999999CC9999FF99CC0099CC3399CC6699CC9999CCCC99CCFF99FF0099FF3399FF6699FF9999FFCC99FFFFCC0000CC00
310
33CC0066CC0099CC00CCCC00FFCC3300CC3333CC3366CC3399CC33CCCC33FFCC6600CC6633CC6666CC6699CC66CCCC66FFCC9900CC9933CC9966CC9999CC99CCCC99FFCCCC00CCCC33CCCC66CCCC99CCCCCCCCCCFFCCFF00CCFF33CCFF66CCFF99CCFFCCCCFFFFFF0000FF0033FF0066FF0099FF00CCFF00FFFF3300FF3333
310
FF3366FF3399FF33CCFF33FFFF6600FF6633FF6666FF6699FF66CCFF66FFFF9900FF9933FF9966FF9999FF99CCFF99FFFFCC00FFCC33FFCC66FFCC99FFCCCCFFCCFFFFFF00FFFF33FFFF66FFFF99FFFFCCFFFFFF0000000D0D0D1A1A1A2828283535354343435050505D5D5D6B6B6B787878868686939393A1A1A1AEAEAEBB
310
BBBBC9C9C9D6D6D6E4E4E4F1F1F1FFFFFF000000000000000000000000000000000000000000000000000000000000B21171F6000000464944415478DAEDC13101000000C2A0F54F6D085FA00000000000000000000000000000000000000000000000000000000000000000000000000000000000000000000000E036BFBF
310
000103F617CF0000000049454E44AE426082
  0
ACDSRECORD
 90
        1
  2
AcDbDs::ID
280
    10
320
169
  2
Thumbnail_Data
280
    15
 94
     1332
310
89504E470D0A1A0A0000000D49484452000001000000006D080300000079B14F6400000300504C5445212830FFFFFF2128300000000000000000000000000000000000000000000000000000330000660000990000CC0000FF0033000033330033660033990033CC0033FF0066000066330066660066990066CC0066FF0099
310
000099330099660099990099CC0099FF00CC0000CC3300CC6600CC9900CCCC00CCFF00FF0000FF3300FF6600FF9900FFCC00FFFF3300003300333300663300993300CC3300FF3333003333333333663333993333CC3333FF3366003366333366663366993366CC3366FF3399003399333399663399993399CC3399FF33CC00
310
33CC3333CC6633CC9933CCCC33CCFF33FF0033FF3333FF6633FF9933FFCC33FFFF6600006600336600666600996600CC6600FF6633006633336633666633996633CC6633FF6666006666336666666666996666CC6666FF6699006699336699666699996699CC6699FF66CC0066CC3366CC6666CC9966CCCC66CCFF66FF0066
310
FF3366FF6666FF9966FFCC66FFFF9900009900339900669900999900CC9900FF9933009933339933669933999933CC9933FF9966009966339966669966999966CC9966FF9999009999339999669999999999CC9999FF99CC0099CC3399CC6699CC9999CCCC99CCFF99FF0099FF3399FF6699FF9999FFCC99FFFFCC0000CC00
310
33CC0066CC0099CC00CCCC00FFCC3300CC3333CC3366CC3399CC33CCCC33FFCC6600CC6633CC6666CC6699CC66CCCC66FFCC9900CC9933CC9966CC9999CC99CCCC99FFCCCC00CCCC33CCCC66CCCC99CCCCCCCCCCFFCCFF00CCFF33CCFF66CCFF99CCFFCCCCFFFFFF0000FF0033FF0066FF0099FF00CCFF00FFFF3300FF3333
310
FF3366FF3399FF33CCFF33FFFF6600FF6633FF6666FF6699FF66CCFF66FFFF9900FF9933FF9966FF9999FF99CCFF99FFFFCC00FFCC33FFCC66FFCC99FFCCCCFFCCFFFFFF00FFFF33FFFF66FFFF99FFFFCCFFFFFF0000000D0D0D1A1A1A2828283535354343435050505D5D5D6B6B6B787878868686939393A1A1A1AEAEAEBB
310
BBBBC9C9C9D6D6D6E4E4E4F1F1F1FFFFFF0000000000000000000000000000000000000000000000000000000000002E4550F1000000324944415478DAEDC13101000000C2A0F54F6D0D0FA00000000000000000000000000000000000000000000000000000000E0D6D6D000165E7A0B90000000049454E44AE4260824260
310
828208000000000000000000000000000000000000000000000000000000000000000000000000000000000000000000000000000000FC0D206AF4B1FE7004A400D40A00000000000000000000000000000000180DC04F620000000000000000000000000000000000000000000000000080262B1C7DB2742925CE43D4E3A9
310
65F1A7CD28008F851F96AEDB4C80DD86DEDF3FE9CDEDD931CF69A7407CB85D3C2E73F35B00AC5A3DEC75BC7ED323E0B61B35EF2AB07FF1BA1B595781D1FF624392244992244992244992244992244992244952571D0111E7C5CED53675980000000049454E44AE42608286631967407D672966C07D078AE71F77D26C02F3E1
310
7CE5C0FD5480885D42802542791DC06E5FB4454680CB5E03B0DB36406C7B06ECB7FFDDE1B25D80549F04FFFE28901EA0FCD967A52C0051C6738932FD9723FA9DF5BF062F5A79789D7E9C65069CACF144315D3FBC09AC70250588F9ED2F67EF61FDF146FE21FB805F0E680B00B53E19A0FF6FC00C7805C00BBEBEA8CF7D7CCD
310
F5C548820000D838FF9B01CAB6014AFC3780F281852449922449922449922449922449922449926EF70DAF1801257F9AFF7A0000000049454E44AE426082
  0
ENDSEC
  0
EOF
