  0
SECTION
  2
HEADER
  9
$ACADVER
  1
AC1027
  9
$ACADMAINTVER
 70
   125
  9
$DWGCODEPAGE
  3
ANSI_1252
  9
$LASTSAVEDBY
  1
se-milkar
  9
$CUSTOMPROPERTYTAG
  1
AmdtFileType
  9
$CUSTOMPROPERTY
  1
84
  9
$REQUIREDVERSIONS
160
                 0
  9
$INSBASE
 10
0.0
 20
0.0
 30
0.0
  9
$EXTMIN
 10
-85.41225644444084
 20
-77.65799988441965
 30
0.0
  9
$EXTMAX
 10
76.25000000000003
 20
76.24999999999868
 30
0.0
  9
$LIMMIN
 10
0.0
 20
0.0
  9
$LIMMAX
 10
420.0
 20
297.0
  9
$ORTHOMODE
 70
     1
  9
$REGENMODE
 70
     1
  9
$FILLMODE
 70
     1
  9
$QTEXTMODE
 70
     0
  9
$MIRRTEXT
 70
     0
  9
$LTSCALE
 40
1.0
  9
$ATTMODE
 70
     1
  9
$TEXTSIZE
 40
3.5
  9
$TRACEWID
 40
1.0
  9
$TEXTSTYLE
  7
STANDARD
  9
$CLAYER
  8
AM_0
  9
$CELTYPE
  6
BYLAYER
  9
$CECOLOR
 62
   256
  9
$CELTSCALE
 40
1.0
  9
$DISPSILH
 70
     0
  9
$DIMSCALE
 40
1.0
  9
$DIMASZ
 40
2.5
  9
$DIMEXO
 40
1.0
  9
$DIMDLI
 40
10.0
  9
$DIMRND
 40
0.0
  9
$DIMDLE
 40
0.0
  9
$DIMEXE
 40
1.0
  9
$DIMTP
 40
0.1
  9
$DIMTM
 40
0.1
  9
$DIMTXT
 40
3.5
  9
$DIMCEN
 40
0.0
  9
$DIMTSZ
 40
0.0
  9
$DIMTOL
 70
     0
  9
$DIMLIM
 70
     0
  9
$DIMTIH
 70
     0
  9
$DIMTOH
 70
     0
  9
$DIMSE1
 70
     0
  9
$DIMSE2
 70
     0
  9
$DIMTAD
 70
     1
  9
$DIMZIN
 70
     8
  9
$DIMBLK
  1

  9
$DIMASO
 70
     1
  9
$DIMSHO
 70
     1
  9
$DIMPOST
  1

  9
$DIMAPOST
  1
"
  9
$DIMALT
 70
     0
  9
$DIMALTD
 70
     3
  9
$DIMALTF
 40
0.0393701
  9
$DIMLFAC
 40
1.0
  9
$DIMTOFL
 70
     1
  9
$DIMTVP
 40
0.0
  9
$DIMTIX
 70
     0
  9
$DIMSOXD
 70
     0
  9
$DIMSAH
 70
     0
  9
$DIMBLK1
  1

  9
$DIMBLK2
  1

  9
$DIMSTYLE
  2
AM_ISO
  9
$DIMCLRD
 70
   256
  9
$DIMCLRE
 70
   256
  9
$DIMCLRT
 70
     2
  9
$DIMTFAC
 40
0.71
  9
$DIMGAP
 40
1.5
  9
$DIMJUST
 70
     0
  9
$DIMSD1
 70
     0
  9
$DIMSD2
 70
     0
  9
$DIMTOLJ
 70
     0
  9
$DIMTZIN
 70
     8
  9
$DIMALTZ
 70
     0
  9
$DIMALTTZ
 70
     0
  9
$DIMUPT
 70
     0
  9
$DIMDEC
 70
     2
  9
$DIMTDEC
 70
     2
  9
$DIMALTU
 70
     2
  9
$DIMALTTD
 70
     3
  9
$DIMTXSTY
  7
STANDARD
  9
$DIMAUNIT
 70
     0
  9
$DIMADEC
 70
     0
  9
$DIMALTRND
 40
0.0
  9
$DIMAZIN
 70
     2
  9
$DIMDSEP
 70
    46
  9
$DIMATFIT
 70
     3
  9
$DIMFRAC
 70
     0
  9
$DIMLDRBLK
  1

  9
$DIMLUNIT
 70
     2
  9
$DIMLWD
 70
    -1
  9
$DIMLWE
 70
    -1
  9
$DIMTMOVE
 70
     0
  9
$DIMFXL
 40
1.0
  9
$DIMFXLON
 70
     0
  9
$DIMJOGANG
 40
0.7853981633974483
  9
$DIMTFILL
 70
     0
  9
$DIMTFILLCLR
 70
     0
  9
$DIMARCSYM
 70
     0
  9
$DIMLTYPE
  6

  9
$DIMLTEX1
  6

  9
$DIMLTEX2
  6

  9
$DIMTXTDIRECTION
 70
     0
  9
$LUNITS
 70
     2
  9
$LUPREC
 70
     2
  9
$SKETCHINC
 40
1.0
  9
$FILLETRAD
 40
2.5
  9
$AUNITS
 70
     0
  9
$AUPREC
 70
     0
  9
$MENU
  1
.
  9
$ELEVATION
 40
0.0
  9
$PELEVATION
 40
0.0
  9
$THICKNESS
 40
0.0
  9
$LIMCHECK
 70
     0
  9
$CHAMFERA
 40
2.5
  9
$CHAMFERB
 40
2.5
  9
$CHAMFERC
 40
20.0
  9
$CHAMFERD
 40
0.0
  9
$SKPOLY
 70
     1
  9
$TDCREATE
 40
2460034.698599537
  9
$TDUCREATE
 40
2460034.615266204
  9
$TDUPDATE
 40
2460034.701597222
  9
$TDUUPDATE
 40
2460034.618263889
  9
$TDINDWG
 40
0.0029050926
  9
$TDUSRTIMER
 40
0.0029050926
  9
$USRTIMER
 70
     1
  9
$ANGBASE
 50
0.0
  9
$ANGDIR
 70
     0
  9
$PDMODE
 70
     0
  9
$PDSIZE
 40
0.0
  9
$PLINEWID
 40
0.0
  9
$SPLFRAME
 70
     0
  9
$SPLINETYPE
 70
     6
  9
$SPLINESEGS
 70
     8
  9
$HANDSEED
  5
3BB8
  9
$SURFTAB1
 70
     6
  9
$SURFTAB2
 70
     6
  9
$SURFTYPE
 70
     6
  9
$SURFU
 70
     6
  9
$SURFV
 70
     6
  9
$UCSBASE
  2

  9
$UCSNAME
  2

  9
$UCSORG
 10
0.0
 20
0.0
 30
0.0
  9
$UCSXDIR
 10
1.0
 20
0.0
 30
0.0
  9
$UCSYDIR
 10
0.0
 20
1.0
 30
0.0
  9
$UCSORTHOREF
  2

  9
$UCSORTHOVIEW
 70
     0
  9
$UCSORGTOP
 10
0.0
 20
0.0
 30
0.0
  9
$UCSORGBOTTOM
 10
0.0
 20
0.0
 30
0.0
  9
$UCSORGLEFT
 10
0.0
 20
0.0
 30
0.0
  9
$UCSORGRIGHT
 10
0.0
 20
0.0
 30
0.0
  9
$UCSORGFRONT
 10
0.0
 20
0.0
 30
0.0
  9
$UCSORGBACK
 10
0.0
 20
0.0
 30
0.0
  9
$PUCSBASE
  2

  9
$PUCSNAME
  2

  9
$PUCSORG
 10
0.0
 20
0.0
 30
0.0
  9
$PUCSXDIR
 10
1.0
 20
0.0
 30
0.0
  9
$PUCSYDIR
 10
0.0
 20
1.0
 30
0.0
  9
$PUCSORTHOREF
  2

  9
$PUCSORTHOVIEW
 70
     0
  9
$PUCSORGTOP
 10
0.0
 20
0.0
 30
0.0
  9
$PUCSORGBOTTOM
 10
0.0
 20
0.0
 30
0.0
  9
$PUCSORGLEFT
 10
0.0
 20
0.0
 30
0.0
  9
$PUCSORGRIGHT
 10
0.0
 20
0.0
 30
0.0
  9
$PUCSORGFRONT
 10
0.0
 20
0.0
 30
0.0
  9
$PUCSORGBACK
 10
0.0
 20
0.0
 30
0.0
  9
$USERI1
 70
     0
  9
$USERI2
 70
     0
  9
$USERI3
 70
     0
  9
$USERI4
 70
     0
  9
$USERI5
 70
     0
  9
$USERR1
 40
0.0
  9
$USERR2
 40
0.0
  9
$USERR3
 40
0.0
  9
$USERR4
 40
0.0
  9
$USERR5
 40
0.0
  9
$WORLDVIEW
 70
     1
  9
$SHADEDGE
 70
     3
  9
$SHADEDIF
 70
    70
  9
$TILEMODE
 70
     1
  9
$MAXACTVP
 70
    48
  9
$PINSBASE
 10
0.0
 20
0.0
 30
0.0
  9
$PLIMCHECK
 70
     0
  9
$PEXTMIN
 10
1.000000000000000E+20
 20
1.000000000000000E+20
 30
1.000000000000000E+20
  9
$PEXTMAX
 10
-1.000000000000000E+20
 20
-1.000000000000000E+20
 30
-1.000000000000000E+20
  9
$PLIMMIN
 10
0.0
 20
0.0
  9
$PLIMMAX
 10
12.0
 20
9.0
  9
$UNITMODE
 70
     0
  9
$VISRETAIN
 70
     1
  9
$PLINEGEN
 70
     0
  9
$PSLTSCALE
 70
     1
  9
$TREEDEPTH
 70
  3020
  9
$CMLSTYLE
  2
STANDARD
  9
$CMLJUST
 70
     0
  9
$CMLSCALE
 40
1.0
  9
$PROXYGRAPHICS
 70
     1
  9
$MEASUREMENT
 70
     1
  9
$CELWEIGHT
370
    -1
  9
$ENDCAPS
280
     0
  9
$JOINSTYLE
280
     0
  9
$LWDISPLAY
290
     0
  9
$INSUNITS
 70
     4
  9
$HYPERLINKBASE
  1

  9
$STYLESHEET
  1
@LAYOUT.CTB
  9
$XEDIT
290
     1
  9
$CEPSNTYPE
380
     0
  9
$PSTYLEMODE
290
     1
  9
$FINGERPRINTGUID
  2
{9D211223-FB59-6941-882A-B2646581782C}
  9
$VERSIONGUID
  2
{672E39E3-E866-9548-A4B1-108BDC49F439}
  9
$EXTNAMES
290
     1
  9
$PSVPSCALE
 40
0.0
  9
$OLESTARTUP
290
     0
  9
$SORTENTS
280
   127
  9
$INDEXCTL
280
     1
  9
$HIDETEXT
280
     0
  9
$XCLIPFRAME
280
     0
  9
$HALOGAP
280
     0
  9
$OBSCOLOR
 70
   257
  9
$OBSLTYPE
280
     0
  9
$INTERSECTIONDISPLAY
280
     0
  9
$INTERSECTIONCOLOR
 70
   257
  9
$DIMASSOC
280
     2
  9
$PROJECTNAME
  1

  9
$CAMERADISPLAY
290
     0
  9
$LENSLENGTH
 40
50.0
  9
$CAMERAHEIGHT
 40
0.0
  9
$STEPSPERSEC
 40
2.0
  9
$STEPSIZE
 40
6.0
  9
$3DDWFPREC
 40
2.0
  9
$PSOLWIDTH
 40
0.25
  9
$PSOLHEIGHT
 40
4.0
  9
$LOFTANG1
 40
1.570796326794896
  9
$LOFTANG2
 40
1.570796326794896
  9
$LOFTMAG1
 40
0.0
  9
$LOFTMAG2
 40
0.0
  9
$LOFTPARAM
 70
     7
  9
$LOFTNORMALS
280
     1
  9
$LATITUDE
 40
37.795
  9
$LONGITUDE
 40
-122.394
  9
$NORTHDIRECTION
 40
0.0
  9
$TIMEZONE
 70
 -8000
  9
$LIGHTGLYPHDISPLAY
280
     1
  9
$TILEMODELIGHTSYNCH
280
     1
  9
$CMATERIAL
347
A37
  9
$SOLIDHIST
280
     1
  9
$SHOWHIST
280
     1
  9
$DWFFRAME
280
     2
  9
$DGNFRAME
280
     0
  9
$REALWORLDSCALE
290
     1
  9
$INTERFERECOLOR
 62
     1
  9
$INTERFEREOBJVS
345
A59
  9
$INTERFEREVPVS
346
CBF
  9
$CSHADOW
280
     0
  9
$SHADOWPLANELOCATION
 40
0.0
  0
ENDSEC
  0
SECTION
  2
CLASSES
  0
CLASS
  1
DICTIONARYVAR
  2
AcDbDictionaryVar
  3
ObjectDBX Classes
 90
        0
 91
       12
280
     0
281
     0
  0
CLASS
  1
ACMESTATEMGR
  2
AcMeStateMgr
  3
AcMeServices
 90
     1024
 91
        1
280
     0
281
     0
  0
CLASS
  1
ACMESCOPE
  2
AcMeScope
  3
AcMeServices
 90
     1024
 91
        1
280
     0
281
     0
  0
CLASS
  1
ACMECOMMANDHISTORY
  2
AcMeCommandHistory
  3
AcMeServices
 90
     1024
 91
        1
280
     0
281
     0
  0
CLASS
  1
ACRFINSADJUSTERMGR
  2
AcRfInsAdjusterMgr
  3
AcMeServices
 90
     1024
 91
        1
280
     0
281
     0
  0
CLASS
  1
ACMEDRAWINGMAN
  2
AcMeDrawingMan
  3
AcMeServices
 90
     1024
 91
        0
280
     0
281
     0
  0
CLASS
  1
AMATTR
  2
AcMeAttribute
  3
AcMeServices
 90
     1024
 91
        0
280
     0
281
     0
  0
CLASS
  1
ACMEBOMCOLUMN
  2
AcMeBOMColumn
  3
AcMeServices
 90
     1024
 91
        0
280
     0
281
     0
  0
CLASS
  1
ACMEBOMCONF
  2
AcMeBOMConf
  3
AcMeServices
 90
     1024
 91
        0
280
     0
281
     0
  0
CLASS
  1
ACMEBOMTABLE
  2
AcMeBOMTable
  3
AcMeServices
 90
     1024
 91
        0
280
     0
281
     0
  0
CLASS
  1
ACMEBOMENTRY
  2
AcMeBOMEntry
  3
AcMeServices
 90
     1024
 91
        0
280
     0
281
     0
  0
CLASS
  1
ACMEVIEW
  2
AcMeView
  3
AcMeServices
 90
     1024
 91
        0
280
     0
281
     0
  0
CLASS
  1
ACGREFMASTER
  2
AcGrefMaster
  3
AcAttribServices
 90
     1024
 91
        1
280
     0
281
     0
  0
CLASS
  1
AMIMASTER
  2
AmiMaster
  3
AmiServices
 90
     1024
 91
        1
280
     0
281
     0
  0
CLASS
  1
ACASGREFMASTER
  2
AcAsGrefMaster
  3
AutoSurfResolverServices
 90
     1024
 91
        2
280
     0
281
     0
  0
CLASS
  1
ADAPPL
  2
AcAdAppl
  3
DesignerAssemblies
 90
     1024
 91
        0
280
     0
281
     0
  0
CLASS
  1
DEPMGR
  2
AcAdDepMgr
  3
DesignerAssemblies
 90
     1024
 91
        0
280
     0
281
     0
  0
CLASS
  1
PARAMMGR
  2
AcAdParamMgr
  3
DesignerAssemblies
 90
     1024
 91
        0
280
     0
281
     0
  0
CLASS
  1
PARAMSCOPE
  2
AcAdParamScope
  3
DesignerAssemblies
 90
     1024
 91
        0
280
     0
281
     0
  0
CLASS
  1
ACIMSYSVARMAN
  2
AcImSysVarManager
  3
AcMeServices
 90
     1024
 91
        3
280
     0
281
     0
  0
CLASS
  1
ACIMINTSYSVAR
  2
AcImIntSysVar
  3
AcMeServices
 90
     1024
 91
        2
280
     0
281
     0
  0
CLASS
  1
ACIMREALSYSVAR
  2
AcImRealSysVar
  3
AcMeServices
 90
     1024
 91
        0
280
     0
281
     0
  0
CLASS
  1
ACIMSTRSYSVAR
  2
AcImStrSysVar
  3
AcMeServices
 90
     1024
 91
        5
280
     0
281
     0
  0
CLASS
  1
NAMEDAPPL
  2
AcAdNamedAppl
  3
DesignerAssemblies
 90
     1024
 91
        0
280
     0
281
     0
  0
CLASS
  1
ADHNTMPLT
  2
AdHoleNoteTemplateMgr
  3
DesignerServices
 90
     1024
 91
        0
280
     0
281
     0
  0
CLASS
  1
AM_HNTEMPLATE_MGR_NAME
  2
AdHoleNoteTemplateMgrName
  3
DesignerServices
 90
     1024
 91
        0
280
     0
281
     0
  0
CLASS
  1
ACADGREFMODULE
  2
AcAdGrefModule
  3
AdGrefServices
 90
     1024
 91
        2
280
     0
281
     0
  0
CLASS
  1
AM_DRAWING_MGR
  2
AcDmDwgMgr
  3
AcMechDwgViewMgmt
 90
     1024
 91
        0
280
     0
281
     0
  0
CLASS
  1
AM_DWG_DOCUMENT
  2
AcDmDwgDocument
  3
AcMechDwgViewMgmt
 90
     1024
 91
        0
280
     0
281
     0
  0
CLASS
  1
AM_DWG_SHEET
  2
AcDmSheet
  3
AcMechDwgViewMgmt
 90
     1024
 91
        0
280
     0
281
     0
  0
CLASS
  1
AM_VIEWDIMPARMAP
  2
AcDmViewDimParMap
  3
AcMechDwgViewMgmt
 90
     1024
 91
        0
280
     0
281
     0
  0
CLASS
  1
AM_DWGMGR_NAME
  2
AcDmDwgMgrName
  3
AcMechDwgViewMgmt
 90
     1024
 91
        0
280
     0
281
     0
  0
CLASS
  1
ACAMPROJECT
  2
AcAmProject
  3
DesignerAssemblies
 90
     1024
 91
        1
280
     0
281
     0
  0
CLASS
  1
ACAMGRCOMPSET
  2
AcAmGrCompSet
  3
DesignerAssemblies
 90
        0
 91
        0
280
     0
281
     0
  0
CLASS
  1
ACAMGRCOMPDEFSET
  2
AcAmGrCompDefSet
  3
DesignerAssemblies
 90
     1024
 91
        1
280
     0
281
     0
  0
CLASS
  1
ACAMGRCOMPDEF
  2
AcAmGrCompDef
  3
DesignerAssemblies
 90
     1024
 91
        1
280
     0
281
     0
  0
CLASS
  1
ACCMCONTEXT
  2
AcCmContext
  3
DesignerAssemblies
 90
     1024
 91
        0
280
     0
281
     0
  0
CLASS
  1
ACAMCOMPDEF
  2
AcAmCompDef
  3
DesignerAssemblies
 90
     1024
 91
        1
280
     0
281
     0
  0
CLASS
  1
ACAMCOMPDEFMGR
  2
AcAmCompDefMgr
  3
DesignerAssemblies
 90
     1024
 91
        1
280
     0
281
     0
  0
CLASS
  1
AMCONTEXTMGR
  2
AcAmContextMgr
  3
DesignerAssemblies
 90
     1024
 91
        1
280
     0
281
     0
  0
CLASS
  1
ACAMCONTEXTMODELER
  2
AcAmContextModeler
  3
DesignerAssemblies
 90
     1024
 91
        1
280
     0
281
     0
  0
CLASS
  1
ACDMVIEWGEOM
  2
AcDmViewGeometry
  3
AcMechDwgViewMgmt
 90
     1024
 91
        0
280
     0
281
     1
  0
CLASS
  1
CBROWSERAPPOBJECT
  2
CBrowserAppObject
  3
McadcomServices
 90
     1024
 91
        2
280
     0
281
     0
  0
CLASS
  1
IM_STATIC_MAN
  2
AcImStaticVarManager
  3
AcMeServices
 90
     1024
 91
        0
280
     0
281
     0
  0
CLASS
  1
ASAPP
  2
AcAsAppObject
  3
AutoSurfServices
 90
     1024
 91
        2
280
     0
281
     0
  0
CLASS
  1
ACIMDBLSTATICVAR
  2
AcImDblStaticVar
  3
AcMeServices
 90
     1024
 91
        0
280
     0
281
     0
  0
CLASS
  1
ACIMSTRSTATICVAR
  2
AcImStrStaticVar
  3
AcMeServices
 90
     1024
 91
        0
280
     0
281
     0
  0
CLASS
  1
ACIMINTSTATICVAR
  2
AcImIntStaticVar
  3
AcMeServices
 90
     1024
 91
        0
280
     0
281
     0
  0
CLASS
  1
CATALOGSTATE
  2
AcAmCatalogState
  3
DesignerAssemblies_arx
 90
     1024
 91
        0
280
     0
281
     0
  0
CLASS
  1
DM_PLACEHOLDER
  2
AcDmSelsetPlaceholder
  3
McadcomServices
 90
     1024
 91
        1
280
     0
281
     0
  0
CLASS
  1
LAYER_INDEX
  2
AcDbLayerIndex
  3
ObjectDBX Classes
 90
        0
 91
        1
280
     0
281
     0
  0
CLASS
  1
IDBUFFER
  2
AcDbIdBuffer
  3
ObjectDBX Classes
 90
        0
 91
        3
280
     0
281
     0
  0
CLASS
  1
ACMSTANDARDJIS
  2
AcmStandardJIS
  3
"Amdt_StdImp|Product Description: AutoCAD Mechanical|Company: Autodesk, Inc."
 90
     1024
 91
        0
280
     0
281
     0
  0
CLASS
  1
ACMSTANDARDANSI
  2
AcmStandardANSI
  3
"Amdt_StdImp|Product Description: AutoCAD Mechanical|Company: Autodesk, Inc."
 90
     1024
 91
        0
280
     0
281
     0
  0
CLASS
  1
ACMSTANDARDBSI
  2
AcmStandardBSI
  3
"Amdt_StdImp|Product Description: AutoCAD Mechanical|Company: Autodesk, Inc."
 90
     1024
 91
        0
280
     0
281
     0
  0
CLASS
  1
ACMSTANDARDDIN
  2
AcmStandardDIN
  3
"Amdt_StdImp|Product Description: AutoCAD Mechanical|Company: Autodesk, Inc."
 90
     1024
 91
        0
280
     0
281
     0
  0
CLASS
  1
ACMSTANDARDISO
  2
AcmStandardISO
  3
"Amdt_StdImp|Product Description: AutoCAD Mechanical|Company: Autodesk, Inc."
 90
     1024
 91
        1
280
     0
281
     0
  0
CLASS
  1
ACDBDICTIONARYWDFLT
  2
AcDbDictionaryWithDefault
  3
ObjectDBX Classes
 90
        0
 91
        1
280
     0
281
     0
  0
CLASS
  1
ACDBPLACEHOLDER
  2
AcDbPlaceHolder
  3
ObjectDBX Classes
 90
        0
 91
        1
280
     0
281
     0
  0
CLASS
  1
LAYOUT
  2
AcDbLayout
  3
ObjectDBX Classes
 90
        0
 91
        2
280
     0
281
     0
  0
CLASS
  1
ACME_DOCUMENT
  2
AcMeDbDoc
  3
AcMeServices
 90
     1024
 91
        1
280
     0
281
     0
  0
CLASS
  1
AMGSETTINGSOBJ
  2
AmgSettingsObj
  3
"AcadM|Product Description: AutoCAD Mechanical|Company: Autodesk, Inc."
 90
     1024
 91
        2
280
     0
281
     0
  0
CLASS
  1
AMGOBJPROPCFG
  2
AmgObjPropCfg
  3
"AmgLay|Product Description: AutoCAD Mechanical|Company: Autodesk, Inc."
 90
     1024
 91
        1
280
     0
281
     0
  0
CLASS
  1
ACDBENTITYCACHE
  2
AcMeEntityCache
  3
AcMeServices
 90
     1024
 91
        1
280
     0
281
     0
  0
CLASS
  1
GSMANAGER
  2
AcMeGSManager
  3
AcMeServices
 90
     1024
 91
        0
280
     0
281
     0
  0
CLASS
  1
AMDTINTERNALREACTOR
  2
AmdtInternalReactor
  3
AcMeServices
 90
     1024
 91
        0
280
     0
281
     0
  0
CLASS
  1
ACME_DATABASE
  2
AcMeDbDatabase
  3
AcMeServices
 90
     1024
 91
        1
280
     0
281
     0
  0
CLASS
  1
ACGREFACADMASTER
  2
AcGrefacadMaster
  3
AcGrefServices
 90
     1024
 91
        1
280
     0
281
     0
  0
CLASS
  1
AMDTMENUSTATEMGR
  2
AmdtMenuStateMgr
  3
McadcomServices
 90
     1024
 91
        1
280
     0
281
     0
  0
CLASS
  1
AMDTMCOMMENUSTATE
  2
AmdtMcomMenuState
  3
McadcomServices
 90
     1024
 91
        1
280
     0
281
     0
  0
CLASS
  1
MAPIADMODULE
  2
MApiAdModule
  3
MApiAdServices
 90
     1024
 91
        2
280
     0
281
     0
  0
CLASS
  1
AMDTDMMENUSTATE
  2
AmdtDmMenuState
  3
AcMechDwgViewMgmt
 90
     1024
 91
        0
280
     0
281
     0
  0
CLASS
  1
AMDTADMENUSTATE
  2
AmdtAdMenuState
  3
DesignerServices
 90
     1024
 91
        0
280
     0
281
     0
  0
CLASS
  1
AMDTAMMENUSTATE
  2
AmdtAmMenuState
  3
DesignerAssemblies_arx
 90
     1024
 91
        1
280
     0
281
     0
  0
CLASS
  1
ACMDATADICTIONARY
  2
AcmDataDictionary
  3
"AcmSymBB|Product Description: AutoCAD Mechanical|Company: Autodesk, Inc."
 90
     1024
 91
        1
280
     0
281
     0
  0
CLASS
  1
ACMDATAENTRYBLOCK
  2
AcmDataEntryBlock
  3
"AcmSymBB" "Product Description: AutoCAD Mechanical|Company: Autodesk, Inc."
 90
     1024
 91
        0
280
     0
281
     0
  0
CLASS
  1
ACMSURFSTANDARDJIS
  2
AcmSurfTextStdJIS
  3
"Amdt_StdImp|Product Description: AutoCAD Mechanical|Company: Autodesk, Inc."
 90
     1024
 91
        0
280
     0
281
     0
  0
CLASS
  1
ACMFCFSTANDARDJIS
  2
AcmFCFStdJIS
  3
"Amdt_StdImp|Product Description: AutoCAD Mechanical|Company: Autodesk, Inc."
 90
     1024
 91
        0
280
     0
281
     0
  0
CLASS
  1
ACMWELDSTANDARDJIS
  2
AcmWeldingStdJIS
  3
"Amdt_StdImp|Product Description: AutoCAD Mechanical|Company: Autodesk, Inc."
 90
     1024
 91
        0
280
     0
281
     0
  0
CLASS
  1
ACMIDSTANDARDJIS
  2
AcmIdStdJIS
  3
"Amdt_StdImp|Product Description: AutoCAD Mechanical|Company: Autodesk, Inc."
 90
     1024
 91
        0
280
     0
281
     0
  0
CLASS
  1
ACMDATUMSTANDARDJIS
  2
AcmDatumStdJIS
  3
"Amdt_StdImp|Product Description: AutoCAD Mechanical|Company: Autodesk, Inc."
 90
     1024
 91
        0
280
     0
281
     0
  0
CLASS
  1
ACMBOMSTANDARDJIS
  2
AcmBOMStdJIS
  3
"Amdt_StdImp|Product Description: AutoCAD Mechanical|Company: Autodesk, Inc."
 90
     1024
 91
        0
280
     0
281
     0
  0
CLASS
  1
ACMSURFSTANDARDANSI
  2
AcmSurfTextStdANSI
  3
"Amdt_StdImp|Product Description: AutoCAD Mechanical|Company: Autodesk, Inc."
 90
     1024
 91
        0
280
     0
281
     0
  0
CLASS
  1
ACMFCFSTANDARDANSI
  2
AcmFCFStdANSI
  3
"Amdt_StdImp|Product Description: AutoCAD Mechanical|Company: Autodesk, Inc."
 90
     1024
 91
        0
280
     0
281
     0
  0
CLASS
  1
ACMWELDSTANDARDANSI
  2
AcmWeldingStdANSI
  3
"Amdt_StdImp|Product Description: AutoCAD Mechanical|Company: Autodesk, Inc."
 90
     1024
 91
        0
280
     0
281
     0
  0
CLASS
  1
ACMIDSTANDARDANSI
  2
AcmIdStdANSI
  3
"Amdt_StdImp|Product Description: AutoCAD Mechanical|Company: Autodesk, Inc."
 90
     1024
 91
        0
280
     0
281
     0
  0
CLASS
  1
ACMDATUMSTANDARDANSI
  2
AcmDatumStdANSI
  3
"Amdt_StdImp|Product Description: AutoCAD Mechanical|Company: Autodesk, Inc."
 90
     1024
 91
        0
280
     0
281
     0
  0
CLASS
  1
ACMBOMSTANDARDANSI
  2
AcmBOMStdANSI
  3
"Amdt_StdImp|Product Description: AutoCAD Mechanical|Company: Autodesk, Inc."
 90
     1024
 91
        0
280
     0
281
     0
  0
CLASS
  1
ACMSURFSTANDARDBSI
  2
AcmSurfTextStdBSI
  3
"Amdt_StdImp|Product Description: AutoCAD Mechanical|Company: Autodesk, Inc."
 90
     1024
 91
        0
280
     0
281
     0
  0
CLASS
  1
ACMFCFSTANDARDBSI
  2
AcmFCFStdBSI
  3
"Amdt_StdImp|Product Description: AutoCAD Mechanical|Company: Autodesk, Inc."
 90
     1024
 91
        0
280
     0
281
     0
  0
CLASS
  1
ACMWELDSTANDARDBSI
  2
AcmWeldingStdBSI
  3
"Amdt_StdImp|Product Description: AutoCAD Mechanical|Company: Autodesk, Inc."
 90
     1024
 91
        0
280
     0
281
     0
  0
CLASS
  1
ACMIDSTANDARDBSI
  2
AcmIdStdBSI
  3
"Amdt_StdImp|Product Description: AutoCAD Mechanical|Company: Autodesk, Inc."
 90
     1024
 91
        0
280
     0
281
     0
  0
CLASS
  1
ACMDATUMSTANDARDBSI
  2
AcmDatumStdBSI
  3
"Amdt_StdImp|Product Description: AutoCAD Mechanical|Company: Autodesk, Inc."
 90
     1024
 91
        0
280
     0
281
     0
  0
CLASS
  1
ACMBOMSTANDARDBSI
  2
AcmBOMStdBSI
  3
"Amdt_StdImp|Product Description: AutoCAD Mechanical|Company: Autodesk, Inc."
 90
     1024
 91
        0
280
     0
281
     0
  0
CLASS
  1
AMDTEDGESTANDARDDIN
  2
AmdtEdgeStdDIN
  3
"Amdt_StdImp|Product Description: AutoCAD Mechanical|Company: Autodesk, Inc."
 90
     1024
 91
        0
280
     0
281
     0
  0
CLASS
  1
ACMSURFSTANDARDDIN
  2
AcmSurfTextStdDIN
  3
"Amdt_StdImp|Product Description: AutoCAD Mechanical|Company: Autodesk, Inc."
 90
     1024
 91
        0
280
     0
281
     0
  0
CLASS
  1
ACMFCFSTANDARDDIN
  2
AcmFCFStdDIN
  3
"Amdt_StdImp|Product Description: AutoCAD Mechanical|Company: Autodesk, Inc."
 90
     1024
 91
        0
280
     0
281
     0
  0
CLASS
  1
ACMWELDSTANDARDDIN
  2
AcmWeldingStdDIN
  3
"Amdt_StdImp|Product Description: AutoCAD Mechanical|Company: Autodesk, Inc."
 90
     1024
 91
        0
280
     0
281
     0
  0
CLASS
  1
ACMIDSTANDARDDIN
  2
AcmIdStdDIN
  3
"Amdt_StdImp|Product Description: AutoCAD Mechanical|Company: Autodesk, Inc."
 90
     1024
 91
        0
280
     0
281
     0
  0
CLASS
  1
ACMDATUMSTANDARDDIN
  2
AcmDatumStdDIN
  3
"Amdt_StdImp|Product Description: AutoCAD Mechanical|Company: Autodesk, Inc."
 90
     1024
 91
        0
280
     0
281
     0
  0
CLASS
  1
ACMBOMSTANDARDDIN
  2
AcmBOMStdDIN
  3
"Amdt_StdImp|Product Description: AutoCAD Mechanical|Company: Autodesk, Inc."
 90
     1024
 91
        0
280
     0
281
     0
  0
CLASS
  1
ACMSURFSTANDARDISO
  2
AcmSurfTextStdISO
  3
"Amdt_StdImp|Product Description: AutoCAD Mechanical|Company: Autodesk, Inc."
 90
     1024
 91
        0
280
     0
281
     0
  0
CLASS
  1
ACMFCFSTANDARDISO
  2
AcmFCFStdISO
  3
"Amdt_StdImp|Product Description: AutoCAD Mechanical|Company: Autodesk, Inc."
 90
     1024
 91
        0
280
     0
281
     0
  0
CLASS
  1
ACMWELDSTANDARDISO
  2
AcmWeldingStdISO
  3
"Amdt_StdImp|Product Description: AutoCAD Mechanical|Company: Autodesk, Inc."
 90
     1024
 91
        0
280
     0
281
     0
  0
CLASS
  1
ACMIDSTANDARDISO
  2
AcmIdStdISO
  3
"Amdt_StdImp|Product Description: AutoCAD Mechanical|Company: Autodesk, Inc."
 90
     1024
 91
        0
280
     0
281
     0
  0
CLASS
  1
ACMDATUMSTANDARDISO
  2
AcmDatumStdISO
  3
"Amdt_StdImp|Product Description: AutoCAD Mechanical|Company: Autodesk, Inc."
 90
     1024
 91
        0
280
     0
281
     0
  0
CLASS
  1
ACMBOMSTANDARDISO
  2
AcmBOMStdISO
  3
"Amdt_StdImp|Product Description: AutoCAD Mechanical|Company: Autodesk, Inc."
 90
     1024
 91
        1
280
     0
281
     0
  0
CLASS
  1
AMDTBROWSERDBTAB
  2
AmdtBrowserDbTab
  3
McadcomServices
 90
     1024
 91
        1
280
     0
281
     0
  0
CLASS
  1
ACAMGFILTERDAT
  2
AcAmgFilterDat
  3
"AcadM|Product Description: AutoCAD Mechanical|Company: Autodesk, Inc."
 90
     1024
 91
        0
280
     0
281
     0
  0
CLASS
  1
MAPIAMMOUDLE
  2
MApiAmModule
  3
MApiAmServices
 90
     1024
 91
        1
280
     0
281
     0
  0
CLASS
  1
AMDTMAPISURFMOUDULE
  2
AmdtMApiSurfModule
  3
MApiSurfServices
 90
     1024
 91
        2
280
     0
281
     0
  0
CLASS
  1
ACAMGLAYSTD
  2
AcAmgLayStd
  3
"AmgLay|Product Description: AutoCAD Mechanical|Company: Autodesk, Inc."
 90
     1024
 91
        1
280
     0
281
     0
  0
CLASS
  1
ACAMGDIMSTD
  2
AcAmgDimStd
  3
"AmgDim|Product Description: AutoCAD Mechanical|Company: Autodesk, Inc."
 90
     1024
 91
        1
280
     0
281
     0
  0
CLASS
  1
ACAMGTITLESTD
  2
AcAmgTitleStd
  3
"AmgTitle|Product Description: AutoCAD Mechanical|Company: Autodesk, Inc."
 90
     1024
 91
        1
280
     0
281
     0
  0
CLASS
  1
ACMDETAILSTANDARDJIS
  2
AmdtDetailSymStdJIS
  3
"Amdt_StdImp|Product Description: AutoCAD Mechanical|Company: Autodesk, Inc."
 90
     1024
 91
        0
280
     0
281
     0
  0
CLASS
  1
ACMSECTIONSTANDARDJIS
  2
AmdtSectionSymStdJIS
  3
"Amdt_StdImp|Product Description: AutoCAD Mechanical|Company: Autodesk, Inc."
 90
     1024
 91
        0
280
     0
281
     0
  0
CLASS
  1
ACMCENTERLINESTANDARDJIS
  2
AmdtCenterLineStdJIS
  3
"Amdt_StdImp|Product Description: AutoCAD Mechanical|Company: Autodesk, Inc."
 90
     1024
 91
        0
280
     0
281
     0
  0
CLASS
  1
ACMTHREADLINESTANDARDJIS
  2
AmdtThreadLineStdJIS
  3
"Amdt_StdImp|Product Description: AutoCAD Mechanical|Company: Autodesk, Inc."
 90
     1024
 91
        0
280
     0
281
     0
  0
CLASS
  1
ACMDETAILSTANDARDANSI
  2
AmdtDetailSymStdANSI
  3
"Amdt_StdImp|Product Description: AutoCAD Mechanical|Company: Autodesk, Inc."
 90
     1024
 91
        0
280
     0
281
     0
  0
CLASS
  1
ACMSECTIONSTANDARDANSI
  2
AmdtSectionSymStdANSI
  3
"Amdt_StdImp|Product Description: AutoCAD Mechanical|Company: Autodesk, Inc."
 90
     1024
 91
        0
280
     0
281
     0
  0
CLASS
  1
ACMCENTERLINESTANDARDANSI
  2
AmdtCenterLineStdANSI
  3
"Amdt_StdImp|Product Description: AutoCAD Mechanical|Company: Autodesk, Inc."
 90
     1024
 91
        0
280
     0
281
     0
  0
CLASS
  1
ACMTHREADLINESTANDARDANSI
  2
AmdtThreadLineStdANSI
  3
"Amdt_StdImp|Product Description: AutoCAD Mechanical|Company: Autodesk, Inc."
 90
     1024
 91
        0
280
     0
281
     0
  0
CLASS
  1
ACMDETAILSTANDARDBSI
  2
AmdtDetailSymStdBSI
  3
"Amdt_StdImp|Product Description: AutoCAD Mechanical|Company: Autodesk, Inc."
 90
     1024
 91
        0
280
     0
281
     0
  0
CLASS
  1
ACMSECTIONSTANDARDBSI
  2
AmdtSectionSymStdBSI
  3
"Amdt_StdImp|Product Description: AutoCAD Mechanical|Company: Autodesk, Inc."
 90
     1024
 91
        0
280
     0
281
     0
  0
CLASS
  1
ACMCENTERLINESTANDARDBSI
  2
AmdtCenterLineStdBSI
  3
"Amdt_StdImp|Product Description: AutoCAD Mechanical|Company: Autodesk, Inc."
 90
     1024
 91
        0
280
     0
281
     0
  0
CLASS
  1
ACMTHREADLINESTANDARDBSI
  2
AmdtThreadLineStdBSI
  3
"Amdt_StdImp|Product Description: AutoCAD Mechanical|Company: Autodesk, Inc."
 90
     1024
 91
        0
280
     0
281
     0
  0
CLASS
  1
ACMDETAILSTANDARDDIN
  2
AmdtDetailSymStdDIN
  3
"Amdt_StdImp|Product Description: AutoCAD Mechanical|Company: Autodesk, Inc."
 90
     1024
 91
        0
280
     0
281
     0
  0
CLASS
  1
ACMSECTIONSTANDARDDIN
  2
AmdtSectionSymStdDIN
  3
"Amdt_StdImp|Product Description: AutoCAD Mechanical|Company: Autodesk, Inc."
 90
     1024
 91
        0
280
     0
281
     0
  0
CLASS
  1
ACMCENTERLINESTANDARDDIN
  2
AmdtCenterLineStdDIN
  3
"Amdt_StdImp|Product Description: AutoCAD Mechanical|Company: Autodesk, Inc."
 90
     1024
 91
        0
280
     0
281
     0
  0
CLASS
  1
ACMTHREADLINESTANDARDDIN
  2
AmdtThreadLineStdDIN
  3
"Amdt_StdImp|Product Description: AutoCAD Mechanical|Company: Autodesk, Inc."
 90
     1024
 91
        0
280
     0
281
     0
  0
CLASS
  1
AMDTEDGESTANDARDISO
  2
AmdtEdgeStdISO
  3
"Amdt_StdImp|Product Description: AutoCAD Mechanical|Company: Autodesk, Inc."
 90
     1024
 91
        0
280
     0
281
     0
  0
CLASS
  1
ACMDETAILSTANDARDISO
  2
AmdtDetailSymStdISO
  3
"Amdt_StdImp|Product Description: AutoCAD Mechanical|Company: Autodesk, Inc."
 90
     1024
 91
        1
280
     0
281
     0
  0
CLASS
  1
ACMSECTIONSTANDARDISO
  2
AmdtSectionSymStdISO
  3
"Amdt_StdImp|Product Description: AutoCAD Mechanical|Company: Autodesk, Inc."
 90
     1024
 91
        0
280
     0
281
     0
  0
CLASS
  1
ACMCENTERLINESTANDARDISO
  2
AmdtCenterLineStdISO
  3
"Amdt_StdImp|Product Description: AutoCAD Mechanical|Company: Autodesk, Inc."
 90
     1024
 91
        1
280
     0
281
     0
  0
CLASS
  1
ACMTHREADLINESTANDARDISO
  2
AmdtThreadLineStdISO
  3
"Amdt_StdImp|Product Description: AutoCAD Mechanical|Company: Autodesk, Inc."
 90
     1024
 91
        1
280
     0
281
     0
  0
CLASS
  1
ACMNOTESTANDARDISO
  2
AmdtNoteStdISO
  3
"Amdt_StdImp|Product Description: AutoCAD Mechanical|Company: Autodesk, Inc."
 90
     1024
 91
        1
280
     0
281
     0
  0
CLASS
  1
ACAMGHOLECHARTSTDISO
  2
AcAmgHoleChartStdISO
  3
"AmgDim" "Product Description: AutoCAD Mechanical|Company: Autodesk, Inc."
 90
     1024
 91
        1
280
     0
281
     0
  0
CLASS
  1
ACMNOTESTANDARDANSI
  2
AmdtNoteStdANSI
  3
"Amdt_StdImp|Product Description: AutoCAD Mechanical|Company: Autodesk, Inc."
 90
     1024
 91
        0
280
     0
281
     0
  0
CLASS
  1
AMDTNOTETEMPLATEDB
  2
AmdtNoteTemplateDB
  3
"AcmSymBB" "Product Description: AutoCAD Mechanical|Company: Autodesk, Inc."
 90
     1024
 91
        7
280
     0
281
     0
  0
CLASS
  1
ACAMGHOLECHARTSTDANSI
  2
AcAmgHoleChartStdANSI
  3
"AmgDim" "Product Description: AutoCAD Mechanical|Company: Autodesk, Inc."
 90
     1024
 91
        0
280
     0
281
     0
  0
CLASS
  1
TABLESTYLE
  2
AcDbTableStyle
  3
ObjectDBX Classes
 90
     4095
 91
        1
280
     0
281
     0
  0
CLASS
  1
ACAD_TABLE
  2
AcDbTable
  3
ObjectDBX Classes
 90
     1025
 91
        0
280
     0
281
     1
  0
CLASS
  1
MATERIAL
  2
AcDbMaterial
  3
ObjectDBX Classes
 90
     1153
 91
        3
280
     0
281
     0
  0
CLASS
  1
VISUALSTYLE
  2
AcDbVisualStyle
  3
ObjectDBX Classes
 90
     4095
 91
       26
280
     0
281
     0
  0
CLASS
  1
SCALE
  2
AcDbScale
  3
ObjectDBX Classes
 90
     1153
 91
       17
280
     0
281
     0
  0
CLASS
  1
MLEADERSTYLE
  2
AcDbMLeaderStyle
  3
ACDB_MLEADERSTYLE_CLASS
 90
     4095
 91
        1
280
     0
281
     0
  0
CLASS
  1
ACRFATTGENMGR
  2
AcRfAttGeneralMgr
  3
AcAttribServices
 90
     1024
 91
        0
280
     0
281
     0
  0
CLASS
  1
ACRFOBJATTMGR
  2
AcRfObjAttGroupMgr
  3
AcAttribServices
 90
     1024
 91
        0
280
     0
281
     0
  0
CLASS
  1
ACRFMCADAPIATTHOLDER
  2
AcRfMCADAPIAttHolder
  3
AcAttribServices
 90
     1024
 91
        0
280
     0
281
     0
  0
CLASS
  1
AMDTSYSATTR
  2
AmdtSystemAttribute
  3
AcAttribServices
 90
     1024
 91
        0
280
     0
281
     0
  0
CLASS
  1
ACMTAPERSTANDARDISO
  2
AcmTaperStdISO
  3
"Amdt_StdImp|Product Description: AutoCAD Mechanical|Company: Autodesk, Inc."
 90
     1024
 91
        1
280
     0
281
     0
  0
CLASS
  1
ACMANOOTATIONVIEWSTANDARDISO
  2
AmdtAnViewStdISO
  3
"Amdt_StdImp|Product Description: AutoCAD Mechanical|Company: Autodesk, Inc."
 90
     1024
 91
        1
280
     0
281
     0
  0
CLASS
  1
ACMTAPERSTANDARDANSI
  2
AcmTaperStdANSI
  3
"Amdt_StdImp|Product Description: AutoCAD Mechanical|Company: Autodesk, Inc."
 90
     1024
 91
        0
280
     0
281
     0
  0
CLASS
  1
ACMANOOTATIONVIEWSTANDARDANSI
  2
AmdtAnViewStdANSI
  3
"Amdt_StdImp|Product Description: AutoCAD Mechanical|Company: Autodesk, Inc."
 90
     1024
 91
        0
280
     0
281
     0
  0
CLASS
  1
CELLSTYLEMAP
  2
AcDbCellStyleMap
  3
ObjectDBX Classes
 90
     1152
 91
        2
280
     0
281
     0
  0
CLASS
  1
CAMSSTRUCTBTNSTATE
  2
StructBtnState
  3
DesignerAssemblies_arx
 90
     1024
 91
        0
280
     0
281
     0
  0
CLASS
  1
ACDBSECTIONVIEWSTYLE
  2
AcDbSectionViewStyle
  3
ObjectDBX Classes
 90
     1025
 91
        3
280
     0
281
     0
  0
CLASS
  1
ACDBDETAILVIEWSTYLE
  2
AcDbDetailViewStyle
  3
ObjectDBX Classes
 90
     1025
 91
        3
280
     0
281
     0
  0
CLASS
  1
FIELD
  2
AcDbField
  3
ObjectDBX Classes
 90
     1152
 91
        3
280
     0
281
     0
  0
CLASS
  1
SORTENTSTABLE
  2
AcDbSortentsTable
  3
ObjectDBX Classes
 90
        0
 91
        0
280
     0
281
     0
  0
CLASS
  1
FIELDLIST
  2
AcDbFieldList
  3
ObjectDBX Classes
 90
     1152
 91
        1
280
     0
281
     0
  0
CLASS
  1
ACMSECTIONSTANDARDCUSTOM
  2
AmdtSectionSymStdCustom
  3
"Amdt_StdImp|Product Description: AutoCAD Mechanical|Company: Autodesk, Inc."
 90
     1024
 91
        2
280
     0
281
     0
  0
CLASS
  1
ACMDETAILTANDARDCUSTOM
  2
AmdtDetailSymStdCustom
  3
"Amdt_StdImp|Product Description: AutoCAD Mechanical|Company: Autodesk, Inc."
 90
     1024
 91
        2
280
     0
281
     0
  0
CLASS
  1
EXACXREFPANELOBJECT
  2
ExAcXREFPanelObject
  3
EXAC_ESW
 90
     1025
 91
        0
280
     0
281
     0
  0
CLASS
  1
NPOCOLLECTION
  2
AcDbImpNonPersistentObjectsCollection
  3
ObjectDBX Classes
 90
     1153
 91
        0
280
     0
281
     0
  0
CLASS
  1
ACAD_EVALUATION_GRAPH
  2
AcDbEvalGraph
  3
ObjectDBX Classes
 90
     1153
 91
        1
280
     0
281
     0
  0
CLASS
  1
ACAECUSTOBJ
  2
AcAeEditorObj
  3
AcAeEditorObj
 90
     1024
 91
        1
280
     0
281
     0
  0
CLASS
  1
ACDB_DYNAMICBLOCKPURGEPREVENTER_VERSION
  2
AcDbDynamicBlockPurgePreventer
  3
ObjectDBX Classes
 90
     1153
 91
        1
280
     0
281
     0
  0
CLASS
  1
PLOTSETTINGS
  2
AcDbPlotSettings
  3
ObjectDBX Classes
 90
        0
 91
        1
280
     0
281
     0
  0
CLASS
  1
AMDTEDGESTANDARDISO13715
  2
AmdtEdgeStdISO13715
  3
"Amdt_StdImp|Product Description: AutoCAD Mechanical|Company: Autodesk, Inc."
 90
     1024
 91
        1
280
     0
281
     0
  0
CLASS
  1
ACMSURFSTANDARDISO2002
  2
AcmSurfTextStdISO2002
  3
"Amdt_StdImp|Product Description: AutoCAD Mechanical|Company: Autodesk, Inc."
 90
     1024
 91
        1
280
     0
281
     0
  0
CLASS
  1
ACMFCFSTANDARDISO2012
  2
AcmFCFStdISO2012
  3
"Amdt_StdImp|Product Description: AutoCAD Mechanical|Company: Autodesk, Inc."
 90
     1024
 91
        1
280
     0
281
     0
  0
CLASS
  1
ACMWELDSTANDARDISO2013
  2
AcmWeldingStdISO2013
  3
"Amdt_StdImp|Product Description: AutoCAD Mechanical|Company: Autodesk, Inc."
 90
     1024
 91
        1
280
     0
281
     0
  0
CLASS
  1
ACMIDSTANDARDISO2012
  2
AcmIdStdISO2012
  3
"Amdt_StdImp|Product Description: AutoCAD Mechanical|Company: Autodesk, Inc."
 90
     1024
 91
        1
280
     0
281
     0
  0
CLASS
  1
ACMDATUMSTANDARDISO2012
  2
AcmDatumStdISO2012
  3
"Amdt_StdImp|Product Description: AutoCAD Mechanical|Company: Autodesk, Inc."
 90
     1024
 91
        1
280
     0
281
     0
  0
CLASS
  1
ACMSECTIONSTANDARDISO2001
  2
AmdtSectionSymStdISO2001
  3
"Amdt_StdImp|Product Description: AutoCAD Mechanical|Company: Autodesk, Inc."
 90
     1024
 91
        1
280
     0
281
     0
  0
ENDSEC
  0
SECTION
  2
TABLES
  0
TABLE
  2
VPORT
  5
8
330
0
100
AcDbSymbolTable
 70
     1
1001
ACAD
1000
DbSaveVer
1071
      224
  0
VPORT
  5
A35
330
8
100
AcDbSymbolTableRecord
100
AcDbViewportTableRecord
  2
*Active
 70
     0
 10
0.0
 20
0.0
 11
1.0
 21
1.0
 12
-4.595031010213986
 22
-0.7001719065012822
 13
0.0
 23
0.0
 14
2.5
 24
2.5
 15
10.0
 25
10.0
 16
0.0
 26
0.0
 36
1.0
 17
0.0
 27
0.0
 37
0.0
 40
154.9102800254278
 41
1.610042735042735
 42
50.0
 43
0.0
 44
0.0
 50
0.0
 51
0.0
 71
     0
 72
   100
 73
     1
 74
     1
 75
     0
 76
     0
 77
     0
 78
     0
281
     0
 65
     0
110
0.0
120
0.0
130
0.0
111
1.0
121
0.0
131
0.0
112
0.0
122
1.0
132
0.0
 79
     0
146
0.0
348
A55
 60
     3
 61
     5
292
     1
282
     1
141
0.0
142
0.0
 63
   250
421
  3355443
1001
ACAD_NAV_VCDISPLAY
1070
     3
  0
ENDTAB
  0
TABLE
  2
LTYPE
  5
5
330
0
100
AcDbSymbolTable
 70
    19
  0
LTYPE
  5
14
330
5
100
AcDbSymbolTableRecord
100
AcDbLinetypeTableRecord
  2
BYBLOCK
 70
     0
  3

 72
    65
 73
     0
 40
0.0
  0
LTYPE
  5
15
330
5
100
AcDbSymbolTableRecord
100
AcDbLinetypeTableRecord
  2
BYLAYER
 70
     0
  3

 72
    65
 73
     0
 40
0.0
  0
LTYPE
  5
16
330
5
100
AcDbSymbolTableRecord
100
AcDbLinetypeTableRecord
  2
CONTINUOUS
 70
     0
  3
Solid line
 72
    65
 73
     0
 40
0.0
  0
LTYPE
  5
15B
330
5
100
AcDbSymbolTableRecord
100
AcDbLinetypeTableRecord
  2
ACISOWELD
 70
     0
  3
_ _ _ _ _
 72
    65
 73
     2
 40
2.0
 49
2.0
 74
     0
 49
-1.0
 74
     0
  0
LTYPE
  5
15C
330
5
100
AcDbSymbolTableRecord
100
AcDbLinetypeTableRecord
  2
ACISOTGB
 70
     0
  3
__ . . __ . .
 72
    65
 73
     6
 40
9.0
 49
4.0
 74
     0
 49
-1.0
 74
     0
 49
1.0
 74
     0
 49
-1.0
 74
     0
 49
1.0
 74
     0
 49
-1.0
 74
     0
  0
LTYPE
  5
15D
330
5
100
AcDbSymbolTableRecord
100
AcDbLinetypeTableRecord
  2
ACISOTGL
 70
     0
  3
_ _ _ _ _
 72
    65
 73
     2
 40
3.0
 49
2.0
 74
     0
 49
-1.0
 74
     0
  0
LTYPE
  5
175
330
5
100
AcDbSymbolTableRecord
100
AcDbLinetypeTableRecord
  2
AM_ISO02W050
 70
     0
  3
__ __ __ __ __ __ __ __ __ __ __ __ __ __ __
 72
    65
 73
     2
 40
7.5
 49
6.0
 74
     0
 49
-1.5
 74
     0
  0
LTYPE
  5
176
330
5
100
AcDbSymbolTableRecord
100
AcDbLinetypeTableRecord
  2
AM_ISO08W050
 70
     0
  3
____ . ____ . ____ . ____ . ____ . ____ . ____
 72
    65
 73
     4
 40
18.0
 49
12.0
 74
     0
 49
-1.5
 74
     0
 49
3.0
 74
     0
 49
-1.5
 74
     0
  0
LTYPE
  5
177
330
5
100
AcDbSymbolTableRecord
100
AcDbLinetypeTableRecord
  2
AM_ISO09W050
 70
     0
  3
_____ . . _____ . . _____ . . ____ .. ____
 72
    65
 73
     6
 40
22.5
 49
12.0
 74
     0
 49
-1.5
 74
     0
 49
3.0
 74
     0
 49
-1.5
 74
     0
 49
3.0
 74
     0
 49
-1.5
 74
     0
  0
LTYPE
  5
178
330
5
100
AcDbSymbolTableRecord
100
AcDbLinetypeTableRecord
  2
AM_ISO02W050x2
 70
     0
  3
 _ _ _ _ _ _ _ _ _ _ _ _
 72
    65
 73
     2
 40
3.75
 49
3.0
 74
     0
 49
-0.75
 74
     0
  0
LTYPE
  5
179
330
5
100
AcDbSymbolTableRecord
100
AcDbLinetypeTableRecord
  2
AM_ISO08W050x2
 70
     0
  3
__ . __ . __ . __ . __ . __
 72
    65
 73
     4
 40
9.0
 49
6.0
 74
     0
 49
-0.75
 74
     0
 49
1.5
 74
     0
 49
-0.75
 74
     0
  0
LTYPE
  5
17C
330
5
100
AcDbSymbolTableRecord
100
AcDbLinetypeTableRecord
  2
Amzigzag
 70
     0
  3
/\/-/\/-/\/-/\/-/\/-/\/
 72
    65
 73
     2
 40
11.0001
 49
0.0001
 74
     4
 75
   135
340
17B
 46
0.04
 50
0.0
 44
0.0
 45
0.0
 49
-11.0
 74
     0
  0
LTYPE
  5
2ED
330
5
100
AcDbSymbolTableRecord
100
AcDbLinetypeTableRecord
  2
Amconstr
 70
     0
  3
_______________________
 72
    65
 73
     2
 40
9999.0
 49
9999.0
 74
     0
 49
0.0
 74
     0
  0
ENDTAB
  0
TABLE
  2
LAYER
  5
2
102
{ACAD_XDICTIONARY
360
592
102
}
330
0
100
AcDbSymbolTable
 70
     3
  0
LAYER
  5
F
102
{ACAD_XDICTIONARY
360
AB7
102
}
330
2
100
AcDbSymbolTableRecord
100
AcDbLayerTableRecord
  2
0
 70
     0
 62
     7
  6
CONTINUOUS
370
    -3
390
166
347
A47
348
0
  0
LAYER
  5
5CF
102
{ACAD_XDICTIONARY
360
AB9
102
}
330
2
100
AcDbSymbolTableRecord
100
AcDbLayerTableRecord
  2
AM_0
 70
     0
 62
     7
  6
CONTINUOUS
370
    50
390
166
347
A47
348
0
  0
LAYER
  5
36DA
102
{ACAD_XDICTIONARY
360
36DB
102
}
330
2
100
AcDbSymbolTableRecord
100
AcDbLayerTableRecord
  2
DIM
 70
     0
 62
     3
  6
CONTINUOUS
370
    25
390
166
347
A47
348
0
1001
AcAecLayerStandard
1000

1000

  0
ENDTAB
  0
TABLE
  2
STYLE
  5
3
330
0
100
AcDbSymbolTable
 70
     7
  0
STYLE
  5
10
330
3
100
AcDbSymbolTableRecord
100
AcDbTextStyleTableRecord
  2
STANDARD
 70
     0
 40
0.0
 41
1.0
 50
0.0
 71
     0
 42
3.5
  3
ISOCP.SHX
  4

  0
STYLE
  5
15A
330
3
100
AcDbSymbolTableRecord
100
AcDbTextStyleTableRecord
  2
ACISOGDT
 70
     0
 40
0.0
 41
1.0
 50
0.0
 71
     0
 42
2.5
  3
amgdt.shx
  4

  0
STYLE
  5
17B
330
3
100
AcDbSymbolTableRecord
100
AcDbTextStyleTableRecord
  2

 70
     1
 40
0.0
 41
1.0
 50
0.0
 71
     0
 42
3.5
  3
ltypeshp.shx
  4

  0
STYLE
  5
D0A
330
3
100
AcDbSymbolTableRecord
100
AcDbTextStyleTableRecord
  2
ISOCP
 70
     0
 40
0.0
 41
1.0
 50
0.0
 71
     0
 42
3.5
  3
isocp
  4

  0
ENDTAB
  0
TABLE
  2
VIEW
  5
6
330
0
100
AcDbSymbolTable
 70
     9
  0
VIEW
  5
1C8
330
6
100
AcDbSymbolTableRecord
100
AcDbViewTableRecord
  2
AMDTVIEW1
 70
     0
 40
329.0721649484536
 10
210.0
 20
164.5360824742268
 41
420.0
 11
0.0
 21
0.0
 31
1.0
 12
0.0
 22
0.0
 32
0.0
 42
50.0
 43
0.0
 44
0.0
 50
0.0
 71
     0
281
     0
 72
     0
 73
     0
348
A55
  0
VIEW
  5
1C9
330
6
100
AcDbSymbolTableRecord
100
AcDbViewTableRecord
  2
AMDTVIEW2
 70
     0
 40
329.0721649484536
 10
210.0
 20
164.5360824742268
 41
420.0
 11
0.0
 21
0.0
 31
1.0
 12
0.0
 22
0.0
 32
0.0
 42
50.0
 43
0.0
 44
0.0
 50
0.0
 71
     0
281
     0
 72
     0
 73
     0
348
A55
  0
VIEW
  5
1CA
330
6
100
AcDbSymbolTableRecord
100
AcDbViewTableRecord
  2
AMDTVIEW3
 70
     0
 40
329.0721649484536
 10
210.0
 20
164.5360824742268
 41
420.0
 11
0.0
 21
0.0
 31
1.0
 12
0.0
 22
0.0
 32
0.0
 42
50.0
 43
0.0
 44
0.0
 50
0.0
 71
     0
281
     0
 72
     0
 73
     0
348
A55
  0
VIEW
  5
FA2
330
6
100
AcDbSymbolTableRecord
100
AcDbViewTableRecord
  2
AM_VIEW1
 70
     0
 40
148.5
 10
116.6562170706006
 20
222.75
 41
233.3124341412013
 11
0.0
 21
0.0
 31
1.0
 12
0.0
 22
0.0
 32
0.0
 42
50.0
 43
0.0
 44
0.0
 50
0.0
 71
     0
281
     0
 72
     0
 73
     0
  0
VIEW
  5
FA3
330
6
100
AcDbSymbolTableRecord
100
AcDbViewTableRecord
  2
AM_VIEW2
 70
     0
 40
148.5
 10
303.3437829293994
 20
222.75
 41
233.3124341412013
 11
0.0
 21
0.0
 31
1.0
 12
0.0
 22
0.0
 32
0.0
 42
50.0
 43
0.0
 44
0.0
 50
0.0
 71
     0
281
     0
 72
     0
 73
     0
  0
VIEW
  5
FA4
330
6
100
AcDbSymbolTableRecord
100
AcDbViewTableRecord
  2
AM_VIEW3
 70
     0
 40
148.5
 10
116.6562170706006
 20
74.25
 41
233.3124341412013
 11
0.0
 21
0.0
 31
1.0
 12
0.0
 22
0.0
 32
0.0
 42
50.0
 43
0.0
 44
0.0
 50
0.0
 71
     0
281
     0
 72
     0
 73
     0
  0
VIEW
  5
FA5
330
6
100
AcDbSymbolTableRecord
100
AcDbViewTableRecord
  2
AM_VIEW4
 70
     0
 40
148.5
 10
303.3437829293994
 20
74.25
 41
233.3124341412013
 11
0.0
 21
0.0
 31
1.0
 12
0.0
 22
0.0
 32
0.0
 42
50.0
 43
0.0
 44
0.0
 50
0.0
 71
     0
281
     0
 72
     0
 73
     0
  0
VIEW
  5
FA6
330
6
100
AcDbSymbolTableRecord
100
AcDbViewTableRecord
  2
AM_VIEW5
 70
     0
 40
148.5
 10
210.0
 20
148.5
 41
233.3124341412013
 11
0.0
 21
0.0
 31
1.0
 12
0.0
 22
0.0
 32
0.0
 42
50.0
 43
0.0
 44
0.0
 50
0.0
 71
     0
281
     0
 72
     0
 73
     0
  0
VIEW
  5
FA7
330
6
100
AcDbSymbolTableRecord
100
AcDbViewTableRecord
  2
AM_VIEW6
 70
     0
 40
296.99703
 10
210.0
 20
148.5
 41
466.6202020337196
 11
0.0
 21
0.0
 31
1.0
 12
0.0
 22
0.0
 32
0.0
 42
50.0
 43
0.0
 44
0.0
 50
0.0
 71
     0
281
     0
 72
     0
 73
     0
  0
ENDTAB
  0
TABLE
  2
UCS
  5
7
330
0
100
AcDbSymbolTable
 70
     0
  0
ENDTAB
  0
TABLE
  2
APPID
  5
9
330
0
100
AcDbSymbolTable
 70
    39
  0
APPID
  5
11
330
9
100
AcDbSymbolTableRecord
100
AcDbRegAppTableRecord
  2
ACAD
 70
     0
  0
APPID
  5
CD
330
9
100
AcDbSymbolTableRecord
100
AcDbRegAppTableRecord
  2
AD_DRAW
 70
     0
  0
APPID
  5
E7
330
9
100
AcDbSymbolTableRecord
100
AcDbRegAppTableRecord
  2
DESIGNERASSEMBLIES
 70
     0
  0
APPID
  5
EB
330
9
100
AcDbSymbolTableRecord
100
AcDbRegAppTableRecord
  2
MCAD_NO_VIS
 70
     0
  0
APPID
  5
122
330
9
100
AcDbSymbolTableRecord
100
AcDbRegAppTableRecord
  2
ASURF_PCURVE_APPNAME
 70
     0
  0
APPID
  5
17F
330
9
100
AcDbSymbolTableRecord
100
AcDbRegAppTableRecord
  2
ACAD_TEMP_GRAPHIC
 70
     0
  0
APPID
  5
189
330
9
100
AcDbSymbolTableRecord
100
AcDbRegAppTableRecord
  2
ACATTRIBSERVICES
 70
     0
  0
APPID
  5
1C4
330
9
100
AcDbSymbolTableRecord
100
AcDbRegAppTableRecord
  2
ACADM_DIM_EDIT
 70
     0
  0
APPID
  5
1D5
330
9
100
AcDbSymbolTableRecord
100
AcDbRegAppTableRecord
  2
GENIUS_GENDIM_13
 70
     0
  0
APPID
  5
1D6
330
9
100
AcDbSymbolTableRecord
100
AcDbRegAppTableRecord
  2
GENIUS_GENDTOL_13
 70
     0
  0
APPID
  5
1D7
330
9
100
AcDbSymbolTableRecord
100
AcDbRegAppTableRecord
  2
GENIUS_GE3DTOL_13
 70
     0
  0
APPID
  5
2E9
330
9
100
AcDbSymbolTableRecord
100
AcDbRegAppTableRecord
  2
AMG_3D2D_5.0
 70
     0
  0
APPID
  5
3C0
330
9
100
AcDbSymbolTableRecord
100
AcDbRegAppTableRecord
  2
AMDT_DM_ADJ
 70
     0
  0
APPID
  5
82F
330
9
100
AcDbSymbolTableRecord
100
AcDbRegAppTableRecord
  2
ACAD_PSEXT
 70
     0
  0
APPID
  5
84A
330
9
100
AcDbSymbolTableRecord
100
AcDbRegAppTableRecord
  2
DCO15
 70
     0
  0
APPID
  5
892
330
9
100
AcDbSymbolTableRecord
100
AcDbRegAppTableRecord
  2
ACAD_DSTYLE_DIMTEXT_FILL
 70
     0
  0
APPID
  5
A74
330
9
100
AcDbSymbolTableRecord
100
AcDbRegAppTableRecord
  2
ACAD_MLEADERVER
 70
     0
  0
APPID
  5
AB1
330
9
100
AcDbSymbolTableRecord
100
AcDbRegAppTableRecord
  2
AcAecLayerStandard
 70
     0
  0
APPID
  5
CE6
330
9
100
AcDbSymbolTableRecord
100
AcDbRegAppTableRecord
  2
ACAD_NAV_VCDISPLAY
 70
     0
  0
APPID
  5
D0F
330
9
100
AcDbSymbolTableRecord
100
AcDbRegAppTableRecord
  2
ACAD_DSTYLE_DIMARC_LENGTH_SYMBOL
 70
     0
  0
APPID
  5
D10
330
9
100
AcDbSymbolTableRecord
100
AcDbRegAppTableRecord
  2
ACAD_DSTYLE_DIMJOGGED_JOGANGLE_SYMBOL
 70
     0
  0
APPID
  5
D11
330
9
100
AcDbSymbolTableRecord
100
AcDbRegAppTableRecord
  2
ACAD_EXEMPT_FROM_CAD_STANDARDS
 70
     0
  0
APPID
  5
D91
330
9
100
AcDbSymbolTableRecord
100
AcDbRegAppTableRecord
  2
GENIUS_GENTRA_14
 70
     0
  0
APPID
  5
D92
330
9
100
AcDbSymbolTableRecord
100
AcDbRegAppTableRecord
  2
ACAD_DSTYLE_DIMBREAK
 70
     0
  0
APPID
  5
D93
330
9
100
AcDbSymbolTableRecord
100
AcDbRegAppTableRecord
  2
ACAD_DSTYLE_DIMJAG
 70
     0
  0
APPID
  5
D94
330
9
100
AcDbSymbolTableRecord
100
AcDbRegAppTableRecord
  2
ACAD_DSTYLE_DIMTALN
 70
     0
  0
APPID
  5
F9C
330
9
100
AcDbSymbolTableRecord
100
AcDbRegAppTableRecord
  2
GENIUS_GENOBJ-N-TIT_13
 70
     0
  0
APPID
  5
F9D
330
9
100
AcDbSymbolTableRecord
100
AcDbRegAppTableRecord
  2
GENIUS_GENOLIS_13
 70
     0
  0
APPID
  5
F9E
330
9
100
AcDbSymbolTableRecord
100
AcDbRegAppTableRecord
  2
GENIUS_GENODEF_13
 70
     0
  0
APPID
  5
F9F
330
9
100
AcDbSymbolTableRecord
100
AcDbRegAppTableRecord
  2
GENIUS_GENOENT_13
 70
     0
  0
APPID
  5
FA0
330
9
100
AcDbSymbolTableRecord
100
AcDbRegAppTableRecord
  2
GENIUS_GENTITLE_13
 70
     0
  0
APPID
  5
FA1
330
9
100
AcDbSymbolTableRecord
100
AcDbRegAppTableRecord
  2
GENIUS_GENOREF_13
 70
     0
  0
APPID
  5
FA8
330
9
100
AcDbSymbolTableRecord
100
AcDbRegAppTableRecord
  2
GENIUS_GENSCREG_15
 70
     0
  0
APPID
  5
FA9
330
9
100
AcDbSymbolTableRecord
100
AcDbRegAppTableRecord
  2
GENIUS_GENOBJ-N-SDF_13
 70
     0
  0
APPID
  5
14AF
330
9
100
AcDbSymbolTableRecord
100
AcDbRegAppTableRecord
  2
ACAD_OBJECT_CHANGE_GUID
 70
     0
  0
APPID
  5
16D9
330
9
100
AcDbSymbolTableRecord
100
AcDbRegAppTableRecord
  2
ACAUTHENVIRON
 70
     0
  0
APPID
  5
18D6
330
9
100
AcDbSymbolTableRecord
100
AcDbRegAppTableRecord
  2
AcDbDynamicBlockTrueName
 70
     0
  0
APPID
  5
18D7
330
9
100
AcDbSymbolTableRecord
100
AcDbRegAppTableRecord
  2
AcDbDynamicBlockGUID
 70
     0
  0
APPID
  5
2A26
330
9
100
AcDbSymbolTableRecord
100
AcDbRegAppTableRecord
  2
PE_URL
 70
     0
  0
ENDTAB
  0
TABLE
  2
DIMSTYLE
  5
A
330
0
100
AcDbSymbolTable
 70
    14
100
AcDbDimStyleTable
 71
     1
340
344
  0
DIMSTYLE
105
344
102
{ACAD_REACTORS
330
3966
102
}
330
A
100
AcDbSymbolTableRecord
100
AcDbDimStyleTableRecord
  2
AM_ISO
 70
     0
  4
"
 41
2.5
 42
1.0
 43
10.0
 44
1.0
 47
0.1
 48
0.1
 73
     0
 74
     0
 77
     1
 78
     8
 79
     2
140
3.5
141
0.0
143
0.0393701
146
0.71
147
1.5
171
     3
172
     1
176
   256
177
   256
178
     2
271
     2
272
     2
274
     3
283
     0
284
     8
340
10
371
    -1
372
    -1
  0
DIMSTYLE
105
345
330
A
100
AcDbSymbolTableRecord
100
AcDbDimStyleTableRecord
  2
AM_ISO$3
 70
     0
  4
"
 41
2.5
 42
1.0
 43
10.0
 44
1.0
 47
0.1
 48
0.1
 73
     0
 77
     1
 78
     8
 79
     2
140
3.5
141
0.0
143
0.0393701
146
0.71
147
1.5
176
   256
177
   256
178
     2
271
     2
272
     3
274
     4
283
     0
284
     8
288
     1
289
     0
340
10
371
    -1
372
    -1
  0
DIMSTYLE
105
346
330
A
100
AcDbSymbolTableRecord
100
AcDbDimStyleTableRecord
  2
AM_ISO$4
 70
     0
  4
"
 41
2.5
 42
1.0
 43
10.0
 44
1.0
 47
0.1
 48
0.1
 73
     0
 77
     1
 78
     8
 79
     2
140
3.5
141
0.0
143
0.0393701
146
0.71
147
1.5
176
   256
177
   256
178
     2
271
     2
272
     3
274
     4
283
     0
284
     8
288
     1
289
     0
340
10
371
    -1
372
    -1
  0
DIMSTYLE
105
347
330
A
100
AcDbSymbolTableRecord
100
AcDbDimStyleTableRecord
  2
AM_ISO$6
 70
     0
  4
"
 41
2.5
 42
1.0
 43
10.0
 44
1.0
 47
0.1
 48
0.1
 73
     0
 74
     0
 78
     8
 79
     2
140
3.5
141
0.0
143
0.0393701
146
0.71
147
1.5
172
     1
176
   256
177
   256
178
     2
271
     2
272
     3
274
     4
283
     0
284
     8
340
10
371
    -1
372
    -1
  0
DIMSTYLE
105
348
330
A
100
AcDbSymbolTableRecord
100
AcDbDimStyleTableRecord
  2
AM_ISO$7
 70
     0
  4
"
 41
2.5
 42
1.0
 43
10.0
 44
1.0
 47
0.1
 48
0.1
 73
     0
 74
     0
 77
     1
 78
     8
 79
     2
140
5.0
141
0.0
143
0.0393701
146
0.71
147
1.5
172
     1
176
   256
177
   256
178
     2
271
     2
272
     3
274
     4
283
     0
284
     8
340
10
371
    -1
372
    -1
  0
DIMSTYLE
105
349
330
A
100
AcDbSymbolTableRecord
100
AcDbDimStyleTableRecord
  2
AM_ISO$SF
 70
     0
  4
"
 41
2.5
 42
1.0
 43
10.0
 44
1.0
 47
0.1
 48
0.1
 73
     0
 74
     0
 75
     1
 76
     1
 77
     1
 78
     8
 79
     2
140
3.5
141
0.0
143
0.0393701
146
0.71
147
1.5
172
     1
176
   256
177
   256
178
     2
271
     2
272
     3
274
     4
283
     0
284
     8
340
10
371
    -1
372
    -1
  0
DIMSTYLE
105
34A
330
A
100
AcDbSymbolTableRecord
100
AcDbDimStyleTableRecord
  2
AM_ISO$SH
 70
     0
  4
"
 41
2.5
 42
1.0
 43
10.0
 44
1.0
 47
0.1
 48
0.1
 73
     0
 74
     0
 75
     1
 76
     1
 77
     1
 78
     8
 79
     2
140
3.5
141
0.0
143
0.0393701
144
2.0
146
0.71
147
1.5
172
     1
173
     1
176
   256
177
   256
178
     2
271
     2
272
     3
274
     4
283
     0
284
     8
340
10
343
2F4
371
    -1
372
    -1
  0
DIMSTYLE
105
D0D
330
A
100
AcDbSymbolTableRecord
100
AcDbDimStyleTableRecord
  2
STANDARD
 70
     0
 41
3.5
 42
2.0
 43
10.0
 44
1.0
 46
2.0
 73
     0
 74
     0
 77
     1
 78
     8
140
3.5
141
0.0
143
25.39999999999999
145
1.0
147
1.0
172
     1
175
     1
176
   256
177
   256
178
     3
271
     2
272
     2
284
     8
340
D0A
  0
ENDTAB
  0
TABLE
  2
BLOCK_RECORD
  5
1
330
0
100
AcDbSymbolTable
 70
     7
  0
BLOCK_RECORD
  5
1A
102
{ACAD_XDICTIONARY
360
12A
102
}
330
1
100
AcDbSymbolTableRecord
100
AcDbBlockTableRecord
  2
*MODEL_SPACE
340
169
 70
     0
280
     1
281
     0
  0
BLOCK_RECORD
  5
2CA3
330
1
100
AcDbSymbolTableRecord
100
AcDbBlockTableRecord
  2
*Paper_Space
340
2CA4
 70
     0
280
     1
281
     0
  0
BLOCK_RECORD
  5
2F4
330
1
100
AcDbSymbolTableRecord
100
AcDbBlockTableRecord
  2
GENAXEH
340
0
 70
     0
280
     1
281
     0
  0
BLOCK_RECORD
  5
36D3
102
{ACAD_XDICTIONARY
360
36D4
102
}
330
1
100
AcDbSymbolTableRecord
100
AcDbBlockTableRecord
  2
dimensionBlock
340
0
102
{BLKREFS
331
3B8A
331
3B8E
331
3B92
331
3B96
331
3B9A
331
3B9E
102
}
 70
     4
280
     1
281
     0
1001
AcDbDynamicBlockGUID
1000
{ABAE17C1-BD05-CC44-872C-8E51C814C1B1}
  0
BLOCK_RECORD
  5
3706
102
{ACAD_XDICTIONARY
360
3BA2
102
}
330
1
100
AcDbSymbolTableRecord
100
AcDbBlockTableRecord
  2
H3_153_0_3X24_52UG
340
0
310
28000000200000002000000001002000000000000010000001000000010000000000000000000000302821FF302821FF302821FF302821FF302821FF302821FF302821FF302821FF302821FF302821FF302821FF302821FF302821FF302821FF302821FF302821FF302821FF302821FF302821FF302821FF302821FF302821
310
FF302821FF302821FF302821FF302821FF302821FF302821FF302821FF302821FF302821FF302821FF302821FF302821FF302821FF302821FF302821FF302821FF302821FF302821FF302821FF302821FF302821FF302821FF302821FF302821FF302821FF302821FF302821FF302821FF302821FF302821FF302821FF3028
310
21FF302821FF302821FF302821FF302821FF302821FF302821FF302821FF302821FF302821FF302821FF302821FF302821FF302821FF302821FF302821FF302821FF302821FF302821FF302821FF302821FF302821FF302821FF302821FF302821FF302821FFFFFFFFFFFFFFFFFFFFFFFFFF302821FF302821FF302821FFFF
310
FFFFFFFFFFFFFFFFFFFFFF302821FF302821FF302821FF302821FF302821FF302821FF302821FF302821FF302821FF302821FF302821FF302821FF302821FF302821FF302821FF302821FF302821FF302821FF302821FFFFFFFFFFFFFFFFFFFFFFFFFFFFFFFFFFFFFFFFFFFFFFFFFFFFFFFFFFFFFFFFFFFFFFFFFFFFFFFFFF
310
FFFFFFFFFFFFFFFFFFFFFFFFFFFFFFFF302821FF302821FF302821FF302821FF302821FF302821FF302821FF302821FF302821FF302821FF302821FF302821FF302821FF302821FF302821FF302821FFFFFFFFFFFFFFFFFFFFFFFFFFFFFFFFFF302821FF302821FF302821FFFFFFFFFFFFFFFFFF302821FF302821FFFFFFFF
310
FFFFFFFFFFFFFFFFFFFFFFFFFFFFFFFFFF302821FF302821FF302821FF302821FF302821FF302821FF302821FF302821FF302821FF302821FF302821FF302821FF302821FF302821FF302821FFFFFFFFFFFFFFFFFFFFFFFFFFFFFFFFFFFFFFFFFFFFFFFFFF302821FFFFFFFFFFFFFFFFFFFFFFFFFFFFFFFFFF302821FFFFFF
310
FFFFFFFFFFFFFFFFFFFFFFFFFFFFFFFFFFFF302821FF302821FF302821FF302821FF302821FF302821FF302821FF302821FF302821FF302821FF302821FF302821FF302821FF302821FFFFFFFFFFFFFFFFFF302821FFFFFFFFFFFFFFFFFFFFFFFFFFFFFFFFFF302821FFFFFFFFFFFFFFFFFFFFFFFFFFFFFFFFFF302821FFFF
310
FFFFFFFFFFFFFFFFFFFFFFFFFFFFFF302821FFFFFFFFFFFFFFFFFF302821FF302821FF302821FF302821FF302821FF302821FF302821FF302821FF302821FF302821FF302821FFFFFFFFFFFFFFFFFF302821FF302821FFFFFFFFFFFFFFFFFFFFFFFFFF302821FF302821FFFFFFFFFFFFFFFFFFFFFFFFFF302821FF302821FF
310
FFFFFFFFFFFFFFFFFFFFFFFF302821FF302821FF302821FFFFFFFFFFFFFFFFFF302821FF302821FF302821FF302821FF302821FF302821FF302821FF302821FF302821FF302821FFFFFFFFFF302821FFFFFFFFFFFFFFFFFFFFFFFFFFFFFFFFFFFFFFFFFFFFFFFFFFFFFFFFFFFFFFFFFFFFFFFFFFFFFFFFFFFFFFFFFFFFFFFF
310
FFFFFFFFFFFFFFFFFFFFFFFFFFFFFFFFFFFFFFFFFF302821FF302821FFFFFFFFFFFFFFFFFF302821FF302821FF302821FF302821FF302821FF302821FF302821FF302821FFFFFFFFFFFFFFFFFFFFFFFFFFFFFFFFFFFFFFFFFFFFFFFFFFFFFFFFFFFFFFFFFFFFFFFFFFFFFFFFFFFFFFFFFFFFFFFFFFFFFFFFFFFFFFFFFFFFFF
310
FFFFFFFFFFFFFFFFFFFFFFFFFFFFFFFFFFFFFFFFFFFFFFFFFFFF302821FFFFFFFFFFFFFFFFFF302821FF302821FF302821FF302821FF302821FF302821FF302821FF302821FFFFFFFFFFFFFFFFFFFFFFFFFFFFFFFFFFFFFFFFFFFFFFFFFFFFFFFFFFFFFFFFFFFFFFFFFFFFFFFFFFFFFFFFFFFFFFFFFFFFFFFFFFFFFFFFFFFF
310
FFFFFFFFFFFFFFFFFFFFFFFFFFFFFFFFFFFFFFFFFFFFFFFFFFFFFFFFFFFFFFFFFFFFFFFFFFFFFFFFFFFFFF302821FF302821FF302821FF302821FF302821FF302821FFFFFFFFFF302821FFFFFFFFFFFFFFFFFFFFFFFFFFFFFFFFFFFFFFFFFF302821FFFFFFFFFFFFFFFFFFFFFFFFFFFFFFFFFF302821FFFFFFFFFFFFFFFFFF
310
FFFFFFFFFFFFFFFFFFFFFFFF302821FFFFFFFFFFFFFFFFFFFFFFFFFFFFFFFFFFFFFFFFFF302821FFFFFFFFFF302821FF302821FF302821FF302821FF302821FF302821FFFFFFFFFF302821FFFFFFFFFFFFFFFFFFFFFFFFFFFFFFFFFF302821FF302821FF302821FFFFFFFFFFFFFFFFFFFFFFFFFFFFFFFFFFFFFFFFFFFFFFFF
310
FFFFFFFFFFFFFFFFFF302821FF302821FF302821FFFFFFFFFFFFFFFFFFFFFFFFFFFFFFFFFF302821FFFFFFFFFF302821FF302821FF302821FF302821FF302821FFFFFFFFFFFFFFFFFF302821FFFFFFFFFFFFFFFFFFFFFFFFFFFFFFFFFF302821FF302821FF302821FFFFFFFFFFFFFFFFFFFFFFFFFFFFFFFFFFFFFFFFFFFFFF
310
FFFFFFFFFFFFFFFFFFFF302821FF302821FF302821FFFFFFFFFFFFFFFFFFFFFFFFFFFFFFFFFF302821FFFFFFFFFF302821FF302821FF302821FF302821FF302821FFFFFFFFFFFFFFFFFF302821FFFFFFFFFFFFFFFFFFFFFFFFFFFFFFFFFFFFFFFFFFFFFFFFFFFFFFFFFFFFFFFFFFFFFFFFFFFFFFFFFFFFFFFFFFFFFFFFFFFF
310
FFFFFFFFFFFFFFFFFFFFFFFFFFFFFFFFFFFFFFFFFFFFFFFFFFFFFFFFFFFFFFFFFFFFFF302821FF302821FFFFFFFFFF302821FF302821FF302821FF302821FFFFFFFFFFFFFFFFFFFFFFFFFFFFFFFFFFFFFFFFFFFFFFFFFFFFFFFFFFFFFFFFFFFFFFFFFFFFFFFFFFFFFFFFFFFFFFFFFFFFFFFFFFFFFFFFFFFFFFFFFFFFFFFFFF
310
FFFFFFFFFFFFFFFFFFFFFFFFFFFFFFFFFFFFFFFFFFFFFFFFFFFFFFFFFFFFFFFFFFFFFFFFFFFFFFFFFFFFFFFFFFFFFFFFFFFFFFFF302821FF302821FFFFFFFFFFFFFFFFFFFFFFFFFFFFFFFFFFFFFFFFFFFFFFFFFFFFFFFFFFFFFFFFFFFFFFFFFFFFFFFFFFFFFFFFFFFFFFFFFFFFFFFFFFFFFFFFFF302821FFFFFFFFFFFFFFFF
310
FFFFFFFFFFFFFFFFFFFFFFFFFFFFFFFFFFFFFFFFFFFFFFFFFFFFFFFFFFFFFFFFFFFFFFFFFFFFFFFFFFFFFFFFFFFFFFFFFFFFFFFFFF302821FF302821FFFFFFFFFFFFFFFFFFFFFFFFFFFFFFFFFFFFFFFFFFFFFFFFFFFFFFFFFFFFFFFFFFFFFFFFFFFFFFFFFFFFFFFFFFFFFFFFFFFFFFFFFF302821FFFFFFFFFFFFFFFFFFFFFF
310
FFFFFFFFFFFFFFFFFFFFFFFFFFFFFFFFFFFFFFFFFFFFFFFFFFFFFFFFFFFF302821FFFFFFFFFFFFFFFFFFFFFFFFFFFFFFFFFFFFFFFFFF302821FF302821FF302821FFFFFFFFFFFFFFFFFFFFFFFFFFFFFFFFFFFFFFFFFF302821FF302821FFFFFFFFFFFFFFFFFFFFFFFFFF302821FFFFFFFFFFFFFFFFFFFFFFFFFFFFFFFFFFFF
310
FFFFFFFFFFFFFFFFFFFFFF302821FFFFFFFFFFFFFFFFFFFFFFFFFFFFFFFFFF302821FF302821FFFFFFFFFFFFFFFFFFFFFFFFFF302821FF302821FF302821FF302821FF302821FF302821FFFFFFFFFF302821FF302821FF302821FF302821FFFFFFFFFFFFFFFFFFFFFFFFFFFFFFFFFFFFFFFFFFFFFFFFFFFFFFFFFFFFFFFFFF
310
FFFFFFFFFFFFFFFFFFFFFFFFFFFFFFFFFFFFFFFFFFFFFFFFFFFFFFFFFFFFFFFF302821FF302821FF302821FF302821FFFFFFFFFF302821FF302821FF302821FF302821FF302821FF302821FFFFFFFFFF302821FFFFFFFFFFFFFFFFFFFFFFFFFFFFFFFFFFFFFFFFFFFFFFFFFFFFFFFFFFFFFFFFFFFFFFFFFFFFFFFFFFFFFFFF
310
FFFFFFFFFFFFFFFFFFFFFFFFFFFFFFFFFFFFFFFFFFFFFFFFFFFFFFFFFFFFFFFFFFFFFFFFFFFFFFFFFF302821FF302821FFFFFFFFFF302821FF302821FF302821FF302821FF302821FF302821FF302821FFFFFFFFFFFFFFFFFFFFFFFFFFFFFFFFFF302821FFFFFFFFFFFFFFFFFFFFFFFFFFFFFFFFFFFFFFFFFFFFFFFFFF3028
310
21FF302821FFFFFFFFFFFFFFFFFFFFFFFFFFFFFFFFFFFFFFFFFFFFFFFFFFFFFFFFFFFFFFFFFFFFFFFFFF302821FFFFFFFFFFFFFFFFFF302821FF302821FF302821FF302821FF302821FF302821FF302821FFFFFFFFFF302821FFFFFFFFFFFFFFFFFF302821FF302821FFFFFFFFFFFFFFFFFFFFFFFFFFFFFFFFFF302821FF30
310
2821FF302821FFFFFFFFFFFFFFFFFFFFFFFFFFFFFFFFFF302821FF302821FFFFFFFFFFFFFFFFFFFFFFFFFF302821FFFFFFFFFF302821FF302821FF302821FF302821FF302821FF302821FF302821FF302821FF302821FFFFFFFFFF302821FF302821FF302821FFFFFFFFFF302821FFFFFFFFFFFFFFFFFFFFFFFFFFFFFFFFFF
310
302821FF302821FFFFFFFFFFFFFFFFFFFFFFFFFFFFFFFFFFFFFFFFFFFFFFFFFF302821FF302821FF302821FFFFFFFFFF302821FF302821FF302821FF302821FF302821FF302821FF302821FF302821FF302821FF302821FFFFFFFFFFFFFFFFFF302821FFFFFFFFFFFFFFFFFFFFFFFFFFFFFFFFFFFFFFFFFFFFFFFFFFFFFFFF
310
FFFFFFFFFFFFFFFFFFFFFFFFFFFFFFFFFFFFFFFFFFFFFFFFFFFFFFFFFFFFFFFFFF302821FF302821FFFFFFFFFF302821FF302821FF302821FF302821FF302821FF302821FF302821FF302821FF302821FF302821FF302821FF302821FFFFFFFFFFFFFFFFFFFFFFFFFFFFFFFFFFFFFFFFFFFFFFFFFFFFFFFFFFFFFFFFFFFFFF
310
FFFFFFFFFFFFFFFFFFFFFFFFFFFFFFFFFFFFFFFFFFFFFFFFFFFFFFFFFFFFFFFFFFFFFFFFFFFF302821FFFFFFFFFF302821FF302821FF302821FF302821FF302821FF302821FF302821FF302821FF302821FF302821FF302821FF302821FF302821FFFFFFFFFFFFFFFFFFFFFFFFFFFFFFFFFF302821FFFFFFFFFFFFFFFFFFFF
310
FFFFFFFFFFFFFFFFFFFFFFFFFFFFFFFFFFFFFF302821FFFFFFFFFFFFFFFFFFFFFFFFFF302821FFFFFFFFFF302821FF302821FF302821FF302821FF302821FF302821FF302821FF302821FF302821FF302821FF302821FF302821FF302821FF302821FF302821FF302821FFFFFFFFFFFFFFFFFFFFFFFFFF302821FF302821FF
310
FFFFFFFFFFFFFFFFFFFFFFFFFFFFFFFF302821FF302821FF302821FFFFFFFFFFFFFFFFFFFFFFFFFFFFFFFFFF302821FF302821FF302821FF302821FF302821FF302821FF302821FF302821FF302821FF302821FF302821FF302821FF302821FF302821FF302821FF302821FF302821FF302821FFFFFFFFFFFFFFFFFFFFFFFF
310
FF302821FFFFFFFFFFFFFFFFFFFFFFFFFFFFFFFFFFFFFFFFFFFFFFFFFF302821FFFFFFFFFFFFFFFFFFFFFFFFFF302821FF302821FF302821FF302821FF302821FF302821FF302821FF302821FF302821FF302821FF302821FF302821FF302821FF302821FF302821FF302821FF302821FF302821FF302821FF302821FFFFFF
310
FFFFFFFFFFFFFFFFFFFFFFFFFFFFFFFFFFFFFFFFFFFF302821FF302821FF302821FF302821FF302821FF302821FF302821FF302821FF302821FF302821FF302821FF302821FF302821FF302821FF302821FF302821FF302821FF302821FF302821FF302821FF302821FF302821FF302821FF302821FF302821FF302821FF30
310
2821FF302821FF302821FF302821FF302821FF302821FF302821FF302821FF302821FF302821FF302821FF302821FF302821FF302821FF302821FF302821FF302821FF302821FF302821FF302821FF302821FF302821FF302821FF302821FF302821FF302821FF302821FF302821FF302821FF302821FF302821FF302821FF
310
302821FF302821FF302821FF302821FF302821FF302821FF302821FF302821FF302821FF302821FF302821FF302821FF302821FF302821FF302821FF302821FF302821FF302821FF
102
{BLKREFS
331
391C
102
}
 70
     4
280
     1
281
     0
1001
AcDbDynamicBlockGUID
1000
{1B0013DE-1D43-3F49-8C5F-1151BBA9AABD}
  0
ENDTAB
  0
ENDSEC
  0
SECTION
  2
BLOCKS
  0
BLOCK
  5
1B
330
1A
100
AcDbEntity
  8
0
100
AcDbBlockBegin
  2
*MODEL_SPACE
 70
     0
 10
0.0
 20
0.0
 30
0.0
  3
*MODEL_SPACE
  1

  0
ENDBLK
  5
1C
330
1A
100
AcDbEntity
  8
0
100
AcDbBlockEnd
  0
BLOCK
  5
2CA5
330
2CA3
100
AcDbEntity
 67
     1
  8
0
100
AcDbBlockBegin
  2
*Paper_Space
 70
     0
 10
0.0
 20
0.0
 30
0.0
  3
*Paper_Space
  1

  0
ENDBLK
  5
2CA6
330
2CA3
100
AcDbEntity
 67
     1
  8
0
100
AcDbBlockEnd
  0
BLOCK
  5
C49
330
2F4
100
AcDbEntity
  8
0
100
AcDbBlockBegin
  2
GENAXEH
 70
     0
 10
0.0
 20
0.0
 30
0.0
  3
GENAXEH
  1

  0
LINE
  5
C4A
330
2F4
100
AcDbEntity
  8
0
100
AcDbLine
 10
-1.0
 20
0.0
 30
0.0
 11
1.0
 21
0.0
 31
0.0
  0
ENDBLK
  5
C4B
330
2F4
100
AcDbEntity
  8
0
100
AcDbBlockEnd
  0
BLOCK
  5
36D5
330
36D3
100
AcDbEntity
  8
0
100
AcDbBlockBegin
  2
dimensionBlock
 70
     2
 10
0.0
 20
0.0
 30
0.0
  3
dimensionBlock
  1

  0
POINT
  5
36D6
330
36D3
100
AcDbEntity
  8
0
100
AcDbPoint
 10
0.0
 20
0.0
 30
0.0
  0
ATTDEF
  5
36D7
330
36D3
100
AcDbEntity
  8
0
100
AcDbText
 10
9.467092950319427
 20
2.891095235479383
 30
0.00000001
 40
5.0
  1

100
AcDbAttributeDefinition
280
     0
  3
bredd
  2
D
 70
     1
280
     1
  0
ATTDEF
  5
36D8
330
36D3
100
AcDbEntity
  8
0
100
AcDbText
 10
9.467092950319427
 20
-3.592322260641607
 30
0.00000001
 40
5.0
  1

100
AcDbAttributeDefinition
280
     0
  3
Dimension symbol
  2
Dsymbol
 70
     1
280
     1
  0
ENDBLK
  5
36D9
330
36D3
100
AcDbEntity
  8
0
100
AcDbBlockEnd
  0
BLOCK
  5
3707
330
3706
100
AcDbEntity
  8
0
100
AcDbBlockBegin
  2
H3_153_0_3X24_52UG
 70
     0
 10
0.0
 20
0.0
 30
0.0
  3
H3_153_0_3X24_52UG
  1

  0
ARC
  5
398F
330
3706
100
AcDbEntity
  8
AM_0
100
AcDbCircle
 10
0.0
 20
36.49999999999858
 30
0.0
 40
13.0714285714286
100
AcDbArc
 50
270.0
 51
90.0
  0
LINE
  5
3990
330
3706
100
AcDbEntity
  8
AM_0
100
AcDbLine
 10
0.0
 20
49.57142857142724
 30
0.0
 11
0.0
 21
48.49999999999858
 31
0.0
  0
ARC
  5
3991
330
3706
100
AcDbEntity
  8
AM_0
100
AcDbCircle
 10
0.0
 20
36.49999999999858
 30
0.0
 40
12.00000000000003
100
AcDbArc
 50
270.0
 51
90.0
  0
LINE
  5
3992
330
3706
100
AcDbEntity
  8
AM_0
100
AcDbLine
 10
0.0
 20
23.42857142857003
 30
0.0
 11
0.0
 21
24.49999999999864
 31
0.0
  0
ARC
  5
3993
330
3706
100
AcDbEntity
  8
AM_0
100
AcDbCircle
 10
0.0
 20
36.49999999999858
 30
0.0
 40
15.21428571428575
100
AcDbArc
 50
270.0
 51
90.0
  0
LINE
  5
3994
330
3706
100
AcDbEntity
  8
AM_0
100
AcDbLine
 10
0.0
 20
51.71428571428435
 30
0.0
 11
0.0
 21
50.64285714285569
 31
0.0
  0
ARC
  5
3995
330
3706
100
AcDbEntity
  8
AM_0
100
AcDbCircle
 10
0.0
 20
36.49999999999858
 30
0.0
 40
14.14285714285718
100
AcDbArc
 50
270.0
 51
90.0
  0
LINE
  5
3996
330
3706
100
AcDbEntity
  8
AM_0
100
AcDbLine
 10
0.0
 20
21.2857142857128
 30
0.0
 11
0.0
 21
22.35714285714141
 31
0.0
  0
ARC
  5
3997
330
3706
100
AcDbEntity
  8
AM_0
100
AcDbCircle
 10
0.0
 20
36.49999999999858
 30
0.0
 40
17.3571428571429
100
AcDbArc
 50
270.0
 51
90.0
  0
LINE
  5
3998
330
3706
100
AcDbEntity
  8
AM_0
100
AcDbLine
 10
0.0
 20
53.85714285714141
 30
0.0
 11
0.0
 21
52.7857142857129
 31
0.0
  0
ARC
  5
3999
330
3706
100
AcDbEntity
  8
AM_0
100
AcDbCircle
 10
0.0
 20
36.49999999999858
 30
0.0
 40
16.28571428571432
100
AcDbArc
 50
270.0
 51
90.0
  0
LINE
  5
399A
330
3706
100
AcDbEntity
  8
AM_0
100
AcDbLine
 10
0.0
 20
19.14285714285569
 30
0.0
 11
0.0
 21
20.21428571428419
 31
0.0
  0
ARC
  5
399B
330
3706
100
AcDbEntity
  8
AM_0
100
AcDbCircle
 10
0.0
 20
36.49999999999858
 30
0.0
 40
19.50000000000005
100
AcDbArc
 50
270.0
 51
90.0
  0
LINE
  5
399C
330
3706
100
AcDbEntity
  8
AM_0
100
AcDbLine
 10
0.0
 20
55.99999999999858
 30
0.0
 11
0.0
 21
54.92857142857002
 31
0.0
  0
ARC
  5
399D
330
3706
100
AcDbEntity
  8
AM_0
100
AcDbCircle
 10
0.0
 20
36.49999999999858
 30
0.0
 40
18.42857142857147
100
AcDbArc
 50
270.0
 51
90.0
  0
LINE
  5
399E
330
3706
100
AcDbEntity
  8
AM_0
100
AcDbLine
 10
0.0
 20
16.99999999999863
 30
0.0
 11
0.0
 21
18.07142857142713
 31
0.0
  0
ARC
  5
399F
330
3706
100
AcDbEntity
  8
AM_0
100
AcDbCircle
 10
0.0
 20
36.49999999999858
 30
0.0
 40
21.64285714285719
100
AcDbArc
 50
270.0
 51
90.0
  0
LINE
  5
39A0
330
3706
100
AcDbEntity
  8
AM_0
100
AcDbLine
 10
0.0
 20
58.14285714285579
 30
0.0
 11
0.0
 21
57.07142857142724
 31
0.0
  0
ARC
  5
39A1
330
3706
100
AcDbEntity
  8
AM_0
100
AcDbCircle
 10
0.0
 20
36.49999999999858
 30
0.0
 40
20.57142857142862
100
AcDbArc
 50
270.0
 51
90.0
  0
LINE
  5
39A2
330
3706
100
AcDbEntity
  8
AM_0
100
AcDbLine
 10
0.0
 20
14.85714285714141
 30
0.0
 11
0.0
 21
15.92857142856991
 31
0.0
  0
ARC
  5
39A3
330
3706
100
AcDbEntity
  8
AM_0
100
AcDbCircle
 10
0.0
 20
36.49999999999858
 30
0.0
 40
23.78571428571435
100
AcDbArc
 50
270.0
 51
90.0
  0
LINE
  5
39A4
330
3706
100
AcDbEntity
  8
AM_0
100
AcDbLine
 10
0.0
 20
60.2857142857129
 30
0.0
 11
0.0
 21
59.21428571428435
 31
0.0
  0
ARC
  5
39A5
330
3706
100
AcDbEntity
  8
AM_0
100
AcDbCircle
 10
0.0
 20
36.49999999999858
 30
0.0
 40
22.71428571428578
100
AcDbArc
 50
270.0
 51
90.0
  0
LINE
  5
39A6
330
3706
100
AcDbEntity
  8
AM_0
100
AcDbLine
 10
0.0
 20
12.71428571428419
 30
0.0
 11
0.0
 21
13.7857142857128
 31
0.0
  0
ARC
  5
39A7
330
3706
100
AcDbEntity
  8
AM_0
100
AcDbCircle
 10
0.0
 20
36.49999999999858
 30
0.0
 40
25.92857142857149
100
AcDbArc
 50
270.0
 51
90.0
  0
LINE
  5
39A8
330
3706
100
AcDbEntity
  8
AM_0
100
AcDbLine
 10
0.0
 20
62.42857142857002
 30
0.0
 11
0.0
 21
61.35714285714147
 31
0.0
  0
ARC
  5
39A9
330
3706
100
AcDbEntity
  8
AM_0
100
AcDbCircle
 10
0.0
 20
36.49999999999858
 30
0.0
 40
24.85714285714292
100
AcDbArc
 50
270.0
 51
90.0
  0
LINE
  5
39AA
330
3706
100
AcDbEntity
  8
AM_0
100
AcDbLine
 10
0.0
 20
10.57142857142713
 30
0.0
 11
0.0
 21
11.64285714285569
 31
0.0
  0
ARC
  5
39AB
330
3706
100
AcDbEntity
  8
AM_0
100
AcDbCircle
 10
31.60992723813212
 20
-18.25000000000136
 30
0.0
 40
13.07142857142858
100
AcDbArc
 50
329.9999999999995
 51
149.9999999999994
  0
LINE
  5
39AC
330
3706
100
AcDbEntity
  8
AM_0
100
AcDbLine
 10
20.28973803152127
 20
-11.71428571428708
 30
0.0
 11
21.21762239271885
 21
-12.25000000000136
 31
0.0
  0
ARC
  5
39AD
330
3706
100
AcDbEntity
  8
AM_0
100
AcDbCircle
 10
31.60992723813212
 20
-18.25000000000136
 30
0.0
 40
12.00000000000001
100
AcDbArc
 50
329.9999999999995
 51
149.9999999999994
  0
LINE
  5
39AE
330
3706
100
AcDbEntity
  8
AM_0
100
AcDbLine
 10
42.93011644474296
 20
-24.7857142857157
 30
0.0
 11
42.00223208354532
 21
-24.25000000000137
 31
0.0
  0
ARC
  5
39AF
330
3706
100
AcDbEntity
  8
AM_0
100
AcDbCircle
 10
31.60992723813212
 20
-18.25000000000136
 30
0.0
 40
15.21428571428573
100
AcDbArc
 50
329.9999999999995
 51
149.9999999999994
  0
LINE
  5
39B0
330
3706
100
AcDbEntity
  8
AM_0
100
AcDbLine
 10
18.43396930912598
 20
-10.64285714285853
 30
0.0
 11
19.36185367032362
 21
-11.17857142857286
 31
0.0
  0
ARC
  5
39B1
330
3706
100
AcDbEntity
  8
AM_0
100
AcDbCircle
 10
31.60992723813212
 20
-18.25000000000136
 30
0.0
 40
14.14285714285716
100
AcDbArc
 50
329.9999999999995
 51
149.9999999999994
  0
LINE
  5
39B2
330
3706
100
AcDbEntity
  8
AM_0
100
AcDbLine
 10
44.78588516713823
 20
-25.85714285714431
 30
0.0
 11
43.8580008059406
 21
-25.32142857142999
 31
0.0
  0
ARC
  5
39B3
330
3706
100
AcDbEntity
  8
AM_0
100
AcDbCircle
 10
31.60992723813212
 20
-18.25000000000136
 30
0.0
 40
17.35714285714288
100
AcDbArc
 50
329.9999999999995
 51
149.9999999999994
  0
LINE
  5
39B4
330
3706
100
AcDbEntity
  8
AM_0
100
AcDbLine
 10
16.57820058673076
 20
-9.571428571429976
 30
0.0
 11
17.50608494792834
 21
-10.10714285714431
 31
0.0
  0
ARC
  5
39B5
330
3706
100
AcDbEntity
  8
AM_0
100
AcDbCircle
 10
31.60992723813212
 20
-18.25000000000136
 30
0.0
 40
16.2857142857143
100
AcDbArc
 50
329.9999999999995
 51
149.9999999999994
  0
LINE
  5
39B6
330
3706
100
AcDbEntity
  8
AM_0
100
AcDbLine
 10
46.64165388953342
 20
-26.92857142857281
 30
0.0
 11
45.71376952833583
 21
-26.39285714285853
 31
0.0
  0
ARC
  5
39B7
330
3706
100
AcDbEntity
  8
AM_0
100
AcDbCircle
 10
31.60992723813212
 20
-18.25000000000136
 30
0.0
 40
19.50000000000002
100
AcDbArc
 50
329.9999999999995
 51
149.9999999999994
  0
LINE
  5
39B8
330
3706
100
AcDbEntity
  8
AM_0
100
AcDbLine
 10
14.72243186433547
 20
-8.500000000001364
 30
0.0
 11
15.65031622553312
 21
-9.035714285715696
 31
0.0
  0
ARC
  5
39B9
330
3706
100
AcDbEntity
  8
AM_0
100
AcDbCircle
 10
31.60992723813212
 20
-18.25000000000136
 30
0.0
 40
18.42857142857145
100
AcDbArc
 50
329.9999999999995
 51
149.9999999999994
  0
LINE
  5
39BA
330
3706
100
AcDbEntity
  8
AM_0
100
AcDbLine
 10
48.49742261192864
 20
-28.00000000000137
 30
0.0
 11
47.56953825073099
 21
-27.46428571428709
 31
0.0
  0
ARC
  5
39BB
330
3706
100
AcDbEntity
  8
AM_0
100
AcDbCircle
 10
31.60992723813212
 20
-18.25000000000136
 30
0.0
 40
21.64285714285717
100
AcDbArc
 50
329.9999999999995
 51
149.9999999999994
  0
LINE
  5
39BC
330
3706
100
AcDbEntity
  8
AM_0
100
AcDbLine
 10
12.86666314194031
 20
-7.428571428572865
 30
0.0
 11
13.79454750313795
 21
-7.9642857142872
 31
0.0
  0
ARC
  5
39BD
330
3706
100
AcDbEntity
  8
AM_0
100
AcDbCircle
 10
31.60992723813212
 20
-18.25000000000136
 30
0.0
 40
20.5714285714286
100
AcDbArc
 50
329.9999999999995
 51
149.9999999999994
  0
LINE
  5
39BE
330
3706
100
AcDbEntity
  8
AM_0
100
AcDbLine
 10
50.35319133432381
 20
-29.07142857142999
 30
0.0
 11
49.42530697312633
 21
-28.5357142857157
 31
0.0
  0
ARC
  5
39BF
330
3706
100
AcDbEntity
  8
AM_0
100
AcDbCircle
 10
31.60992723813212
 20
-18.25000000000136
 30
0.0
 40
23.78571428571431
100
AcDbArc
 50
329.9999999999995
 51
149.9999999999994
  0
LINE
  5
39C0
330
3706
100
AcDbEntity
  8
AM_0
100
AcDbLine
 10
11.01089441954514
 20
-6.357142857144308
 30
0.0
 11
11.93877878074261
 21
-6.892857142858531
 31
0.0
  0
ARC
  5
39C1
330
3706
100
AcDbEntity
  8
AM_0
100
AcDbCircle
 10
31.60992723813212
 20
-18.25000000000136
 30
0.0
 40
22.71428571428574
100
AcDbArc
 50
329.9999999999995
 51
149.9999999999994
  0
LINE
  5
39C2
330
3706
100
AcDbEntity
  8
AM_0
100
AcDbLine
 10
52.20896005671909
 20
-30.14285714285853
 30
0.0
 11
51.28107569552151
 21
-29.60714285714431
 31
0.0
  0
ARC
  5
39C3
330
3706
100
AcDbEntity
  8
AM_0
100
AcDbCircle
 10
31.60992723813212
 20
-18.25000000000136
 30
0.0
 40
25.92857142857146
100
AcDbArc
 50
329.9999999999995
 51
149.9999999999994
  0
LINE
  5
39C4
330
3706
100
AcDbEntity
  8
AM_0
100
AcDbLine
 10
9.155125697149854
 20
-5.285714285715697
 30
0.0
 11
10.08301005834744
 21
-5.821428571429976
 31
0.0
  0
ARC
  5
39C5
330
3706
100
AcDbEntity
  8
AM_0
100
AcDbCircle
 10
31.60992723813212
 20
-18.25000000000136
 30
0.0
 40
24.85714285714289
100
AcDbArc
 50
329.9999999999995
 51
149.9999999999994
  0
LINE
  5
39C6
330
3706
100
AcDbEntity
  8
AM_0
100
AcDbLine
 10
54.06472877911433
 20
-31.21428571428709
 30
0.0
 11
53.13684441791672
 21
-30.67857142857281
 31
0.0
  0
ARC
  5
39C7
330
3706
100
AcDbEntity
  8
AM_0
100
AcDbCircle
 10
0.0
 20
36.49999999999858
 30
0.0
 40
14.14285714285718
100
AcDbArc
 50
270.0
 51
90.0
  0
LINE
  5
39C8
330
3706
100
AcDbEntity
  8
AM_0
100
AcDbLine
 10
0.0
 20
50.64285714285569
 30
0.0
 11
0.0
 21
49.57142857142724
 31
0.0
  0
ARC
  5
39C9
330
3706
100
AcDbEntity
  8
AM_0
100
AcDbCircle
 10
0.0
 20
36.49999999999858
 30
0.0
 40
13.0714285714286
100
AcDbArc
 50
270.0
 51
90.0
  0
LINE
  5
39CA
330
3706
100
AcDbEntity
  8
AM_0
100
AcDbLine
 10
0.0
 20
22.35714285714141
 30
0.0
 11
0.0
 21
23.42857142857003
 31
0.0
  0
ARC
  5
39CB
330
3706
100
AcDbEntity
  8
AM_0
100
AcDbCircle
 10
0.0
 20
36.49999999999858
 30
0.0
 40
16.28571428571432
100
AcDbArc
 50
270.0
 51
90.0
  0
LINE
  5
39CC
330
3706
100
AcDbEntity
  8
AM_0
100
AcDbLine
 10
0.0
 20
52.7857142857129
 30
0.0
 11
0.0
 21
51.71428571428435
 31
0.0
  0
ARC
  5
39CD
330
3706
100
AcDbEntity
  8
AM_0
100
AcDbCircle
 10
0.0
 20
36.49999999999858
 30
0.0
 40
15.21428571428575
100
AcDbArc
 50
270.0
 51
90.0
  0
LINE
  5
39CE
330
3706
100
AcDbEntity
  8
AM_0
100
AcDbLine
 10
0.0
 20
20.21428571428419
 30
0.0
 11
0.0
 21
21.2857142857128
 31
0.0
  0
ARC
  5
39CF
330
3706
100
AcDbEntity
  8
AM_0
100
AcDbCircle
 10
0.0
 20
36.49999999999858
 30
0.0
 40
18.42857142857147
100
AcDbArc
 50
270.0
 51
90.0
  0
LINE
  5
39D0
330
3706
100
AcDbEntity
  8
AM_0
100
AcDbLine
 10
0.0
 20
54.92857142857002
 30
0.0
 11
0.0
 21
53.85714285714141
 31
0.0
  0
ARC
  5
39D1
330
3706
100
AcDbEntity
  8
AM_0
100
AcDbCircle
 10
0.0
 20
36.49999999999858
 30
0.0
 40
17.3571428571429
100
AcDbArc
 50
270.0
 51
90.0
  0
LINE
  5
39D2
330
3706
100
AcDbEntity
  8
AM_0
100
AcDbLine
 10
0.0
 20
18.07142857142713
 30
0.0
 11
0.0
 21
19.14285714285569
 31
0.0
  0
ARC
  5
39D3
330
3706
100
AcDbEntity
  8
AM_0
100
AcDbCircle
 10
0.0
 20
36.49999999999858
 30
0.0
 40
20.57142857142862
100
AcDbArc
 50
270.0
 51
90.0
  0
LINE
  5
39D4
330
3706
100
AcDbEntity
  8
AM_0
100
AcDbLine
 10
0.0
 20
57.07142857142724
 30
0.0
 11
0.0
 21
55.99999999999858
 31
0.0
  0
ARC
  5
39D5
330
3706
100
AcDbEntity
  8
AM_0
100
AcDbCircle
 10
0.0
 20
36.49999999999858
 30
0.0
 40
19.50000000000005
100
AcDbArc
 50
270.0
 51
90.0
  0
LINE
  5
39D6
330
3706
100
AcDbEntity
  8
AM_0
100
AcDbLine
 10
0.0
 20
15.92857142856991
 30
0.0
 11
0.0
 21
16.99999999999863
 31
0.0
  0
ARC
  5
39D7
330
3706
100
AcDbEntity
  8
AM_0
100
AcDbCircle
 10
0.0
 20
36.49999999999858
 30
0.0
 40
22.71428571428578
100
AcDbArc
 50
270.0
 51
90.0
  0
LINE
  5
39D8
330
3706
100
AcDbEntity
  8
AM_0
100
AcDbLine
 10
0.0
 20
59.21428571428435
 30
0.0
 11
0.0
 21
58.14285714285579
 31
0.0
  0
ARC
  5
39D9
330
3706
100
AcDbEntity
  8
AM_0
100
AcDbCircle
 10
0.0
 20
36.49999999999858
 30
0.0
 40
21.64285714285719
100
AcDbArc
 50
270.0
 51
90.0
  0
LINE
  5
39DA
330
3706
100
AcDbEntity
  8
AM_0
100
AcDbLine
 10
0.0
 20
13.7857142857128
 30
0.0
 11
0.0
 21
14.85714285714141
 31
0.0
  0
ARC
  5
39DB
330
3706
100
AcDbEntity
  8
AM_0
100
AcDbCircle
 10
0.0
 20
36.49999999999858
 30
0.0
 40
24.85714285714292
100
AcDbArc
 50
270.0
 51
90.0
  0
LINE
  5
39DC
330
3706
100
AcDbEntity
  8
AM_0
100
AcDbLine
 10
0.0
 20
61.35714285714147
 30
0.0
 11
0.0
 21
60.2857142857129
 31
0.0
  0
ARC
  5
39DD
330
3706
100
AcDbEntity
  8
AM_0
100
AcDbCircle
 10
0.0
 20
36.49999999999858
 30
0.0
 40
23.78571428571435
100
AcDbArc
 50
270.0
 51
90.0
  0
LINE
  5
39DE
330
3706
100
AcDbEntity
  8
AM_0
100
AcDbLine
 10
0.0
 20
11.64285714285569
 30
0.0
 11
0.0
 21
12.71428571428419
 31
0.0
  0
LINE
  5
39DF
330
3706
100
AcDbEntity
  8
AM_0
100
AcDbLine
 10
0.0
 20
63.49999999999858
 30
0.0
 11
0.0
 21
62.42857142857002
 31
0.0
  0
ARC
  5
39E0
330
3706
100
AcDbEntity
  8
AM_0
100
AcDbCircle
 10
0.0
 20
36.49999999999858
 30
0.0
 40
25.92857142857149
100
AcDbArc
 50
270.0
 51
90.0
  0
LINE
  5
39E1
330
3706
100
AcDbEntity
  8
AM_0
100
AcDbLine
 10
0.0
 20
9.499999999998523
 30
0.0
 11
0.0
 21
10.57142857142713
 31
0.0
  0
ARC
  5
39E2
330
3706
100
AcDbEntity
  8
AM_0
100
AcDbCircle
 10
31.60992723813212
 20
-18.25000000000136
 30
0.0
 40
14.14285714285716
100
AcDbArc
 50
329.9999999999995
 51
149.9999999999994
  0
LINE
  5
39E3
330
3706
100
AcDbEntity
  8
AM_0
100
AcDbLine
 10
19.36185367032362
 20
-11.17857142857286
 30
0.0
 11
20.28973803152127
 21
-11.71428571428708
 31
0.0
  0
ARC
  5
39E4
330
3706
100
AcDbEntity
  8
AM_0
100
AcDbCircle
 10
31.60992723813212
 20
-18.25000000000136
 30
0.0
 40
13.07142857142858
100
AcDbArc
 50
329.9999999999995
 51
149.9999999999994
  0
LINE
  5
39E5
330
3706
100
AcDbEntity
  8
AM_0
100
AcDbLine
 10
43.8580008059406
 20
-25.32142857142999
 30
0.0
 11
42.93011644474296
 21
-24.7857142857157
 31
0.0
  0
ARC
  5
39E6
330
3706
100
AcDbEntity
  8
AM_0
100
AcDbCircle
 10
31.60992723813212
 20
-18.25000000000136
 30
0.0
 40
16.2857142857143
100
AcDbArc
 50
329.9999999999995
 51
149.9999999999994
  0
LINE
  5
39E7
330
3706
100
AcDbEntity
  8
AM_0
100
AcDbLine
 10
17.50608494792834
 20
-10.10714285714431
 30
0.0
 11
18.43396930912598
 21
-10.64285714285853
 31
0.0
  0
ARC
  5
39E8
330
3706
100
AcDbEntity
  8
AM_0
100
AcDbCircle
 10
31.60992723813212
 20
-18.25000000000136
 30
0.0
 40
15.21428571428573
100
AcDbArc
 50
329.9999999999995
 51
149.9999999999994
  0
LINE
  5
39E9
330
3706
100
AcDbEntity
  8
AM_0
100
AcDbLine
 10
45.71376952833583
 20
-26.39285714285853
 30
0.0
 11
44.78588516713823
 21
-25.85714285714431
 31
0.0
  0
ARC
  5
39EA
330
3706
100
AcDbEntity
  8
AM_0
100
AcDbCircle
 10
31.60992723813212
 20
-18.25000000000136
 30
0.0
 40
18.42857142857145
100
AcDbArc
 50
329.9999999999995
 51
149.9999999999994
  0
LINE
  5
39EB
330
3706
100
AcDbEntity
  8
AM_0
100
AcDbLine
 10
15.65031622553312
 20
-9.035714285715696
 30
0.0
 11
16.57820058673076
 21
-9.571428571429976
 31
0.0
  0
ARC
  5
39EC
330
3706
100
AcDbEntity
  8
AM_0
100
AcDbCircle
 10
31.60992723813212
 20
-18.25000000000136
 30
0.0
 40
17.35714285714288
100
AcDbArc
 50
329.9999999999995
 51
149.9999999999994
  0
LINE
  5
39ED
330
3706
100
AcDbEntity
  8
AM_0
100
AcDbLine
 10
47.56953825073099
 20
-27.46428571428709
 30
0.0
 11
46.64165388953342
 21
-26.92857142857281
 31
0.0
  0
ARC
  5
39EE
330
3706
100
AcDbEntity
  8
AM_0
100
AcDbCircle
 10
31.60992723813212
 20
-18.25000000000136
 30
0.0
 40
20.5714285714286
100
AcDbArc
 50
329.9999999999995
 51
149.9999999999994
  0
LINE
  5
39EF
330
3706
100
AcDbEntity
  8
AM_0
100
AcDbLine
 10
13.79454750313795
 20
-7.9642857142872
 30
0.0
 11
14.72243186433547
 21
-8.500000000001364
 31
0.0
  0
ARC
  5
39F0
330
3706
100
AcDbEntity
  8
AM_0
100
AcDbCircle
 10
31.60992723813212
 20
-18.25000000000136
 30
0.0
 40
19.50000000000002
100
AcDbArc
 50
329.9999999999995
 51
149.9999999999994
  0
LINE
  5
39F1
330
3706
100
AcDbEntity
  8
AM_0
100
AcDbLine
 10
49.42530697312633
 20
-28.5357142857157
 30
0.0
 11
48.49742261192864
 21
-28.00000000000137
 31
0.0
  0
ARC
  5
39F2
330
3706
100
AcDbEntity
  8
AM_0
100
AcDbCircle
 10
31.60992723813212
 20
-18.25000000000136
 30
0.0
 40
22.71428571428574
100
AcDbArc
 50
329.9999999999995
 51
149.9999999999994
  0
LINE
  5
39F3
330
3706
100
AcDbEntity
  8
AM_0
100
AcDbLine
 10
11.93877878074261
 20
-6.892857142858531
 30
0.0
 11
12.86666314194031
 21
-7.428571428572865
 31
0.0
  0
ARC
  5
39F4
330
3706
100
AcDbEntity
  8
AM_0
100
AcDbCircle
 10
31.60992723813212
 20
-18.25000000000136
 30
0.0
 40
21.64285714285717
100
AcDbArc
 50
329.9999999999995
 51
149.9999999999994
  0
LINE
  5
39F5
330
3706
100
AcDbEntity
  8
AM_0
100
AcDbLine
 10
51.28107569552151
 20
-29.60714285714431
 30
0.0
 11
50.35319133432381
 21
-29.07142857142999
 31
0.0
  0
ARC
  5
39F6
330
3706
100
AcDbEntity
  8
AM_0
100
AcDbCircle
 10
31.60992723813212
 20
-18.25000000000136
 30
0.0
 40
24.85714285714289
100
AcDbArc
 50
329.9999999999995
 51
149.9999999999994
  0
LINE
  5
39F7
330
3706
100
AcDbEntity
  8
AM_0
100
AcDbLine
 10
10.08301005834744
 20
-5.821428571429976
 30
0.0
 11
11.01089441954514
 21
-6.357142857144308
 31
0.0
  0
ARC
  5
39F8
330
3706
100
AcDbEntity
  8
AM_0
100
AcDbCircle
 10
31.60992723813212
 20
-18.25000000000136
 30
0.0
 40
23.78571428571431
100
AcDbArc
 50
329.9999999999995
 51
149.9999999999994
  0
LINE
  5
39F9
330
3706
100
AcDbEntity
  8
AM_0
100
AcDbLine
 10
53.13684441791672
 20
-30.67857142857281
 30
0.0
 11
52.20896005671909
 21
-30.14285714285853
 31
0.0
  0
LINE
  5
39FA
330
3706
100
AcDbEntity
  8
AM_0
100
AcDbLine
 10
8.227241335952214
 20
-4.750000000001363
 30
0.0
 11
9.155125697149854
 21
-5.285714285715697
 31
0.0
  0
ARC
  5
39FB
330
3706
100
AcDbEntity
  8
AM_0
100
AcDbCircle
 10
31.60992723813212
 20
-18.25000000000136
 30
0.0
 40
25.92857142857146
100
AcDbArc
 50
329.9999999999995
 51
149.9999999999994
  0
LINE
  5
39FC
330
3706
100
AcDbEntity
  8
AM_0
100
AcDbLine
 10
54.99261314031196
 20
-31.75000000000137
 30
0.0
 11
54.06472877911433
 21
-31.21428571428709
 31
0.0
  0
CIRCLE
  5
39FD
330
3706
100
AcDbEntity
  8
AM_0
100
AcDbCircle
 10
63.46743332211076
 20
4.10425480488675
 30
0.0
 40
3.323440000000008
  0
CIRCLE
  5
39FE
330
3706
100
AcDbEntity
  8
AM_0
100
AcDbCircle
 10
35.28810558569279
 20
52.91228216749739
 30
0.0
 40
3.323440000000041
  0
CIRCLE
  5
39FF
330
3706
100
AcDbEntity
  8
AM_0
100
AcDbCircle
 10
35.42043901478348
 20
20.44999999999874
 30
0.0
 40
3.323440000000009
  0
CIRCLE
  5
3A00
330
3706
100
AcDbEntity
  8
AM_0
100
AcDbCircle
 10
-63.46743332211054
 20
4.104254804886636
 30
0.0
 40
3.323440000000041
  0
CIRCLE
  5
3A01
330
3706
100
AcDbEntity
  8
AM_0
100
AcDbCircle
 10
-35.28810558569273
 20
52.91228216749733
 30
0.0
 40
3.323440000000008
  0
CIRCLE
  5
3A02
330
3706
100
AcDbEntity
  8
AM_0
100
AcDbCircle
 10
-35.42043901478348
 20
20.4499999999984
 30
0.0
 40
3.323440000000009
  0
CIRCLE
  5
3A03
330
3706
100
AcDbEntity
  8
AM_0
100
AcDbCircle
 10
28.17932773641793
 20
-57.01653697238834
 30
0.0
 40
3.323440000000041
  0
CIRCLE
  5
3A04
330
3706
100
AcDbEntity
  8
AM_0
100
AcDbCircle
 10
-28.17932773641781
 20
-57.01653697238834
 30
0.0
 40
3.323440000000006
  0
CIRCLE
  5
3A05
330
3706
100
AcDbEntity
  8
AM_0
100
AcDbCircle
 10
0.0000000000001137
 20
-40.9000000000014
 30
0.0
 40
3.323440000000008
  0
CIRCLE
  5
3A06
330
3706
100
AcDbEntity
  8
AM_0
100
AcDbCircle
 10
63.46743332211076
 20
4.104254804886807
 30
0.0
 40
4.000082346706586
  0
CIRCLE
  5
3A07
330
3706
100
AcDbEntity
  8
AM_0
100
AcDbCircle
 10
63.46743332211076
 20
4.104254804886807
 30
0.0
 40
5.79999999999999
  0
SPLINE
  5
3A08
330
3706
100
AcDbEntity
  8
AM_0
100
AcDbSpline
210
0.0
220
0.0
230
1.0
 70
    28
 71
     2
 72
     6
 73
     3
 74
     0
 42
0.000000001
 43
0.0000000001
 40
0.0
 40
0.0
 40
0.0
 40
0.759483489750648
 40
0.759483489750648
 40
0.759483489750648
 10
63.46743332211076
 20
-3.401298694578372
 30
0.0
 41
1.0
 10
60.21743332211078
 20
-1.52491031971209
 30
0.0
 41
1.154700538379251
 10
56.96743332211076
 20
0.3514780551541889
 30
0.0
 41
1.0
  0
SPLINE
  5
3A09
330
3706
100
AcDbEntity
  8
AM_0
100
AcDbSpline
210
0.0
220
0.0
230
1.0
 70
    28
 71
     2
 72
     6
 73
     3
 74
     0
 42
0.000000001
 43
0.0000000001
 40
0.0
 40
0.0
 40
0.0
 40
0.7594834897506491
 40
0.7594834897506491
 40
0.7594834897506491
 10
69.96743332211076
 20
0.3514780551541889
 30
0.0
 41
1.0
 10
66.71743332211076
 20
-1.52491031971209
 30
0.0
 41
1.154700538379251
 10
63.46743332211076
 20
-3.401298694578372
 30
0.0
 41
1.0
  0
SPLINE
  5
3A0A
330
3706
100
AcDbEntity
  8
AM_0
100
AcDbSpline
210
0.0
220
0.0
230
1.0
 70
    28
 71
     2
 72
     6
 73
     3
 74
     0
 42
0.000000001
 43
0.0000000001
 40
0.0
 40
0.0
 40
0.0
 40
0.759483489750648
 40
0.759483489750648
 40
0.759483489750648
 10
69.96743332211076
 20
7.857031554619311
 30
0.0
 41
1.0
 10
69.96743332211076
 20
4.10425480488675
 30
0.0
 41
1.154700538379251
 10
69.96743332211076
 20
0.3514780551541889
 30
0.0
 41
1.0
  0
SPLINE
  5
3A0B
330
3706
100
AcDbEntity
  8
AM_0
100
AcDbSpline
210
0.0
220
0.0
230
1.0
 70
    28
 71
     2
 72
     6
 73
     3
 74
     0
 42
0.000000001
 43
0.0000000001
 40
0.0
 40
0.0
 40
0.0
 40
0.7594834897506492
 40
0.7594834897506492
 40
0.7594834897506492
 10
63.46743332211076
 20
11.60980830435193
 30
0.0
 41
1.0
 10
66.71743332211082
 20
9.733419929485592
 30
0.0
 41
1.154700538379254
 10
69.96743332211076
 20
7.857031554619311
 30
0.0
 41
1.0
  0
SPLINE
  5
3A0C
330
3706
100
AcDbEntity
  8
AM_0
100
AcDbSpline
210
0.0
220
0.0
230
1.0
 70
    28
 71
     2
 72
     6
 73
     3
 74
     0
 42
0.000000001
 43
0.0000000001
 40
0.0
 40
0.0
 40
0.0
 40
0.7594834897506452
 40
0.7594834897506452
 40
0.7594834897506452
 10
56.96743332211076
 20
7.857031554619311
 30
0.0
 41
1.0
 10
60.21743332211078
 20
9.733419929485592
 30
0.0
 41
1.154700538379251
 10
63.46743332211076
 20
11.60980830435193
 30
0.0
 41
1.0
  0
SPLINE
  5
3A0D
330
3706
100
AcDbEntity
  8
AM_0
100
AcDbSpline
210
0.0
220
0.0
230
1.0
 70
    28
 71
     2
 72
     6
 73
     3
 74
     0
 42
0.000000001
 43
0.0000000001
 40
0.0
 40
0.0
 40
0.0
 40
0.7594834897506463
 40
0.7594834897506463
 40
0.7594834897506463
 10
56.96743332211076
 20
0.3514780551541889
 30
0.0
 41
1.0
 10
56.96743332211075
 20
4.104254804886807
 30
0.0
 41
1.154700538379248
 10
56.96743332211076
 20
7.857031554619311
 30
0.0
 41
1.0
  0
CIRCLE
  5
3A0E
330
3706
100
AcDbEntity
  8
AM_0
100
AcDbCircle
 10
35.28810558569279
 20
52.91228216749733
 30
0.0
 40
4.000082346706617
  0
CIRCLE
  5
3A0F
330
3706
100
AcDbEntity
  8
AM_0
100
AcDbCircle
 10
35.28810558569279
 20
52.91228216749733
 30
0.0
 40
5.800000000000037
  0
SPLINE
  5
3A10
330
3706
100
AcDbEntity
  8
AM_0
100
AcDbSpline
210
0.0
220
0.0
230
1.0
 70
    28
 71
     2
 72
     6
 73
     3
 74
     0
 42
0.000000001
 43
0.0000000001
 40
0.0
 40
0.0
 40
0.0
 40
0.759483489750648
 40
0.759483489750648
 40
0.759483489750648
 10
42.79365908515797
 20
52.91228216749733
 30
0.0
 41
1.0
 10
40.91727071029175
 20
49.66228216749732
 30
0.0
 41
1.154700538379251
 10
39.04088233542529
 20
46.41228216749731
 30
0.0
 41
1.0
  0
SPLINE
  5
3A11
330
3706
100
AcDbEntity
  8
AM_0
100
AcDbSpline
210
0.0
220
0.0
230
1.0
 70
    28
 71
     2
 72
     6
 73
     3
 74
     0
 42
0.000000001
 43
0.0000000001
 40
0.0
 40
0.0
 40
0.0
 40
0.7594834897506491
 40
0.7594834897506491
 40
0.7594834897506491
 10
39.04088233542529
 20
59.41228216749738
 30
0.0
 41
1.0
 10
40.91727071029175
 20
56.16228216749739
 30
0.0
 41
1.154700538379251
 10
42.79365908515797
 20
52.91228216749733
 30
0.0
 41
1.0
  0
SPLINE
  5
3A12
330
3706
100
AcDbEntity
  8
AM_0
100
AcDbSpline
210
0.0
220
0.0
230
1.0
 70
    28
 71
     2
 72
     6
 73
     3
 74
     0
 42
0.000000001
 43
0.0000000001
 40
0.0
 40
0.0
 40
0.0
 40
0.759483489750648
 40
0.759483489750648
 40
0.759483489750648
 10
31.53532883596023
 20
59.41228216749738
 30
0.0
 41
1.0
 10
35.28810558569279
 20
59.41228216749739
 30
0.0
 41
1.154700538379251
 10
39.04088233542529
 20
59.41228216749738
 30
0.0
 41
1.0
  0
SPLINE
  5
3A13
330
3706
100
AcDbEntity
  8
AM_0
100
AcDbSpline
210
0.0
220
0.0
230
1.0
 70
    28
 71
     2
 72
     6
 73
     3
 74
     0
 42
0.000000001
 43
0.0000000001
 40
0.0
 40
0.0
 40
0.0
 40
0.7594834897506492
 40
0.7594834897506492
 40
0.7594834897506492
 10
27.78255208622761
 20
52.91228216749733
 30
0.0
 41
1.0
 10
29.65894046109395
 20
56.16228216749739
 30
0.0
 41
1.154700538379254
 10
31.53532883596023
 20
59.41228216749738
 30
0.0
 41
1.0
  0
SPLINE
  5
3A14
330
3706
100
AcDbEntity
  8
AM_0
100
AcDbSpline
210
0.0
220
0.0
230
1.0
 70
    28
 71
     2
 72
     6
 73
     3
 74
     0
 42
0.000000001
 43
0.0000000001
 40
0.0
 40
0.0
 40
0.0
 40
0.7594834897506452
 40
0.7594834897506452
 40
0.7594834897506452
 10
31.53532883596023
 20
46.41228216749731
 30
0.0
 41
1.0
 10
29.65894046109395
 20
49.66228216749732
 30
0.0
 41
1.154700538379251
 10
27.78255208622761
 20
52.91228216749733
 30
0.0
 41
1.0
  0
SPLINE
  5
3A15
330
3706
100
AcDbEntity
  8
AM_0
100
AcDbSpline
210
0.0
220
0.0
230
1.0
 70
    28
 71
     2
 72
     6
 73
     3
 74
     0
 42
0.000000001
 43
0.0000000001
 40
0.0
 40
0.0
 40
0.0
 40
0.7594834897506463
 40
0.7594834897506463
 40
0.7594834897506463
 10
39.04088233542529
 20
46.41228216749731
 30
0.0
 41
1.0
 10
35.28810558569279
 20
46.41228216749731
 30
0.0
 41
1.154700538379248
 10
31.53532883596023
 20
46.41228216749731
 30
0.0
 41
1.0
  0
CIRCLE
  5
3A16
330
3706
100
AcDbEntity
  8
AM_0
100
AcDbCircle
 10
35.42043901478348
 20
20.44999999999863
 30
0.0
 40
4.000082346706586
  0
CIRCLE
  5
3A17
330
3706
100
AcDbEntity
  8
AM_0
100
AcDbCircle
 10
35.42043901478348
 20
20.44999999999863
 30
0.0
 40
5.799999999999991
  0
SPLINE
  5
3A18
330
3706
100
AcDbEntity
  8
AM_0
100
AcDbSpline
210
0.0
220
0.0
230
1.0
 70
    28
 71
     2
 72
     6
 73
     3
 74
     0
 42
0.000000001
 43
0.0000000001
 40
0.0
 40
0.0
 40
0.0
 40
0.759483489750648
 40
0.759483489750648
 40
0.759483489750648
 10
35.42043901478348
 20
27.9555534994638
 30
0.0
 41
1.0
 10
38.67043901478348
 20
26.07916512459752
 30
0.0
 41
1.154700538379251
 10
41.92043901478347
 20
24.2027767497312
 30
0.0
 41
1.0
  0
SPLINE
  5
3A19
330
3706
100
AcDbEntity
  8
AM_0
100
AcDbSpline
210
0.0
220
0.0
230
1.0
 70
    28
 71
     2
 72
     6
 73
     3
 74
     0
 42
0.000000001
 43
0.0000000001
 40
0.0
 40
0.0
 40
0.0
 40
0.7594834897506491
 40
0.7594834897506491
 40
0.7594834897506491
 10
28.92043901478348
 20
24.2027767497312
 30
0.0
 41
1.0
 10
32.17043901478348
 20
26.07916512459752
 30
0.0
 41
1.154700538379251
 10
35.42043901478348
 20
27.9555534994638
 30
0.0
 41
1.0
  0
SPLINE
  5
3A1A
330
3706
100
AcDbEntity
  8
AM_0
100
AcDbSpline
210
0.0
220
0.0
230
1.0
 70
    28
 71
     2
 72
     6
 73
     3
 74
     0
 42
0.000000001
 43
0.0000000001
 40
0.0
 40
0.0
 40
0.0
 40
0.759483489750648
 40
0.759483489750648
 40
0.759483489750648
 10
28.92043901478348
 20
16.69722325026611
 30
0.0
 41
1.0
 10
28.92043901478349
 20
20.44999999999874
 30
0.0
 41
1.154700538379251
 10
28.92043901478348
 20
24.2027767497312
 30
0.0
 41
1.0
  0
SPLINE
  5
3A1B
330
3706
100
AcDbEntity
  8
AM_0
100
AcDbSpline
210
0.0
220
0.0
230
1.0
 70
    28
 71
     2
 72
     6
 73
     3
 74
     0
 42
0.000000001
 43
0.0000000001
 40
0.0
 40
0.0
 40
0.0
 40
0.7594834897506492
 40
0.7594834897506492
 40
0.7594834897506492
 10
35.42043901478348
 20
12.9444465005335
 30
0.0
 41
1.0
 10
32.17043901478348
 20
14.82083487539978
 30
0.0
 41
1.154700538379254
 10
28.92043901478348
 20
16.69722325026611
 30
0.0
 41
1.0
  0
SPLINE
  5
3A1C
330
3706
100
AcDbEntity
  8
AM_0
100
AcDbSpline
210
0.0
220
0.0
230
1.0
 70
    28
 71
     2
 72
     6
 73
     3
 74
     0
 42
0.000000001
 43
0.0000000001
 40
0.0
 40
0.0
 40
0.0
 40
0.7594834897506452
 40
0.7594834897506452
 40
0.7594834897506452
 10
41.92043901478347
 20
16.697223250266
 30
0.0
 41
1.0
 10
38.67043901478348
 20
14.82083487539978
 30
0.0
 41
1.154700538379251
 10
35.42043901478348
 20
12.9444465005335
 30
0.0
 41
1.0
  0
SPLINE
  5
3A1D
330
3706
100
AcDbEntity
  8
AM_0
100
AcDbSpline
210
0.0
220
0.0
230
1.0
 70
    28
 71
     2
 72
     6
 73
     3
 74
     0
 42
0.000000001
 43
0.0000000001
 40
0.0
 40
0.0
 40
0.0
 40
0.7594834897506463
 40
0.7594834897506463
 40
0.7594834897506463
 10
41.92043901478347
 20
24.2027767497312
 30
0.0
 41
1.0
 10
41.92043901478347
 20
20.44999999999863
 30
0.0
 41
1.154700538379248
 10
41.92043901478347
 20
16.69722325026611
 30
0.0
 41
1.0
  0
CIRCLE
  5
3A1E
330
3706
100
AcDbEntity
  8
AM_0
100
AcDbCircle
 10
-63.46743332211054
 20
4.10425480488675
 30
0.0
 40
4.000082346706617
  0
CIRCLE
  5
3A1F
330
3706
100
AcDbEntity
  8
AM_0
100
AcDbCircle
 10
-63.46743332211054
 20
4.10425480488675
 30
0.0
 40
5.800000000000037
  0
SPLINE
  5
3A20
330
3706
100
AcDbEntity
  8
AM_0
100
AcDbSpline
210
0.0
220
0.0
230
1.0
 70
    28
 71
     2
 72
     6
 73
     3
 74
     0
 42
0.000000001
 43
0.0000000001
 40
0.0
 40
0.0
 40
0.0
 40
0.759483489750648
 40
0.759483489750648
 40
0.759483489750648
 10
-67.22021007184327
 20
10.60425480488675
 30
0.0
 41
1.0
 10
-63.46743332211054
 20
10.60425480488675
 30
0.0
 41
1.154700538379251
 10
-59.71465657237809
 20
10.60425480488675
 30
0.0
 41
1.0
  0
SPLINE
  5
3A21
330
3706
100
AcDbEntity
  8
AM_0
100
AcDbSpline
210
0.0
220
0.0
230
1.0
 70
    28
 71
     2
 72
     6
 73
     3
 74
     0
 42
0.000000001
 43
0.0000000001
 40
0.0
 40
0.0
 40
0.0
 40
0.7594834897506491
 40
0.7594834897506491
 40
0.7594834897506491
 10
-70.97298682157576
 20
4.10425480488675
 30
0.0
 41
1.0
 10
-69.09659844670944
 20
7.354254804886751
 30
0.0
 41
1.154700538379251
 10
-67.22021007184316
 20
10.60425480488675
 30
0.0
 41
1.0
  0
SPLINE
  5
3A22
330
3706
100
AcDbEntity
  8
AM_0
100
AcDbSpline
210
0.0
220
0.0
230
1.0
 70
    28
 71
     2
 72
     6
 73
     3
 74
     0
 42
0.000000001
 43
0.0000000001
 40
0.0
 40
0.0
 40
0.0
 40
0.759483489750648
 40
0.759483489750648
 40
0.759483489750648
 10
-67.22021007184316
 20
-2.395745195113363
 30
0.0
 41
1.0
 10
-69.09659844670944
 20
0.8542548048866931
 30
0.0
 41
1.154700538379251
 10
-70.97298682157576
 20
4.10425480488675
 30
0.0
 41
1.0
  0
SPLINE
  5
3A23
330
3706
100
AcDbEntity
  8
AM_0
100
AcDbSpline
210
0.0
220
0.0
230
1.0
 70
    28
 71
     2
 72
     6
 73
     3
 74
     0
 42
0.000000001
 43
0.0000000001
 40
0.0
 40
0.0
 40
0.0
 40
0.7594834897506492
 40
0.7594834897506492
 40
0.7594834897506492
 10
-59.71465657237809
 20
-2.395745195113363
 30
0.0
 41
1.0
 10
-63.46743332211055
 20
-2.395745195113363
 30
0.0
 41
1.154700538379254
 10
-67.22021007184327
 20
-2.395745195113363
 30
0.0
 41
1.0
  0
SPLINE
  5
3A24
330
3706
100
AcDbEntity
  8
AM_0
100
AcDbSpline
210
0.0
220
0.0
230
1.0
 70
    28
 71
     2
 72
     6
 73
     3
 74
     0
 42
0.000000001
 43
0.0000000001
 40
0.0
 40
0.0
 40
0.0
 40
0.7594834897506452
 40
0.7594834897506452
 40
0.7594834897506452
 10
-55.96187982264547
 20
4.10425480488675
 30
0.0
 41
1.0
 10
-57.83826819751169
 20
0.8542548048866931
 30
0.0
 41
1.154700538379251
 10
-59.71465657237796
 20
-2.395745195113363
 30
0.0
 41
1.0
  0
SPLINE
  5
3A25
330
3706
100
AcDbEntity
  8
AM_0
100
AcDbSpline
210
0.0
220
0.0
230
1.0
 70
    28
 71
     2
 72
     6
 73
     3
 74
     0
 42
0.000000001
 43
0.0000000001
 40
0.0
 40
0.0
 40
0.0
 40
0.7594834897506463
 40
0.7594834897506463
 40
0.7594834897506463
 10
-59.71465657237809
 20
10.60425480488675
 30
0.0
 41
1.0
 10
-57.83826819751169
 20
7.354254804886638
 30
0.0
 41
1.154700538379248
 10
-55.96187982264547
 20
4.10425480488675
 30
0.0
 41
1.0
  0
CIRCLE
  5
3A26
330
3706
100
AcDbEntity
  8
AM_0
100
AcDbCircle
 10
-35.28810558569273
 20
52.91228216749733
 30
0.0
 40
4.000082346706586
  0
CIRCLE
  5
3A27
330
3706
100
AcDbEntity
  8
AM_0
100
AcDbCircle
 10
-35.28810558569273
 20
52.91228216749733
 30
0.0
 40
5.799999999999991
  0
SPLINE
  5
3A28
330
3706
100
AcDbEntity
  8
AM_0
100
AcDbSpline
210
0.0
220
0.0
230
1.0
 70
    28
 71
     2
 72
     6
 73
     3
 74
     0
 42
0.000000001
 43
0.0000000001
 40
0.0
 40
0.0
 40
0.0
 40
0.759483489750648
 40
0.759483489750648
 40
0.759483489750648
 10
-28.78810558569274
 20
56.66505891722994
 30
0.0
 41
1.0
 10
-28.78810558569274
 20
52.91228216749733
 30
0.0
 41
1.154700538379251
 10
-28.78810558569274
 20
49.15950541776471
 30
0.0
 41
1.0
  0
SPLINE
  5
3A29
330
3706
100
AcDbEntity
  8
AM_0
100
AcDbSpline
210
0.0
220
0.0
230
1.0
 70
    28
 71
     2
 72
     6
 73
     3
 74
     0
 42
0.000000001
 43
0.0000000001
 40
0.0
 40
0.0
 40
0.0
 40
0.7594834897506491
 40
0.7594834897506491
 40
0.7594834897506491
 10
-35.28810558569273
 20
60.41783566696238
 30
0.0
 41
1.0
 10
-32.03810558569279
 20
58.54144729209611
 30
0.0
 41
1.154700538379251
 10
-28.78810558569274
 20
56.66505891722994
 30
0.0
 41
1.0
  0
SPLINE
  5
3A2A
330
3706
100
AcDbEntity
  8
AM_0
100
AcDbSpline
210
0.0
220
0.0
230
1.0
 70
    28
 71
     2
 72
     6
 73
     3
 74
     0
 42
0.000000001
 43
0.0000000001
 40
0.0
 40
0.0
 40
0.0
 40
0.759483489750648
 40
0.759483489750648
 40
0.759483489750648
 10
-41.78810558569272
 20
56.66505891722994
 30
0.0
 41
1.0
 10
-38.53810558569275
 20
58.54144729209622
 30
0.0
 41
1.154700538379251
 10
-35.28810558569273
 20
60.41783566696238
 30
0.0
 41
1.0
  0
SPLINE
  5
3A2B
330
3706
100
AcDbEntity
  8
AM_0
100
AcDbSpline
210
0.0
220
0.0
230
1.0
 70
    28
 71
     2
 72
     6
 73
     3
 74
     0
 42
0.000000001
 43
0.0000000001
 40
0.0
 40
0.0
 40
0.0
 40
0.7594834897506492
 40
0.7594834897506492
 40
0.7594834897506492
 10
-41.78810558569272
 20
49.15950541776481
 30
0.0
 41
1.0
 10
-41.78810558569272
 20
52.91228216749733
 30
0.0
 41
1.154700538379254
 10
-41.78810558569272
 20
56.66505891722994
 30
0.0
 41
1.0
  0
SPLINE
  5
3A2C
330
3706
100
AcDbEntity
  8
AM_0
100
AcDbSpline
210
0.0
220
0.0
230
1.0
 70
    28
 71
     2
 72
     6
 73
     3
 74
     0
 42
0.000000001
 43
0.0000000001
 40
0.0
 40
0.0
 40
0.0
 40
0.7594834897506452
 40
0.7594834897506452
 40
0.7594834897506452
 10
-35.28810558569273
 20
45.40672866803226
 30
0.0
 41
1.0
 10
-38.53810558569275
 20
47.28311704289853
 30
0.0
 41
1.154700538379251
 10
-41.78810558569272
 20
49.15950541776481
 30
0.0
 41
1.0
  0
SPLINE
  5
3A2D
330
3706
100
AcDbEntity
  8
AM_0
100
AcDbSpline
210
0.0
220
0.0
230
1.0
 70
    28
 71
     2
 72
     6
 73
     3
 74
     0
 42
0.000000001
 43
0.0000000001
 40
0.0
 40
0.0
 40
0.0
 40
0.7594834897506463
 40
0.7594834897506463
 40
0.7594834897506463
 10
-28.78810558569274
 20
49.15950541776481
 30
0.0
 41
1.0
 10
-32.03810558569273
 20
47.28311704289853
 30
0.0
 41
1.154700538379248
 10
-35.28810558569273
 20
45.40672866803226
 30
0.0
 41
1.0
  0
CIRCLE
  5
3A2E
330
3706
100
AcDbEntity
  8
AM_0
100
AcDbCircle
 10
-35.42043901478348
 20
20.4499999999984
 30
0.0
 40
4.000082346706586
  0
CIRCLE
  5
3A2F
330
3706
100
AcDbEntity
  8
AM_0
100
AcDbCircle
 10
-35.42043901478348
 20
20.4499999999984
 30
0.0
 40
5.799999999999991
  0
SPLINE
  5
3A30
330
3706
100
AcDbEntity
  8
AM_0
100
AcDbSpline
210
0.0
220
0.0
230
1.0
 70
    28
 71
     2
 72
     6
 73
     3
 74
     0
 42
0.000000001
 43
0.0000000001
 40
0.0
 40
0.0
 40
0.0
 40
0.759483489750648
 40
0.759483489750648
 40
0.759483489750648
 10
-41.92043901478347
 20
16.697223250266
 30
0.0
 41
1.0
 10
-41.92043901478347
 20
20.4499999999984
 30
0.0
 41
1.154700538379251
 10
-41.92043901478347
 20
24.20277674973113
 30
0.0
 41
1.0
  0
SPLINE
  5
3A31
330
3706
100
AcDbEntity
  8
AM_0
100
AcDbSpline
210
0.0
220
0.0
230
1.0
 70
    28
 71
     2
 72
     6
 73
     3
 74
     0
 42
0.000000001
 43
0.0000000001
 40
0.0
 40
0.0
 40
0.0
 40
0.7594834897506491
 40
0.7594834897506491
 40
0.7594834897506491
 10
-35.42043901478348
 20
12.94444650053333
 30
0.0
 41
1.0
 10
-38.67043901478348
 20
14.82083487539972
 30
0.0
 41
1.154700538379251
 10
-41.92043901478347
 20
16.697223250266
 30
0.0
 41
1.0
  0
SPLINE
  5
3A32
330
3706
100
AcDbEntity
  8
AM_0
100
AcDbSpline
210
0.0
220
0.0
230
1.0
 70
    28
 71
     2
 72
     6
 73
     3
 74
     0
 42
0.000000001
 43
0.0000000001
 40
0.0
 40
0.0
 40
0.0
 40
0.759483489750648
 40
0.759483489750648
 40
0.759483489750648
 10
-28.92043901478348
 20
16.69722325026589
 30
0.0
 41
1.0
 10
-32.17043901478348
 20
14.8208348753996
 30
0.0
 41
1.154700538379251
 10
-35.42043901478348
 20
12.94444650053333
 30
0.0
 41
1.0
  0
SPLINE
  5
3A33
330
3706
100
AcDbEntity
  8
AM_0
100
AcDbSpline
210
0.0
220
0.0
230
1.0
 70
    28
 71
     2
 72
     6
 73
     3
 74
     0
 42
0.000000001
 43
0.0000000001
 40
0.0
 40
0.0
 40
0.0
 40
0.7594834897506492
 40
0.7594834897506492
 40
0.7594834897506492
 10
-28.92043901478348
 20
24.20277674973102
 30
0.0
 41
1.0
 10
-28.92043901478349
 20
20.4499999999984
 30
0.0
 41
1.154700538379254
 10
-28.92043901478348
 20
16.69722325026589
 30
0.0
 41
1.0
  0
SPLINE
  5
3A34
330
3706
100
AcDbEntity
  8
AM_0
100
AcDbSpline
210
0.0
220
0.0
230
1.0
 70
    28
 71
     2
 72
     6
 73
     3
 74
     0
 42
0.000000001
 43
0.0000000001
 40
0.0
 40
0.0
 40
0.0
 40
0.7594834897506452
 40
0.7594834897506452
 40
0.7594834897506452
 10
-35.42043901478348
 20
27.95555349946364
 30
0.0
 41
1.0
 10
-32.17043901478348
 20
26.0791651245973
 30
0.0
 41
1.154700538379251
 10
-28.92043901478348
 20
24.20277674973102
 30
0.0
 41
1.0
  0
SPLINE
  5
3A35
330
3706
100
AcDbEntity
  8
AM_0
100
AcDbSpline
210
0.0
220
0.0
230
1.0
 70
    28
 71
     2
 72
     6
 73
     3
 74
     0
 42
0.000000001
 43
0.0000000001
 40
0.0
 40
0.0
 40
0.0
 40
0.7594834897506463
 40
0.7594834897506463
 40
0.7594834897506463
 10
-41.92043901478347
 20
24.20277674973113
 30
0.0
 41
1.0
 10
-38.67043901478343
 20
26.0791651245973
 30
0.0
 41
1.154700538379248
 10
-35.42043901478348
 20
27.95555349946364
 30
0.0
 41
1.0
  0
CIRCLE
  5
3A36
330
3706
100
AcDbEntity
  8
AM_0
100
AcDbCircle
 10
28.17932773641793
 20
-57.01653697238834
 30
0.0
 40
4.000082346706617
  0
CIRCLE
  5
3A37
330
3706
100
AcDbEntity
  8
AM_0
100
AcDbCircle
 10
28.17932773641793
 20
-57.01653697238834
 30
0.0
 40
5.800000000000037
  0
SPLINE
  5
3A38
330
3706
100
AcDbEntity
  8
AM_0
100
AcDbSpline
210
0.0
220
0.0
230
1.0
 70
    28
 71
     2
 72
     6
 73
     3
 74
     0
 42
0.000000001
 43
0.0000000001
 40
0.0
 40
0.0
 40
0.0
 40
0.759483489750648
 40
0.759483489750648
 40
0.759483489750648
 10
24.42655098668542
 20
-63.51653697238828
 30
0.0
 41
1.0
 10
22.55016261181902
 20
-60.26653697238823
 30
0.0
 41
1.154700538379251
 10
20.6737742369528
 20
-57.01653697238834
 30
0.0
 41
1.0
  0
SPLINE
  5
3A39
330
3706
100
AcDbEntity
  8
AM_0
100
AcDbSpline
210
0.0
220
0.0
230
1.0
 70
    28
 71
     2
 72
     6
 73
     3
 74
     0
 42
0.000000001
 43
0.0000000001
 40
0.0
 40
0.0
 40
0.0
 40
0.7594834897506491
 40
0.7594834897506491
 40
0.7594834897506491
 10
31.93210448615048
 20
-63.51653697238828
 30
0.0
 41
1.0
 10
28.17932773641793
 20
-63.51653697238828
 30
0.0
 41
1.154700538379251
 10
24.4265509866853
 20
-63.51653697238828
 30
0.0
 41
1.0
  0
SPLINE
  5
3A3A
330
3706
100
AcDbEntity
  8
AM_0
100
AcDbSpline
210
0.0
220
0.0
230
1.0
 70
    28
 71
     2
 72
     6
 73
     3
 74
     0
 42
0.000000001
 43
0.0000000001
 40
0.0
 40
0.0
 40
0.0
 40
0.759483489750648
 40
0.759483489750648
 40
0.759483489750648
 10
35.68488123588311
 20
-57.01653697238834
 30
0.0
 41
1.0
 10
33.80849286101682
 20
-60.26653697238823
 30
0.0
 41
1.154700538379251
 10
31.93210448615048
 20
-63.51653697238828
 30
0.0
 41
1.0
  0
SPLINE
  5
3A3B
330
3706
100
AcDbEntity
  8
AM_0
100
AcDbSpline
210
0.0
220
0.0
230
1.0
 70
    28
 71
     2
 72
     6
 73
     3
 74
     0
 42
0.000000001
 43
0.0000000001
 40
0.0
 40
0.0
 40
0.0
 40
0.7594834897506492
 40
0.7594834897506492
 40
0.7594834897506492
 10
31.93210448615048
 20
-50.51653697238805
 30
0.0
 41
1.0
 10
33.80849286101682
 20
-53.76653697238825
 30
0.0
 41
1.154700538379254
 10
35.68488123588311
 20
-57.01653697238834
 30
0.0
 41
1.0
  0
SPLINE
  5
3A3C
330
3706
100
AcDbEntity
  8
AM_0
100
AcDbSpline
210
0.0
220
0.0
230
1.0
 70
    28
 71
     2
 72
     6
 73
     3
 74
     0
 42
0.000000001
 43
0.0000000001
 40
0.0
 40
0.0
 40
0.0
 40
0.7594834897506452
 40
0.7594834897506452
 40
0.7594834897506452
 10
24.42655098668542
 20
-50.51653697238805
 30
0.0
 41
1.0
 10
28.17932773641791
 20
-50.51653697238807
 30
0.0
 41
1.154700538379251
 10
31.93210448615048
 20
-50.51653697238805
 30
0.0
 41
1.0
  0
SPLINE
  5
3A3D
330
3706
100
AcDbEntity
  8
AM_0
100
AcDbSpline
210
0.0
220
0.0
230
1.0
 70
    28
 71
     2
 72
     6
 73
     3
 74
     0
 42
0.000000001
 43
0.0000000001
 40
0.0
 40
0.0
 40
0.0
 40
0.7594834897506463
 40
0.7594834897506463
 40
0.7594834897506463
 10
20.67377423695274
 20
-57.01653697238834
 30
0.0
 41
1.0
 10
22.55016261181913
 20
-53.76653697238822
 30
0.0
 41
1.154700538379248
 10
24.42655098668542
 20
-50.51653697238805
 30
0.0
 41
1.0
  0
CIRCLE
  5
3A3E
330
3706
100
AcDbEntity
  8
AM_0
100
AcDbCircle
 10
-28.17932773641781
 20
-57.01653697238834
 30
0.0
 40
4.000082346706585
  0
CIRCLE
  5
3A3F
330
3706
100
AcDbEntity
  8
AM_0
100
AcDbCircle
 10
-28.17932773641781
 20
-57.01653697238834
 30
0.0
 40
5.79999999999999
  0
SPLINE
  5
3A40
330
3706
100
AcDbEntity
  8
AM_0
100
AcDbSpline
210
0.0
220
0.0
230
1.0
 70
    28
 71
     2
 72
     6
 73
     3
 74
     0
 42
0.000000001
 43
0.0000000001
 40
0.0
 40
0.0
 40
0.0
 40
0.759483489750648
 40
0.759483489750648
 40
0.759483489750648
 10
-34.67932773641781
 20
-53.26376022265566
 30
0.0
 41
1.0
 10
-31.42932773641781
 20
-51.3873718477894
 30
0.0
 41
1.154700538379251
 10
-28.17932773641781
 20
-49.51098347292314
 30
0.0
 41
1.0
  0
SPLINE
  5
3A41
330
3706
100
AcDbEntity
  8
AM_0
100
AcDbSpline
210
0.0
220
0.0
230
1.0
 70
    28
 71
     2
 72
     6
 73
     3
 74
     0
 42
0.000000001
 43
0.0000000001
 40
0.0
 40
0.0
 40
0.0
 40
0.7594834897506491
 40
0.7594834897506491
 40
0.7594834897506491
 10
-34.67932773641781
 20
-60.76931372212079
 30
0.0
 41
1.0
 10
-34.67932773641781
 20
-57.01653697238834
 30
0.0
 41
1.154700538379251
 10
-34.67932773641781
 20
-53.26376022265566
 30
0.0
 41
1.0
  0
SPLINE
  5
3A42
330
3706
100
AcDbEntity
  8
AM_0
100
AcDbSpline
210
0.0
220
0.0
230
1.0
 70
    28
 71
     2
 72
     6
 73
     3
 74
     0
 42
0.000000001
 43
0.0000000001
 40
0.0
 40
0.0
 40
0.0
 40
0.759483489750648
 40
0.759483489750648
 40
0.759483489750648
 10
-28.17932773641781
 20
-64.5220904718534
 30
0.0
 41
1.0
 10
-31.42932773641781
 20
-62.64570209698721
 30
0.0
 41
1.154700538379251
 10
-34.67932773641793
 20
-60.76931372212079
 30
0.0
 41
1.0
  0
SPLINE
  5
3A43
330
3706
100
AcDbEntity
  8
AM_0
100
AcDbSpline
210
0.0
220
0.0
230
1.0
 70
    28
 71
     2
 72
     6
 73
     3
 74
     0
 42
0.000000001
 43
0.0000000001
 40
0.0
 40
0.0
 40
0.0
 40
0.7594834897506492
 40
0.7594834897506492
 40
0.7594834897506492
 10
-21.6793277364178
 20
-60.76931372212079
 30
0.0
 41
1.0
 10
-24.92932773641775
 20
-62.64570209698716
 30
0.0
 41
1.154700538379254
 10
-28.17932773641793
 20
-64.5220904718534
 30
0.0
 41
1.0
  0
SPLINE
  5
3A44
330
3706
100
AcDbEntity
  8
AM_0
100
AcDbSpline
210
0.0
220
0.0
230
1.0
 70
    28
 71
     2
 72
     6
 73
     3
 74
     0
 42
0.000000001
 43
0.0000000001
 40
0.0
 40
0.0
 40
0.0
 40
0.7594834897506452
 40
0.7594834897506452
 40
0.7594834897506452
 10
-21.6793277364178
 20
-53.26376022265566
 30
0.0
 41
1.0
 10
-21.6793277364178
 20
-57.01653697238837
 30
0.0
 41
1.154700538379251
 10
-21.6793277364178
 20
-60.76931372212079
 30
0.0
 41
1.0
  0
SPLINE
  5
3A45
330
3706
100
AcDbEntity
  8
AM_0
100
AcDbSpline
210
0.0
220
0.0
230
1.0
 70
    28
 71
     2
 72
     6
 73
     3
 74
     0
 42
0.000000001
 43
0.0000000001
 40
0.0
 40
0.0
 40
0.0
 40
0.7594834897506463
 40
0.7594834897506463
 40
0.7594834897506463
 10
-28.17932773641781
 20
-49.51098347292314
 30
0.0
 41
1.0
 10
-24.92932773641781
 20
-51.38737184778936
 30
0.0
 41
1.154700538379248
 10
-21.6793277364178
 20
-53.26376022265566
 30
0.0
 41
1.0
  0
CIRCLE
  5
3A46
330
3706
100
AcDbEntity
  8
AM_0
100
AcDbCircle
 10
0.0000000000001137
 20
-40.9000000000014
 30
0.0
 40
4.000082346706586
  0
CIRCLE
  5
3A47
330
3706
100
AcDbEntity
  8
AM_0
100
AcDbCircle
 10
0.0000000000001137
 20
-40.9000000000014
 30
0.0
 40
5.799999999999991
  0
SPLINE
  5
3A48
330
3706
100
AcDbEntity
  8
AM_0
100
AcDbSpline
210
0.0
220
0.0
230
1.0
 70
    28
 71
     2
 72
     6
 73
     3
 74
     0
 42
0.000000001
 43
0.0000000001
 40
0.0
 40
0.0
 40
0.0
 40
0.759483489750648
 40
0.759483489750648
 40
0.759483489750648
 10
6.500000000000111
 20
-44.65277674973385
 30
0.0
 41
1.0
 10
3.250000000000055
 20
-46.52916512460016
 30
0.0
 41
1.154700538379251
 10
0.0000000000001137
 20
-48.40555349946635
 30
0.0
 41
1.0
  0
SPLINE
  5
3A49
330
3706
100
AcDbEntity
  8
AM_0
100
AcDbSpline
210
0.0
220
0.0
230
1.0
 70
    28
 71
     2
 72
     6
 73
     3
 74
     0
 42
0.000000001
 43
0.0000000001
 40
0.0
 40
0.0
 40
0.0
 40
0.7594834897506491
 40
0.7594834897506491
 40
0.7594834897506491
 10
6.500000000000111
 20
-37.14722325026885
 30
0.0
 41
1.0
 10
6.500000000000111
 20
-40.9000000000014
 30
0.0
 41
1.154700538379251
 10
6.500000000000111
 20
-44.65277674973402
 30
0.0
 41
1.0
  0
SPLINE
  5
3A4A
330
3706
100
AcDbEntity
  8
AM_0
100
AcDbSpline
210
0.0
220
0.0
230
1.0
 70
    28
 71
     2
 72
     6
 73
     3
 74
     0
 42
0.000000001
 43
0.0000000001
 40
0.0
 40
0.0
 40
0.0
 40
0.759483489750648
 40
0.759483489750648
 40
0.759483489750648
 10
0.0000000000001137
 20
-33.39444650053622
 30
0.0
 41
1.0
 10
3.250000000000226
 20
-35.2708348754025
 30
0.0
 41
1.154700538379251
 10
6.500000000000111
 20
-37.14722325026885
 30
0.0
 41
1.0
  0
SPLINE
  5
3A4B
330
3706
100
AcDbEntity
  8
AM_0
100
AcDbSpline
210
0.0
220
0.0
230
1.0
 70
    28
 71
     2
 72
     6
 73
     3
 74
     0
 42
0.000000001
 43
0.0000000001
 40
0.0
 40
0.0
 40
0.0
 40
0.7594834897506492
 40
0.7594834897506492
 40
0.7594834897506492
 10
-6.499999999999886
 20
-37.14722325026885
 30
0.0
 41
1.0
 10
-3.249999999999886
 20
-35.2708348754025
 30
0.0
 41
1.154700538379254
 10
0.0000000000001137
 20
-33.39444650053622
 30
0.0
 41
1.0
  0
SPLINE
  5
3A4C
330
3706
100
AcDbEntity
  8
AM_0
100
AcDbSpline
210
0.0
220
0.0
230
1.0
 70
    28
 71
     2
 72
     6
 73
     3
 74
     0
 42
0.000000001
 43
0.0000000001
 40
0.0
 40
0.0
 40
0.0
 40
0.7594834897506452
 40
0.7594834897506452
 40
0.7594834897506452
 10
-6.499999999999886
 20
-44.65277674973385
 30
0.0
 41
1.0
 10
-6.499999999999886
 20
-40.9000000000014
 30
0.0
 41
1.154700538379251
 10
-6.499999999999886
 20
-37.14722325026885
 30
0.0
 41
1.0
  0
SPLINE
  5
3A4D
330
3706
100
AcDbEntity
  8
AM_0
100
AcDbSpline
210
0.0
220
0.0
230
1.0
 70
    28
 71
     2
 72
     6
 73
     3
 74
     0
 42
0.000000001
 43
0.0000000001
 40
0.0
 40
0.0
 40
0.0
 40
0.7594834897506463
 40
0.7594834897506463
 40
0.7594834897506463
 10
0.0000000000001137
 20
-48.40555349946635
 30
0.0
 41
1.0
 10
-3.249999999999886
 20
-46.52916512460016
 30
0.0
 41
1.154700538379248
 10
-6.499999999999886
 20
-44.65277674973385
 30
0.0
 41
1.0
  0
CIRCLE
  5
3A4E
330
3706
100
AcDbEntity
  8
AM_0
100
AcDbCircle
 10
63.46743332211076
 20
4.10425480488675
 30
0.0
 40
8.000000000000001
  0
CIRCLE
  5
3A4F
330
3706
100
AcDbEntity
  8
AM_0
100
AcDbCircle
 10
35.42043901478348
 20
20.44999999999874
 30
0.0
 40
8.000000000000001
  0
CIRCLE
  5
3A50
330
3706
100
AcDbEntity
  8
AM_0
100
AcDbCircle
 10
-35.28810558569273
 20
52.91228216749733
 30
0.0
 40
8.0
  0
CIRCLE
  5
3A51
330
3706
100
AcDbEntity
  8
AM_0
100
AcDbCircle
 10
-35.4204390147836
 20
20.44999999999851
 30
0.0
 40
8.000000000000001
  0
CIRCLE
  5
3A52
330
3706
100
AcDbEntity
  8
AM_0
100
AcDbCircle
 10
-28.17932773641793
 20
-57.01653697238834
 30
0.0
 40
8.0
  0
CIRCLE
  5
3A53
330
3706
100
AcDbEntity
  8
AM_0
100
AcDbCircle
 10
0.0000000000001137
 20
-40.9000000000014
 30
0.0
 40
8.000000000000001
  0
LINE
  5
3A54
330
3706
100
AcDbEntity
  8
AM_0
100
AcDbLine
 10
0.0
 20
9.499999999998635
 30
0.0
 11
0.0
 21
-0.0000000000013642
 31
0.0
  0
ARC
  5
3A55
330
3706
100
AcDbEntity
  8
AM_0
100
AcDbCircle
 10
0.0
 20
36.49999999999858
 30
0.0
 40
27.0
100
AcDbArc
 50
270.0
 51
90.0
  0
LINE
  5
3A56
330
3706
100
AcDbEntity
  8
AM_0
100
AcDbLine
 10
0.0
 20
76.24999999999857
 30
0.0
 11
0.0
 21
63.49999999999858
 31
0.0
  0
ARC
  5
3A57
330
3706
100
AcDbEntity
  8
AM_0
100
AcDbCircle
 10
0.0
 20
-0.0000000000013642
 30
0.0
 40
76.25000000000003
100
AcDbArc
 50
329.9999999999995
 51
50.44378397298966
  0
ARC
  5
3A58
330
3706
100
AcDbEntity
  8
AM_0
100
AcDbCircle
 10
0.0000000000001137
 20
-0.0000000000013074
 30
0.0
 40
76.2499999999999
100
AcDbArc
 50
61.73538740091959
 51
90.0
  0
LINE
  5
3A59
330
3706
100
AcDbEntity
  8
AM_0
100
AcDbLine
 10
54.99261314031196
 20
-31.75000000000137
 30
0.0
 11
66.03443703856351
 21
-38.12500000000137
 31
0.0
  0
ARC
  5
3A5A
330
3706
100
AcDbEntity
  8
AM_0
100
AcDbCircle
 10
31.60992723813212
 20
-18.25000000000136
 30
0.0
 40
27.0
100
AcDbArc
 50
329.9999999999995
 51
149.9999999999994
  0
LINE
  5
3A5B
330
3706
100
AcDbEntity
  8
AM_0
100
AcDbLine
 10
0.0
 20
-0.0000000000013642
 30
0.0
 11
8.227241335952214
 21
-4.750000000001363
 31
0.0
  0
LINE
  5
3A5C
330
3706
100
AcDbEntity
  8
AM_0
100
AcDbLine
 10
-8.227241335952044
 20
-4.750000000001363
 30
0.0
 11
0.0
 21
-0.0000000000013642
 31
0.0
  0
ARC
  5
3A5D
330
3706
100
AcDbEntity
  8
AM_0
100
AcDbCircle
 10
-31.60992723813194
 20
-18.25000000000136
 30
0.0
 40
27.0
100
AcDbArc
 50
30.00000000000055
 51
210.0000000000005
  0
LINE
  5
3A5E
330
3706
100
AcDbEntity
  8
AM_0
100
AcDbLine
 10
-66.03443703856339
 20
-38.12500000000137
 30
0.0
 11
-54.99261314031183
 21
-31.75000000000137
 31
0.0
  0
ARC
  5
3A5F
330
3706
100
AcDbEntity
  8
AM_0
100
AcDbCircle
 10
0.0000000000001137
 20
-0.0000000000013642
 30
0.0
 40
76.25000000000004
100
AcDbArc
 50
90.0
 51
170.4437839729882
  0
ARC
  5
3A60
330
3706
100
AcDbEntity
  8
AM_0
100
AcDbCircle
 10
-0.0000000000001705
 20
-0.0000000000014779
 30
0.0
 40
76.24999999999982
100
AcDbArc
 50
181.7353874009188
 51
210.0000000000005
  0
LINE
  5
3A61
330
3706
100
AcDbEntity
  8
AM_0
100
AcDbLine
 10
0.0
 20
63.49999999999858
 30
0.0
 11
0.0
 21
76.24999999999857
 31
0.0
  0
ARC
  5
3A62
330
3706
100
AcDbEntity
  8
AM_0
100
AcDbCircle
 10
0.0
 20
36.49999999999858
 30
0.0
 40
27.0
100
AcDbArc
 50
90.0
 51
270.0
  0
LINE
  5
3A63
330
3706
100
AcDbEntity
  8
AM_0
100
AcDbLine
 10
0.0
 20
-0.0000000000013642
 30
0.0
 11
0.0
 21
9.499999999998635
 31
0.0
  0
LINE
  5
3A64
330
3706
100
AcDbEntity
  8
AM_0
100
AcDbLine
 10
8.227241335952214
 20
-4.750000000001363
 30
0.0
 11
0.0
 21
-0.0000000000013642
 31
0.0
  0
ARC
  5
3A65
330
3706
100
AcDbEntity
  8
AM_0
100
AcDbCircle
 10
31.60992723813212
 20
-18.25000000000136
 30
0.0
 40
27.0
100
AcDbArc
 50
149.9999999999994
 51
329.9999999999995
  0
LINE
  5
3A66
330
3706
100
AcDbEntity
  8
AM_0
100
AcDbLine
 10
66.03443703856351
 20
-38.12500000000137
 30
0.0
 11
54.99261314031196
 21
-31.75000000000137
 31
0.0
  0
ARC
  5
3A67
330
3706
100
AcDbEntity
  8
AM_0
100
AcDbCircle
 10
0.0
 20
-0.0000000000013642
 30
0.0
 40
76.25000000000001
100
AcDbArc
 50
210.0000000000005
 51
290.4437839729908
  0
ARC
  5
3A68
330
3706
100
AcDbEntity
  8
AM_0
100
AcDbCircle
 10
0.0000000000001137
 20
-0.0000000000014779
 30
0.0
 40
76.2499999999999
100
AcDbArc
 50
301.7353874009196
 51
329.9999999999995
  0
LINE
  5
3A69
330
3706
100
AcDbEntity
  8
AM_0
100
AcDbLine
 10
-54.99261314031183
 20
-31.75000000000137
 30
0.0
 11
-66.03443703856339
 21
-38.12500000000137
 31
0.0
  0
ARC
  5
3A6A
330
3706
100
AcDbEntity
  8
AM_0
100
AcDbCircle
 10
-31.60992723813194
 20
-18.25000000000136
 30
0.0
 40
27.0
100
AcDbArc
 50
210.0000000000005
 51
30.00000000000055
  0
LINE
  5
3A6B
330
3706
100
AcDbEntity
  8
AM_0
100
AcDbLine
 10
0.0
 20
-0.0000000000013642
 30
0.0
 11
-8.227241335952044
 21
-4.750000000001363
 31
0.0
  0
ARC
  5
3A6C
330
3706
100
AcDbEntity
  8
AM_0
100
AcDbCircle
 10
-31.60992723813194
 20
-18.25000000000136
 30
0.0
 40
13.0714285714286
100
AcDbArc
 50
30.00000000000055
 51
210.0000000000005
  0
LINE
  5
3A6D
330
3706
100
AcDbEntity
  8
AM_0
100
AcDbLine
 10
-42.93011644474289
 20
-24.7857142857157
 30
0.0
 11
-42.00223208354521
 21
-24.25000000000137
 31
0.0
  0
ARC
  5
3A6E
330
3706
100
AcDbEntity
  8
AM_0
100
AcDbCircle
 10
-31.60992723813194
 20
-18.25000000000136
 30
0.0
 40
12.00000000000003
100
AcDbArc
 50
30.00000000000055
 51
210.0000000000005
  0
LINE
  5
3A6F
330
3706
100
AcDbEntity
  8
AM_0
100
AcDbLine
 10
-20.28973803152104
 20
-11.71428571428708
 30
0.0
 11
-21.21762239271868
 21
-12.25000000000136
 31
0.0
  0
ARC
  5
3A70
330
3706
100
AcDbEntity
  8
AM_0
100
AcDbCircle
 10
-31.60992723813194
 20
-18.25000000000136
 30
0.0
 40
15.21428571428575
100
AcDbArc
 50
30.00000000000055
 51
210.0000000000005
  0
LINE
  5
3A71
330
3706
100
AcDbEntity
  8
AM_0
100
AcDbLine
 10
-44.78588516713807
 20
-25.85714285714431
 30
0.0
 11
-43.85800080594049
 21
-25.32142857142999
 31
0.0
  0
ARC
  5
3A72
330
3706
100
AcDbEntity
  8
AM_0
100
AcDbCircle
 10
-31.60992723813194
 20
-18.25000000000136
 30
0.0
 40
14.14285714285718
100
AcDbArc
 50
30.00000000000055
 51
210.0000000000005
  0
LINE
  5
3A73
330
3706
100
AcDbEntity
  8
AM_0
100
AcDbLine
 10
-18.43396930912587
 20
-10.64285714285853
 30
0.0
 11
-19.36185367032345
 21
-11.17857142857281
 31
0.0
  0
ARC
  5
3A74
330
3706
100
AcDbEntity
  8
AM_0
100
AcDbCircle
 10
-31.60992723813194
 20
-18.25000000000136
 30
0.0
 40
17.3571428571429
100
AcDbArc
 50
30.00000000000055
 51
210.0000000000005
  0
LINE
  5
3A75
330
3706
100
AcDbEntity
  8
AM_0
100
AcDbLine
 10
-46.64165388953334
 20
-26.92857142857281
 30
0.0
 11
-45.71376952833566
 21
-26.39285714285853
 31
0.0
  0
ARC
  5
3A76
330
3706
100
AcDbEntity
  8
AM_0
100
AcDbCircle
 10
-31.60992723813194
 20
-18.25000000000136
 30
0.0
 40
16.28571428571432
100
AcDbArc
 50
30.00000000000055
 51
210.0000000000005
  0
LINE
  5
3A77
330
3706
100
AcDbEntity
  8
AM_0
100
AcDbLine
 10
-16.57820058673053
 20
-9.571428571429976
 30
0.0
 11
-17.50608494792828
 21
-10.1071428571442
 31
0.0
  0
ARC
  5
3A78
330
3706
100
AcDbEntity
  8
AM_0
100
AcDbCircle
 10
-31.60992723813194
 20
-18.25000000000136
 30
0.0
 40
19.50000000000005
100
AcDbArc
 50
30.00000000000055
 51
210.0000000000005
  0
LINE
  5
3A79
330
3706
100
AcDbEntity
  8
AM_0
100
AcDbLine
 10
-48.49742261192864
 20
-28.00000000000137
 30
0.0
 11
-47.56953825073093
 21
-27.46428571428709
 31
0.0
  0
ARC
  5
3A7A
330
3706
100
AcDbEntity
  8
AM_0
100
AcDbCircle
 10
-31.60992723813194
 20
-18.25000000000136
 30
0.0
 40
18.42857142857147
100
AcDbArc
 50
30.00000000000055
 51
210.0000000000005
  0
LINE
  5
3A7B
330
3706
100
AcDbEntity
  8
AM_0
100
AcDbLine
 10
-14.72243186433536
 20
-8.500000000001364
 30
0.0
 11
-15.65031622553294
 21
-9.035714285715583
 31
0.0
  0
ARC
  5
3A7C
330
3706
100
AcDbEntity
  8
AM_0
100
AcDbCircle
 10
-31.60992723813194
 20
-18.25000000000136
 30
0.0
 40
21.64285714285719
100
AcDbArc
 50
30.00000000000055
 51
210.0000000000005
  0
LINE
  5
3A7D
330
3706
100
AcDbEntity
  8
AM_0
100
AcDbLine
 10
-50.35319133432381
 20
-29.07142857142999
 30
0.0
 11
-49.42530697312623
 21
-28.5357142857157
 31
0.0
  0
ARC
  5
3A7E
330
3706
100
AcDbEntity
  8
AM_0
100
AcDbCircle
 10
-31.60992723813194
 20
-18.25000000000136
 30
0.0
 40
20.57142857142862
100
AcDbArc
 50
30.00000000000055
 51
210.0000000000005
  0
LINE
  5
3A7F
330
3706
100
AcDbEntity
  8
AM_0
100
AcDbLine
 10
-12.86666314194008
 20
-7.428571428572808
 30
0.0
 11
-13.79454750313766
 21
-7.964285714287085
 31
0.0
  0
ARC
  5
3A80
330
3706
100
AcDbEntity
  8
AM_0
100
AcDbCircle
 10
-31.60992723813194
 20
-18.25000000000136
 30
0.0
 40
23.78571428571435
100
AcDbArc
 50
30.00000000000055
 51
210.0000000000005
  0
LINE
  5
3A81
330
3706
100
AcDbEntity
  8
AM_0
100
AcDbLine
 10
-52.20896005671898
 20
-30.14285714285853
 30
0.0
 11
-51.28107569552135
 21
-29.60714285714431
 31
0.0
  0
ARC
  5
3A82
330
3706
100
AcDbEntity
  8
AM_0
100
AcDbCircle
 10
-31.60992723813194
 20
-18.25000000000136
 30
0.0
 40
22.71428571428578
100
AcDbArc
 50
30.00000000000055
 51
210.0000000000005
  0
LINE
  5
3A83
330
3706
100
AcDbEntity
  8
AM_0
100
AcDbLine
 10
-11.01089441954496
 20
-6.357142857144197
 30
0.0
 11
-11.93877878074249
 21
-6.892857142858531
 31
0.0
  0
ARC
  5
3A84
330
3706
100
AcDbEntity
  8
AM_0
100
AcDbCircle
 10
-31.60992723813194
 20
-18.25000000000136
 30
0.0
 40
25.92857142857149
100
AcDbArc
 50
30.00000000000055
 51
210.0000000000005
  0
LINE
  5
3A85
330
3706
100
AcDbEntity
  8
AM_0
100
AcDbLine
 10
-54.06472877911433
 20
-31.21428571428709
 30
0.0
 11
-53.13684441791656
 21
-30.67857142857281
 31
0.0
  0
ARC
  5
3A86
330
3706
100
AcDbEntity
  8
AM_0
100
AcDbCircle
 10
-31.60992723813194
 20
-18.25000000000136
 30
0.0
 40
24.85714285714292
100
AcDbArc
 50
30.00000000000055
 51
210.0000000000005
  0
LINE
  5
3A87
330
3706
100
AcDbEntity
  8
AM_0
100
AcDbLine
 10
-9.155125697149683
 20
-5.285714285715584
 30
0.0
 11
-10.08301005834727
 21
-5.821428571429976
 31
0.0
  0
ARC
  5
3A88
330
3706
100
AcDbEntity
  8
AM_0
100
AcDbCircle
 10
0.0
 20
36.49999999999858
 30
0.0
 40
13.07142857142858
100
AcDbArc
 50
90.0
 51
270.0
  0
LINE
  5
3A89
330
3706
100
AcDbEntity
  8
AM_0
100
AcDbLine
 10
0.0
 20
23.42857142857003
 30
0.0
 11
0.0
 21
24.49999999999864
 31
0.0
  0
ARC
  5
3A8A
330
3706
100
AcDbEntity
  8
AM_0
100
AcDbCircle
 10
0.0
 20
36.49999999999858
 30
0.0
 40
12.00000000000001
100
AcDbArc
 50
90.0
 51
270.0
  0
LINE
  5
3A8B
330
3706
100
AcDbEntity
  8
AM_0
100
AcDbLine
 10
0.0
 20
49.57142857142724
 30
0.0
 11
0.0
 21
48.49999999999858
 31
0.0
  0
ARC
  5
3A8C
330
3706
100
AcDbEntity
  8
AM_0
100
AcDbCircle
 10
0.0
 20
36.49999999999858
 30
0.0
 40
15.21428571428573
100
AcDbArc
 50
90.0
 51
270.0
  0
LINE
  5
3A8D
330
3706
100
AcDbEntity
  8
AM_0
100
AcDbLine
 10
0.0
 20
21.28571428571291
 30
0.0
 11
0.0
 21
22.35714285714141
 31
0.0
  0
ARC
  5
3A8E
330
3706
100
AcDbEntity
  8
AM_0
100
AcDbCircle
 10
0.0
 20
36.49999999999858
 30
0.0
 40
14.14285714285716
100
AcDbArc
 50
90.0
 51
270.0
  0
LINE
  5
3A8F
330
3706
100
AcDbEntity
  8
AM_0
100
AcDbLine
 10
0.0
 20
51.71428571428435
 30
0.0
 11
0.0
 21
50.64285714285579
 31
0.0
  0
ARC
  5
3A90
330
3706
100
AcDbEntity
  8
AM_0
100
AcDbCircle
 10
0.0
 20
36.49999999999858
 30
0.0
 40
17.35714285714288
100
AcDbArc
 50
90.0
 51
270.0
  0
LINE
  5
3A91
330
3706
100
AcDbEntity
  8
AM_0
100
AcDbLine
 10
0.0
 20
19.1428571428558
 30
0.0
 11
0.0
 21
20.21428571428442
 31
0.0
  0
ARC
  5
3A92
330
3706
100
AcDbEntity
  8
AM_0
100
AcDbCircle
 10
0.0
 20
36.49999999999858
 30
0.0
 40
16.2857142857143
100
AcDbArc
 50
90.0
 51
270.0
  0
LINE
  5
3A93
330
3706
100
AcDbEntity
  8
AM_0
100
AcDbLine
 10
0.0
 20
53.85714285714147
 30
0.0
 11
0.0
 21
52.7857142857129
 31
0.0
  0
ARC
  5
3A94
330
3706
100
AcDbEntity
  8
AM_0
100
AcDbCircle
 10
0.0
 20
36.49999999999858
 30
0.0
 40
19.50000000000002
100
AcDbArc
 50
90.0
 51
270.0
  0
LINE
  5
3A95
330
3706
100
AcDbEntity
  8
AM_0
100
AcDbLine
 10
0.0
 20
16.99999999999863
 30
0.0
 11
0.0
 21
18.07142857142725
 31
0.0
  0
ARC
  5
3A96
330
3706
100
AcDbEntity
  8
AM_0
100
AcDbCircle
 10
0.0
 20
36.49999999999858
 30
0.0
 40
18.42857142857145
100
AcDbArc
 50
90.0
 51
270.0
  0
LINE
  5
3A97
330
3706
100
AcDbEntity
  8
AM_0
100
AcDbLine
 10
0.0
 20
55.99999999999858
 30
0.0
 11
0.0
 21
54.92857142857002
 31
0.0
  0
ARC
  5
3A98
330
3706
100
AcDbEntity
  8
AM_0
100
AcDbCircle
 10
0.0
 20
36.49999999999858
 30
0.0
 40
21.64285714285717
100
AcDbArc
 50
90.0
 51
270.0
  0
LINE
  5
3A99
330
3706
100
AcDbEntity
  8
AM_0
100
AcDbLine
 10
0.0
 20
14.85714285714147
 30
0.0
 11
0.0
 21
15.92857142857002
 31
0.0
  0
ARC
  5
3A9A
330
3706
100
AcDbEntity
  8
AM_0
100
AcDbCircle
 10
0.0
 20
36.49999999999858
 30
0.0
 40
20.5714285714286
100
AcDbArc
 50
90.0
 51
270.0
  0
LINE
  5
3A9B
330
3706
100
AcDbEntity
  8
AM_0
100
AcDbLine
 10
0.0
 20
58.14285714285579
 30
0.0
 11
0.0
 21
57.07142857142724
 31
0.0
  0
ARC
  5
3A9C
330
3706
100
AcDbEntity
  8
AM_0
100
AcDbCircle
 10
0.0
 20
36.49999999999858
 30
0.0
 40
23.78571428571432
100
AcDbArc
 50
90.0
 51
270.0
  0
LINE
  5
3A9D
330
3706
100
AcDbEntity
  8
AM_0
100
AcDbLine
 10
0.0
 20
12.7142857142843
 30
0.0
 11
0.0
 21
13.78571428571291
 31
0.0
  0
ARC
  5
3A9E
330
3706
100
AcDbEntity
  8
AM_0
100
AcDbCircle
 10
0.0
 20
36.49999999999858
 30
0.0
 40
22.71428571428574
100
AcDbArc
 50
90.0
 51
270.0
  0
LINE
  5
3A9F
330
3706
100
AcDbEntity
  8
AM_0
100
AcDbLine
 10
0.0
 20
60.2857142857129
 30
0.0
 11
0.0
 21
59.21428571428435
 31
0.0
  0
ARC
  5
3AA0
330
3706
100
AcDbEntity
  8
AM_0
100
AcDbCircle
 10
0.0
 20
36.49999999999858
 30
0.0
 40
25.92857142857146
100
AcDbArc
 50
90.0
 51
270.0
  0
LINE
  5
3AA1
330
3706
100
AcDbEntity
  8
AM_0
100
AcDbLine
 10
0.0
 20
10.57142857142725
 30
0.0
 11
0.0
 21
11.6428571428558
 31
0.0
  0
ARC
  5
3AA2
330
3706
100
AcDbEntity
  8
AM_0
100
AcDbCircle
 10
0.0
 20
36.49999999999858
 30
0.0
 40
24.85714285714289
100
AcDbArc
 50
90.0
 51
270.0
  0
LINE
  5
3AA3
330
3706
100
AcDbEntity
  8
AM_0
100
AcDbLine
 10
0.0
 20
62.42857142857014
 30
0.0
 11
0.0
 21
61.35714285714147
 31
0.0
  0
ARC
  5
3AA4
330
3706
100
AcDbEntity
  8
AM_0
100
AcDbCircle
 10
31.609927238132
 20
-18.25000000000136
 30
0.0
 40
13.0714285714286
100
AcDbArc
 50
149.9999999999994
 51
329.9999999999995
  0
LINE
  5
3AA5
330
3706
100
AcDbEntity
  8
AM_0
100
AcDbLine
 10
42.93011644474296
 20
-24.7857142857157
 30
0.0
 11
42.00223208354532
 21
-24.25000000000137
 31
0.0
  0
ARC
  5
3AA6
330
3706
100
AcDbEntity
  8
AM_0
100
AcDbCircle
 10
31.609927238132
 20
-18.25000000000136
 30
0.0
 40
12.00000000000002
100
AcDbArc
 50
149.9999999999994
 51
329.9999999999995
  0
LINE
  5
3AA7
330
3706
100
AcDbEntity
  8
AM_0
100
AcDbLine
 10
20.28973803152116
 20
-11.7142857142872
 30
0.0
 11
21.21762239271874
 21
-12.25000000000136
 31
0.0
  0
ARC
  5
3AA8
330
3706
100
AcDbEntity
  8
AM_0
100
AcDbCircle
 10
31.609927238132
 20
-18.25000000000136
 30
0.0
 40
15.21428571428575
100
AcDbArc
 50
149.9999999999994
 51
329.9999999999995
  0
LINE
  5
3AA9
330
3706
100
AcDbEntity
  8
AM_0
100
AcDbLine
 10
44.78588516713823
 20
-25.85714285714431
 30
0.0
 11
43.85800080594049
 21
-25.32142857143009
 31
0.0
  0
ARC
  5
3AAA
330
3706
100
AcDbEntity
  8
AM_0
100
AcDbCircle
 10
31.609927238132
 20
-18.25000000000136
 30
0.0
 40
14.14285714285717
100
AcDbArc
 50
149.9999999999994
 51
329.9999999999995
  0
LINE
  5
3AAB
330
3706
100
AcDbEntity
  8
AM_0
100
AcDbLine
 10
18.43396930912598
 20
-10.64285714285853
 30
0.0
 11
19.36185367032362
 21
-11.17857142857286
 31
0.0
  0
ARC
  5
3AAC
330
3706
100
AcDbEntity
  8
AM_0
100
AcDbCircle
 10
31.609927238132
 20
-18.25000000000136
 30
0.0
 40
17.3571428571429
100
AcDbArc
 50
149.9999999999994
 51
329.9999999999995
  0
LINE
  5
3AAD
330
3706
100
AcDbEntity
  8
AM_0
100
AcDbLine
 10
46.64165388953342
 20
-26.92857142857287
 30
0.0
 11
45.71376952833583
 21
-26.39285714285853
 31
0.0
  0
ARC
  5
3AAE
330
3706
100
AcDbEntity
  8
AM_0
100
AcDbCircle
 10
31.609927238132
 20
-18.25000000000136
 30
0.0
 40
16.28571428571432
100
AcDbArc
 50
149.9999999999994
 51
329.9999999999995
  0
LINE
  5
3AAF
330
3706
100
AcDbEntity
  8
AM_0
100
AcDbLine
 10
16.57820058673076
 20
-9.571428571429976
 30
0.0
 11
17.50608494792834
 21
-10.10714285714431
 31
0.0
  0
ARC
  5
3AB0
330
3706
100
AcDbEntity
  8
AM_0
100
AcDbCircle
 10
31.609927238132
 20
-18.25000000000136
 30
0.0
 40
19.50000000000004
100
AcDbArc
 50
149.9999999999994
 51
329.9999999999995
  0
LINE
  5
3AB1
330
3706
100
AcDbEntity
  8
AM_0
100
AcDbLine
 10
48.49742261192864
 20
-28.00000000000137
 30
0.0
 11
47.56953825073099
 21
-27.4642857142872
 31
0.0
  0
ARC
  5
3AB2
330
3706
100
AcDbEntity
  8
AM_0
100
AcDbCircle
 10
31.609927238132
 20
-18.25000000000136
 30
0.0
 40
18.42857142857147
100
AcDbArc
 50
149.9999999999994
 51
329.9999999999995
  0
LINE
  5
3AB3
330
3706
100
AcDbEntity
  8
AM_0
100
AcDbLine
 10
14.72243186433542
 20
-8.500000000001364
 30
0.0
 11
15.65031622553312
 21
-9.035714285715696
 31
0.0
  0
ARC
  5
3AB4
330
3706
100
AcDbEntity
  8
AM_0
100
AcDbCircle
 10
31.609927238132
 20
-18.25000000000136
 30
0.0
 40
21.64285714285719
100
AcDbArc
 50
149.9999999999994
 51
329.9999999999995
  0
LINE
  5
3AB5
330
3706
100
AcDbEntity
  8
AM_0
100
AcDbLine
 10
50.35319133432381
 20
-29.07142857142999
 30
0.0
 11
49.42530697312623
 21
-28.5357142857157
 31
0.0
  0
ARC
  5
3AB6
330
3706
100
AcDbEntity
  8
AM_0
100
AcDbCircle
 10
31.609927238132
 20
-18.25000000000136
 30
0.0
 40
20.57142857142862
100
AcDbArc
 50
149.9999999999994
 51
329.9999999999995
  0
LINE
  5
3AB7
330
3706
100
AcDbEntity
  8
AM_0
100
AcDbLine
 10
12.86666314194025
 20
-7.428571428572865
 30
0.0
 11
13.79454750313795
 21
-7.964285714287085
 31
0.0
  0
ARC
  5
3AB8
330
3706
100
AcDbEntity
  8
AM_0
100
AcDbCircle
 10
31.609927238132
 20
-18.25000000000136
 30
0.0
 40
23.78571428571434
100
AcDbArc
 50
149.9999999999994
 51
329.9999999999995
  0
LINE
  5
3AB9
330
3706
100
AcDbEntity
  8
AM_0
100
AcDbLine
 10
52.20896005671909
 20
-30.14285714285853
 30
0.0
 11
51.28107569552151
 21
-29.60714285714431
 31
0.0
  0
ARC
  5
3ABA
330
3706
100
AcDbEntity
  8
AM_0
100
AcDbCircle
 10
31.609927238132
 20
-18.25000000000136
 30
0.0
 40
22.71428571428577
100
AcDbArc
 50
149.9999999999994
 51
329.9999999999995
  0
LINE
  5
3ABB
330
3706
100
AcDbEntity
  8
AM_0
100
AcDbLine
 10
11.01089441954491
 20
-6.357142857144308
 30
0.0
 11
11.93877878074261
 21
-6.892857142858531
 31
0.0
  0
ARC
  5
3ABC
330
3706
100
AcDbEntity
  8
AM_0
100
AcDbCircle
 10
31.609927238132
 20
-18.25000000000136
 30
0.0
 40
25.92857142857149
100
AcDbArc
 50
149.9999999999994
 51
329.9999999999995
  0
LINE
  5
3ABD
330
3706
100
AcDbEntity
  8
AM_0
100
AcDbLine
 10
54.06472877911433
 20
-31.2142857142872
 30
0.0
 11
53.13684441791672
 21
-30.67857142857287
 31
0.0
  0
ARC
  5
3ABE
330
3706
100
AcDbEntity
  8
AM_0
100
AcDbCircle
 10
31.609927238132
 20
-18.25000000000136
 30
0.0
 40
24.85714285714291
100
AcDbArc
 50
149.9999999999994
 51
329.9999999999995
  0
LINE
  5
3ABF
330
3706
100
AcDbEntity
  8
AM_0
100
AcDbLine
 10
9.155125697149854
 20
-5.285714285715697
 30
0.0
 11
10.08301005834733
 21
-5.821428571429976
 31
0.0
  0
ARC
  5
3AC0
330
3706
100
AcDbEntity
  8
AM_0
100
AcDbCircle
 10
-31.60992723813194
 20
-18.25000000000136
 30
0.0
 40
13.07142857142858
100
AcDbArc
 50
210.0000000000005
 51
30.00000000000055
  0
LINE
  5
3AC1
330
3706
100
AcDbEntity
  8
AM_0
100
AcDbLine
 10
-20.28973803152104
 20
-11.7142857142872
 30
0.0
 11
-21.21762239271868
 21
-12.25000000000136
 31
0.0
  0
ARC
  5
3AC2
330
3706
100
AcDbEntity
  8
AM_0
100
AcDbCircle
 10
-31.60992723813194
 20
-18.25000000000136
 30
0.0
 40
12.00000000000001
100
AcDbArc
 50
210.0000000000005
 51
30.00000000000055
  0
LINE
  5
3AC3
330
3706
100
AcDbEntity
  8
AM_0
100
AcDbLine
 10
-42.93011644474289
 20
-24.7857142857157
 30
0.0
 11
-42.00223208354521
 21
-24.25000000000137
 31
0.0
  0
ARC
  5
3AC4
330
3706
100
AcDbEntity
  8
AM_0
100
AcDbCircle
 10
-31.60992723813194
 20
-18.25000000000136
 30
0.0
 40
15.21428571428573
100
AcDbArc
 50
210.0000000000005
 51
30.00000000000055
  0
LINE
  5
3AC5
330
3706
100
AcDbEntity
  8
AM_0
100
AcDbLine
 10
-18.43396930912587
 20
-10.64285714285853
 30
0.0
 11
-19.36185367032345
 21
-11.17857142857286
 31
0.0
  0
ARC
  5
3AC6
330
3706
100
AcDbEntity
  8
AM_0
100
AcDbCircle
 10
-31.60992723813194
 20
-18.25000000000136
 30
0.0
 40
14.14285714285715
100
AcDbArc
 50
210.0000000000005
 51
30.00000000000055
  0
LINE
  5
3AC7
330
3706
100
AcDbEntity
  8
AM_0
100
AcDbLine
 10
-44.78588516713807
 20
-25.85714285714431
 30
0.0
 11
-43.85800080594049
 21
-25.32142857143009
 31
0.0
  0
ARC
  5
3AC8
330
3706
100
AcDbEntity
  8
AM_0
100
AcDbCircle
 10
-31.60992723813194
 20
-18.25000000000136
 30
0.0
 40
17.35714285714287
100
AcDbArc
 50
210.0000000000005
 51
30.00000000000055
  0
LINE
  5
3AC9
330
3706
100
AcDbEntity
  8
AM_0
100
AcDbLine
 10
-16.57820058673064
 20
-9.571428571429976
 30
0.0
 11
-17.50608494792828
 21
-10.10714285714431
 31
0.0
  0
ARC
  5
3ACA
330
3706
100
AcDbEntity
  8
AM_0
100
AcDbCircle
 10
-31.60992723813194
 20
-18.25000000000136
 30
0.0
 40
16.2857142857143
100
AcDbArc
 50
210.0000000000005
 51
30.00000000000055
  0
LINE
  5
3ACB
330
3706
100
AcDbEntity
  8
AM_0
100
AcDbLine
 10
-46.64165388953334
 20
-26.92857142857287
 30
0.0
 11
-45.71376952833566
 21
-26.39285714285853
 31
0.0
  0
ARC
  5
3ACC
330
3706
100
AcDbEntity
  8
AM_0
100
AcDbCircle
 10
-31.60992723813194
 20
-18.25000000000136
 30
0.0
 40
19.50000000000002
100
AcDbArc
 50
210.0000000000005
 51
30.00000000000055
  0
LINE
  5
3ACD
330
3706
100
AcDbEntity
  8
AM_0
100
AcDbLine
 10
-14.72243186433536
 20
-8.500000000001364
 30
0.0
 11
-15.65031622553306
 21
-9.035714285715696
 31
0.0
  0
ARC
  5
3ACE
330
3706
100
AcDbEntity
  8
AM_0
100
AcDbCircle
 10
-31.60992723813194
 20
-18.25000000000136
 30
0.0
 40
18.42857142857145
100
AcDbArc
 50
210.0000000000005
 51
30.00000000000055
  0
LINE
  5
3ACF
330
3706
100
AcDbEntity
  8
AM_0
100
AcDbLine
 10
-48.49742261192864
 20
-28.00000000000137
 30
0.0
 11
-47.56953825073093
 21
-27.4642857142872
 31
0.0
  0
ARC
  5
3AD0
330
3706
100
AcDbEntity
  8
AM_0
100
AcDbCircle
 10
-31.60992723813194
 20
-18.25000000000136
 30
0.0
 40
21.64285714285716
100
AcDbArc
 50
210.0000000000005
 51
30.00000000000055
  0
LINE
  5
3AD1
330
3706
100
AcDbEntity
  8
AM_0
100
AcDbLine
 10
-12.86666314194019
 20
-7.428571428572865
 30
0.0
 11
-13.79454750313778
 21
-7.9642857142872
 31
0.0
  0
ARC
  5
3AD2
330
3706
100
AcDbEntity
  8
AM_0
100
AcDbCircle
 10
-31.60992723813194
 20
-18.25000000000136
 30
0.0
 40
20.57142857142859
100
AcDbArc
 50
210.0000000000005
 51
30.00000000000055
  0
LINE
  5
3AD3
330
3706
100
AcDbEntity
  8
AM_0
100
AcDbLine
 10
-50.35319133432381
 20
-29.07142857142999
 30
0.0
 11
-49.42530697312623
 21
-28.53571428571581
 31
0.0
  0
ARC
  5
3AD4
330
3706
100
AcDbEntity
  8
AM_0
100
AcDbCircle
 10
-31.60992723813194
 20
-18.25000000000136
 30
0.0
 40
23.78571428571431
100
AcDbArc
 50
210.0000000000005
 51
30.00000000000055
  0
LINE
  5
3AD5
330
3706
100
AcDbEntity
  8
AM_0
100
AcDbLine
 10
-11.01089441954496
 20
-6.357142857144308
 30
0.0
 11
-11.93877878074255
 21
-6.892857142858531
 31
0.0
  0
ARC
  5
3AD6
330
3706
100
AcDbEntity
  8
AM_0
100
AcDbCircle
 10
-31.60992723813194
 20
-18.25000000000136
 30
0.0
 40
22.71428571428574
100
AcDbArc
 50
210.0000000000005
 51
30.00000000000055
  0
LINE
  5
3AD7
330
3706
100
AcDbEntity
  8
AM_0
100
AcDbLine
 10
-52.20896005671898
 20
-30.14285714285853
 30
0.0
 11
-51.28107569552135
 21
-29.60714285714431
 31
0.0
  0
ARC
  5
3AD8
330
3706
100
AcDbEntity
  8
AM_0
100
AcDbCircle
 10
-31.60992723813194
 20
-18.25000000000136
 30
0.0
 40
25.92857142857146
100
AcDbArc
 50
210.0000000000005
 51
30.00000000000055
  0
LINE
  5
3AD9
330
3706
100
AcDbEntity
  8
AM_0
100
AcDbLine
 10
-9.1551256971498
 20
-5.285714285715697
 30
0.0
 11
-10.08301005834738
 21
-5.821428571429976
 31
0.0
  0
ARC
  5
3ADA
330
3706
100
AcDbEntity
  8
AM_0
100
AcDbCircle
 10
-31.60992723813194
 20
-18.25000000000136
 30
0.0
 40
24.85714285714288
100
AcDbArc
 50
210.0000000000005
 51
30.00000000000055
  0
LINE
  5
3ADB
330
3706
100
AcDbEntity
  8
AM_0
100
AcDbLine
 10
-54.06472877911419
 20
-31.2142857142872
 30
0.0
 11
-53.13684441791656
 21
-30.67857142857287
 31
0.0
  0
ARC
  5
3ADC
330
3706
100
AcDbEntity
  8
AM_0
100
AcDbCircle
 10
-31.60992723813194
 20
-18.25000000000136
 30
0.0
 40
14.14285714285718
100
AcDbArc
 50
30.00000000000055
 51
210.0000000000005
  0
LINE
  5
3ADD
330
3706
100
AcDbEntity
  8
AM_0
100
AcDbLine
 10
-43.85800080594049
 20
-25.32142857142999
 30
0.0
 11
-42.93011644474289
 21
-24.7857142857157
 31
0.0
  0
ARC
  5
3ADE
330
3706
100
AcDbEntity
  8
AM_0
100
AcDbCircle
 10
-31.60992723813194
 20
-18.25000000000136
 30
0.0
 40
13.0714285714286
100
AcDbArc
 50
30.00000000000055
 51
210.0000000000005
  0
LINE
  5
3ADF
330
3706
100
AcDbEntity
  8
AM_0
100
AcDbLine
 10
-19.36185367032345
 20
-11.17857142857281
 30
0.0
 11
-20.28973803152104
 21
-11.71428571428708
 31
0.0
  0
ARC
  5
3AE0
330
3706
100
AcDbEntity
  8
AM_0
100
AcDbCircle
 10
-31.60992723813194
 20
-18.25000000000136
 30
0.0
 40
16.28571428571432
100
AcDbArc
 50
30.00000000000055
 51
210.0000000000005
  0
LINE
  5
3AE1
330
3706
100
AcDbEntity
  8
AM_0
100
AcDbLine
 10
-45.71376952833566
 20
-26.39285714285853
 30
0.0
 11
-44.78588516713807
 21
-25.85714285714431
 31
0.0
  0
ARC
  5
3AE2
330
3706
100
AcDbEntity
  8
AM_0
100
AcDbCircle
 10
-31.60992723813194
 20
-18.25000000000136
 30
0.0
 40
15.21428571428575
100
AcDbArc
 50
30.00000000000055
 51
210.0000000000005
  0
LINE
  5
3AE3
330
3706
100
AcDbEntity
  8
AM_0
100
AcDbLine
 10
-17.50608494792828
 20
-10.1071428571442
 30
0.0
 11
-18.43396930912587
 21
-10.64285714285853
 31
0.0
  0
ARC
  5
3AE4
330
3706
100
AcDbEntity
  8
AM_0
100
AcDbCircle
 10
-31.60992723813194
 20
-18.25000000000136
 30
0.0
 40
18.42857142857147
100
AcDbArc
 50
30.00000000000055
 51
210.0000000000005
  0
LINE
  5
3AE5
330
3706
100
AcDbEntity
  8
AM_0
100
AcDbLine
 10
-47.56953825073093
 20
-27.46428571428709
 30
0.0
 11
-46.64165388953334
 21
-26.92857142857281
 31
0.0
  0
ARC
  5
3AE6
330
3706
100
AcDbEntity
  8
AM_0
100
AcDbCircle
 10
-31.60992723813194
 20
-18.25000000000136
 30
0.0
 40
17.3571428571429
100
AcDbArc
 50
30.00000000000055
 51
210.0000000000005
  0
LINE
  5
3AE7
330
3706
100
AcDbEntity
  8
AM_0
100
AcDbLine
 10
-15.65031622553294
 20
-9.035714285715583
 30
0.0
 11
-16.57820058673053
 21
-9.571428571429976
 31
0.0
  0
ARC
  5
3AE8
330
3706
100
AcDbEntity
  8
AM_0
100
AcDbCircle
 10
-31.60992723813194
 20
-18.25000000000136
 30
0.0
 40
20.57142857142862
100
AcDbArc
 50
30.00000000000055
 51
210.0000000000005
  0
LINE
  5
3AE9
330
3706
100
AcDbEntity
  8
AM_0
100
AcDbLine
 10
-49.42530697312623
 20
-28.5357142857157
 30
0.0
 11
-48.49742261192864
 21
-28.00000000000137
 31
0.0
  0
ARC
  5
3AEA
330
3706
100
AcDbEntity
  8
AM_0
100
AcDbCircle
 10
-31.60992723813194
 20
-18.25000000000136
 30
0.0
 40
19.50000000000005
100
AcDbArc
 50
30.00000000000055
 51
210.0000000000005
  0
LINE
  5
3AEB
330
3706
100
AcDbEntity
  8
AM_0
100
AcDbLine
 10
-13.79454750313766
 20
-7.964285714287085
 30
0.0
 11
-14.72243186433536
 21
-8.500000000001364
 31
0.0
  0
ARC
  5
3AEC
330
3706
100
AcDbEntity
  8
AM_0
100
AcDbCircle
 10
-31.60992723813194
 20
-18.25000000000136
 30
0.0
 40
22.71428571428578
100
AcDbArc
 50
30.00000000000055
 51
210.0000000000005
  0
LINE
  5
3AED
330
3706
100
AcDbEntity
  8
AM_0
100
AcDbLine
 10
-51.28107569552135
 20
-29.60714285714431
 30
0.0
 11
-50.35319133432381
 21
-29.07142857142999
 31
0.0
  0
ARC
  5
3AEE
330
3706
100
AcDbEntity
  8
AM_0
100
AcDbCircle
 10
-31.60992723813194
 20
-18.25000000000136
 30
0.0
 40
21.64285714285719
100
AcDbArc
 50
30.00000000000055
 51
210.0000000000005
  0
LINE
  5
3AEF
330
3706
100
AcDbEntity
  8
AM_0
100
AcDbLine
 10
-11.93877878074249
 20
-6.892857142858531
 30
0.0
 11
-12.86666314194008
 21
-7.428571428572808
 31
0.0
  0
ARC
  5
3AF0
330
3706
100
AcDbEntity
  8
AM_0
100
AcDbCircle
 10
-31.60992723813194
 20
-18.25000000000136
 30
0.0
 40
24.85714285714292
100
AcDbArc
 50
30.00000000000055
 51
210.0000000000005
  0
LINE
  5
3AF1
330
3706
100
AcDbEntity
  8
AM_0
100
AcDbLine
 10
-53.13684441791656
 20
-30.67857142857281
 30
0.0
 11
-52.20896005671898
 21
-30.14285714285853
 31
0.0
  0
ARC
  5
3AF2
330
3706
100
AcDbEntity
  8
AM_0
100
AcDbCircle
 10
-31.60992723813194
 20
-18.25000000000136
 30
0.0
 40
23.78571428571435
100
AcDbArc
 50
30.00000000000055
 51
210.0000000000005
  0
LINE
  5
3AF3
330
3706
100
AcDbEntity
  8
AM_0
100
AcDbLine
 10
-10.08301005834727
 20
-5.821428571429976
 30
0.0
 11
-11.01089441954496
 21
-6.357142857144197
 31
0.0
  0
LINE
  5
3AF4
330
3706
100
AcDbEntity
  8
AM_0
100
AcDbLine
 10
-54.99261314031191
 20
-31.75000000000137
 30
0.0
 11
-54.06472877911433
 21
-31.21428571428709
 31
0.0
  0
ARC
  5
3AF5
330
3706
100
AcDbEntity
  8
AM_0
100
AcDbCircle
 10
-31.60992723813194
 20
-18.25000000000136
 30
0.0
 40
25.92857142857149
100
AcDbArc
 50
30.00000000000055
 51
210.0000000000005
  0
LINE
  5
3AF6
330
3706
100
AcDbEntity
  8
AM_0
100
AcDbLine
 10
-8.227241335952044
 20
-4.750000000001363
 30
0.0
 11
-9.155125697149683
 21
-5.285714285715584
 31
0.0
  0
ARC
  5
3AF7
330
3706
100
AcDbEntity
  8
AM_0
100
AcDbCircle
 10
0.0
 20
36.49999999999858
 30
0.0
 40
14.14285714285716
100
AcDbArc
 50
90.0
 51
270.0
  0
LINE
  5
3AF8
330
3706
100
AcDbEntity
  8
AM_0
100
AcDbLine
 10
0.0
 20
22.35714285714141
 30
0.0
 11
0.0
 21
23.42857142857003
 31
0.0
  0
ARC
  5
3AF9
330
3706
100
AcDbEntity
  8
AM_0
100
AcDbCircle
 10
0.0
 20
36.49999999999858
 30
0.0
 40
13.07142857142858
100
AcDbArc
 50
90.0
 51
270.0
  0
LINE
  5
3AFA
330
3706
100
AcDbEntity
  8
AM_0
100
AcDbLine
 10
0.0
 20
50.64285714285579
 30
0.0
 11
0.0
 21
49.57142857142724
 31
0.0
  0
ARC
  5
3AFB
330
3706
100
AcDbEntity
  8
AM_0
100
AcDbCircle
 10
0.0
 20
36.49999999999858
 30
0.0
 40
16.2857142857143
100
AcDbArc
 50
90.0
 51
270.0
  0
LINE
  5
3AFC
330
3706
100
AcDbEntity
  8
AM_0
100
AcDbLine
 10
0.0
 20
20.21428571428442
 30
0.0
 11
0.0
 21
21.28571428571291
 31
0.0
  0
ARC
  5
3AFD
330
3706
100
AcDbEntity
  8
AM_0
100
AcDbCircle
 10
0.0
 20
36.49999999999858
 30
0.0
 40
15.21428571428573
100
AcDbArc
 50
90.0
 51
270.0
  0
LINE
  5
3AFE
330
3706
100
AcDbEntity
  8
AM_0
100
AcDbLine
 10
0.0
 20
52.7857142857129
 30
0.0
 11
0.0
 21
51.71428571428435
 31
0.0
  0
ARC
  5
3AFF
330
3706
100
AcDbEntity
  8
AM_0
100
AcDbCircle
 10
0.0
 20
36.49999999999858
 30
0.0
 40
18.42857142857145
100
AcDbArc
 50
90.0
 51
270.0
  0
LINE
  5
3B00
330
3706
100
AcDbEntity
  8
AM_0
100
AcDbLine
 10
0.0
 20
18.07142857142725
 30
0.0
 11
0.0
 21
19.1428571428558
 31
0.0
  0
ARC
  5
3B01
330
3706
100
AcDbEntity
  8
AM_0
100
AcDbCircle
 10
0.0
 20
36.49999999999858
 30
0.0
 40
17.35714285714288
100
AcDbArc
 50
90.0
 51
270.0
  0
LINE
  5
3B02
330
3706
100
AcDbEntity
  8
AM_0
100
AcDbLine
 10
0.0
 20
54.92857142857002
 30
0.0
 11
0.0
 21
53.85714285714147
 31
0.0
  0
ARC
  5
3B03
330
3706
100
AcDbEntity
  8
AM_0
100
AcDbCircle
 10
0.0
 20
36.49999999999858
 30
0.0
 40
20.5714285714286
100
AcDbArc
 50
90.0
 51
270.0
  0
LINE
  5
3B04
330
3706
100
AcDbEntity
  8
AM_0
100
AcDbLine
 10
0.0
 20
15.92857142857002
 30
0.0
 11
0.0
 21
16.99999999999863
 31
0.0
  0
ARC
  5
3B05
330
3706
100
AcDbEntity
  8
AM_0
100
AcDbCircle
 10
0.0
 20
36.49999999999858
 30
0.0
 40
19.50000000000002
100
AcDbArc
 50
90.0
 51
270.0
  0
LINE
  5
3B06
330
3706
100
AcDbEntity
  8
AM_0
100
AcDbLine
 10
0.0
 20
57.07142857142724
 30
0.0
 11
0.0
 21
55.99999999999858
 31
0.0
  0
ARC
  5
3B07
330
3706
100
AcDbEntity
  8
AM_0
100
AcDbCircle
 10
0.0
 20
36.49999999999858
 30
0.0
 40
22.71428571428574
100
AcDbArc
 50
90.0
 51
270.0
  0
LINE
  5
3B08
330
3706
100
AcDbEntity
  8
AM_0
100
AcDbLine
 10
0.0
 20
13.78571428571291
 30
0.0
 11
0.0
 21
14.85714285714147
 31
0.0
  0
ARC
  5
3B09
330
3706
100
AcDbEntity
  8
AM_0
100
AcDbCircle
 10
0.0
 20
36.49999999999858
 30
0.0
 40
21.64285714285717
100
AcDbArc
 50
90.0
 51
270.0
  0
LINE
  5
3B0A
330
3706
100
AcDbEntity
  8
AM_0
100
AcDbLine
 10
0.0
 20
59.21428571428435
 30
0.0
 11
0.0
 21
58.14285714285579
 31
0.0
  0
ARC
  5
3B0B
330
3706
100
AcDbEntity
  8
AM_0
100
AcDbCircle
 10
0.0
 20
36.49999999999858
 30
0.0
 40
24.85714285714289
100
AcDbArc
 50
90.0
 51
270.0
  0
LINE
  5
3B0C
330
3706
100
AcDbEntity
  8
AM_0
100
AcDbLine
 10
0.0
 20
11.6428571428558
 30
0.0
 11
0.0
 21
12.7142857142843
 31
0.0
  0
ARC
  5
3B0D
330
3706
100
AcDbEntity
  8
AM_0
100
AcDbCircle
 10
0.0
 20
36.49999999999858
 30
0.0
 40
23.78571428571432
100
AcDbArc
 50
90.0
 51
270.0
  0
LINE
  5
3B0E
330
3706
100
AcDbEntity
  8
AM_0
100
AcDbLine
 10
0.0
 20
61.35714285714147
 30
0.0
 11
0.0
 21
60.2857142857129
 31
0.0
  0
LINE
  5
3B0F
330
3706
100
AcDbEntity
  8
AM_0
100
AcDbLine
 10
0.0
 20
9.499999999998635
 30
0.0
 11
0.0
 21
10.57142857142725
 31
0.0
  0
ARC
  5
3B10
330
3706
100
AcDbEntity
  8
AM_0
100
AcDbCircle
 10
0.0
 20
36.49999999999858
 30
0.0
 40
25.92857142857146
100
AcDbArc
 50
90.0
 51
270.0
  0
LINE
  5
3B11
330
3706
100
AcDbEntity
  8
AM_0
100
AcDbLine
 10
0.0
 20
63.49999999999858
 30
0.0
 11
0.0
 21
62.42857142857014
 31
0.0
  0
ARC
  5
3B12
330
3706
100
AcDbEntity
  8
AM_0
100
AcDbCircle
 10
31.609927238132
 20
-18.25000000000136
 30
0.0
 40
14.14285714285717
100
AcDbArc
 50
149.9999999999994
 51
329.9999999999995
  0
LINE
  5
3B13
330
3706
100
AcDbEntity
  8
AM_0
100
AcDbLine
 10
43.85800080594049
 20
-25.32142857143009
 30
0.0
 11
42.93011644474296
 21
-24.7857142857157
 31
0.0
  0
ARC
  5
3B14
330
3706
100
AcDbEntity
  8
AM_0
100
AcDbCircle
 10
31.609927238132
 20
-18.25000000000136
 30
0.0
 40
13.0714285714286
100
AcDbArc
 50
149.9999999999994
 51
329.9999999999995
  0
LINE
  5
3B15
330
3706
100
AcDbEntity
  8
AM_0
100
AcDbLine
 10
19.36185367032362
 20
-11.17857142857286
 30
0.0
 11
20.28973803152116
 21
-11.7142857142872
 31
0.0
  0
ARC
  5
3B16
330
3706
100
AcDbEntity
  8
AM_0
100
AcDbCircle
 10
31.609927238132
 20
-18.25000000000136
 30
0.0
 40
16.28571428571432
100
AcDbArc
 50
149.9999999999994
 51
329.9999999999995
  0
LINE
  5
3B17
330
3706
100
AcDbEntity
  8
AM_0
100
AcDbLine
 10
45.71376952833583
 20
-26.39285714285853
 30
0.0
 11
44.78588516713823
 21
-25.85714285714431
 31
0.0
  0
ARC
  5
3B18
330
3706
100
AcDbEntity
  8
AM_0
100
AcDbCircle
 10
31.609927238132
 20
-18.25000000000136
 30
0.0
 40
15.21428571428575
100
AcDbArc
 50
149.9999999999994
 51
329.9999999999995
  0
LINE
  5
3B19
330
3706
100
AcDbEntity
  8
AM_0
100
AcDbLine
 10
17.50608494792834
 20
-10.10714285714431
 30
0.0
 11
18.43396930912598
 21
-10.64285714285853
 31
0.0
  0
ARC
  5
3B1A
330
3706
100
AcDbEntity
  8
AM_0
100
AcDbCircle
 10
31.609927238132
 20
-18.25000000000136
 30
0.0
 40
18.42857142857147
100
AcDbArc
 50
149.9999999999994
 51
329.9999999999995
  0
LINE
  5
3B1B
330
3706
100
AcDbEntity
  8
AM_0
100
AcDbLine
 10
47.56953825073099
 20
-27.4642857142872
 30
0.0
 11
46.64165388953342
 21
-26.92857142857287
 31
0.0
  0
ARC
  5
3B1C
330
3706
100
AcDbEntity
  8
AM_0
100
AcDbCircle
 10
31.609927238132
 20
-18.25000000000136
 30
0.0
 40
17.3571428571429
100
AcDbArc
 50
149.9999999999994
 51
329.9999999999995
  0
LINE
  5
3B1D
330
3706
100
AcDbEntity
  8
AM_0
100
AcDbLine
 10
15.65031622553312
 20
-9.035714285715696
 30
0.0
 11
16.57820058673076
 21
-9.571428571429976
 31
0.0
  0
ARC
  5
3B1E
330
3706
100
AcDbEntity
  8
AM_0
100
AcDbCircle
 10
31.609927238132
 20
-18.25000000000136
 30
0.0
 40
20.57142857142862
100
AcDbArc
 50
149.9999999999994
 51
329.9999999999995
  0
LINE
  5
3B1F
330
3706
100
AcDbEntity
  8
AM_0
100
AcDbLine
 10
49.42530697312623
 20
-28.5357142857157
 30
0.0
 11
48.49742261192864
 21
-28.00000000000137
 31
0.0
  0
ARC
  5
3B20
330
3706
100
AcDbEntity
  8
AM_0
100
AcDbCircle
 10
31.609927238132
 20
-18.25000000000136
 30
0.0
 40
19.50000000000004
100
AcDbArc
 50
149.9999999999994
 51
329.9999999999995
  0
LINE
  5
3B21
330
3706
100
AcDbEntity
  8
AM_0
100
AcDbLine
 10
13.79454750313795
 20
-7.964285714287085
 30
0.0
 11
14.72243186433542
 21
-8.500000000001364
 31
0.0
  0
ARC
  5
3B22
330
3706
100
AcDbEntity
  8
AM_0
100
AcDbCircle
 10
31.609927238132
 20
-18.25000000000136
 30
0.0
 40
22.71428571428577
100
AcDbArc
 50
149.9999999999994
 51
329.9999999999995
  0
LINE
  5
3B23
330
3706
100
AcDbEntity
  8
AM_0
100
AcDbLine
 10
51.28107569552145
 20
-29.60714285714431
 30
0.0
 11
50.35319133432381
 21
-29.07142857142999
 31
0.0
  0
ARC
  5
3B24
330
3706
100
AcDbEntity
  8
AM_0
100
AcDbCircle
 10
31.609927238132
 20
-18.25000000000136
 30
0.0
 40
21.64285714285719
100
AcDbArc
 50
149.9999999999994
 51
329.9999999999995
  0
LINE
  5
3B25
330
3706
100
AcDbEntity
  8
AM_0
100
AcDbLine
 10
11.93877878074261
 20
-6.892857142858531
 30
0.0
 11
12.86666314194025
 21
-7.428571428572865
 31
0.0
  0
ARC
  5
3B26
330
3706
100
AcDbEntity
  8
AM_0
100
AcDbCircle
 10
31.609927238132
 20
-18.25000000000136
 30
0.0
 40
24.85714285714291
100
AcDbArc
 50
149.9999999999994
 51
329.9999999999995
  0
LINE
  5
3B27
330
3706
100
AcDbEntity
  8
AM_0
100
AcDbLine
 10
53.13684441791672
 20
-30.67857142857287
 30
0.0
 11
52.20896005671909
 21
-30.14285714285853
 31
0.0
  0
ARC
  5
3B28
330
3706
100
AcDbEntity
  8
AM_0
100
AcDbCircle
 10
31.609927238132
 20
-18.25000000000136
 30
0.0
 40
23.78571428571434
100
AcDbArc
 50
149.9999999999994
 51
329.9999999999995
  0
LINE
  5
3B29
330
3706
100
AcDbEntity
  8
AM_0
100
AcDbLine
 10
10.08301005834733
 20
-5.821428571429976
 30
0.0
 11
11.01089441954491
 21
-6.357142857144308
 31
0.0
  0
LINE
  5
3B2A
330
3706
100
AcDbEntity
  8
AM_0
100
AcDbLine
 10
54.99261314031196
 20
-31.75000000000137
 30
0.0
 11
54.06472877911433
 21
-31.2142857142872
 31
0.0
  0
ARC
  5
3B2B
330
3706
100
AcDbEntity
  8
AM_0
100
AcDbCircle
 10
31.609927238132
 20
-18.25000000000136
 30
0.0
 40
25.92857142857149
100
AcDbArc
 50
149.9999999999994
 51
329.9999999999995
  0
LINE
  5
3B2C
330
3706
100
AcDbEntity
  8
AM_0
100
AcDbLine
 10
8.227241335952214
 20
-4.750000000001363
 30
0.0
 11
9.155125697149854
 21
-5.285714285715697
 31
0.0
  0
ARC
  5
3B2D
330
3706
100
AcDbEntity
  8
AM_0
100
AcDbCircle
 10
-31.60992723813194
 20
-18.25000000000136
 30
0.0
 40
14.14285714285715
100
AcDbArc
 50
210.0000000000005
 51
30.00000000000055
  0
LINE
  5
3B2E
330
3706
100
AcDbEntity
  8
AM_0
100
AcDbLine
 10
-19.36185367032345
 20
-11.17857142857286
 30
0.0
 11
-20.28973803152104
 21
-11.7142857142872
 31
0.0
  0
ARC
  5
3B2F
330
3706
100
AcDbEntity
  8
AM_0
100
AcDbCircle
 10
-31.60992723813194
 20
-18.25000000000136
 30
0.0
 40
13.07142857142858
100
AcDbArc
 50
210.0000000000005
 51
30.00000000000055
  0
LINE
  5
3B30
330
3706
100
AcDbEntity
  8
AM_0
100
AcDbLine
 10
-43.85800080594049
 20
-25.32142857143009
 30
0.0
 11
-42.93011644474289
 21
-24.7857142857157
 31
0.0
  0
ARC
  5
3B31
330
3706
100
AcDbEntity
  8
AM_0
100
AcDbCircle
 10
-31.60992723813194
 20
-18.25000000000136
 30
0.0
 40
16.2857142857143
100
AcDbArc
 50
210.0000000000005
 51
30.00000000000055
  0
LINE
  5
3B32
330
3706
100
AcDbEntity
  8
AM_0
100
AcDbLine
 10
-17.50608494792828
 20
-10.10714285714431
 30
0.0
 11
-18.43396930912587
 21
-10.64285714285853
 31
0.0
  0
ARC
  5
3B33
330
3706
100
AcDbEntity
  8
AM_0
100
AcDbCircle
 10
-31.60992723813194
 20
-18.25000000000136
 30
0.0
 40
15.21428571428573
100
AcDbArc
 50
210.0000000000005
 51
30.00000000000055
  0
LINE
  5
3B34
330
3706
100
AcDbEntity
  8
AM_0
100
AcDbLine
 10
-45.71376952833566
 20
-26.39285714285853
 30
0.0
 11
-44.78588516713807
 21
-25.85714285714431
 31
0.0
  0
ARC
  5
3B35
330
3706
100
AcDbEntity
  8
AM_0
100
AcDbCircle
 10
-31.60992723813194
 20
-18.25000000000136
 30
0.0
 40
18.42857142857145
100
AcDbArc
 50
210.0000000000005
 51
30.00000000000055
  0
LINE
  5
3B36
330
3706
100
AcDbEntity
  8
AM_0
100
AcDbLine
 10
-15.65031622553306
 20
-9.035714285715696
 30
0.0
 11
-16.57820058673064
 21
-9.571428571429976
 31
0.0
  0
ARC
  5
3B37
330
3706
100
AcDbEntity
  8
AM_0
100
AcDbCircle
 10
-31.60992723813194
 20
-18.25000000000136
 30
0.0
 40
17.35714285714287
100
AcDbArc
 50
210.0000000000005
 51
30.00000000000055
  0
LINE
  5
3B38
330
3706
100
AcDbEntity
  8
AM_0
100
AcDbLine
 10
-47.56953825073093
 20
-27.4642857142872
 30
0.0
 11
-46.64165388953334
 21
-26.92857142857287
 31
0.0
  0
ARC
  5
3B39
330
3706
100
AcDbEntity
  8
AM_0
100
AcDbCircle
 10
-31.60992723813194
 20
-18.25000000000136
 30
0.0
 40
20.57142857142859
100
AcDbArc
 50
210.0000000000005
 51
30.00000000000055
  0
LINE
  5
3B3A
330
3706
100
AcDbEntity
  8
AM_0
100
AcDbLine
 10
-13.79454750313778
 20
-7.9642857142872
 30
0.0
 11
-14.72243186433536
 21
-8.500000000001364
 31
0.0
  0
ARC
  5
3B3B
330
3706
100
AcDbEntity
  8
AM_0
100
AcDbCircle
 10
-31.60992723813194
 20
-18.25000000000136
 30
0.0
 40
19.50000000000002
100
AcDbArc
 50
210.0000000000005
 51
30.00000000000055
  0
LINE
  5
3B3C
330
3706
100
AcDbEntity
  8
AM_0
100
AcDbLine
 10
-49.42530697312623
 20
-28.5357142857157
 30
0.0
 11
-48.49742261192864
 21
-28.00000000000137
 31
0.0
  0
ARC
  5
3B3D
330
3706
100
AcDbEntity
  8
AM_0
100
AcDbCircle
 10
-31.60992723813194
 20
-18.25000000000136
 30
0.0
 40
22.71428571428574
100
AcDbArc
 50
210.0000000000005
 51
30.00000000000055
  0
LINE
  5
3B3E
330
3706
100
AcDbEntity
  8
AM_0
100
AcDbLine
 10
-11.93877878074255
 20
-6.892857142858531
 30
0.0
 11
-12.86666314194019
 21
-7.428571428572865
 31
0.0
  0
ARC
  5
3B3F
330
3706
100
AcDbEntity
  8
AM_0
100
AcDbCircle
 10
-31.60992723813194
 20
-18.25000000000136
 30
0.0
 40
21.64285714285716
100
AcDbArc
 50
210.0000000000005
 51
30.00000000000055
  0
LINE
  5
3B40
330
3706
100
AcDbEntity
  8
AM_0
100
AcDbLine
 10
-51.28107569552135
 20
-29.60714285714431
 30
0.0
 11
-50.35319133432381
 21
-29.07142857142999
 31
0.0
  0
ARC
  5
3B41
330
3706
100
AcDbEntity
  8
AM_0
100
AcDbCircle
 10
-31.60992723813194
 20
-18.25000000000136
 30
0.0
 40
24.85714285714288
100
AcDbArc
 50
210.0000000000005
 51
30.00000000000055
  0
LINE
  5
3B42
330
3706
100
AcDbEntity
  8
AM_0
100
AcDbLine
 10
-10.08301005834738
 20
-5.821428571429976
 30
0.0
 11
-11.01089441954496
 21
-6.357142857144308
 31
0.0
  0
ARC
  5
3B43
330
3706
100
AcDbEntity
  8
AM_0
100
AcDbCircle
 10
-31.60992723813194
 20
-18.25000000000136
 30
0.0
 40
23.78571428571431
100
AcDbArc
 50
210.0000000000005
 51
30.00000000000055
  0
LINE
  5
3B44
330
3706
100
AcDbEntity
  8
AM_0
100
AcDbLine
 10
-53.13684441791656
 20
-30.67857142857287
 30
0.0
 11
-52.20896005671898
 21
-30.14285714285853
 31
0.0
  0
LINE
  5
3B45
330
3706
100
AcDbEntity
  8
AM_0
100
AcDbLine
 10
-8.227241335952044
 20
-4.750000000001363
 30
0.0
 11
-9.1551256971498
 21
-5.285714285715697
 31
0.0
  0
ARC
  5
3B46
330
3706
100
AcDbEntity
  8
AM_0
100
AcDbCircle
 10
-31.60992723813194
 20
-18.25000000000136
 30
0.0
 40
25.92857142857146
100
AcDbArc
 50
210.0000000000005
 51
30.00000000000055
  0
LINE
  5
3B47
330
3706
100
AcDbEntity
  8
AM_0
100
AcDbLine
 10
-54.99261314031183
 20
-31.75000000000137
 30
0.0
 11
-54.06472877911419
 21
-31.2142857142872
 31
0.0
  0
CIRCLE
  5
3B48
330
3706
100
AcDbEntity
  8
AM_0
100
AcDbCircle
 10
0.0
 20
36.49999999999858
 30
0.0
 40
12.0
  0
CIRCLE
  5
3B49
330
3706
100
AcDbEntity
  8
AM_0
100
AcDbCircle
 10
-31.60992723813194
 20
-18.25000000000136
 30
0.0
 40
12.0
  0
CIRCLE
  5
3B4A
330
3706
100
AcDbEntity
  8
AM_0
100
AcDbCircle
 10
31.60992723813212
 20
-18.25000000000136
 30
0.0
 40
12.0
  0
CIRCLE
  5
3B4B
330
3706
100
AcDbEntity
  8
AM_0
100
AcDbCircle
 10
44.46532856730942
 20
66.01871487612125
 30
0.0
 40
3.099999999999995
  0
ARC
  5
3B4C
330
3706
100
AcDbEntity
  8
AM_0
100
AcDbCircle
 10
35.00131736751729
 20
52.50270614535281
 30
0.0
 40
7.499999999999992
100
AcDbArc
 50
145.0000000000026
 51
325.0000000000026
  0
ARC
  5
3B4D
330
3706
100
AcDbEntity
  8
AM_0
100
AcDbCircle
 10
43.60496391278298
 20
64.7899868096877
 30
0.0
 40
7.499999999999992
100
AcDbArc
 50
325.0000000000026
 51
145.0000000000026
  0
LINE
  5
3B4E
330
3706
100
AcDbEntity
  8
AM_0
100
AcDbLine
 10
41.14495769968459
 20
48.20088287272
 30
0.0
 11
49.74860424495028
 21
60.48816353705484
 31
0.0
  0
LINE
  5
3B4F
330
3706
100
AcDbEntity
  8
AM_0
100
AcDbLine
 10
37.4613235806155
 20
69.09181008232059
 30
0.0
 11
28.85767703534981
 21
56.80452941798574
 31
0.0
  0
CIRCLE
  5
3B50
330
3706
100
AcDbEntity
  8
AM_0
100
AcDbCircle
 10
-79.40654849157844
 20
5.498746688849222
 30
0.0
 40
3.099999999999995
  0
ARC
  5
3B51
330
3706
100
AcDbEntity
  8
AM_0
100
AcDbCircle
 10
-62.96933597306463
 20
4.060676933512922
 30
0.0
 40
7.499999999999992
100
AcDbArc
 50
265.0000000000002
 51
85.00000000000026
  0
ARC
  5
3B52
330
3706
100
AcDbEntity
  8
AM_0
100
AcDbCircle
 10
-77.91225644444086
 20
5.368013074727741
 30
0.0
 40
7.499999999999992
100
AcDbArc
 50
85.00000000000026
 51
265.0000000000002
  0
LINE
  5
3B53
330
3706
100
AcDbEntity
  8
AM_0
100
AcDbLine
 10
-62.31566790245733
 20
11.53213716920089
 30
0.0
 11
-77.2585883738335
 21
12.83947331041582
 31
0.0
  0
LINE
  5
3B54
330
3706
100
AcDbEntity
  8
AM_0
100
AcDbLine
 10
-78.56592451504837
 20
-2.103447160960341
 30
0.0
 11
-63.62300404367221
 21
-3.410783302175274
 31
0.0
  0
CIRCLE
  5
3B55
330
3706
100
AcDbEntity
  8
AM_0
100
AcDbCircle
 10
34.94121992426915
 20
-71.51746156497456
 30
0.0
 40
3.099999999999995
  0
ARC
  5
3B56
330
3706
100
AcDbEntity
  8
AM_0
100
AcDbCircle
 10
27.96801860554763
 20
-56.56338307886988
 30
0.0
 40
7.499999999999992
100
AcDbArc
 50
24.99999999999935
 51
204.9999999999994
  0
ARC
  5
3B57
330
3706
100
AcDbEntity
  8
AM_0
100
AcDbCircle
 10
34.30729253165799
 20
-70.15799988441966
 30
0.0
 40
7.49999999999999
100
AcDbArc
 50
204.9999999999994
 51
24.99999999999935
  0
LINE
  5
3B58
330
3706
100
AcDbEntity
  8
AM_0
100
AcDbLine
 10
21.1707102027728
 20
-59.73302004192515
 30
0.0
 11
27.50998412888311
 21
-73.32763684747504
 31
0.0
  0
LINE
  5
3B59
330
3706
100
AcDbEntity
  8
AM_0
100
AcDbLine
 10
41.10460093443282
 20
-66.9883629213644
 30
0.0
 11
34.76532700832239
 21
-53.39374611581485
 31
0.0
  0
ELLIPSE
  5
3B5A
330
3706
100
AcDbEntity
  8
AM_0
100
AcDbEllipse
 10
51.63676470064563
 20
29.81249999999903
 30
0.0
 11
-3.749999999999858
 21
6.495190528383067
 31
0.0
210
0.0
220
0.0
230
0.9999999999999998
 40
0.6000000000000024
 41
0.0
 42
6.283185307179584
  0
ARC
  5
3B5B
330
3706
100
AcDbEntity
  8
AM_0
100
AcDbCircle
 10
3.0
 20
71.93747284968833
 30
0.0
 40
1.999999999999938
100
AcDbArc
 50
87.61198453673014
 51
180.0
  0
ARC
  5
3B5C
330
3706
100
AcDbEntity
  8
AM_0
100
AcDbCircle
 10
3.0
 20
66.85210042154999
 30
0.0
 40
1.99999999999993
100
AcDbArc
 50
180.0
 51
264.3552224476301
  0
ARC
  5
3B5D
330
3706
100
AcDbEntity
  8
AM_0
100
AcDbCircle
 10
2.999999999999943
 20
6.147899578447208
 30
0.0
 40
1.999999999999934
100
AcDbArc
 50
95.64477755236984
 51
180.0
  0
ARC
  5
3B5E
330
3706
100
AcDbEntity
  8
AM_0
100
AcDbCircle
 10
2.999999999999943
 20
1.732050807568781
 30
0.0
 40
1.999999999999934
100
AcDbArc
 50
180.0
 51
239.9999999999995
  0
ARC
  5
3B5F
330
3706
100
AcDbEntity
  8
AM_0
100
AcDbCircle
 10
6.824237214850995
 20
-0.4758735778705159
 30
0.0
 40
1.999999999999938
100
AcDbArc
 50
239.9999999999995
 51
324.3552224476289
  0
ARC
  5
3B60
330
3706
100
AcDbEntity
  8
AM_0
100
AcDbCircle
 10
63.79967897188345
 20
-33.37066021349097
 30
0.0
 40
1.999999999999941
100
AcDbArc
 50
239.9999999999966
 51
332.3880154632671
  0
ARC
  5
3B61
330
3706
100
AcDbEntity
  8
AM_0
100
AcDbCircle
 10
59.39561726141079
 20
-30.82797399942183
 30
0.0
 40
1.999999999999938
100
AcDbArc
 50
155.64477755237
 51
239.9999999999995
  0
LINE
  5
3B62
330
3706
100
AcDbEntity
  8
AM_0
100
AcDbLine
 10
1.000000000000113
 20
71.93747284968833
 30
0.0
 11
1.000000000000113
 21
66.85210042154999
 31
0.0
  0
ARC
  5
3B63
330
3706
100
AcDbEntity
  8
AM_0
100
AcDbCircle
 10
0.0
 20
36.49999999999858
 30
0.0
 40
28.49999999999909
100
AcDbArc
 50
275.6447775523698
 51
84.35522244763019
  0
LINE
  5
3B64
330
3706
100
AcDbEntity
  8
AM_0
100
AcDbLine
 10
1.0
 20
6.147899578447208
 30
0.0
 11
0.9999999999999431
 21
1.732050807568781
 31
0.0
  0
LINE
  5
3B65
330
3706
100
AcDbEntity
  8
AM_0
100
AcDbLine
 10
1.999999999999943
 20
0.0
 30
0.0
 11
5.824237214850995
 21
-2.207924385439298
 31
0.0
  0
ARC
  5
3B66
330
3706
100
AcDbEntity
  8
AM_0
100
AcDbCircle
 10
31.60992723813092
 20
-18.24999999999937
 30
0.0
 40
28.49999999999909
100
AcDbArc
 50
335.64477755237
 51
144.3552224476289
  0
ARC
  5
3B67
330
3706
100
AcDbEntity
  8
AM_0
100
AcDbCircle
 10
0.0
 20
0.0
 30
0.0
 40
73.99999999999765
100
AcDbArc
 50
332.3880154632671
 51
50.3049440863135
  0
ARC
  5
3B68
330
3706
100
AcDbEntity
  8
AM_0
100
AcDbCircle
 10
0.0
 20
0.0000000000001705
 30
0.0
 40
73.99999999999749
100
AcDbArc
 50
61.94117226345671
 51
87.61198453673014
  0
LINE
  5
3B69
330
3706
100
AcDbEntity
  8
AM_0
100
AcDbLine
 10
58.39561726141062
 20
-32.56002480699067
 30
0.0
 11
62.79967897188345
 21
-35.1027110210598
 31
0.0
  0
ELLIPSE
  5
3B6A
330
3706
100
AcDbEntity
  8
AM_0
100
AcDbEllipse
 10
-51.63676470064672
 20
29.81249999999699
 30
0.0
 11
-3.749999999999881
 21
-6.495190528383057
 31
0.0
210
0.0
220
0.0
230
0.9999999999999998
 40
0.6000000000000024
 41
0.0
 42
6.283185307179584
  0
ARC
  5
3B6B
330
3706
100
AcDbEntity
  8
AM_0
100
AcDbCircle
 10
-63.79967897188469
 20
-33.37066021349301
 30
0.0
 40
1.999999999999938
100
AcDbArc
 50
207.6119845367329
 51
300.0000000000005
  0
ARC
  5
3B6C
330
3706
100
AcDbEntity
  8
AM_0
100
AcDbCircle
 10
-59.39561726141175
 20
-30.82797399942382
 30
0.0
 40
1.99999999999993
100
AcDbArc
 50
300.0000000000005
 51
24.35522244763
  0
ARC
  5
3B6D
330
3706
100
AcDbEntity
  8
AM_0
100
AcDbCircle
 10
-6.824237214852017
 20
-0.4758735778725624
 30
0.0
 40
1.999999999999934
100
AcDbArc
 50
215.6447775523711
 51
300.0000000000005
  0
ARC
  5
3B6E
330
3706
100
AcDbEntity
  8
AM_0
100
AcDbCircle
 10
-3.000000000001022
 20
1.732050807566621
 30
0.0
 40
1.999999999999934
100
AcDbArc
 50
300.0000000000005
 51
0.0
  0
ARC
  5
3B6F
330
3706
100
AcDbEntity
  8
AM_0
100
AcDbCircle
 10
-3.000000000001022
 20
6.147899578445218
 30
0.0
 40
1.999999999999938
100
AcDbArc
 50
0.0
 51
84.35522244763019
  0
ARC
  5
3B70
330
3706
100
AcDbEntity
  8
AM_0
100
AcDbCircle
 10
-3.000000000000966
 20
71.93747284968623
 30
0.0
 40
1.999999999999943
100
AcDbArc
 50
0.0
 51
92.38801546326987
  0
ARC
  5
3B71
330
3706
100
AcDbEntity
  8
AM_0
100
AcDbCircle
 10
-3.000000000000966
 20
66.85210042154796
 30
0.0
 40
1.999999999999938
100
AcDbArc
 50
275.6447775523698
 51
0.0
  0
LINE
  5
3B72
330
3706
100
AcDbEntity
  8
AM_0
100
AcDbLine
 10
-62.7996789718847
 20
-35.10271102106185
 30
0.0
 11
-58.39561726141186
 21
-32.5600248069926
 31
0.0
  0
ARC
  5
3B73
330
3706
100
AcDbEntity
  8
AM_0
100
AcDbCircle
 10
-31.60992723813194
 20
-18.25000000000136
 30
0.0
 40
28.49999999999909
100
AcDbArc
 50
35.6447775523711
 51
204.35522244763
  0
LINE
  5
3B74
330
3706
100
AcDbEntity
  8
AM_0
100
AcDbLine
 10
-5.824237214852017
 20
-2.207924385441344
 30
0.0
 11
-2.000000000001023
 21
-0.00000000000216
 31
0.0
  0
LINE
  5
3B75
330
3706
100
AcDbEntity
  8
AM_0
100
AcDbLine
 10
-1.000000000001193
 20
1.732050807566621
 30
0.0
 11
-1.000000000001193
 21
6.147899578445218
 31
0.0
  0
ARC
  5
3B76
330
3706
100
AcDbEntity
  8
AM_0
100
AcDbCircle
 10
-0.0000000000011937
 20
36.49999999999648
 30
0.0
 40
28.49999999999911
100
AcDbArc
 50
95.64477755236984
 51
264.3552224476301
  0
ARC
  5
3B77
330
3706
100
AcDbEntity
  8
AM_0
100
AcDbCircle
 10
-0.0000000000011937
 20
-0.00000000000216
 30
0.0
 40
73.99999999999763
100
AcDbArc
 50
92.38801546326987
 51
170.3049440863095
  0
ARC
  5
3B78
330
3706
100
AcDbEntity
  8
AM_0
100
AcDbCircle
 10
-0.0000000000012506
 20
-0.00000000000216
 30
0.0
 40
73.99999999999749
100
AcDbArc
 50
181.9411722634531
 51
207.6119845367329
  0
LINE
  5
3B79
330
3706
100
AcDbEntity
  8
AM_0
100
AcDbLine
 10
-1.000000000001193
 20
66.85210042154796
 30
0.0
 11
-1.000000000001193
 21
71.93747284968623
 31
0.0
  0
ELLIPSE
  5
3B7A
330
3706
100
AcDbEntity
  8
AM_0
100
AcDbEllipse
 10
0.0000000000012506
 20
-59.62500000000023
 30
0.0
 11
7.499999999999737
 21
-0.0000000000000139
 31
0.0
210
0.0
220
0.0
230
1.0
 40
0.6000000000000025
 41
0.0
 42
6.283185307179584
  0
ARC
  5
3B7B
330
3706
100
AcDbEntity
  8
AM_0
100
AcDbCircle
 10
60.79967897188476
 20
-38.5668126361996
 30
0.0
 40
1.999999999999938
100
AcDbArc
 50
327.6119845367268
 51
59.99999999999944
  0
ARC
  5
3B7C
330
3706
100
AcDbEntity
  8
AM_0
100
AcDbCircle
 10
56.39561726141181
 20
-36.02412642213034
 30
0.0
 40
1.99999999999993
100
AcDbArc
 50
59.99999999999665
 51
144.3552224476289
  0
ARC
  5
3B7D
330
3706
100
AcDbEntity
  8
AM_0
100
AcDbCircle
 10
3.824237214852303
 20
-5.67202600057891
 30
0.0
 40
1.999999999999934
100
AcDbArc
 50
335.64477755237
 51
59.99999999999944
  0
ARC
  5
3B7E
330
3706
100
AcDbEntity
  8
AM_0
100
AcDbCircle
 10
0.0000000000013074
 20
-3.464101615139725
 30
0.0
 40
1.999999999999934
100
AcDbArc
 50
59.99999999999944
 51
120.0000000000005
  0
ARC
  5
3B7F
330
3706
100
AcDbEntity
  8
AM_0
100
AcDbCircle
 10
-3.824237214849801
 20
-5.672026000579021
 30
0.0
 40
1.999999999999938
100
AcDbArc
 50
120.0000000000005
 51
204.35522244763
  0
ARC
  5
3B80
330
3706
100
AcDbEntity
  8
AM_0
100
AcDbCircle
 10
-60.79967897188225
 20
-38.56681263619953
 30
0.0
 40
1.999999999999941
100
AcDbArc
 50
120.0000000000005
 51
212.3880154632659
  0
ARC
  5
3B81
330
3706
100
AcDbEntity
  8
AM_0
100
AcDbCircle
 10
-56.39561726140947
 20
-36.02412642213034
 30
0.0
 40
1.999999999999938
100
AcDbArc
 50
35.6447775523711
 51
120.0000000000005
  0
LINE
  5
3B82
330
3706
100
AcDbEntity
  8
AM_0
100
AcDbLine
 10
61.79967897188475
 20
-36.83476182863086
 30
0.0
 11
57.39561726141193
 21
-34.2920756145615
 31
0.0
  0
ARC
  5
3B83
330
3706
100
AcDbEntity
  8
AM_0
100
AcDbCircle
 10
31.609927238132
 20
-18.25000000000136
 30
0.0
 40
28.49999999999909
100
AcDbArc
 50
155.64477755237
 51
324.3552224476289
  0
LINE
  5
3B84
330
3706
100
AcDbEntity
  8
AM_0
100
AcDbLine
 10
4.824237214852302
 20
-3.939975193010069
 30
0.0
 11
1.000000000001306
 21
-1.732050807570885
 31
0.0
  0
LINE
  5
3B85
330
3706
100
AcDbEntity
  8
AM_0
100
AcDbLine
 10
-0.9999999999985787
 20
-1.732050807570885
 30
0.0
 11
-4.824237214849802
 21
-3.939975193010183
 31
0.0
  0
ARC
  5
3B86
330
3706
100
AcDbEntity
  8
AM_0
100
AcDbCircle
 10
-31.60992723812956
 20
-18.25000000000136
 30
0.0
 40
28.49999999999911
100
AcDbArc
 50
215.6447775523711
 51
24.35522244763
  0
ARC
  5
3B87
330
3706
100
AcDbEntity
  8
AM_0
100
AcDbCircle
 10
0.0000000000013074
 20
-0.0000000000020464
 30
0.0
 40
73.99999999999761
100
AcDbArc
 50
212.3880154632659
 51
290.3049440863096
  0
ARC
  5
3B88
330
3706
100
AcDbEntity
  8
AM_0
100
AcDbCircle
 10
0.0000000000014211
 20
-0.00000000000216
 30
0.0
 40
73.99999999999749
100
AcDbArc
 50
301.9411722634552
 51
327.6119845367341
  0
LINE
  5
3B89
330
3706
100
AcDbEntity
  8
AM_0
100
AcDbLine
 10
-57.39561726140937
 20
-34.2920756145615
 30
0.0
 11
-61.79967897188226
 21
-36.83476182863058
 31
0.0
  0
INSERT
  5
3B8A
330
3706
100
AcDbEntity
  8
DIM
100
AcDbBlockReference
 66
     1
  2
dimensionBlock
 10
-76.25
 20
-0.0000000000013642
 30
0.0
  0
ATTRIB
  5
3B8B
330
3B8A
100
AcDbEntity
  8
0
100
AcDbText
 10
-66.78290704968047
 20
2.891095235478018
 30
0.00000001
 40
5.0
  1
x3
100
AcDbAttribute
280
     0
  2
D
 70
     1
280
     1
  0
ATTRIB
  5
3B8C
330
3B8A
100
AcDbEntity
  8
0
100
AcDbText
 10
-66.78290704968047
 20
-3.592322260642959
 30
0.00000001
 40
5.0
  1
ø
100
AcDbAttribute
280
     0
  2
Dsymbol
 70
     1
280
     1
  0
SEQEND
  5
3B8D
330
3B8A
100
AcDbEntity
  8
DIM
  0
INSERT
  5
3B8E
330
3706
100
AcDbEntity
  8
DIM
100
AcDbBlockReference
 66
     1
  2
dimensionBlock
 10
76.25
 20
-0.0000000000013642
 30
0.0
  0
ATTRIB
  5
3B8F
330
3B8E
100
AcDbEntity
  8
0
100
AcDbText
 10
85.71709295031952
 20
2.891095235478018
 30
0.00000001
 40
5.0
  1
x3
100
AcDbAttribute
280
     0
  2
D
 70
     1
280
     1
  0
ATTRIB
  5
3B90
330
3B8E
100
AcDbEntity
  8
0
100
AcDbText
 10
85.71709295031952
 20
-3.592322260642959
 30
0.00000001
 40
5.0
  1
ø
100
AcDbAttribute
280
     0
  2
Dsymbol
 70
     1
280
     1
  0
SEQEND
  5
3B91
330
3B8E
100
AcDbEntity
  8
DIM
  0
INSERT
  5
3B92
330
3706
100
AcDbEntity
  8
DIM
100
AcDbBlockReference
 66
     1
  2
dimensionBlock
 10
-27.0
 20
36.49999999999858
 30
0.0
  0
ATTRIB
  5
3B93
330
3B92
100
AcDbEntity
  8
0
100
AcDbText
 10
-17.53290704968049
 20
39.39109523547796
 30
0.00000001
 40
5.0
  1
x2
100
AcDbAttribute
280
     0
  2
D
 70
     1
280
     1
  0
ATTRIB
  5
3B94
330
3B92
100
AcDbEntity
  8
0
100
AcDbText
 10
-17.53290704968049
 20
32.90767773935698
 30
0.00000001
 40
5.0
  1
ø
100
AcDbAttribute
280
     0
  2
Dsymbol
 70
     1
280
     1
  0
SEQEND
  5
3B95
330
3B92
100
AcDbEntity
  8
DIM
  0
INSERT
  5
3B96
330
3706
100
AcDbEntity
  8
DIM
100
AcDbBlockReference
 66
     1
  2
dimensionBlock
 10
27.0
 20
36.49999999999858
 30
0.0
  0
ATTRIB
  5
3B97
330
3B96
100
AcDbEntity
  8
0
100
AcDbText
 10
36.46709295031951
 20
39.39109523547796
 30
0.00000001
 40
5.0
  1
x2
100
AcDbAttribute
280
     0
  2
D
 70
     1
280
     1
  0
ATTRIB
  5
3B98
330
3B96
100
AcDbEntity
  8
0
100
AcDbText
 10
36.46709295031951
 20
32.90767773935698
 30
0.00000001
 40
5.0
  1
ø
100
AcDbAttribute
280
     0
  2
Dsymbol
 70
     1
280
     1
  0
SEQEND
  5
3B99
330
3B96
100
AcDbEntity
  8
DIM
  0
INSERT
  5
3B9A
330
3706
100
AcDbEntity
  8
DIM
100
AcDbBlockReference
 66
     1
  2
dimensionBlock
 10
-12.0
 20
36.49999999999858
 30
0.0
  0
ATTRIB
  5
3B9B
330
3B9A
100
AcDbEntity
  8
0
100
AcDbText
 10
-2.532907049680488
 20
39.39109523547796
 30
0.00000001
 40
5.0
  1
x1
100
AcDbAttribute
280
     0
  2
D
 70
     1
280
     1
  0
ATTRIB
  5
3B9C
330
3B9A
100
AcDbEntity
  8
0
100
AcDbText
 10
-2.532907049680488
 20
32.90767773935698
 30
0.00000001
 40
5.0
  1
ø
100
AcDbAttribute
280
     0
  2
Dsymbol
 70
     1
280
     1
  0
SEQEND
  5
3B9D
330
3B9A
100
AcDbEntity
  8
DIM
  0
INSERT
  5
3B9E
330
3706
100
AcDbEntity
  8
DIM
100
AcDbBlockReference
 66
     1
  2
dimensionBlock
 10
12.0
 20
36.49999999999858
 30
0.0
  0
ATTRIB
  5
3B9F
330
3B9E
100
AcDbEntity
  8
0
100
AcDbText
 10
21.46709295031951
 20
39.39109523547796
 30
0.00000001
 40
5.0
  1
x1
100
AcDbAttribute
280
     0
  2
D
 70
     1
280
     1
  0
ATTRIB
  5
3BA0
330
3B9E
100
AcDbEntity
  8
0
100
AcDbText
 10
21.46709295031951
 20
32.90767773935698
 30
0.00000001
 40
5.0
  1
ø
100
AcDbAttribute
280
     0
  2
Dsymbol
 70
     1
280
     1
  0
SEQEND
  5
3BA1
330
3B9E
100
AcDbEntity
  8
DIM
  0
ENDBLK
  5
3708
330
3706
100
AcDbEntity
  8
0
100
AcDbBlockEnd
  0
ENDSEC
  0
SECTION
  2
ENTITIES
  0
INSERT
  5
391C
330
1A
100
AcDbEntity
  8
AM_0
100
AcDbBlockReference
  2
H3_153_0_3X24_52UG
 10
0.0
 20
0.0
 30
0.0
  0
VIEWPORT
  5
2CAA
102
{ACAD_XDICTIONARY
360
2CAB
102
}
330
2CA3
100
AcDbEntity
 67
     1
  8
0
348
A55
100
AcDbViewport
 10
128.5
 20
97.5
 30
0.0
 40
349.2069620253165
 41
222.18
 68
     1
 69
     1
 12
128.5
 22
97.5
 13
0.0
 23
0.0
 14
10.0
 24
10.0
 15
10.0
 25
10.0
 16
0.0
 26
0.0
 36
1.0
 17
0.0
 27
0.0
 37
0.0
 42
50.0
 43
0.0
 44
0.0
 45
222.18
 50
0.0
 51
0.0
 72
   100
 90
   819232
  1

281
     0
 71
     1
 74
     0
110
0.0
120
0.0
130
0.0
111
1.0
121
0.0
131
0.0
112
0.0
122
1.0
132
0.0
 79
     0
146
0.0
170
     0
 61
     5
292
     1
282
     1
141
0.0
142
0.0
 63
   250
421
  3355443
1001
GENIUS_GENSCREG_15
1000
PF
1040
1.0
1000
DF
1040
1.0
1000
MIN
1011
-46.10348101265822
1021
-13.59
1031
0.0
1000
MAX
1011
303.1034810126582
1021
208.59
1031
0.0
1000
FLAGS
1070
     4
1001
GENIUS_GENOBJ-N-SDF_13
1002
{
1000
OWNER
1000
GEN
1002
}
1001
GENIUS_GENODEF_13
1002
{
1000
HIER
1070
     0
1002
}
1002
{
1000
MANEDIT
1070
     0
1002
}
1002
{
1000
NOSEL
1070
     0
1002
}
1002
{
1000
BEHIND
1070
     0
1002
}
1002
{
1000
OTHER
1070
     0
1002
}
1002
{
1000
REACTOR
1002
}
  0
ENDSEC
  0
SECTION
  2
OBJECTS
  0
DICTIONARY
  5
C
330
0
100
AcDbDictionary
281
     1
  3
ACAD_CIP_PREVIOUS_PRODUCT_INFO
350
CD7
  3
ACAD_COLOR
350
3CA
  3
ACAD_DETAILVIEWSTYLE
350
CCB
  3
ACAD_FIELDLIST
350
D6A
  3
ACAD_GROUP
350
D
  3
ACAD_LAYOUT
350
167
  3
ACAD_MATERIAL
350
3C9
  3
ACAD_MLEADERSTYLE
350
A72
  3
ACAD_MLINESTYLE
350
E
  3
ACAD_PLOTSETTINGS
350
168
  3
ACAD_PLOTSTYLENAME
350
165
  3
ACAD_SCALELIST
350
A60
  3
ACAD_SECTIONVIEWSTYLE
350
CC9
  3
ACAD_TABLESTYLE
350
650
  3
ACAD_VISUALSTYLE
350
A4F
  3
ACASAPPOBJECT
350
EE
  3
ACASGREF_MASTER
350
9B
  3
ACDB_RECOMPOSE_DATA
350
3BA7
  3
ACDBVARIABLEDICTIONARY
350
5D
  3
AcDsDecomposeData
350
3BAD
  3
ACMDICTIONARY
350
142
  3
AD_GREF_MODULE
350
AF
  3
AD_MAPI_MODULE
350
18E
  3
AMG
350
171
  3
AMGSNAPSETTINGS
350
1F2
  3
ASE_INDEX_DICTIONARY
350
849
  3
coolorange
350
13F2
  3
MAPISURF_MODULE
350
2E8
  0
DICTIONARY
  5
592
330
2
100
AcDbDictionary
280
     1
281
     1
  3
ACAD_LAYERFILTERS
360
C7C
  3
ACAD_LAYERSTATES
360
822
  3
ACLYDICTIONARY
360
C7B
  3
AMLAYER_GROUPCOLORS
360
593
  0
DICTIONARY
  5
AB7
330
F
100
AcDbDictionary
280
     1
281
     1
  3
ADSK_XREC_LAYER_RECONCILED
360
391D
  0
DICTIONARY
  5
AB9
330
5CF
100
AcDbDictionary
280
     1
281
     1
  3
ADSK_XREC_LAYER_RECONCILED
360
391E
  0
DICTIONARY
  5
36DB
330
36DA
100
AcDbDictionary
280
     1
281
     1
  3
ADSK_XREC_LAYER_RECONCILED
360
391F
  0
DICTIONARY
  5
12A
330
1A
100
AcDbDictionary
280
     1
281
     1
  3
ACAD_INDEX
360
30C4
  0
DICTIONARY
  5
36D4
330
36D3
100
AcDbDictionary
280
     1
281
     1
  0
DICTIONARY
  5
3BA2
330
3706
100
AcDbDictionary
280
     1
281
     1
  0
DICTIONARY
  5
2CAB
330
2CAA
100
AcDbDictionary
280
     1
281
     1
  3
ASDK_XREC_ANNOTATION_SCALE_INFO
360
2CAC
  0
XRECORD
  5
CD7
102
{ACAD_REACTORS
330
C
102
}
330
C
100
AcDbXrecord
280
     1
300
AMECH_PP
300
2021
300

  0
DICTIONARY
  5
3CA
102
{ACAD_REACTORS
330
C
102
}
330
C
100
AcDbDictionary
281
     1
  0
DICTIONARY
  5
CCB
102
{ACAD_REACTORS
330
C
102
}
330
C
100
AcDbDictionary
281
     1
  3
Imperial24
350
10E8
  3
Metric50
350
CCC
  0
FIELDLIST
  5
D6A
102
{ACAD_REACTORS
330
C
102
}
330
C
100
AcDbIdSet
 90
        3
330
3982
330
3983
330
3984
100
AcDbFieldList
  0
DICTIONARY
  5
D
102
{ACAD_REACTORS
330
C
102
}
330
C
100
AcDbDictionary
281
     1
  0
DICTIONARY
  5
167
102
{ACAD_REACTORS
330
C
102
}
330
C
100
AcDbDictionary
281
     1
  3
Layout1
350
2CA4
  3
Model
350
169
  0
DICTIONARY
  5
3C9
102
{ACAD_REACTORS
330
C
102
}
330
C
100
AcDbDictionary
281
     1
  3
ByBlock
350
A3F
  3
ByLayer
350
A37
  3
Global
350
A47
  0
DICTIONARY
  5
A72
102
{ACAD_REACTORS
330
C
102
}
330
C
100
AcDbDictionary
281
     1
  3
Standard
350
A73
  0
DICTIONARY
  5
E
102
{ACAD_REACTORS
330
C
102
}
330
C
100
AcDbDictionary
281
     1
  3
STANDARD
350
13
  0
DICTIONARY
  5
168
102
{ACAD_REACTORS
330
C
102
}
330
C
100
AcDbDictionary
281
     1
  3
Setup1
350
2C89
  0
ACDBDICTIONARYWDFLT
  5
165
102
{ACAD_REACTORS
330
C
102
}
330
C
100
AcDbDictionary
281
     1
  3
Normal
350
166
100
AcDbDictionaryWithDefault
340
166
  0
DICTIONARY
  5
A60
102
{ACAD_REACTORS
330
C
102
}
330
C
100
AcDbDictionary
281
     1
  3
A0
350
A61
  3
A1
350
A62
  3
A2
350
A63
  3
A3
350
A64
  3
A4
350
A65
  3
A5
350
A66
  3
A6
350
A67
  3
A7
350
A68
  3
A8
350
A69
  3
A9
350
A6A
  3
B0
350
A6B
  3
B1
350
A6C
  3
B2
350
A6D
  3
B3
350
A6E
  3
B4
350
A6F
  3
B5
350
A70
  3
B6
350
A71
  0
DICTIONARY
  5
CC9
102
{ACAD_REACTORS
330
C
102
}
330
C
100
AcDbDictionary
281
     1
  3
Imperial24
350
10E5
  3
Metric50
350
CCA
  0
DICTIONARY
  5
650
102
{ACAD_REACTORS
330
C
102
}
330
C
100
AcDbDictionary
281
     1
  3
Standard
350
651
  0
DICTIONARY
  5
A4F
102
{ACAD_REACTORS
330
C
102
}
330
C
100
AcDbDictionary
281
     1
  3
2dWireframe
350
A55
  3
3D Hidden
350
A57
  3
3dWireframe
350
A56
  3
Basic
350
A54
  3
Brighten
350
A5B
  3
ColorChange
350
A5F
  3
Conceptual
350
A58
  3
Dim
350
A5A
  3
EdgeColorOff
350
CC8
  3
Facepattern
350
A5E
  3
Flat
350
A50
  3
FlatWithEdges
350
A51
  3
Gouraud
350
A52
  3
GouraudWithEdges
350
A53
  3
Hidden
350
CC0
  3
JitterOff
350
CC6
  3
Linepattern
350
A5D
  3
OverhangOff
350
CC7
  3
Realistic
350
A59
  3
Shaded
350
CC5
  3
Shaded with edges
350
CC4
  3
Shades of Gray
350
CC1
  3
Sketchy
350
CC2
  3
Thicken
350
A5C
  3
Wireframe
350
CBF
  3
X-Ray
350
CC3
  0
ACAD_PROXY_OBJECT
  5
EE
102
{ACAD_REACTORS
330
C
102
}
330
C
100
AcDbProxyObject
 90
      499
 91
      544
 95
  3276827
 70
     0
162
                 0
161
                10
310
404C
 94
        0
  0
ACAD_PROXY_OBJECT
  5
9B
102
{ACAD_REACTORS
330
C
102
}
330
C
100
AcDbProxyObject
 90
      499
 91
      514
 95
  3276827
 70
     0
162
                 0
161
                34
310
010000404C
 94
        0
  0
XRECORD
  5
3BA7
102
{ACAD_REACTORS
330
C
102
}
330
C
100
AcDbXrecord
280
     1
 90
        1
330
651
  0
DICTIONARY
  5
5D
102
{ACAD_REACTORS
330
C
102
}
330
C
100
AcDbDictionary
281
     1
  3
CANNOSCALE
350
AF4
  3
CMLEADERSTYLE
350
AF2
  3
CTABLESTYLE
350
66F
  3
CVIEWDETAILSTYLE
350
FFA
  3
CVIEWSECTIONSTYLE
350
FFB
  3
DIMADEC
350
5E
  3
DIMASSOC
350
3C7
  3
INDEXCTL
350
128
  3
LAYEREVAL
350
AF6
  3
LAYERNOTIFY
350
AF7
  3
LIGHTINGUNITS
350
AF5
  3
MSLTSCALE
350
AF3
  0
DICTIONARY
  5
3BAD
102
{ACAD_REACTORS
330
C
102
}
330
C
100
AcDbDictionary
281
     1
  3
AcDsRecords
350
3BAF
  3
AcDsSchemas
350
3BAE
1001
ACAD
1070
     2
  0
DICTIONARY
  5
142
102
{ACAD_REACTORS
330
C
102
}
330
C
100
AcDbDictionary
281
     1
  3
ACMSTDDICTIONARY
350
143
  3
AMDTSECTSYM_ARROWCOLOR
350
47D
  0
ACAD_PROXY_OBJECT
  5
AF
102
{ACAD_REACTORS
330
C
102
}
330
C
100
AcDbProxyObject
 90
      499
 91
      526
 95
  3276827
 70
     0
162
                 0
161
               114
310
00000043800000000000000000000C
 94
        0
  0
ACAD_PROXY_OBJECT
  5
18E
102
{ACAD_REACTORS
330
C
102
}
330
C
100
AcDbProxyObject
 90
      499
 91
      570
 95
  3276827
 70
     0
162
                 0
161
                34
310
05000044CC
 94
        0
  0
DICTIONARY
  5
171
102
{ACAD_REACTORS
330
C
102
}
330
C
100
AcDbDictionary
281
     1
  0
DICTIONARY
  5
1F2
102
{ACAD_REACTORS
330
C
102
}
330
C
100
AcDbDictionary
281
     1
  0
DICTIONARY
  5
849
102
{ACAD_REACTORS
330
C
102
}
330
C
100
AcDbDictionary
281
     1
  3
ASEBlockHierarchyIndexRecord
350
84B
1001
DCO15
1040
1524370329.156
  0
DICTIONARY
  5
13F2
102
{ACAD_REACTORS
330
C
102
}
330
C
100
AcDbDictionary
281
     1
  3
myviewproperty
350
13F3
  0
ACAD_PROXY_OBJECT
  5
2E8
102
{ACAD_REACTORS
330
C
102
}
330
C
100
AcDbProxyObject
 90
      499
 91
      610
 95
  3276827
 70
     0
162
                 0
161
                 8
310
0400
 94
        0
  0
DICTIONARY
  5
C7C
102
{ACAD_REACTORS
330
592
102
}
330
592
100
AcDbDictionary
281
     1
  0
DICTIONARY
  5
822
102
{ACAD_REACTORS
330
592
102
}
330
592
100
AcDbDictionary
281
     1
  0
DICTIONARY
  5
C7B
102
{ACAD_REACTORS
330
592
102
}
330
592
100
AcDbDictionary
281
     1
1001
ACAD
1000
<All
  0
DICTIONARY
  5
593
102
{ACAD_REACTORS
330
592
102
}
330
592
100
AcDbDictionary
280
     1
281
     1
  0
XRECORD
  5
391D
102
{ACAD_REACTORS
330
AB7
102
}
330
AB7
100
AcDbXrecord
280
     1
290
     1
  0
XRECORD
  5
391E
102
{ACAD_REACTORS
330
AB9
102
}
330
AB9
100
AcDbXrecord
280
     1
290
     1
  0
XRECORD
  5
391F
102
{ACAD_REACTORS
330
36DB
102
}
330
36DB
100
AcDbXrecord
280
     1
290
     1
  0
DICTIONARY
  5
30C4
102
{ACAD_REACTORS
330
12A
102
}
330
12A
100
AcDbDictionary
281
     1
  3
*A1
350
30C5
  0
XRECORD
  5
2CAC
102
{ACAD_REACTORS
330
2CAB
102
}
330
2CAB
100
AcDbXrecord
280
     1
 90
        1
340
A61
  0
ACDBDETAILVIEWSTYLE
  5
10E8
102
{ACAD_XDICTIONARY
360
3BB6
102
}
102
{ACAD_REACTORS
330
CCB
330
397C
102
}
330
CCB
100
AcDbModelDocViewStyle
 70
     0
  3
Imperial24
290
     0
100
AcDbDetailViewStyle
 70
     0
 71
     0
 90
        3
 71
     1
340
10
 62
   256
 40
0.24
340
0
 62
   256
 40
0.24
300

 40
0.36
280
     3
 71
     2
340
16
 90
       25
 62
   256
 71
     3
340
10
 62
   256
 40
0.24
 90
        1
 40
0.75
 90
        1
300
%<\AcVar ViewType \f "%tc1">% %<\AcVar ViewDetailId>%\PSCALE %<\AcVar ViewScale \f "%sn">%
 71
     4
340
16
 90
       25
 62
   256
340
16
 90
       25
 62
   256
280
     0
  0
ACDBDETAILVIEWSTYLE
  5
CCC
102
{ACAD_XDICTIONARY
360
3BB2
102
}
102
{ACAD_REACTORS
330
CCB
330
397D
102
}
330
CCB
100
AcDbModelDocViewStyle
 70
     0
  3
Metric50
290
     0
100
AcDbDetailViewStyle
 70
     0
 71
     0
 90
        3
 71
     1
340
10
 62
   256
 40
5.0
340
0
 62
   256
 40
5.0
300

 40
0.0
280
     1
 71
     2
340
16
 90
       25
 62
   256
 71
     3
340
10
 62
   256
 40
5.0
 90
        0
 40
15.0
 90
        1
300
%<\AcVar ViewDetailId>% (%<\AcVar ViewScale \f "%sn">%)
 71
     4
340
16
 90
       25
 62
   256
340
16
 90
       25
 62
   256
280
     0
  0
LAYOUT
  5
2CA4
102
{ACAD_REACTORS
330
167
102
}
330
167
100
AcDbPlotSettings
  1

  2
none_device
  4
ISO_A4_(210.00_x_297.00_MM)
  6

 40
7.5
 41
20.0
 42
7.5
 43
20.0
 44
210.0
 45
297.0
 46
0.0
 47
0.0
 48
0.0
 49
0.0
140
0.0
141
0.0
142
1.0
143
2.0
 70
   688
 72
     1
 73
     1
 74
     5
  7
@Layout.ctb
 75
    17
147
0.5
 76
     0
 77
     2
 78
   300
148
0.0
149
0.0
100
AcDbLayout
  1
Layout1
 70
     1
 71
     1
 10
0.0
 20
0.0
 11
12.0
 21
9.0
 12
0.0
 22
0.0
 32
0.0
 14
1.000000000000000E+20
 24
1.000000000000000E+20
 34
1.000000000000000E+20
 15
-1.000000000000000E+20
 25
-1.000000000000000E+20
 35
-1.000000000000000E+20
146
0.0
 13
0.0
 23
0.0
 33
0.0
 16
1.0
 26
0.0
 36
0.0
 17
0.0
 27
1.0
 37
0.0
 76
     0
330
2CA3
331
2CAA
1001
ACAD_PSEXT
1000
None
1000
None
1000
Not applicable
1000
The layout will not be plotted unless a new plotter configuration name is selected.
1070
     0
  0
LAYOUT
  5
169
102
{ACAD_XDICTIONARY
360
1474
102
}
102
{ACAD_REACTORS
330
167
102
}
330
167
100
AcDbPlotSettings
  1

  2
none_device
  4
Letter_(8.50_x_11.00_Inches)
  6

 40
6.349999904632567
 41
6.349999904632567
 42
6.350006103515625
 43
6.350006103515625
 44
215.8999938964844
 45
279.3999938964844
 46
38.1308720290886
 47
0.0
 48
0.0
 49
0.0
140
0.0
141
0.0
142
1.0
143
24.24127445441686
 70
 11956
 72
     0
 73
     1
 74
     0
  7
@Layout.ctb
 75
     0
147
0.0412519565289521
 76
     0
 77
     2
 78
   300
148
8019.824937415057
149
-189.2331007602539
100
AcDbLayout
  1
Model
 70
     1
 71
     0
 10
0.0
 20
0.0
 11
12.0
 21
9.0
 12
0.0
 22
0.0
 32
0.0
 14
0.0
 24
0.0
 34
0.0
 15
0.0
 25
0.0
 35
0.0
146
0.0
 13
0.0
 23
0.0
 33
0.0
 16
1.0
 26
0.0
 36
0.0
 17
0.0
 27
1.0
 37
0.0
 76
     0
330
1A
331
A35
1001
ACAD_PSEXT
1000
None
1000
None
1000
Not applicable
1000
The layout will not be plotted unless a new plotter configuration name is selected.
1070
     0
  0
MATERIAL
  5
A3F
102
{ACAD_XDICTIONARY
360
A40
102
}
102
{ACAD_REACTORS
330
3C9
102
}
330
3C9
100
AcDbMaterial
  1
ByBlock
 72
     0
 43
0.0008202099737533
 43
0.0
 43
0.0
 43
0.0
 43
0.0
 43
0.0008202099737533
 43
0.0
 43
0.0
 43
0.0
 43
0.0
 43
1.0
 43
0.0
 43
0.0
 43
0.0
 43
0.0
 43
1.0
 77
     0
 47
0.0008202099737533
 47
0.0
 47
0.0
 47
0.0
 47
0.0
 47
0.0008202099737533
 47
0.0
 47
0.0
 47
0.0
 47
0.0
 47
1.0
 47
0.0
 47
0.0
 47
0.0
 47
0.0
 47
1.0
171
     0
 49
0.0008202099737533
 49
0.0
 49
0.0
 49
0.0
 49
0.0
 49
0.0008202099737533
 49
0.0
 49
0.0
 49
0.0
 49
0.0
 49
1.0
 49
0.0
 49
0.0
 49
0.0
 49
0.0
 49
1.0
175
     0
142
0.0008202099737533
142
0.0
142
0.0
142
0.0
142
0.0
142
0.0008202099737533
142
0.0
142
0.0
142
0.0
142
0.0
142
1.0
142
0.0
142
0.0
142
0.0
142
0.0
142
1.0
179
     0
144
0.0008202099737533
144
0.0
144
0.0
144
0.0
144
0.0
144
0.0008202099737533
144
0.0
144
0.0
144
0.0
144
0.0
144
1.0
144
0.0
144
0.0
144
0.0
144
0.0
144
1.0
147
0.0008202099737533
147
0.0
147
0.0
147
0.0
147
0.0
147
0.0008202099737533
147
0.0
147
0.0
147
0.0
147
0.0
147
1.0
147
0.0
147
0.0
147
0.0
147
0.0
147
1.0
  0
MATERIAL
  5
A37
102
{ACAD_XDICTIONARY
360
A38
102
}
102
{ACAD_REACTORS
330
3C9
102
}
330
3C9
100
AcDbMaterial
  1
ByLayer
 72
     0
 43
0.0008202099737533
 43
0.0
 43
0.0
 43
0.0
 43
0.0
 43
0.0008202099737533
 43
0.0
 43
0.0
 43
0.0
 43
0.0
 43
1.0
 43
0.0
 43
0.0
 43
0.0
 43
0.0
 43
1.0
 77
     0
 47
0.0008202099737533
 47
0.0
 47
0.0
 47
0.0
 47
0.0
 47
0.0008202099737533
 47
0.0
 47
0.0
 47
0.0
 47
0.0
 47
1.0
 47
0.0
 47
0.0
 47
0.0
 47
0.0
 47
1.0
171
     0
 49
0.0008202099737533
 49
0.0
 49
0.0
 49
0.0
 49
0.0
 49
0.0008202099737533
 49
0.0
 49
0.0
 49
0.0
 49
0.0
 49
1.0
 49
0.0
 49
0.0
 49
0.0
 49
0.0
 49
1.0
175
     0
142
0.0008202099737533
142
0.0
142
0.0
142
0.0
142
0.0
142
0.0008202099737533
142
0.0
142
0.0
142
0.0
142
0.0
142
1.0
142
0.0
142
0.0
142
0.0
142
0.0
142
1.0
179
     0
144
0.0008202099737533
144
0.0
144
0.0
144
0.0
144
0.0
144
0.0008202099737533
144
0.0
144
0.0
144
0.0
144
0.0
144
1.0
144
0.0
144
0.0
144
0.0
144
0.0
144
1.0
147
0.0008202099737533
147
0.0
147
0.0
147
0.0
147
0.0
147
0.0008202099737533
147
0.0
147
0.0
147
0.0
147
0.0
147
1.0
147
0.0
147
0.0
147
0.0
147
0.0
147
1.0
  0
MATERIAL
  5
A47
102
{ACAD_XDICTIONARY
360
A48
102
}
102
{ACAD_REACTORS
330
3C9
102
}
330
3C9
100
AcDbMaterial
  1
Global
 72
     0
 43
0.0008202099737533
 43
0.0
 43
0.0
 43
0.0
 43
0.0
 43
0.0008202099737533
 43
0.0
 43
0.0
 43
0.0
 43
0.0
 43
1.0
 43
0.0
 43
0.0
 43
0.0
 43
0.0
 43
1.0
 77
     0
 47
0.0008202099737533
 47
0.0
 47
0.0
 47
0.0
 47
0.0
 47
0.0008202099737533
 47
0.0
 47
0.0
 47
0.0
 47
0.0
 47
1.0
 47
0.0
 47
0.0
 47
0.0
 47
0.0
 47
1.0
171
     0
 49
0.0008202099737533
 49
0.0
 49
0.0
 49
0.0
 49
0.0
 49
0.0008202099737533
 49
0.0
 49
0.0
 49
0.0
 49
0.0
 49
1.0
 49
0.0
 49
0.0
 49
0.0
 49
0.0
 49
1.0
175
     0
142
0.0008202099737533
142
0.0
142
0.0
142
0.0
142
0.0
142
0.0008202099737533
142
0.0
142
0.0
142
0.0
142
0.0
142
1.0
142
0.0
142
0.0
142
0.0
142
0.0
142
1.0
179
     0
144
0.0008202099737533
144
0.0
144
0.0
144
0.0
144
0.0
144
0.0008202099737533
144
0.0
144
0.0
144
0.0
144
0.0
144
1.0
144
0.0
144
0.0
144
0.0
144
0.0
144
1.0
147
0.0008202099737533
147
0.0
147
0.0
147
0.0
147
0.0
147
0.0008202099737533
147
0.0
147
0.0
147
0.0
147
0.0
147
1.0
147
0.0
147
0.0
147
0.0
147
0.0
147
1.0
  0
MLEADERSTYLE
  5
A73
102
{ACAD_XDICTIONARY
360
1497
102
}
102
{ACAD_REACTORS
330
A72
102
}
330
A72
100
AcDbMLeaderStyle
179
     2
170
     2
171
     1
172
     0
 90
        2
 40
0.0
 41
0.0
173
     1
 91
-1056964608
340
14
 92
       -2
290
     1
 42
2.0
291
     1
 43
0.36
  3
Standard
 44
4.0
300

342
10
174
     1
178
     6
175
     1
176
     0
 93
-1056964608
 45
4.0
292
     0
297
     0
 46
4.0
 94
-1056964608
 47
1.0
 49
1.0
140
1.0
293
     1
141
0.0
294
     1
177
     0
142
1.0
295
     0
296
     0
143
0.125
271
     0
272
     9
273
     9
298
     1
  0
MLINESTYLE
  5
13
102
{ACAD_REACTORS
330
E
102
}
330
E
100
AcDbMlineStyle
  2
STANDARD
 70
     0
  3

 62
     0
 51
90.0
 52
90.0
 71
     2
 49
0.5
 62
   256
  6
BYLAYER
 49
-0.5
 62
   256
  6
BYLAYER
  0
PLOTSETTINGS
  5
2C89
102
{ACAD_REACTORS
330
168
102
}
330
168
100
AcDbPlotSettings
  1
Setup1
  2
none_device
  4
ISO_A4_(210.00_x_297.00_MM)
  6

 40
7.5
 41
20.0
 42
7.5
 43
20.0
 44
210.0
 45
297.0
 46
0.0
 47
0.0
 48
0.0
 49
0.0
140
0.0
141
0.0
142
1.0
143
2.0
 70
   688
 72
     1
 73
     1
 74
     5
  7
@Layout.ctb
 75
    17
147
0.5
 76
     0
 77
     2
 78
   300
148
0.0
149
0.0
1001
ACAD_PSEXT
1000
None
1000
None
1000
Not applicable
1000
The layout will not be plotted unless a new plotter configuration name is selected.
1070
     0
  0
ACDBPLACEHOLDER
  5
166
102
{ACAD_REACTORS
330
165
102
}
330
165
  0
SCALE
  5
A61
102
{ACAD_REACTORS
330
A60
102
}
330
A60
100
AcDbScale
 70
     0
300
1:1
140
1.0
141
1.0
290
     1
  0
SCALE
  5
A62
102
{ACAD_REACTORS
330
A60
102
}
330
A60
100
AcDbScale
 70
     0
300
1:2
140
1.0
141
2.0
290
     0
  0
SCALE
  5
A63
102
{ACAD_REACTORS
330
A60
102
}
330
A60
100
AcDbScale
 70
     0
300
1:4
140
1.0
141
4.0
290
     0
  0
SCALE
  5
A64
102
{ACAD_REACTORS
330
A60
102
}
330
A60
100
AcDbScale
 70
     0
300
1:5
140
1.0
141
5.0
290
     0
  0
SCALE
  5
A65
102
{ACAD_REACTORS
330
A60
102
}
330
A60
100
AcDbScale
 70
     0
300
1:8
140
1.0
141
8.0
290
     0
  0
SCALE
  5
A66
102
{ACAD_REACTORS
330
A60
102
}
330
A60
100
AcDbScale
 70
     0
300
1:10
140
1.0
141
10.0
290
     0
  0
SCALE
  5
A67
102
{ACAD_REACTORS
330
A60
102
}
330
A60
100
AcDbScale
 70
     0
300
1:16
140
1.0
141
16.0
290
     0
  0
SCALE
  5
A68
102
{ACAD_REACTORS
330
A60
102
}
330
A60
100
AcDbScale
 70
     0
300
1:20
140
1.0
141
20.0
290
     0
  0
SCALE
  5
A69
102
{ACAD_REACTORS
330
A60
102
}
330
A60
100
AcDbScale
 70
     0
300
1:30
140
1.0
141
30.0
290
     0
  0
SCALE
  5
A6A
102
{ACAD_REACTORS
330
A60
102
}
330
A60
100
AcDbScale
 70
     0
300
1:40
140
1.0
141
40.0
290
     0
  0
SCALE
  5
A6B
102
{ACAD_REACTORS
330
A60
102
}
330
A60
100
AcDbScale
 70
     0
300
1:50
140
1.0
141
50.0
290
     0
  0
SCALE
  5
A6C
102
{ACAD_REACTORS
330
A60
102
}
330
A60
100
AcDbScale
 70
     0
300
1:100
140
1.0
141
100.0
290
     0
  0
SCALE
  5
A6D
102
{ACAD_REACTORS
330
A60
102
}
330
A60
100
AcDbScale
 70
     0
300
2:1
140
2.0
141
1.0
290
     0
  0
SCALE
  5
A6E
102
{ACAD_REACTORS
330
A60
102
}
330
A60
100
AcDbScale
 70
     0
300
4:1
140
4.0
141
1.0
290
     0
  0
SCALE
  5
A6F
102
{ACAD_REACTORS
330
A60
102
}
330
A60
100
AcDbScale
 70
     0
300
8:1
140
8.0
141
1.0
290
     0
  0
SCALE
  5
A70
102
{ACAD_REACTORS
330
A60
102
}
330
A60
100
AcDbScale
 70
     0
300
10:1
140
10.0
141
1.0
290
     0
  0
SCALE
  5
A71
102
{ACAD_REACTORS
330
A60
102
}
330
A60
100
AcDbScale
 70
     0
300
100:1
140
100.0
141
1.0
290
     0
  0
ACDBSECTIONVIEWSTYLE
  5
10E5
102
{ACAD_XDICTIONARY
360
3BB4
102
}
102
{ACAD_REACTORS
330
CC9
330
397A
102
}
330
CC9
100
AcDbModelDocViewStyle
 70
     0
  3
Imperial24
290
     0
100
AcDbSectionViewStyle
 70
     0
 71
     0
 90
       78
 71
     1
340
10
 62
   256
 40
0.24
340
0
340
0
 62
   256
 40
0.24
300
I, O, Q, S, X, Z
 40
0.48
 90
        3
 40
0.18
 90
        1
 71
     2
340
16
 90
       25
 62
   256
340
16
 90
       50
 62
   256
 40
0.24
 40
0.0
 40
0.24
 71
     3
340
10
 62
   256
 40
0.24
 90
        1
 40
0.75
 90
        1
300
%<\AcVar ViewType \f "%tc1">% %<\AcVar ViewSectionStartId>%-%<\AcVar ViewSectionEndId>%\PSCALE %<\AcVar ViewScale \f "%sn">%
 71
     4
 62
   256
 62
   257
300
ANSI31
 40
1.0
 90
        0
290
     0
290
     0
 90
        6
 40
0.0
 40
1.570796326794896
 40
0.2617993877991494
 40
1.308996938995747
 40
-0.2617993877991494
 40
1.832595714594045
  0
ACDBSECTIONVIEWSTYLE
  5
CCA
102
{ACAD_XDICTIONARY
360
3BB0
102
}
102
{ACAD_REACTORS
330
CC9
330
397B
102
}
330
CC9
100
AcDbModelDocViewStyle
 70
     0
  3
Metric50
290
     0
100
AcDbSectionViewStyle
 70
     0
 71
     0
 90
      102
 71
     1
340
10
 62
   256
 40
5.0
340
0
340
0
 62
   256
 40
5.0
300
I, O, Q, S, X, Z
 40
10.0
 90
        0
 40
2.5
 90
        0
 71
     2
340
16
 90
       25
 62
   256
340
16
 90
       50
 62
   256
 40
5.0
 40
2.5
 40
5.0
 71
     3
340
10
 62
   256
 40
5.0
 90
        0
 40
15.0
 90
        1
300
%<\AcVar ViewSectionStartId>%-%<\AcVar ViewSectionEndId>% (%<\AcVar ViewScale \f "%sn">%)
 71
     4
 62
   256
 62
   257
300
ANSI31
 40
1.0
 90
        0
290
     0
290
     0
 90
        6
 40
0.0
 40
1.570796326794896
 40
0.2617993877991494
 40
1.308996938995747
 40
-0.2617993877991494
 40
1.832595714594045
  0
TABLESTYLE
  5
651
102
{ACAD_XDICTIONARY
360
AED
102
}
102
{ACAD_REACTORS
330
650
102
}
330
650
100
AcDbTableStyle
280
     0
  3
Standard
 70
     0
 71
     0
 40
1.5
 41
1.5
280
     0
281
     0
  7
STANDARD
140
4.5
170
     2
 62
     0
 63
     7
283
     0
 90
        4
 91
        0
  1

274
    -2
284
     1
 64
     0
275
    -2
285
     1
 65
     0
276
    -2
286
     1
 66
     0
277
    -2
287
     1
 67
     0
278
    -2
288
     1
 68
     0
279
    -2
289
     1
 69
     0
  7
STANDARD
140
6.0
170
     5
 62
     0
 63
     7
283
     0
 90
        4
 91
        0
  1

274
    -2
284
     1
 64
     0
275
    -2
285
     1
 65
     0
276
    -2
286
     1
 66
     0
277
    -2
287
     1
 67
     0
278
    -2
288
     1
 68
     0
279
    -2
289
     1
 69
     0
  7
STANDARD
140
4.5
170
     5
 62
     0
 63
     7
283
     0
 90
        4
 91
        0
  1

274
    -2
284
     1
 64
     0
275
    -2
285
     1
 65
     0
276
    -2
286
     1
 66
     0
277
    -2
287
     1
 67
     0
278
    -2
288
     1
 68
     0
279
    -2
289
     1
 69
     0
  0
VISUALSTYLE
  5
A55
102
{ACAD_REACTORS
330
A4F
102
}
330
A4F
100
AcDbVisualStyle
  2
2dWireframe
 70
     4
177
     3
291
     0
 70
    58
 90
        0
176
     1
 90
        2
176
     1
 90
        0
176
     1
 90
        0
176
     1
 40
0.6
176
     1
 40
30.0
176
     1
 62
     7
420
 16777215
176
     1
 90
        1
176
     1
 90
        4
176
     1
 62
     7
176
     1
 62
   257
176
     1
 90
        1
176
     1
 90
        1
176
     1
 40
1.0
176
     1
 90
        0
176
     1
 62
   257
176
     1
 40
1.0
176
     1
 90
        1
176
     1
 90
        6
176
     1
 90
        2
176
     1
 62
     7
176
     1
 90
        5
176
     1
 90
        0
176
     1
 90
        0
176
     1
290
     0
176
     1
 90
        1
176
     1
 40
0.0
176
     1
 90
        0
176
     1
290
     1
176
     1
290
     1
176
     1
290
     0
176
     1
290
     0
176
     1
290
     0
176
     1
290
     0
176
     1
290
     0
176
     1
290
     0
176
     1
290
     0
176
     1
 90
       50
176
     1
 40
0.0
176
     1
 40
1.0
176
     1
 90
        0
176
     1
 62
    18
176
     1
 90
       50
176
     1
 90
        3
176
     1
 62
     5
420
      255
176
     1
290
     0
176
     1
 90
       50
176
     1
 90
       50
176
     1
 90
       50
176
     1
290
     0
176
     1
 90
       50
176
     1
 62
   256
176
     0
 40
1.0
176
     0
 90
        2
176
     1
  1
strokes_ogs.tif
176
     1
290
     0
176
     1
 40
1.0
176
     1
 40
1.0
176
     1
1001
ACAD
1000
AcDbSavedByObjectVersion
1070
     0
  0
VISUALSTYLE
  5
A57
102
{ACAD_REACTORS
330
A4F
102
}
330
A4F
100
AcDbVisualStyle
  2
3D Hidden
 70
     6
177
     3
291
     0
 70
    58
 90
        1
176
     1
 90
        2
176
     1
 90
        2
176
     1
 90
        0
176
     1
 40
0.6
176
     1
 40
30.0
176
     1
 62
     7
420
 16777215
176
     1
 90
        2
176
     1
 90
        2
176
     1
 62
     7
176
     1
 62
   257
176
     1
 90
        2
176
     1
 90
        1
176
     1
 40
40.0
176
     1
 90
        0
176
     1
 62
   257
176
     1
 40
1.0
176
     1
 90
        1
176
     1
 90
        6
176
     1
 90
        2
176
     1
 62
     7
176
     1
 90
        3
176
     1
 90
        0
176
     1
 90
        0
176
     1
290
     0
176
     1
 90
        1
176
     1
 40
0.0
176
     1
 90
        0
176
     1
290
     0
176
     1
290
     1
176
     1
290
     1
176
     1
290
     0
176
     1
290
     0
176
     1
290
     0
176
     1
290
     0
176
     1
290
     0
176
     1
290
     0
176
     1
 90
       50
176
     1
 40
0.0
176
     1
 40
1.0
176
     1
 90
        0
176
     1
 62
    18
176
     1
 90
       50
176
     1
 90
        3
176
     1
 62
     5
420
      255
176
     1
290
     0
176
     1
 90
       50
176
     1
 90
       50
176
     1
 90
       50
176
     1
290
     0
176
     1
 90
       50
176
     1
 62
   256
176
     0
 40
1.0
176
     0
 90
        2
176
     1
  1
strokes_ogs.tif
176
     1
290
     0
176
     1
 40
1.0
176
     1
 40
1.0
176
     1
1001
ACAD
1000
AcDbSavedByObjectVersion
1070
     0
  0
VISUALSTYLE
  5
A56
102
{ACAD_REACTORS
330
A4F
102
}
330
A4F
100
AcDbVisualStyle
  2
3dWireframe
 70
     5
177
     3
291
     0
 70
    58
 90
        0
176
     1
 90
        2
176
     1
 90
        0
176
     1
 90
        0
176
     1
 40
0.6
176
     1
 40
30.0
176
     1
 62
     7
420
 16777215
176
     1
 90
        1
176
     1
 90
        4
176
     1
 62
     7
176
     1
 62
   257
176
     1
 90
        1
176
     1
 90
        1
176
     1
 40
1.0
176
     1
 90
        0
176
     1
 62
   257
176
     1
 40
1.0
176
     1
 90
        1
176
     1
 90
        6
176
     1
 90
        2
176
     1
 62
     7
176
     1
 90
        5
176
     1
 90
        0
176
     1
 90
        0
176
     1
290
     0
176
     1
 90
        1
176
     1
 40
0.0
176
     1
 90
        0
176
     1
290
     0
176
     1
290
     1
176
     1
290
     1
176
     1
290
     0
176
     1
290
     0
176
     1
290
     0
176
     1
290
     0
176
     1
290
     0
176
     1
290
     0
176
     1
 90
       50
176
     1
 40
0.0
176
     1
 40
1.0
176
     1
 90
        0
176
     1
 62
    18
176
     1
 90
       50
176
     1
 90
        3
176
     1
 62
     5
420
      255
176
     1
290
     0
176
     1
 90
       50
176
     1
 90
       50
176
     1
 90
       50
176
     1
290
     0
176
     1
 90
       50
176
     1
 62
   256
176
     0
 40
1.0
176
     0
 90
        2
176
     1
  1
strokes_ogs.tif
176
     1
290
     0
176
     1
 40
1.0
176
     1
 40
1.0
176
     1
1001
ACAD
1000
AcDbSavedByObjectVersion
1070
     0
  0
VISUALSTYLE
  5
A54
102
{ACAD_REACTORS
330
A4F
102
}
330
A4F
100
AcDbVisualStyle
  2
Basic
 70
     7
177
     3
291
     1
 70
    58
 90
        1
176
     1
 90
        0
176
     1
 90
        1
176
     1
 90
        0
176
     1
 40
0.6
176
     1
 40
30.0
176
     1
 62
     7
420
 16777215
176
     1
 90
        0
176
     1
 90
        4
176
     1
 62
     7
176
     1
 62
   257
176
     1
 90
        1
176
     1
 90
        1
176
     1
 40
1.0
176
     1
 90
        8
176
     1
 62
     7
176
     1
 40
1.0
176
     1
 90
        1
176
     1
 90
        6
176
     1
 90
        2
176
     1
 62
     7
176
     1
 90
        5
176
     1
 90
        0
176
     1
 90
        0
176
     1
290
     0
176
     1
 90
        1
176
     1
 40
0.0
176
     1
 90
        0
176
     1
290
     0
176
     1
290
     1
176
     1
290
     1
176
     1
290
     0
176
     1
290
     0
176
     1
290
     0
176
     1
290
     0
176
     1
290
     0
176
     1
290
     0
176
     1
 90
       50
176
     1
 40
0.0
176
     1
 40
1.0
176
     1
 90
        0
176
     1
 62
    18
176
     1
 90
       50
176
     1
 90
        3
176
     1
 62
     5
420
      255
176
     1
290
     0
176
     1
 90
       50
176
     1
 90
       50
176
     1
 90
       50
176
     1
290
     0
176
     1
 90
       50
176
     1
 62
   256
176
     0
 40
1.0
176
     0
 90
        2
176
     1
  1
strokes_ogs.tif
176
     1
290
     0
176
     1
 40
1.0
176
     1
 40
1.0
176
     1
1001
ACAD
1000
AcDbSavedByObjectVersion
1070
     0
  0
VISUALSTYLE
  5
A5B
102
{ACAD_REACTORS
330
A4F
102
}
330
A4F
100
AcDbVisualStyle
  2
Brighten
 70
    12
177
     3
291
     1
 70
    58
 90
        2
176
     1
 90
        2
176
     1
 90
        0
176
     1
 90
        0
176
     1
 40
0.6
176
     1
 40
30.0
176
     1
 62
     7
420
 16777215
176
     1
 90
        1
176
     1
 90
        4
176
     1
 62
     7
176
     1
 62
   257
176
     1
 90
        1
176
     1
 90
        1
176
     1
 40
1.0
176
     1
 90
        8
176
     1
 62
     7
176
     1
 40
1.0
176
     1
 90
        1
176
     1
 90
        6
176
     1
 90
        2
176
     1
 62
     7
176
     1
 90
        5
176
     1
 90
        0
176
     1
 90
        0
176
     1
290
     0
176
     1
 90
        1
176
     1
 40
50.0
176
     1
 90
        0
176
     1
290
     0
176
     1
290
     1
176
     1
290
     1
176
     1
290
     0
176
     1
290
     0
176
     1
290
     0
176
     1
290
     0
176
     1
290
     0
176
     1
290
     0
176
     1
 90
       50
176
     1
 40
0.0
176
     1
 40
1.0
176
     1
 90
        0
176
     1
 62
    18
176
     1
 90
       50
176
     1
 90
        3
176
     1
 62
     5
420
      255
176
     1
290
     0
176
     1
 90
       50
176
     1
 90
       50
176
     1
 90
       50
176
     1
290
     0
176
     1
 90
       50
176
     1
 62
   256
176
     0
 40
1.0
176
     0
 90
        2
176
     1
  1
strokes_ogs.tif
176
     1
290
     0
176
     1
 40
1.0
176
     1
 40
1.0
176
     1
1001
ACAD
1000
AcDbSavedByObjectVersion
1070
     0
  0
VISUALSTYLE
  5
A5F
102
{ACAD_REACTORS
330
A4F
102
}
330
A4F
100
AcDbVisualStyle
  2
ColorChange
 70
    16
177
     3
291
     1
 70
    58
 90
        2
176
     1
 90
        2
176
     1
 90
        3
176
     1
 90
        0
176
     1
 40
0.6
176
     1
 40
30.0
176
     1
 62
     8
420
  8421504
176
     1
 90
        1
176
     1
 90
        4
176
     1
 62
     7
176
     1
 62
   257
176
     1
 90
        1
176
     1
 90
        1
176
     1
 40
1.0
176
     1
 90
        8
176
     1
 62
     8
420
  8421504
176
     1
 40
1.0
176
     1
 90
        1
176
     1
 90
        6
176
     1
 90
        2
176
     1
 62
     7
176
     1
 90
        5
176
     1
 90
        0
176
     1
 90
        0
176
     1
290
     0
176
     1
 90
        1
176
     1
 40
0.0
176
     1
 90
        0
176
     1
290
     0
176
     1
290
     1
176
     1
290
     1
176
     1
290
     0
176
     1
290
     0
176
     1
290
     0
176
     1
290
     0
176
     1
290
     0
176
     1
290
     0
176
     1
 90
       50
176
     1
 40
0.0
176
     1
 40
1.0
176
     1
 90
        0
176
     1
 62
    18
176
     1
 90
       50
176
     1
 90
        3
176
     1
 62
     5
420
      255
176
     1
290
     0
176
     1
 90
       50
176
     1
 90
       50
176
     1
 90
       50
176
     1
290
     0
176
     1
 90
       50
176
     1
 62
   256
176
     0
 40
1.0
176
     0
 90
        2
176
     1
  1
strokes_ogs.tif
176
     1
290
     0
176
     1
 40
1.0
176
     1
 40
1.0
176
     1
1001
ACAD
1000
AcDbSavedByObjectVersion
1070
     0
  0
VISUALSTYLE
  5
A58
102
{ACAD_REACTORS
330
A4F
102
}
330
A4F
100
AcDbVisualStyle
  2
Conceptual
 70
     9
177
     3
291
     0
 70
    58
 90
        3
176
     1
 90
        2
176
     1
 90
        0
176
     1
 90
        0
176
     1
 40
0.6
176
     1
 40
30.0
176
     1
 62
     7
420
 16777215
176
     1
 90
        2
176
     1
 90
        2
176
     1
 62
     7
176
     1
 62
   257
176
     1
 90
        1
176
     1
 90
        1
176
     1
 40
40.0
176
     1
 90
        8
176
     1
 62
     7
176
     1
 40
1.0
176
     1
 90
        1
176
     1
 90
        6
176
     1
 90
        2
176
     1
 62
     7
176
     1
 90
        3
176
     1
 90
        0
176
     1
 90
        0
176
     1
290
     0
176
     1
 90
        1
176
     1
 40
0.0
176
     1
 90
        0
176
     1
290
     0
176
     1
290
     1
176
     1
290
     1
176
     1
290
     0
176
     1
290
     0
176
     1
290
     0
176
     1
290
     0
176
     1
290
     0
176
     1
290
     0
176
     1
 90
       50
176
     1
 40
0.0
176
     1
 40
1.0
176
     1
 90
        0
176
     1
 62
    18
176
     1
 90
       50
176
     1
 90
        3
176
     1
 62
     5
420
      255
176
     1
290
     0
176
     1
 90
       50
176
     1
 90
       50
176
     1
 90
       50
176
     1
290
     0
176
     1
 90
       50
176
     1
 62
   256
176
     0
 40
1.0
176
     0
 90
        2
176
     1
  1
strokes_ogs.tif
176
     1
290
     0
176
     1
 40
1.0
176
     1
 40
1.0
176
     1
1001
ACAD
1000
AcDbSavedByObjectVersion
1070
     0
  0
VISUALSTYLE
  5
A5A
102
{ACAD_REACTORS
330
A4F
102
}
330
A4F
100
AcDbVisualStyle
  2
Dim
 70
    11
177
     3
291
     1
 70
    58
 90
        2
176
     1
 90
        2
176
     1
 90
        0
176
     1
 90
        0
176
     1
 40
0.6
176
     1
 40
30.0
176
     1
 62
     7
420
 16777215
176
     1
 90
        1
176
     1
 90
        4
176
     1
 62
     7
176
     1
 62
   257
176
     1
 90
        1
176
     1
 90
        1
176
     1
 40
1.0
176
     1
 90
        8
176
     1
 62
     7
176
     1
 40
1.0
176
     1
 90
        1
176
     1
 90
        6
176
     1
 90
        2
176
     1
 62
     7
176
     1
 90
        5
176
     1
 90
        0
176
     1
 90
        0
176
     1
290
     0
176
     1
 90
        1
176
     1
 40
-50.0
176
     1
 90
        0
176
     1
290
     0
176
     1
290
     1
176
     1
290
     1
176
     1
290
     0
176
     1
290
     0
176
     1
290
     0
176
     1
290
     0
176
     1
290
     0
176
     1
290
     0
176
     1
 90
       50
176
     1
 40
0.0
176
     1
 40
1.0
176
     1
 90
        0
176
     1
 62
    18
176
     1
 90
       50
176
     1
 90
        3
176
     1
 62
     5
420
      255
176
     1
290
     0
176
     1
 90
       50
176
     1
 90
       50
176
     1
 90
       50
176
     1
290
     0
176
     1
 90
       50
176
     1
 62
   256
176
     0
 40
1.0
176
     0
 90
        2
176
     1
  1
strokes_ogs.tif
176
     1
290
     0
176
     1
 40
1.0
176
     1
 40
1.0
176
     1
1001
ACAD
1000
AcDbSavedByObjectVersion
1070
     0
  0
VISUALSTYLE
  5
CC8
102
{ACAD_REACTORS
330
A4F
102
}
330
A4F
100
AcDbVisualStyle
  2
EdgeColorOff
 70
    22
177
     3
291
     1
 70
    58
 90
        2
176
     0
 90
        2
176
     0
 90
        0
176
     0
 90
        0
176
     0
 40
0.6
176
     0
 40
30.0
176
     0
 62
     7
420
 16777215
176
     0
 90
        1
176
     0
 90
        4
176
     0
 62
     7
176
     0
 62
   257
176
     0
 90
        1
176
     0
 90
        1
176
     0
 40
1.0
176
     0
 90
        8
176
     2
 62
     7
176
     0
 40
1.0
176
     0
 90
        1
176
     0
 90
        6
176
     0
 90
        2
176
     0
 62
     7
176
     0
 90
        5
176
     0
 90
        0
176
     0
 90
        0
176
     0
290
     0
176
     0
 90
        1
176
     0
 40
0.0
176
     0
 90
        0
176
     0
290
     0
176
     0
290
     1
176
     0
290
     1
176
     0
290
     0
176
     0
290
     0
176
     0
290
     0
176
     0
290
     0
176
     0
290
     0
176
     0
290
     0
176
     0
 90
       50
176
     0
 40
0.0
176
     0
 40
1.0
176
     0
 90
        0
176
     0
 62
    18
176
     0
 90
       50
176
     0
 90
        3
176
     0
 62
     5
420
      255
176
     0
290
     0
176
     0
 90
       50
176
     0
 90
       50
176
     0
 90
       50
176
     0
290
     0
176
     0
 90
       50
176
     0
 62
   256
176
     0
 40
1.0
176
     0
 90
        2
176
     0
  1
strokes_ogs.tif
176
     0
290
     0
176
     0
 40
1.0
176
     0
 40
1.0
176
     0
1001
ACAD
1000
AcDbSavedByObjectVersion
1070
     0
  0
VISUALSTYLE
  5
A5E
102
{ACAD_REACTORS
330
A4F
102
}
330
A4F
100
AcDbVisualStyle
  2
Facepattern
 70
    15
177
     3
291
     1
 70
    58
 90
        2
176
     1
 90
        2
176
     1
 90
        0
176
     1
 90
        0
176
     1
 40
0.6
176
     1
 40
30.0
176
     1
 62
     7
420
 16777215
176
     1
 90
        1
176
     1
 90
        4
176
     1
 62
     7
176
     1
 62
   257
176
     1
 90
        1
176
     1
 90
        1
176
     1
 40
1.0
176
     1
 90
        8
176
     1
 62
     7
176
     1
 40
1.0
176
     1
 90
        1
176
     1
 90
        6
176
     1
 90
        2
176
     1
 62
     7
176
     1
 90
        5
176
     1
 90
        0
176
     1
 90
        0
176
     1
290
     0
176
     1
 90
        1
176
     1
 40
0.0
176
     1
 90
        0
176
     1
290
     0
176
     1
290
     1
176
     1
290
     1
176
     1
290
     0
176
     1
290
     0
176
     1
290
     0
176
     1
290
     0
176
     1
290
     0
176
     1
290
     0
176
     1
 90
       50
176
     1
 40
0.0
176
     1
 40
1.0
176
     1
 90
        0
176
     1
 62
    18
176
     1
 90
       50
176
     1
 90
        3
176
     1
 62
     5
420
      255
176
     1
290
     0
176
     1
 90
       50
176
     1
 90
       50
176
     1
 90
       50
176
     1
290
     0
176
     1
 90
       50
176
     1
 62
   256
176
     0
 40
1.0
176
     0
 90
        2
176
     1
  1
strokes_ogs.tif
176
     1
290
     0
176
     1
 40
1.0
176
     1
 40
1.0
176
     1
1001
ACAD
1000
AcDbSavedByObjectVersion
1070
     0
  0
VISUALSTYLE
  5
A50
102
{ACAD_REACTORS
330
A4F
102
}
330
A4F
100
AcDbVisualStyle
  2
Flat
 70
     0
177
     3
291
     1
 70
    58
 90
        2
176
     1
 90
        1
176
     1
 90
        1
176
     1
 90
        2
176
     1
 40
0.6
176
     1
 40
30.0
176
     1
 62
     7
420
 16777215
176
     1
 90
        0
176
     1
 90
        4
176
     1
 62
     7
176
     1
 62
   257
176
     1
 90
        1
176
     1
 90
        1
176
     1
 40
1.0
176
     1
 90
        8
176
     1
 62
     7
176
     1
 40
1.0
176
     1
 90
        1
176
     1
 90
        6
176
     1
 90
        2
176
     1
 62
     7
176
     1
 90
        5
176
     1
 90
        0
176
     1
 90
        0
176
     1
290
     0
176
     1
 90
       13
176
     1
 40
0.0
176
     1
 90
        0
176
     1
290
     0
176
     1
290
     1
176
     1
290
     1
176
     1
290
     0
176
     1
290
     0
176
     1
290
     0
176
     1
290
     0
176
     1
290
     0
176
     1
290
     0
176
     1
 90
       50
176
     1
 40
0.0
176
     1
 40
1.0
176
     1
 90
        0
176
     1
 62
    18
176
     1
 90
       50
176
     1
 90
        3
176
     1
 62
     5
420
      255
176
     1
290
     0
176
     1
 90
       50
176
     1
 90
       50
176
     1
 90
       50
176
     1
290
     0
176
     1
 90
       50
176
     1
 62
   256
176
     0
 40
1.0
176
     0
 90
        2
176
     1
  1
strokes_ogs.tif
176
     1
290
     0
176
     1
 40
1.0
176
     1
 40
1.0
176
     1
1001
ACAD
1000
AcDbSavedByObjectVersion
1070
     0
  0
VISUALSTYLE
  5
A51
102
{ACAD_REACTORS
330
A4F
102
}
330
A4F
100
AcDbVisualStyle
  2
FlatWithEdges
 70
     1
177
     3
291
     1
 70
    58
 90
        2
176
     1
 90
        1
176
     1
 90
        1
176
     1
 90
        2
176
     1
 40
0.6
176
     1
 40
30.0
176
     1
 62
     7
420
 16777215
176
     1
 90
        1
176
     1
 90
        4
176
     1
 62
     7
176
     1
 62
   257
176
     1
 90
        1
176
     1
 90
        1
176
     1
 40
1.0
176
     1
 90
        0
176
     1
 62
   257
176
     1
 40
1.0
176
     1
 90
        1
176
     1
 90
        6
176
     1
 90
        2
176
     1
 62
     7
176
     1
 90
        5
176
     1
 90
        0
176
     1
 90
        0
176
     1
290
     0
176
     1
 90
       13
176
     1
 40
0.0
176
     1
 90
        0
176
     1
290
     0
176
     1
290
     1
176
     1
290
     1
176
     1
290
     0
176
     1
290
     0
176
     1
290
     0
176
     1
290
     0
176
     1
290
     0
176
     1
290
     0
176
     1
 90
       50
176
     1
 40
0.0
176
     1
 40
1.0
176
     1
 90
        0
176
     1
 62
    18
176
     1
 90
       50
176
     1
 90
        3
176
     1
 62
     5
420
      255
176
     1
290
     0
176
     1
 90
       50
176
     1
 90
       50
176
     1
 90
       50
176
     1
290
     0
176
     1
 90
       50
176
     1
 62
   256
176
     0
 40
1.0
176
     0
 90
        2
176
     1
  1
strokes_ogs.tif
176
     1
290
     0
176
     1
 40
1.0
176
     1
 40
1.0
176
     1
1001
ACAD
1000
AcDbSavedByObjectVersion
1070
     0
  0
VISUALSTYLE
  5
A52
102
{ACAD_REACTORS
330
A4F
102
}
330
A4F
100
AcDbVisualStyle
  2
Gouraud
 70
     2
177
     3
291
     1
 70
    58
 90
        2
176
     1
 90
        2
176
     1
 90
        1
176
     1
 90
        2
176
     1
 40
0.6
176
     1
 40
30.0
176
     1
 62
     7
420
 16777215
176
     1
 90
        0
176
     1
 90
        4
176
     1
 62
     7
176
     1
 62
   257
176
     1
 90
        1
176
     1
 90
        1
176
     1
 40
1.0
176
     1
 90
        0
176
     1
 62
     7
176
     1
 40
1.0
176
     1
 90
        1
176
     1
 90
        6
176
     1
 90
        2
176
     1
 62
     7
176
     1
 90
        5
176
     1
 90
        0
176
     1
 90
        0
176
     1
290
     0
176
     1
 90
       13
176
     1
 40
0.0
176
     1
 90
        0
176
     1
290
     0
176
     1
290
     1
176
     1
290
     1
176
     1
290
     0
176
     1
290
     0
176
     1
290
     0
176
     1
290
     0
176
     1
290
     0
176
     1
290
     0
176
     1
 90
       50
176
     1
 40
0.0
176
     1
 40
1.0
176
     1
 90
        0
176
     1
 62
    18
176
     1
 90
       50
176
     1
 90
        3
176
     1
 62
     5
420
      255
176
     1
290
     0
176
     1
 90
       50
176
     1
 90
       50
176
     1
 90
       50
176
     1
290
     0
176
     1
 90
       50
176
     1
 62
   256
176
     0
 40
1.0
176
     0
 90
        2
176
     1
  1
strokes_ogs.tif
176
     1
290
     0
176
     1
 40
1.0
176
     1
 40
1.0
176
     1
1001
ACAD
1000
AcDbSavedByObjectVersion
1070
     0
  0
VISUALSTYLE
  5
A53
102
{ACAD_REACTORS
330
A4F
102
}
330
A4F
100
AcDbVisualStyle
  2
GouraudWithEdges
 70
     3
177
     3
291
     1
 70
    58
 90
        2
176
     1
 90
        2
176
     1
 90
        1
176
     1
 90
        2
176
     1
 40
0.6
176
     1
 40
30.0
176
     1
 62
     7
420
 16777215
176
     1
 90
        1
176
     1
 90
        4
176
     1
 62
     7
176
     1
 62
   257
176
     1
 90
        1
176
     1
 90
        1
176
     1
 40
1.0
176
     1
 90
        0
176
     1
 62
   257
176
     1
 40
1.0
176
     1
 90
        1
176
     1
 90
        6
176
     1
 90
        2
176
     1
 62
     7
176
     1
 90
        5
176
     1
 90
        0
176
     1
 90
        0
176
     1
290
     0
176
     1
 90
       13
176
     1
 40
0.0
176
     1
 90
        0
176
     1
290
     0
176
     1
290
     1
176
     1
290
     1
176
     1
290
     0
176
     1
290
     0
176
     1
290
     0
176
     1
290
     0
176
     1
290
     0
176
     1
290
     0
176
     1
 90
       50
176
     1
 40
0.0
176
     1
 40
1.0
176
     1
 90
        0
176
     1
 62
    18
176
     1
 90
       50
176
     1
 90
        3
176
     1
 62
     5
420
      255
176
     1
290
     0
176
     1
 90
       50
176
     1
 90
       50
176
     1
 90
       50
176
     1
290
     0
176
     1
 90
       50
176
     1
 62
   256
176
     0
 40
1.0
176
     0
 90
        2
176
     1
  1
strokes_ogs.tif
176
     1
290
     0
176
     1
 40
1.0
176
     1
 40
1.0
176
     1
1001
ACAD
1000
AcDbSavedByObjectVersion
1070
     0
  0
VISUALSTYLE
  5
CC0
102
{ACAD_REACTORS
330
A4F
102
}
330
A4F
100
AcDbVisualStyle
  2
Hidden
 70
     6
177
     3
291
     0
 70
    58
 90
        1
176
     1
 90
        2
176
     1
 90
        2
176
     1
 90
        0
176
     1
 40
0.6
176
     1
 40
30.0
176
     1
 62
     7
420
 16777215
176
     1
 90
        2
176
     1
 90
        2
176
     1
 62
     7
176
     1
 62
   257
176
     1
 90
        2
176
     1
 90
        1
176
     1
 40
40.0
176
     1
 90
        0
176
     1
 62
   257
176
     1
 40
1.0
176
     1
 90
        1
176
     1
 90
        6
176
     1
 90
        2
176
     1
 62
     7
176
     1
 90
        3
176
     1
 90
        0
176
     1
 90
        0
176
     1
290
     0
176
     1
 90
        1
176
     1
 40
0.0
176
     1
 90
        0
176
     1
290
     0
176
     1
290
     1
176
     1
290
     1
176
     1
290
     0
176
     1
290
     0
176
     1
290
     0
176
     1
290
     0
176
     1
290
     0
176
     1
290
     0
176
     1
 90
       50
176
     1
 40
0.0
176
     1
 40
1.0
176
     1
 90
        0
176
     1
 62
    18
176
     1
 90
       50
176
     1
 90
        3
176
     1
 62
     5
420
      255
176
     1
290
     0
176
     1
 90
       50
176
     1
 90
       50
176
     1
 90
       50
176
     1
290
     0
176
     1
 90
       50
176
     1
 62
   256
176
     0
 40
1.0
176
     0
 90
        2
176
     1
  1
strokes_ogs.tif
176
     1
290
     0
176
     1
 40
1.0
176
     1
 40
1.0
176
     1
1001
ACAD
1000
AcDbSavedByObjectVersion
1070
     0
  0
VISUALSTYLE
  5
CC6
102
{ACAD_REACTORS
330
A4F
102
}
330
A4F
100
AcDbVisualStyle
  2
JitterOff
 70
    20
177
     3
291
     1
 70
    58
 90
        2
176
     0
 90
        2
176
     0
 90
        0
176
     0
 90
        0
176
     0
 40
0.6
176
     0
 40
30.0
176
     0
 62
     7
420
 16777215
176
     0
 90
        1
176
     0
 90
        4
176
     0
 62
     7
176
     0
 62
   257
176
     0
 90
        1
176
     0
 90
        1
176
     0
 40
1.0
176
     0
 90
       10
176
     2
 62
     7
176
     0
 40
1.0
176
     0
 90
        1
176
     0
 90
        6
176
     0
 90
        2
176
     0
 62
     7
176
     0
 90
        5
176
     0
 90
        0
176
     0
 90
        0
176
     0
290
     0
176
     0
 90
        1
176
     0
 40
0.0
176
     0
 90
        0
176
     0
290
     0
176
     0
290
     1
176
     0
290
     1
176
     0
290
     0
176
     0
290
     0
176
     0
290
     0
176
     0
290
     0
176
     0
290
     0
176
     0
290
     0
176
     0
 90
       50
176
     0
 40
0.0
176
     0
 40
1.0
176
     0
 90
        0
176
     0
 62
    18
176
     0
 90
       50
176
     0
 90
        3
176
     0
 62
     5
420
      255
176
     0
290
     0
176
     0
 90
       50
176
     0
 90
       50
176
     0
 90
       50
176
     0
290
     0
176
     0
 90
       50
176
     0
 62
   256
176
     0
 40
1.0
176
     0
 90
        2
176
     0
  1
strokes_ogs.tif
176
     0
290
     0
176
     0
 40
1.0
176
     0
 40
1.0
176
     0
1001
ACAD
1000
AcDbSavedByObjectVersion
1070
     0
  0
VISUALSTYLE
  5
A5D
102
{ACAD_REACTORS
330
A4F
102
}
330
A4F
100
AcDbVisualStyle
  2
Linepattern
 70
    14
177
     3
291
     1
 70
    58
 90
        2
176
     1
 90
        2
176
     1
 90
        0
176
     1
 90
        0
176
     1
 40
0.6
176
     1
 40
30.0
176
     1
 62
     7
420
 16777215
176
     1
 90
        1
176
     1
 90
        4
176
     1
 62
     7
176
     1
 62
   257
176
     1
 90
        7
176
     1
 90
        7
176
     1
 40
1.0
176
     1
 90
        8
176
     1
 62
     7
176
     1
 40
1.0
176
     1
 90
        1
176
     1
 90
        6
176
     1
 90
        2
176
     1
 62
     7
176
     1
 90
        5
176
     1
 90
        0
176
     1
 90
        0
176
     1
290
     0
176
     1
 90
        1
176
     1
 40
0.0
176
     1
 90
        0
176
     1
290
     0
176
     1
290
     1
176
     1
290
     1
176
     1
290
     0
176
     1
290
     0
176
     1
290
     0
176
     1
290
     0
176
     1
290
     0
176
     1
290
     0
176
     1
 90
       50
176
     1
 40
0.0
176
     1
 40
1.0
176
     1
 90
        0
176
     1
 62
    18
176
     1
 90
       50
176
     1
 90
        3
176
     1
 62
     5
420
      255
176
     1
290
     0
176
     1
 90
       50
176
     1
 90
       50
176
     1
 90
       50
176
     1
290
     0
176
     1
 90
       50
176
     1
 62
   256
176
     0
 40
1.0
176
     0
 90
        2
176
     1
  1
strokes_ogs.tif
176
     1
290
     0
176
     1
 40
1.0
176
     1
 40
1.0
176
     1
1001
ACAD
1000
AcDbSavedByObjectVersion
1070
     0
  0
VISUALSTYLE
  5
CC7
102
{ACAD_REACTORS
330
A4F
102
}
330
A4F
100
AcDbVisualStyle
  2
OverhangOff
 70
    21
177
     3
291
     1
 70
    58
 90
        2
176
     0
 90
        2
176
     0
 90
        0
176
     0
 90
        0
176
     0
 40
0.6
176
     0
 40
30.0
176
     0
 62
     7
420
 16777215
176
     0
 90
        1
176
     0
 90
        4
176
     0
 62
     7
176
     0
 62
   257
176
     0
 90
        1
176
     0
 90
        1
176
     0
 40
1.0
176
     0
 90
        9
176
     2
 62
     7
176
     0
 40
1.0
176
     0
 90
        1
176
     0
 90
        6
176
     0
 90
        2
176
     0
 62
     7
176
     0
 90
        5
176
     0
 90
        0
176
     0
 90
        0
176
     0
290
     0
176
     0
 90
        1
176
     0
 40
0.0
176
     0
 90
        0
176
     0
290
     0
176
     0
290
     1
176
     0
290
     1
176
     0
290
     0
176
     0
290
     0
176
     0
290
     0
176
     0
290
     0
176
     0
290
     0
176
     0
290
     0
176
     0
 90
       50
176
     0
 40
0.0
176
     0
 40
1.0
176
     0
 90
        0
176
     0
 62
    18
176
     0
 90
       50
176
     0
 90
        3
176
     0
 62
     5
420
      255
176
     0
290
     0
176
     0
 90
       50
176
     0
 90
       50
176
     0
 90
       50
176
     0
290
     0
176
     0
 90
       50
176
     0
 62
   256
176
     0
 40
1.0
176
     0
 90
        2
176
     0
  1
strokes_ogs.tif
176
     0
290
     0
176
     0
 40
1.0
176
     0
 40
1.0
176
     0
1001
ACAD
1000
AcDbSavedByObjectVersion
1070
     0
  0
VISUALSTYLE
  5
A59
102
{ACAD_REACTORS
330
A4F
102
}
330
A4F
100
AcDbVisualStyle
  2
Realistic
 70
     8
177
     3
291
     0
 70
    58
 90
        2
176
     1
 90
        2
176
     1
 90
        0
176
     1
 90
        0
176
     1
 40
0.6
176
     1
 40
30.0
176
     1
 62
     7
420
 16777215
176
     1
 90
        1
176
     1
 90
        0
176
     1
 62
     7
176
     1
 62
   257
176
     1
 90
        1
176
     1
 90
        1
176
     1
 40
1.0
176
     1
 90
        8
176
     1
 62
     8
420
  7895160
176
     1
 40
1.0
176
     1
 90
        1
176
     1
 90
        6
176
     1
 90
        2
176
     1
 62
     7
176
     1
 90
        5
176
     1
 90
        0
176
     1
 90
        0
176
     1
290
     0
176
     1
 90
       13
176
     1
 40
0.0
176
     1
 90
        0
176
     1
290
     0
176
     1
290
     1
176
     1
290
     1
176
     1
290
     0
176
     1
290
     0
176
     1
290
     0
176
     1
290
     0
176
     1
290
     0
176
     1
290
     0
176
     1
 90
       50
176
     1
 40
0.0
176
     1
 40
1.0
176
     1
 90
        0
176
     1
 62
    18
176
     1
 90
       50
176
     1
 90
        3
176
     1
 62
     5
420
      255
176
     1
290
     0
176
     1
 90
       50
176
     1
 90
       50
176
     1
 90
       50
176
     1
290
     0
176
     1
 90
       50
176
     1
 62
   256
176
     0
 40
1.0
176
     0
 90
        2
176
     1
  1
strokes_ogs.tif
176
     1
290
     0
176
     1
 40
1.0
176
     1
 40
1.0
176
     1
1001
ACAD
1000
AcDbSavedByObjectVersion
1070
     0
  0
VISUALSTYLE
  5
CC5
102
{ACAD_REACTORS
330
A4F
102
}
330
A4F
100
AcDbVisualStyle
  2
Shaded
 70
    27
177
     3
291
     0
 70
    58
 90
        2
176
     1
 90
        2
176
     1
 90
        1
176
     1
 90
        2
176
     1
 40
0.6
176
     1
 40
30.0
176
     1
 62
     7
420
 16777215
176
     1
 90
        0
176
     1
 90
        4
176
     1
 62
     7
176
     1
 62
   257
176
     1
 90
        1
176
     1
 90
        1
176
     1
 40
1.0
176
     1
 90
        8
176
     1
 62
   257
176
     1
 40
1.0
176
     1
 90
        1
176
     1
 90
        6
176
     1
 90
        2
176
     1
 62
     8
420
  7895160
176
     1
 90
        3
176
     1
 90
        0
176
     1
 90
        0
176
     1
290
     0
176
     1
 90
        5
176
     1
 40
0.0
176
     1
 90
        0
176
     1
290
     0
176
     1
290
     1
176
     1
290
     1
176
     1
290
     0
176
     1
290
     0
176
     1
290
     0
176
     1
290
     0
176
     1
290
     0
176
     1
290
     0
176
     1
 90
       50
176
     1
 40
0.0
176
     1
 40
1.0
176
     1
 90
        0
176
     1
 62
    18
176
     1
 90
       50
176
     1
 90
        3
176
     1
 62
     5
420
      255
176
     1
290
     0
176
     1
 90
       50
176
     1
 90
       50
176
     1
 90
       50
176
     1
290
     0
176
     1
 90
       50
176
     1
 62
   256
176
     0
 40
1.0
176
     0
 90
        2
176
     1
  1
strokes_ogs.tif
176
     1
290
     0
176
     1
 40
1.0
176
     1
 40
1.0
176
     1
1001
ACAD
1000
AcDbSavedByObjectVersion
1070
     0
  0
VISUALSTYLE
  5
CC4
102
{ACAD_REACTORS
330
A4F
102
}
330
A4F
100
AcDbVisualStyle
  2
Shaded with edges
 70
    26
177
     3
291
     0
 70
    58
 90
        2
176
     1
 90
        2
176
     1
 90
        1
176
     1
 90
        2
176
     1
 40
0.6
176
     1
 40
30.0
176
     1
 62
     7
420
 16777215
176
     1
 90
        1
176
     1
 90
        2
176
     1
 62
     7
176
     1
 62
   257
176
     1
 90
        2
176
     1
 90
        1
176
     1
 40
1.0
176
     1
 90
        8
176
     1
 62
   257
176
     1
 40
1.0
176
     1
 90
        1
176
     1
 90
        6
176
     1
 90
        2
176
     1
 62
     7
176
     1
 90
        3
176
     1
 90
        0
176
     1
 90
        0
176
     1
290
     0
176
     1
 90
        5
176
     1
 40
0.0
176
     1
 90
        0
176
     1
290
     0
176
     1
290
     1
176
     1
290
     1
176
     1
290
     0
176
     1
290
     0
176
     1
290
     0
176
     1
290
     0
176
     1
290
     0
176
     1
290
     0
176
     1
 90
       50
176
     1
 40
0.0
176
     1
 40
1.0
176
     1
 90
        0
176
     1
 62
    18
176
     1
 90
       50
176
     1
 90
        3
176
     1
 62
     5
420
      255
176
     1
290
     0
176
     1
 90
       50
176
     1
 90
       50
176
     1
 90
       50
176
     1
290
     0
176
     1
 90
       50
176
     1
 62
   256
176
     0
 40
1.0
176
     0
 90
        2
176
     1
  1
strokes_ogs.tif
176
     1
290
     0
176
     1
 40
1.0
176
     1
 40
1.0
176
     1
1001
ACAD
1000
AcDbSavedByObjectVersion
1070
     0
  0
VISUALSTYLE
  5
CC1
102
{ACAD_REACTORS
330
A4F
102
}
330
A4F
100
AcDbVisualStyle
  2
Shades of Gray
 70
    23
177
     3
291
     0
 70
    58
 90
        2
176
     1
 90
        2
176
     1
 90
        3
176
     1
 90
        0
176
     1
 40
0.6
176
     1
 40
30.0
176
     1
 62
     7
420
 16777215
176
     1
 90
        2
176
     1
 90
        2
176
     1
 62
     7
176
     1
 62
     7
176
     1
 90
        1
176
     1
 90
        1
176
     1
 40
40.0
176
     1
 90
        8
176
     1
 62
     7
176
     1
 40
1.0
176
     1
 90
        1
176
     1
 90
        6
176
     1
 90
        2
176
     1
 62
     7
176
     1
 90
        3
176
     1
 90
        0
176
     1
 90
        0
176
     1
290
     0
176
     1
 90
        1
176
     1
 40
0.0
176
     1
 90
        0
176
     1
290
     0
176
     1
290
     1
176
     1
290
     1
176
     1
290
     0
176
     1
290
     0
176
     1
290
     0
176
     1
290
     0
176
     1
290
     0
176
     1
290
     0
176
     1
 90
       50
176
     1
 40
0.0
176
     1
 40
1.0
176
     1
 90
        0
176
     1
 62
    18
176
     1
 90
       50
176
     1
 90
        3
176
     1
 62
     5
420
      255
176
     1
290
     0
176
     1
 90
       50
176
     1
 90
       50
176
     1
 90
       50
176
     1
290
     0
176
     1
 90
       50
176
     1
 62
   256
176
     0
 40
1.0
176
     0
 90
        2
176
     1
  1
strokes_ogs.tif
176
     1
290
     0
176
     1
 40
1.0
176
     1
 40
1.0
176
     1
1001
ACAD
1000
AcDbSavedByObjectVersion
1070
     0
  0
VISUALSTYLE
  5
CC2
102
{ACAD_REACTORS
330
A4F
102
}
330
A4F
100
AcDbVisualStyle
  2
Sketchy
 70
    24
177
     3
291
     0
 70
    58
 90
        1
176
     1
 90
        2
176
     1
 90
        2
176
     1
 90
        0
176
     1
 40
0.6
176
     1
 40
30.0
176
     1
 62
     7
420
 16777215
176
     1
 90
        2
176
     1
 90
        2
176
     1
 62
     7
176
     1
 62
     7
176
     1
 90
        1
176
     1
 90
        1
176
     1
 40
40.0
176
     1
 90
       11
176
     1
 62
     7
176
     1
 40
1.0
176
     1
 90
        1
176
     1
 90
        6
176
     1
 90
        2
176
     1
 62
     7
176
     1
 90
        6
176
     1
 90
        0
176
     1
 90
        0
176
     1
290
     0
176
     1
 90
        1
176
     1
 40
0.0
176
     1
 90
        0
176
     1
290
     0
176
     1
290
     1
176
     1
290
     1
176
     1
290
     0
176
     1
290
     0
176
     1
290
     0
176
     1
290
     0
176
     1
290
     0
176
     1
290
     0
176
     1
 90
       50
176
     1
 40
0.0
176
     1
 40
1.0
176
     1
 90
        0
176
     1
 62
    18
176
     1
 90
       50
176
     1
 90
        3
176
     1
 62
     5
420
      255
176
     1
290
     0
176
     1
 90
       50
176
     1
 90
       50
176
     1
 90
       50
176
     1
290
     0
176
     1
 90
       50
176
     1
 62
   256
176
     0
 40
1.0
176
     0
 90
        2
176
     1
  1
strokes_ogs.tif
176
     1
290
     0
176
     1
 40
1.0
176
     1
 40
1.0
176
     1
1001
ACAD
1000
AcDbSavedByObjectVersion
1070
     0
  0
VISUALSTYLE
  5
A5C
102
{ACAD_REACTORS
330
A4F
102
}
330
A4F
100
AcDbVisualStyle
  2
Thicken
 70
    13
177
     3
291
     1
 70
    58
 90
        2
176
     1
 90
        2
176
     1
 90
        0
176
     1
 90
        0
176
     1
 40
0.6
176
     1
 40
30.0
176
     1
 62
     7
420
 16777215
176
     1
 90
        1
176
     1
 90
        4
176
     1
 62
     7
176
     1
 62
   257
176
     1
 90
        1
176
     1
 90
        1
176
     1
 40
1.0
176
     1
 90
       12
176
     1
 62
     7
176
     1
 40
1.0
176
     1
 90
        1
176
     1
 90
        6
176
     1
 90
        2
176
     1
 62
     7
176
     1
 90
        5
176
     1
 90
        0
176
     1
 90
        0
176
     1
290
     0
176
     1
 90
        1
176
     1
 40
0.0
176
     1
 90
        0
176
     1
290
     0
176
     1
290
     1
176
     1
290
     1
176
     1
290
     0
176
     1
290
     0
176
     1
290
     0
176
     1
290
     0
176
     1
290
     0
176
     1
290
     0
176
     1
 90
       50
176
     1
 40
0.0
176
     1
 40
1.0
176
     1
 90
        0
176
     1
 62
    18
176
     1
 90
       50
176
     1
 90
        3
176
     1
 62
     5
420
      255
176
     1
290
     0
176
     1
 90
       50
176
     1
 90
       50
176
     1
 90
       50
176
     1
290
     0
176
     1
 90
       50
176
     1
 62
   256
176
     0
 40
1.0
176
     0
 90
        2
176
     1
  1
strokes_ogs.tif
176
     1
290
     0
176
     1
 40
1.0
176
     1
 40
1.0
176
     1
1001
ACAD
1000
AcDbSavedByObjectVersion
1070
     0
  0
VISUALSTYLE
  5
CBF
102
{ACAD_REACTORS
330
A4F
102
}
330
A4F
100
AcDbVisualStyle
  2
Wireframe
 70
     5
177
     3
291
     0
 70
    58
 90
        0
176
     1
 90
        2
176
     1
 90
        0
176
     1
 90
        0
176
     1
 40
0.6
176
     1
 40
30.0
176
     1
 62
     7
420
 16777215
176
     1
 90
        1
176
     1
 90
        4
176
     1
 62
     7
176
     1
 62
   257
176
     1
 90
        1
176
     1
 90
        1
176
     1
 40
1.0
176
     1
 90
        0
176
     1
 62
   257
176
     1
 40
1.0
176
     1
 90
        1
176
     1
 90
        6
176
     1
 90
        2
176
     1
 62
     7
176
     1
 90
        3
176
     1
 90
        0
176
     1
 90
        0
176
     1
290
     0
176
     1
 90
        1
176
     1
 40
0.0
176
     1
 90
        0
176
     1
290
     0
176
     1
290
     1
176
     1
290
     1
176
     1
290
     0
176
     1
290
     0
176
     1
290
     0
176
     1
290
     0
176
     1
290
     0
176
     1
290
     0
176
     1
 90
       50
176
     1
 40
0.0
176
     1
 40
1.0
176
     1
 90
        0
176
     1
 62
    18
176
     1
 90
       50
176
     1
 90
        3
176
     1
 62
     5
420
      255
176
     1
290
     0
176
     1
 90
       50
176
     1
 90
       50
176
     1
 90
       50
176
     1
290
     0
176
     1
 90
       50
176
     1
 62
   256
176
     0
 40
1.0
176
     0
 90
        2
176
     1
  1
strokes_ogs.tif
176
     1
290
     0
176
     1
 40
1.0
176
     1
 40
1.0
176
     1
1001
ACAD
1000
AcDbSavedByObjectVersion
1070
     0
  0
VISUALSTYLE
  5
CC3
102
{ACAD_REACTORS
330
A4F
102
}
330
A4F
100
AcDbVisualStyle
  2
X-Ray
 70
    25
177
     3
291
     0
 70
    58
 90
        2
176
     1
 90
        2
176
     1
 90
        1
176
     1
 90
        1
176
     1
 40
0.5
176
     1
 40
30.0
176
     1
 62
     7
420
 16777215
176
     1
 90
        1
176
     1
 90
        0
176
     1
 62
     7
176
     1
 62
   257
176
     1
 90
        1
176
     1
 90
        1
176
     1
 40
1.0
176
     1
 90
        8
176
     1
 62
     7
176
     1
 40
1.0
176
     1
 90
        1
176
     1
 90
        6
176
     1
 90
        2
176
     1
 62
     7
176
     1
 90
        3
176
     1
 90
        0
176
     1
 90
        0
176
     1
290
     0
176
     1
 90
       13
176
     1
 40
0.0
176
     1
 90
        0
176
     1
290
     0
176
     1
290
     1
176
     1
290
     1
176
     1
290
     0
176
     1
290
     0
176
     1
290
     0
176
     1
290
     0
176
     1
290
     0
176
     1
290
     0
176
     1
 90
       50
176
     1
 40
0.0
176
     1
 40
1.0
176
     1
 90
        0
176
     1
 62
    18
176
     1
 90
       50
176
     1
 90
        3
176
     1
 62
     5
420
      255
176
     1
290
     0
176
     1
 90
       50
176
     1
 90
       50
176
     1
 90
       50
176
     1
290
     0
176
     1
 90
       50
176
     1
 62
   256
176
     0
 40
1.0
176
     0
 90
        2
176
     1
  1
strokes_ogs.tif
176
     1
290
     0
176
     1
 40
1.0
176
     1
 40
1.0
176
     1
1001
ACAD
1000
AcDbSavedByObjectVersion
1070
     0
  0
DICTIONARYVAR
  5
AF4
102
{ACAD_REACTORS
330
5D
102
}
330
5D
100
DictionaryVariables
280
     0
  1
1:1
  0
DICTIONARYVAR
  5
AF2
102
{ACAD_REACTORS
330
5D
102
}
330
5D
100
DictionaryVariables
280
     0
  1
STANDARD
  0
DICTIONARYVAR
  5
66F
102
{ACAD_REACTORS
330
5D
102
}
330
5D
100
DictionaryVariables
280
     0
  1
STANDARD
  0
DICTIONARYVAR
  5
FFA
102
{ACAD_REACTORS
330
5D
102
}
330
5D
100
DictionaryVariables
280
     0
  1
Metric50
  0
DICTIONARYVAR
  5
FFB
102
{ACAD_REACTORS
330
5D
102
}
330
5D
100
DictionaryVariables
280
     0
  1
Metric50
  0
DICTIONARYVAR
  5
5E
102
{ACAD_REACTORS
330
5D
102
}
330
5D
100
DictionaryVariables
280
     0
  1
0
  0
DICTIONARYVAR
  5
3C7
102
{ACAD_REACTORS
330
5D
102
}
330
5D
100
DictionaryVariables
280
     0
  1
1
  0
DICTIONARYVAR
  5
128
102
{ACAD_REACTORS
330
5D
102
}
330
5D
100
DictionaryVariables
280
     0
  1
1
  0
DICTIONARYVAR
  5
AF6
102
{ACAD_REACTORS
330
5D
102
}
330
5D
100
DictionaryVariables
280
     0
  1
1
  0
DICTIONARYVAR
  5
AF7
102
{ACAD_REACTORS
330
5D
102
}
330
5D
100
DictionaryVariables
280
     0
  1
15
  0
DICTIONARYVAR
  5
AF5
102
{ACAD_REACTORS
330
5D
102
}
330
5D
100
DictionaryVariables
280
     0
  1
0
  0
DICTIONARYVAR
  5
AF3
102
{ACAD_REACTORS
330
5D
102
}
330
5D
100
DictionaryVariables
280
     0
  1
0
  0
DICTIONARY
  5
3BAF
102
{ACAD_REACTORS
330
3BAD
102
}
330
3BAD
100
AcDbDictionary
281
     1
  0
DICTIONARY
  5
3BAE
102
{ACAD_REACTORS
330
3BAD
102
}
330
3BAD
100
AcDbDictionary
281
     1
  3
1625939680384
350
3BA8
  3
1625939680400
350
3BA9
  3
1625939680416
350
3BAA
  3
1625939680432
350
3BAB
  3
1625939680448
350
3BAC
  0
DICTIONARY
  5
143
102
{ACAD_REACTORS
330
142
102
}
330
142
100
AcDbDictionary
281
     1
  0
XRECORD
  5
47D
102
{ACAD_REACTORS
330
142
102
}
330
142
100
AcDbXrecord
280
     1
 90
-1056964608
  0
XRECORD
  5
84B
102
{ACAD_REACTORS
330
849
102
}
330
849
100
AcDbXrecord
280
     1
  0
DICTIONARY
  5
13F3
102
{ACAD_REACTORS
330
13F2
102
}
330
13F2
100
AcDbDictionary
281
     1
  3
_HasBOM
350
13F9
  3
Comment
350
13F8
  3
Folder
350
13F7
  3
GEN-TITLE-DES1
350
13F5
  3
GEN-TITLE-DES2
350
13F6
  3
GEN-TITLE-NR
350
13F4
  0
LAYER_INDEX
  5
30C5
102
{ACAD_REACTORS
330
30C4
102
}
330
30C4
100
AcDbIndex
 40
2460034.701597222
100
AcDbLayerIndex
  8
0
360
316C
 90
        0
  8
AM_0
360
316D
 90
        1
  8
DIM
360
316E
 90
        0
  0
DICTIONARY
  5
3BB6
330
10E8
100
AcDbDictionary
280
     1
281
     1
  3
ACAD_XREC_ROUNDTRIP
360
3BB7
  0
DICTIONARY
  5
3BB2
330
CCC
100
AcDbDictionary
280
     1
281
     1
  3
ACAD_XREC_ROUNDTRIP
360
3BB3
  0
DICTIONARY
  5
1474
330
169
100
AcDbDictionary
280
     1
281
     1
  0
DICTIONARY
  5
A40
330
A3F
100
AcDbDictionary
280
     1
281
     1
  3
BUMPTILE
360
A42
  3
DIFFUSETILE
360
A41
  3
OPACITYTILE
360
A45
  3
REFLECTIONTILE
360
A44
  3
REFRACTIONTILE
360
A46
  3
SPECULARTILE
360
A43
  0
DICTIONARY
  5
A38
330
A37
100
AcDbDictionary
280
     1
281
     1
  3
BUMPTILE
360
A3A
  3
DIFFUSETILE
360
A39
  3
OPACITYTILE
360
A3D
  3
REFLECTIONTILE
360
A3C
  3
REFRACTIONTILE
360
A3E
  3
SPECULARTILE
360
A3B
  0
DICTIONARY
  5
A48
330
A47
100
AcDbDictionary
280
     1
281
     1
  3
BUMPTILE
360
A4A
  3
DIFFUSETILE
360
A49
  3
OPACITYTILE
360
A4D
  3
REFLECTIONTILE
360
A4C
  3
REFRACTIONTILE
360
A4E
  3
SPECULARTILE
360
A4B
  0
DICTIONARY
  5
1497
330
A73
100
AcDbDictionary
280
     1
281
     1
  3
ACAD_XREC_ROUNDTRIP
360
1498
  0
DICTIONARY
  5
3BB4
330
10E5
100
AcDbDictionary
280
     1
281
     1
  3
ACAD_XREC_ROUNDTRIP
360
3BB5
  0
DICTIONARY
  5
3BB0
330
CCA
100
AcDbDictionary
280
     1
281
     1
  3
ACAD_XREC_ROUNDTRIP
360
3BB1
  0
DICTIONARY
  5
AED
330
651
100
AcDbDictionary
280
     1
281
     1
  3
ACAD_ROUNDTRIP_2008_TABLESTYLE_CELLSTYLEMAP
360
3BA6
  0
XRECORD
  5
3BA8
102
{ACAD_REACTORS
330
3BAE
102
}
330
3BAE
100
AcDbXrecord
280
     1
  1
AcDb_Thumbnail_Schema
102
{ATTRRECORD
341
3BA9
  2
AcDbDs::TreatedAsObjectData
280
     1
291
     1
102
ATTRRECORD}
102
{ATTRRECORD
341
3BAA
  2
AcDbDs::Legacy
280
     1
291
     1
102
ATTRRECORD}
  2
AcDbDs::ID
280
    10
 91
        8
102
{ATTRRECORD
341
3BAB
  2
AcDs:Indexable
280
     1
291
     1
102
ATTRRECORD}
102
{ATTRRECORD
341
3BAC
  2
AcDbDs::HandleAttribute
280
     7
282
     1
102
ATTRRECORD}
  2
Thumbnail_Data
280
    15
 91
        0
  0
XRECORD
  5
3BA9
102
{ACAD_REACTORS
330
3BAE
102
}
330
3BAE
100
AcDbXrecord
280
     1
  1
AcDbDs::TreatedAsObjectDataSchema
  2
AcDbDs::TreatedAsObjectData
280
     1
 91
        0
  0
XRECORD
  5
3BAA
102
{ACAD_REACTORS
330
3BAE
102
}
330
3BAE
100
AcDbXrecord
280
     1
  1
AcDbDs::LegacySchema
  2
AcDbDs::Legacy
280
     1
 91
        0
  0
XRECORD
  5
3BAB
102
{ACAD_REACTORS
330
3BAE
102
}
330
3BAE
100
AcDbXrecord
280
     1
  1
AcDbDs::IndexedPropertySchema
  2
AcDs:Indexable
280
     1
 91
        0
  0
XRECORD
  5
3BAC
102
{ACAD_REACTORS
330
3BAE
102
}
330
3BAE
100
AcDbXrecord
280
     1
  1
AcDbDs::HandleAttributeSchema
  2
AcDbDs::HandleAttribute
280
     7
 91
        1
284
     1
  0
XRECORD
  5
13F9
102
{ACAD_REACTORS
330
13F3
102
}
330
13F3
100
AcDbXrecord
280
     1
  1
_HasBOM
  1
False
  0
XRECORD
  5
13F8
102
{ACAD_REACTORS
330
13F3
102
}
330
13F3
100
AcDbXrecord
280
     1
  1
Comment
  1

  0
XRECORD
  5
13F7
102
{ACAD_REACTORS
330
13F3
102
}
330
13F3
100
AcDbXrecord
280
     1
  1
Folder
  1

  0
XRECORD
  5
13F5
102
{ACAD_REACTORS
330
13F3
102
}
330
13F3
100
AcDbXrecord
280
     1
  1
GEN-TITLE-DES1
  1

  0
XRECORD
  5
13F6
102
{ACAD_REACTORS
330
13F3
102
}
330
13F3
100
AcDbXrecord
280
     1
  1
GEN-TITLE-DES2
  1

  0
XRECORD
  5
13F4
102
{ACAD_REACTORS
330
13F3
102
}
330
13F3
100
AcDbXrecord
280
     1
  1
GEN-TITLE-NR
  1

  0
IDBUFFER
  5
316C
330
0
100
AcDbIdBuffer
  0
IDBUFFER
  5
316D
330
0
100
AcDbIdBuffer
330
391C
  0
IDBUFFER
  5
316E
330
0
100
AcDbIdBuffer
  0
XRECORD
  5
3BB7
102
{ACAD_REACTORS
330
3BB6
102
}
330
3BB6
100
AcDbXrecord
280
     1
102
DISPLAYNAME
  1
Imperial24
102
FLAGS
 90
        0
  0
XRECORD
  5
3BB3
102
{ACAD_REACTORS
330
3BB2
102
}
330
3BB2
100
AcDbXrecord
280
     1
102
DISPLAYNAME
  1
Metric50
102
FLAGS
 90
        0
  0
XRECORD
  5
A42
102
{ACAD_REACTORS
330
A40
102
}
330
A40
100
AcDbXrecord
280
     1
270
     1
271
     1
  0
XRECORD
  5
A41
102
{ACAD_REACTORS
330
A40
102
}
330
A40
100
AcDbXrecord
280
     1
270
     1
271
     1
  0
XRECORD
  5
A45
102
{ACAD_REACTORS
330
A40
102
}
330
A40
100
AcDbXrecord
280
     1
270
     1
271
     1
  0
XRECORD
  5
A44
102
{ACAD_REACTORS
330
A40
102
}
330
A40
100
AcDbXrecord
280
     1
270
     1
271
     1
  0
XRECORD
  5
A46
102
{ACAD_REACTORS
330
A40
102
}
330
A40
100
AcDbXrecord
280
     1
270
     1
271
     1
  0
XRECORD
  5
A43
102
{ACAD_REACTORS
330
A40
102
}
330
A40
100
AcDbXrecord
280
     1
270
     1
271
     1
  0
XRECORD
  5
A3A
102
{ACAD_REACTORS
330
A38
102
}
330
A38
100
AcDbXrecord
280
     1
270
     1
271
     1
  0
XRECORD
  5
A39
102
{ACAD_REACTORS
330
A38
102
}
330
A38
100
AcDbXrecord
280
     1
270
     1
271
     1
  0
XRECORD
  5
A3D
102
{ACAD_REACTORS
330
A38
102
}
330
A38
100
AcDbXrecord
280
     1
270
     1
271
     1
  0
XRECORD
  5
A3C
102
{ACAD_REACTORS
330
A38
102
}
330
A38
100
AcDbXrecord
280
     1
270
     1
271
     1
  0
XRECORD
  5
A3E
102
{ACAD_REACTORS
330
A38
102
}
330
A38
100
AcDbXrecord
280
     1
270
     1
271
     1
  0
XRECORD
  5
A3B
102
{ACAD_REACTORS
330
A38
102
}
330
A38
100
AcDbXrecord
280
     1
270
     1
271
     1
  0
XRECORD
  5
A4A
102
{ACAD_REACTORS
330
A48
102
}
330
A48
100
AcDbXrecord
280
     1
270
     1
271
     1
  0
XRECORD
  5
A49
102
{ACAD_REACTORS
330
A48
102
}
330
A48
100
AcDbXrecord
280
     1
270
     1
271
     1
  0
XRECORD
  5
A4D
102
{ACAD_REACTORS
330
A48
102
}
330
A48
100
AcDbXrecord
280
     1
270
     1
271
     1
  0
XRECORD
  5
A4C
102
{ACAD_REACTORS
330
A48
102
}
330
A48
100
AcDbXrecord
280
     1
270
     1
271
     1
  0
XRECORD
  5
A4E
102
{ACAD_REACTORS
330
A48
102
}
330
A48
100
AcDbXrecord
280
     1
270
     1
271
     1
  0
XRECORD
  5
A4B
102
{ACAD_REACTORS
330
A48
102
}
330
A48
100
AcDbXrecord
280
     1
270
     1
271
     1
  0
XRECORD
  5
1498
102
{ACAD_REACTORS
330
1497
102
}
330
1497
100
AcDbXrecord
280
     1
102
ACAD_ROUNDTRIP_2012_MLEADER_STYLE
298
     1
  0
XRECORD
  5
3BB5
102
{ACAD_REACTORS
330
3BB4
102
}
330
3BB4
100
AcDbXrecord
280
     1
102
DISPLAYNAME
  1
Imperial24
102
FLAGS
 90
        0
  0
XRECORD
  5
3BB1
102
{ACAD_REACTORS
330
3BB0
102
}
330
3BB0
100
AcDbXrecord
280
     1
102
DISPLAYNAME
  1
Metric50
102
FLAGS
 90
        0
  0
CELLSTYLEMAP
  5
3BA6
102
{ACAD_REACTORS
330
AED
102
}
330
AED
100
AcDbCellStyleMap
 90
        3
300
CELLSTYLE
  1
TABLEFORMAT_BEGIN
 90
        5
170
     1
 91
        0
 92
    32768
 62
   257
 93
        1
300
CONTENTFORMAT
  1
CONTENTFORMAT_BEGIN
 90
        0
 91
        0
 92
        4
 93
        0
300

 40
0.0
140
1.0
 94
        5
 62
     0
340
10
144
6.0
309
CONTENTFORMAT_END
171
     1
301
MARGIN
  1
CELLMARGIN_BEGIN
 40
1.5
 40
1.5
 40
1.5
 40
1.5
 40
0.18
 40
0.18
309
CELLMARGIN_END
 94
        6
 95
        1
302
GRIDFORMAT
  1
GRIDFORMAT_BEGIN
 90
        0
 91
        1
 62
     0
 92
       -2
340
0
 93
        0
 40
0.045
309
GRIDFORMAT_END
 95
        2
302
GRIDFORMAT
  1
GRIDFORMAT_BEGIN
 90
        0
 91
        1
 62
     0
 92
       -2
340
0
 93
        0
 40
0.045
309
GRIDFORMAT_END
 95
        4
302
GRIDFORMAT
  1
GRIDFORMAT_BEGIN
 90
        0
 91
        1
 62
     0
 92
       -2
340
0
 93
        0
 40
0.045
309
GRIDFORMAT_END
 95
        8
302
GRIDFORMAT
  1
GRIDFORMAT_BEGIN
 90
        0
 91
        1
 62
     0
 92
       -2
340
0
 93
        0
 40
0.045
309
GRIDFORMAT_END
 95
       16
302
GRIDFORMAT
  1
GRIDFORMAT_BEGIN
 90
        0
 91
        1
 62
     0
 92
       -2
340
0
 93
        0
 40
0.045
309
GRIDFORMAT_END
 95
       32
302
GRIDFORMAT
  1
GRIDFORMAT_BEGIN
 90
        0
 91
        1
 62
     0
 92
       -2
340
0
 93
        0
 40
0.045
309
GRIDFORMAT_END
309
TABLEFORMAT_END
  1
CELLSTYLE_BEGIN
 90
        1
 91
        1
300
_TITLE
309
CELLSTYLE_END
300
CELLSTYLE
  1
TABLEFORMAT_BEGIN
 90
        5
170
     1
 91
        0
 92
        0
 62
   257
 93
        1
300
CONTENTFORMAT
  1
CONTENTFORMAT_BEGIN
 90
        0
 91
        0
 92
        4
 93
        0
300

 40
0.0
140
1.0
 94
        5
 62
     0
340
10
144
4.5
309
CONTENTFORMAT_END
171
     1
301
MARGIN
  1
CELLMARGIN_BEGIN
 40
1.5
 40
1.5
 40
1.5
 40
1.5
 40
0.18
 40
0.18
309
CELLMARGIN_END
 94
        6
 95
        1
302
GRIDFORMAT
  1
GRIDFORMAT_BEGIN
 90
        0
 91
        1
 62
     0
 92
       -2
340
0
 93
        0
 40
0.045
309
GRIDFORMAT_END
 95
        2
302
GRIDFORMAT
  1
GRIDFORMAT_BEGIN
 90
        0
 91
        1
 62
     0
 92
       -2
340
0
 93
        0
 40
0.045
309
GRIDFORMAT_END
 95
        4
302
GRIDFORMAT
  1
GRIDFORMAT_BEGIN
 90
        0
 91
        1
 62
     0
 92
       -2
340
0
 93
        0
 40
0.045
309
GRIDFORMAT_END
 95
        8
302
GRIDFORMAT
  1
GRIDFORMAT_BEGIN
 90
        0
 91
        1
 62
     0
 92
       -2
340
0
 93
        0
 40
0.045
309
GRIDFORMAT_END
 95
       16
302
GRIDFORMAT
  1
GRIDFORMAT_BEGIN
 90
        0
 91
        1
 62
     0
 92
       -2
340
0
 93
        0
 40
0.045
309
GRIDFORMAT_END
 95
       32
302
GRIDFORMAT
  1
GRIDFORMAT_BEGIN
 90
        0
 91
        1
 62
     0
 92
       -2
340
0
 93
        0
 40
0.045
309
GRIDFORMAT_END
309
TABLEFORMAT_END
  1
CELLSTYLE_BEGIN
 90
        2
 91
        1
300
_HEADER
309
CELLSTYLE_END
300
CELLSTYLE
  1
TABLEFORMAT_BEGIN
 90
        5
170
     1
 91
        0
 92
        0
 62
   257
 93
        1
300
CONTENTFORMAT
  1
CONTENTFORMAT_BEGIN
 90
        0
 91
        0
 92
        4
 93
        0
300

 40
0.0
140
1.0
 94
        2
 62
     0
340
10
144
4.5
309
CONTENTFORMAT_END
171
     1
301
MARGIN
  1
CELLMARGIN_BEGIN
 40
1.5
 40
1.5
 40
1.5
 40
1.5
 40
0.18
 40
0.18
309
CELLMARGIN_END
 94
        6
 95
        1
302
GRIDFORMAT
  1
GRIDFORMAT_BEGIN
 90
        0
 91
        1
 62
     0
 92
       -2
340
0
 93
        0
 40
0.045
309
GRIDFORMAT_END
 95
        2
302
GRIDFORMAT
  1
GRIDFORMAT_BEGIN
 90
        0
 91
        1
 62
     0
 92
       -2
340
0
 93
        0
 40
0.045
309
GRIDFORMAT_END
 95
        4
302
GRIDFORMAT
  1
GRIDFORMAT_BEGIN
 90
        0
 91
        1
 62
     0
 92
       -2
340
0
 93
        0
 40
0.045
309
GRIDFORMAT_END
 95
        8
302
GRIDFORMAT
  1
GRIDFORMAT_BEGIN
 90
        0
 91
        1
 62
     0
 92
       -2
340
0
 93
        0
 40
0.045
309
GRIDFORMAT_END
 95
       16
302
GRIDFORMAT
  1
GRIDFORMAT_BEGIN
 90
        0
 91
        1
 62
     0
 92
       -2
340
0
 93
        0
 40
0.045
309
GRIDFORMAT_END
 95
       32
302
GRIDFORMAT
  1
GRIDFORMAT_BEGIN
 90
        0
 91
        1
 62
     0
 92
       -2
340
0
 93
        0
 40
0.045
309
GRIDFORMAT_END
309
TABLEFORMAT_END
  1
CELLSTYLE_BEGIN
 90
        3
 91
        2
300
_DATA
309
CELLSTYLE_END
  0
ENDSEC
  0
SECTION
  2
ACDSDATA
 70
     2
 71
     8
  0
ACDSSCHEMA
 90
        0
  1
AcDb_Thumbnail_Schema
  2
AcDbDs::ID
280
    10
 91
        8
  2
Thumbnail_Data
280
    15
 91
        0
101
ACDSRECORD
 95
        0
 90
        1
  2
AcDbDs::TreatedAsObjectData
280
     1
291
     1
101
ACDSRECORD
 95
        0
 90
        2
  2
AcDbDs::Legacy
280
     1
291
     1
101
ACDSRECORD
  1
AcDbDs::ID
 90
        3
  2
AcDs:Indexable
280
     1
291
     1
101
ACDSRECORD
  1
AcDbDs::ID
 90
        4
  2
AcDbDs::HandleAttribute
280
     7
282
     1
  0
ACDSSCHEMA
 90
        1
  1
AcDbDs::TreatedAsObjectDataSchema
  2
AcDbDs::TreatedAsObjectData
280
     1
 91
        0
  0
ACDSSCHEMA
 90
        2
  1
AcDbDs::LegacySchema
  2
AcDbDs::Legacy
280
     1
 91
        0
  0
ACDSSCHEMA
 90
        3
  1
AcDbDs::IndexedPropertySchema
  2
AcDs:Indexable
280
     1
 91
        0
  0
ACDSSCHEMA
 90
        4
  1
AcDbDs::HandleAttributeSchema
  2
AcDbDs::HandleAttribute
280
     7
 91
        1
284
     1
  0
ACDSRECORD
 90
        0
  2
AcDbDs::ID
280
    10
320
2CA4
  2
Thumbnail_Data
280
    15
 94
      907
310
89504E470D0A1A0A0000000D4948445200000100000000BF08030000002647F24000000300504C5445212830000000C8C8C80000000000000000000000000000000000000000000000000000330000660000990000CC0000FF0033000033330033660033990033CC0033FF0066000066330066660066990066CC0066FF0099
310
000099330099660099990099CC0099FF00CC0000CC3300CC6600CC9900CCCC00CCFF00FF0000FF3300FF6600FF9900FFCC00FFFF3300003300333300663300993300CC3300FF3333003333333333663333993333CC3333FF3366003366333366663366993366CC3366FF3399003399333399663399993399CC3399FF33CC00
310
33CC3333CC6633CC9933CCCC33CCFF33FF0033FF3333FF6633FF9933FFCC33FFFF6600006600336600666600996600CC6600FF6633006633336633666633996633CC6633FF6666006666336666666666996666CC6666FF6699006699336699666699996699CC6699FF66CC0066CC3366CC6666CC9966CCCC66CCFF66FF0066
310
FF3366FF6666FF9966FFCC66FFFF9900009900339900669900999900CC9900FF9933009933339933669933999933CC9933FF9966009966339966669966999966CC9966FF9999009999339999669999999999CC9999FF99CC0099CC3399CC6699CC9999CCCC99CCFF99FF0099FF3399FF6699FF9999FFCC99FFFFCC0000CC00
310
33CC0066CC0099CC00CCCC00FFCC3300CC3333CC3366CC3399CC33CCCC33FFCC6600CC6633CC6666CC6699CC66CCCC66FFCC9900CC9933CC9966CC9999CC99CCCC99FFCCCC00CCCC33CCCC66CCCC99CCCCCCCCCCFFCCFF00CCFF33CCFF66CCFF99CCFFCCCCFFFFFF0000FF0033FF0066FF0099FF00CCFF00FFFF3300FF3333
310
FF3366FF3399FF33CCFF33FFFF6600FF6633FF6666FF6699FF66CCFF66FFFF9900FF9933FF9966FF9999FF99CCFF99FFFFCC00FFCC33FFCC66FFCC99FFCCCCFFCCFFFFFF00FFFF33FFFF66FFFF99FFFFCCFFFFFF0000000D0D0D1A1A1A2828283535354343435050505D5D5D6B6B6B787878868686939393A1A1A1AEAEAEBB
310
BBBBC9C9C9D6D6D6E4E4E4F1F1F1FFFFFF000000000000000000000000000000000000000000000000000000000000B21171F6000000464944415478DAEDC13101000000C2A0F54F6D085FA00000000000000000000000000000000000000000000000000000000000000000000000000000000000000000000000E036BFBF
310
000103F617CF0000000049454E44AE426082
  0
ACDSRECORD
 90
        0
  2
AcDbDs::ID
280
    10
320
169
  2
Thumbnail_Data
280
    15
 94
     1332
310
89504E470D0A1A0A0000000D49484452000001000000006D080300000079B14F6400000300504C5445212830FFFFFF2128300000000000000000000000000000000000000000000000000000330000660000990000CC0000FF0033000033330033660033990033CC0033FF0066000066330066660066990066CC0066FF0099
310
000099330099660099990099CC0099FF00CC0000CC3300CC6600CC9900CCCC00CCFF00FF0000FF3300FF6600FF9900FFCC00FFFF3300003300333300663300993300CC3300FF3333003333333333663333993333CC3333FF3366003366333366663366993366CC3366FF3399003399333399663399993399CC3399FF33CC00
310
33CC3333CC6633CC9933CCCC33CCFF33FF0033FF3333FF6633FF9933FFCC33FFFF6600006600336600666600996600CC6600FF6633006633336633666633996633CC6633FF6666006666336666666666996666CC6666FF6699006699336699666699996699CC6699FF66CC0066CC3366CC6666CC9966CCCC66CCFF66FF0066
310
FF3366FF6666FF9966FFCC66FFFF9900009900339900669900999900CC9900FF9933009933339933669933999933CC9933FF9966009966339966669966999966CC9966FF9999009999339999669999999999CC9999FF99CC0099CC3399CC6699CC9999CCCC99CCFF99FF0099FF3399FF6699FF9999FFCC99FFFFCC0000CC00
310
33CC0066CC0099CC00CCCC00FFCC3300CC3333CC3366CC3399CC33CCCC33FFCC6600CC6633CC6666CC6699CC66CCCC66FFCC9900CC9933CC9966CC9999CC99CCCC99FFCCCC00CCCC33CCCC66CCCC99CCCCCCCCCCFFCCFF00CCFF33CCFF66CCFF99CCFFCCCCFFFFFF0000FF0033FF0066FF0099FF00CCFF00FFFF3300FF3333
310
FF3366FF3399FF33CCFF33FFFF6600FF6633FF6666FF6699FF66CCFF66FFFF9900FF9933FF9966FF9999FF99CCFF99FFFFCC00FFCC33FFCC66FFCC99FFCCCCFFCCFFFFFF00FFFF33FFFF66FFFF99FFFFCCFFFFFF0000000D0D0D1A1A1A2828283535354343435050505D5D5D6B6B6B787878868686939393A1A1A1AEAEAEBB
310
BBBBC9C9C9D6D6D6E4E4E4F1F1F1FFFFFF0000000000000000000000000000000000000000000000000000000000002E4550F1000000324944415478DAEDC13101000000C2A0F54F6D0D0FA00000000000000000000000000000000000000000000000000000000E0D6D6D000165E7A0B90000000049454E44AE4260824260
310
828208000000000000000000000000000000000000000000000000000000000000000000000000000000000000000000000000000000FC0D206AF4B1FE7004A400D40A00000000000000000000000000000000180DC04F620000000000000000000000000000000000000000000000000080262B1C7DB2742925CE43D4E3A9
310
65F1A7CD28008F851F96AEDB4C80DD86DEDF3FE9CDEDD931CF69A7407CB85D3C2E73F35B00AC5A3DEC75BC7ED323E0B61B35EF2AB07FF1BA1B595781D1FF624392244992244992244992244992244992244952571D0111E7C5CED53675980000000049454E44AE42608286631967407D672966C07D078AE71F77D26C02F3E1
310
7CE5C0FD5480885D42802542791DC06E5FB4454680CB5E03B0DB36406C7B06ECB7FFDDE1B25D80549F04FFFE28901EA0FCD967A52C0051C6738932FD9723FA9DF5BF062F5A79789D7E9C65069CACF144315D3FBC09AC70250588F9ED2F67EF61FDF146FE21FB805F0E680B00B53E19A0FF6FC00C7805C00BBEBEA8CF7D7CCD
310
F5C548820000D838FF9B01CAB6014AFC3780F281852449922449922449922449922449922449926EF70DAF1801257F9AFF7A0000000049454E44AE426082
  0
ENDSEC
  0
EOF
