  0
SECTION
  2
HEADER
  9
$ACADVER
  1
AC1027
  9
$ACADMAINTVER
 70
   125
  9
$DWGCODEPAGE
  3
ANSI_1252
  9
$LASTSAVEDBY
  1
se-milkar
  9
$CUSTOMPROPERTYTAG
  1
AmdtFileType
  9
$CUSTOMPROPERTY
  1
84
  9
$REQUIREDVERSIONS
160
                 0
  9
$INSBASE
 10
0.0
 20
0.0
 30
0.0
  9
$EXTMIN
 10
-78.30275960600364
 20
-148.9115934293837
 30
-0.0015258207003583
  9
$EXTMAX
 10
41.90485458525586
 20
118.003964526405
 30
0.0000000349246037
  9
$LIMMIN
 10
0.0
 20
0.0
  9
$LIMMAX
 10
420.0
 20
297.0
  9
$ORTHOMODE
 70
     0
  9
$REGENMODE
 70
     1
  9
$FILLMODE
 70
     1
  9
$QTEXTMODE
 70
     0
  9
$MIRRTEXT
 70
     0
  9
$LTSCALE
 40
1.0
  9
$ATTMODE
 70
     1
  9
$TEXTSIZE
 40
3.5
  9
$TRACEWID
 40
1.0
  9
$TEXTSTYLE
  7
STANDARD
  9
$CLAYER
  8
AM_0
  9
$CELTYPE
  6
BYLAYER
  9
$CECOLOR
 62
   256
  9
$CELTSCALE
 40
1.0
  9
$DISPSILH
 70
     0
  9
$DIMSCALE
 40
1.0
  9
$DIMASZ
 40
2.5
  9
$DIMEXO
 40
1.0
  9
$DIMDLI
 40
10.0
  9
$DIMRND
 40
0.0
  9
$DIMDLE
 40
0.0
  9
$DIMEXE
 40
1.0
  9
$DIMTP
 40
0.1
  9
$DIMTM
 40
0.1
  9
$DIMTXT
 40
3.5
  9
$DIMCEN
 40
0.0
  9
$DIMTSZ
 40
0.0
  9
$DIMTOL
 70
     0
  9
$DIMLIM
 70
     0
  9
$DIMTIH
 70
     0
  9
$DIMTOH
 70
     0
  9
$DIMSE1
 70
     0
  9
$DIMSE2
 70
     0
  9
$DIMTAD
 70
     1
  9
$DIMZIN
 70
     8
  9
$DIMBLK
  1

  9
$DIMASO
 70
     1
  9
$DIMSHO
 70
     1
  9
$DIMPOST
  1

  9
$DIMAPOST
  1
"
  9
$DIMALT
 70
     0
  9
$DIMALTD
 70
     3
  9
$DIMALTF
 40
0.0393701
  9
$DIMLFAC
 40
1.0
  9
$DIMTOFL
 70
     1
  9
$DIMTVP
 40
0.0
  9
$DIMTIX
 70
     0
  9
$DIMSOXD
 70
     0
  9
$DIMSAH
 70
     0
  9
$DIMBLK1
  1

  9
$DIMBLK2
  1

  9
$DIMSTYLE
  2
AM_ISO
  9
$DIMCLRD
 70
   256
  9
$DIMCLRE
 70
   256
  9
$DIMCLRT
 70
     2
  9
$DIMTFAC
 40
0.71
  9
$DIMGAP
 40
1.5
  9
$DIMJUST
 70
     0
  9
$DIMSD1
 70
     0
  9
$DIMSD2
 70
     0
  9
$DIMTOLJ
 70
     0
  9
$DIMTZIN
 70
     8
  9
$DIMALTZ
 70
     0
  9
$DIMALTTZ
 70
     0
  9
$DIMUPT
 70
     0
  9
$DIMDEC
 70
     2
  9
$DIMTDEC
 70
     2
  9
$DIMALTU
 70
     2
  9
$DIMALTTD
 70
     3
  9
$DIMTXSTY
  7
STANDARD
  9
$DIMAUNIT
 70
     0
  9
$DIMADEC
 70
     0
  9
$DIMALTRND
 40
0.0
  9
$DIMAZIN
 70
     2
  9
$DIMDSEP
 70
    46
  9
$DIMATFIT
 70
     3
  9
$DIMFRAC
 70
     0
  9
$DIMLDRBLK
  1

  9
$DIMLUNIT
 70
     2
  9
$DIMLWD
 70
    -1
  9
$DIMLWE
 70
    -1
  9
$DIMTMOVE
 70
     0
  9
$DIMFXL
 40
1.0
  9
$DIMFXLON
 70
     0
  9
$DIMJOGANG
 40
0.7853981633974483
  9
$DIMTFILL
 70
     0
  9
$DIMTFILLCLR
 70
     0
  9
$DIMARCSYM
 70
     0
  9
$DIMLTYPE
  6

  9
$DIMLTEX1
  6

  9
$DIMLTEX2
  6

  9
$DIMTXTDIRECTION
 70
     0
  9
$LUNITS
 70
     2
  9
$LUPREC
 70
     2
  9
$SKETCHINC
 40
1.0
  9
$FILLETRAD
 40
2.5
  9
$AUNITS
 70
     0
  9
$AUPREC
 70
     0
  9
$MENU
  1
.
  9
$ELEVATION
 40
0.0
  9
$PELEVATION
 40
0.0
  9
$THICKNESS
 40
0.0
  9
$LIMCHECK
 70
     0
  9
$CHAMFERA
 40
2.5
  9
$CHAMFERB
 40
2.5
  9
$CHAMFERC
 40
20.0
  9
$CHAMFERD
 40
0.0
  9
$SKPOLY
 70
     1
  9
$TDCREATE
 40
2458904.512615741
  9
$TDUCREATE
 40
2458904.470949074
  9
$TDUPDATE
 40
2458904.528009259
  9
$TDUUPDATE
 40
2458904.486342593
  9
$TDINDWG
 40
0.0153935185
  9
$TDUSRTIMER
 40
0.0153935185
  9
$USRTIMER
 70
     1
  9
$ANGBASE
 50
0.0
  9
$ANGDIR
 70
     0
  9
$PDMODE
 70
     0
  9
$PDSIZE
 40
0.0
  9
$PLINEWID
 40
0.0
  9
$SPLFRAME
 70
     0
  9
$SPLINETYPE
 70
     6
  9
$SPLINESEGS
 70
     8
  9
$HANDSEED
  5
43E3
  9
$SURFTAB1
 70
     6
  9
$SURFTAB2
 70
     6
  9
$SURFTYPE
 70
     6
  9
$SURFU
 70
     6
  9
$SURFV
 70
     6
  9
$UCSBASE
  2

  9
$UCSNAME
  2

  9
$UCSORG
 10
0.0
 20
0.0
 30
0.0
  9
$UCSXDIR
 10
1.0
 20
0.0
 30
0.0
  9
$UCSYDIR
 10
0.0
 20
1.0
 30
0.0
  9
$UCSORTHOREF
  2

  9
$UCSORTHOVIEW
 70
     0
  9
$UCSORGTOP
 10
0.0
 20
0.0
 30
0.0
  9
$UCSORGBOTTOM
 10
0.0
 20
0.0
 30
0.0
  9
$UCSORGLEFT
 10
0.0
 20
0.0
 30
0.0
  9
$UCSORGRIGHT
 10
0.0
 20
0.0
 30
0.0
  9
$UCSORGFRONT
 10
0.0
 20
0.0
 30
0.0
  9
$UCSORGBACK
 10
0.0
 20
0.0
 30
0.0
  9
$PUCSBASE
  2

  9
$PUCSNAME
  2

  9
$PUCSORG
 10
0.0
 20
0.0
 30
0.0
  9
$PUCSXDIR
 10
1.0
 20
0.0
 30
0.0
  9
$PUCSYDIR
 10
0.0
 20
1.0
 30
0.0
  9
$PUCSORTHOREF
  2

  9
$PUCSORTHOVIEW
 70
     0
  9
$PUCSORGTOP
 10
0.0
 20
0.0
 30
0.0
  9
$PUCSORGBOTTOM
 10
0.0
 20
0.0
 30
0.0
  9
$PUCSORGLEFT
 10
0.0
 20
0.0
 30
0.0
  9
$PUCSORGRIGHT
 10
0.0
 20
0.0
 30
0.0
  9
$PUCSORGFRONT
 10
0.0
 20
0.0
 30
0.0
  9
$PUCSORGBACK
 10
0.0
 20
0.0
 30
0.0
  9
$USERI1
 70
     0
  9
$USERI2
 70
     0
  9
$USERI3
 70
     0
  9
$USERI4
 70
     0
  9
$USERI5
 70
     0
  9
$USERR1
 40
0.0
  9
$USERR2
 40
0.0
  9
$USERR3
 40
0.0
  9
$USERR4
 40
0.0
  9
$USERR5
 40
0.0
  9
$WORLDVIEW
 70
     1
  9
$SHADEDGE
 70
     3
  9
$SHADEDIF
 70
    70
  9
$TILEMODE
 70
     1
  9
$MAXACTVP
 70
    48
  9
$PINSBASE
 10
0.0
 20
0.0
 30
0.0
  9
$PLIMCHECK
 70
     0
  9
$PEXTMIN
 10
1.000000000000000E+20
 20
1.000000000000000E+20
 30
1.000000000000000E+20
  9
$PEXTMAX
 10
-1.000000000000000E+20
 20
-1.000000000000000E+20
 30
-1.000000000000000E+20
  9
$PLIMMIN
 10
0.0
 20
0.0
  9
$PLIMMAX
 10
12.0
 20
9.0
  9
$UNITMODE
 70
     0
  9
$VISRETAIN
 70
     1
  9
$PLINEGEN
 70
     0
  9
$PSLTSCALE
 70
     1
  9
$TREEDEPTH
 70
  3020
  9
$CMLSTYLE
  2
STANDARD
  9
$CMLJUST
 70
     0
  9
$CMLSCALE
 40
1.0
  9
$PROXYGRAPHICS
 70
     1
  9
$MEASUREMENT
 70
     1
  9
$CELWEIGHT
370
    -1
  9
$ENDCAPS
280
     0
  9
$JOINSTYLE
280
     0
  9
$LWDISPLAY
290
     0
  9
$INSUNITS
 70
     4
  9
$HYPERLINKBASE
  1

  9
$STYLESHEET
  1
@Layout.ctb
  9
$XEDIT
290
     1
  9
$CEPSNTYPE
380
     0
  9
$PSTYLEMODE
290
     1
  9
$FINGERPRINTGUID
  2
{A4EFBAAE-E881-FF45-AB77-E84A6D51F26A}
  9
$VERSIONGUID
  2
{52D46244-C5B5-0246-8582-478B2AFF518A}
  9
$EXTNAMES
290
     1
  9
$PSVPSCALE
 40
0.0
  9
$OLESTARTUP
290
     0
  9
$SORTENTS
280
   127
  9
$INDEXCTL
280
     1
  9
$HIDETEXT
280
     0
  9
$XCLIPFRAME
280
     0
  9
$HALOGAP
280
     0
  9
$OBSCOLOR
 70
   257
  9
$OBSLTYPE
280
     0
  9
$INTERSECTIONDISPLAY
280
     0
  9
$INTERSECTIONCOLOR
 70
   257
  9
$DIMASSOC
280
     2
  9
$PROJECTNAME
  1

  9
$CAMERADISPLAY
290
     0
  9
$LENSLENGTH
 40
50.0
  9
$CAMERAHEIGHT
 40
0.0
  9
$STEPSPERSEC
 40
2.0
  9
$STEPSIZE
 40
6.0
  9
$3DDWFPREC
 40
2.0
  9
$PSOLWIDTH
 40
0.25
  9
$PSOLHEIGHT
 40
4.0
  9
$LOFTANG1
 40
1.570796326794896
  9
$LOFTANG2
 40
1.570796326794896
  9
$LOFTMAG1
 40
0.0
  9
$LOFTMAG2
 40
0.0
  9
$LOFTPARAM
 70
     7
  9
$LOFTNORMALS
280
     1
  9
$LATITUDE
 40
37.795
  9
$LONGITUDE
 40
-122.394
  9
$NORTHDIRECTION
 40
0.0
  9
$TIMEZONE
 70
 -8000
  9
$LIGHTGLYPHDISPLAY
280
     1
  9
$TILEMODELIGHTSYNCH
280
     1
  9
$CMATERIAL
347
A37
  9
$SOLIDHIST
280
     1
  9
$SHOWHIST
280
     1
  9
$DWFFRAME
280
     2
  9
$DGNFRAME
280
     0
  9
$REALWORLDSCALE
290
     1
  9
$INTERFERECOLOR
 62
     1
  9
$INTERFEREOBJVS
345
A59
  9
$INTERFEREVPVS
346
CBF
  9
$CSHADOW
280
     0
  9
$SHADOWPLANELOCATION
 40
0.0
  0
ENDSEC
  0
SECTION
  2
CLASSES
  0
CLASS
  1
DICTIONARYVAR
  2
AcDbDictionaryVar
  3
ObjectDBX Classes
 90
        0
 91
       12
280
     0
281
     0
  0
CLASS
  1
ACMESTATEMGR
  2
AcMeStateMgr
  3
AcMeServices
 90
     1024
 91
        1
280
     0
281
     0
  0
CLASS
  1
ACMESCOPE
  2
AcMeScope
  3
AcMeServices
 90
     1024
 91
        1
280
     0
281
     0
  0
CLASS
  1
ACMECOMMANDHISTORY
  2
AcMeCommandHistory
  3
AcMeServices
 90
     1024
 91
        1
280
     0
281
     0
  0
CLASS
  1
ACRFINSADJUSTERMGR
  2
AcRfInsAdjusterMgr
  3
AcMeServices
 90
     1024
 91
        1
280
     0
281
     0
  0
CLASS
  1
ACMEDRAWINGMAN
  2
AcMeDrawingMan
  3
AcMeServices
 90
     1024
 91
        0
280
     0
281
     0
  0
CLASS
  1
AMATTR
  2
AcMeAttribute
  3
AcMeServices
 90
     1024
 91
        0
280
     0
281
     0
  0
CLASS
  1
ACMEBOMCOLUMN
  2
AcMeBOMColumn
  3
AcMeServices
 90
     1024
 91
        0
280
     0
281
     0
  0
CLASS
  1
ACMEBOMCONF
  2
AcMeBOMConf
  3
AcMeServices
 90
     1024
 91
        0
280
     0
281
     0
  0
CLASS
  1
ACMEBOMTABLE
  2
AcMeBOMTable
  3
AcMeServices
 90
     1024
 91
        0
280
     0
281
     0
  0
CLASS
  1
ACMEBOMENTRY
  2
AcMeBOMEntry
  3
AcMeServices
 90
     1024
 91
        0
280
     0
281
     0
  0
CLASS
  1
ACMEVIEW
  2
AcMeView
  3
AcMeServices
 90
     1024
 91
        0
280
     0
281
     0
  0
CLASS
  1
ACGREFMASTER
  2
AcGrefMaster
  3
AcAttribServices
 90
     1024
 91
        1
280
     0
281
     0
  0
CLASS
  1
AMIMASTER
  2
AmiMaster
  3
AmiServices
 90
     1024
 91
        1
280
     0
281
     0
  0
CLASS
  1
ACASGREFMASTER
  2
AcAsGrefMaster
  3
AutoSurfResolverServices
 90
     1024
 91
        2
280
     0
281
     0
  0
CLASS
  1
ADAPPL
  2
AcAdAppl
  3
DesignerAssemblies
 90
     1024
 91
        0
280
     0
281
     0
  0
CLASS
  1
DEPMGR
  2
AcAdDepMgr
  3
DesignerAssemblies
 90
     1024
 91
        0
280
     0
281
     0
  0
CLASS
  1
PARAMMGR
  2
AcAdParamMgr
  3
DesignerAssemblies
 90
     1024
 91
        0
280
     0
281
     0
  0
CLASS
  1
PARAMSCOPE
  2
AcAdParamScope
  3
DesignerAssemblies
 90
     1024
 91
        0
280
     0
281
     0
  0
CLASS
  1
ACIMSYSVARMAN
  2
AcImSysVarManager
  3
AcMeServices
 90
     1024
 91
        5
280
     0
281
     0
  0
CLASS
  1
ACIMINTSYSVAR
  2
AcImIntSysVar
  3
AcMeServices
 90
     1024
 91
       50
280
     0
281
     0
  0
CLASS
  1
ACIMREALSYSVAR
  2
AcImRealSysVar
  3
AcMeServices
 90
     1024
 91
       16
280
     0
281
     0
  0
CLASS
  1
ACIMSTRSYSVAR
  2
AcImStrSysVar
  3
AcMeServices
 90
     1024
 91
       14
280
     0
281
     0
  0
CLASS
  1
NAMEDAPPL
  2
AcAdNamedAppl
  3
DesignerAssemblies
 90
     1024
 91
        0
280
     0
281
     0
  0
CLASS
  1
ADHNTMPLT
  2
AdHoleNoteTemplateMgr
  3
DesignerServices
 90
     1024
 91
        0
280
     0
281
     0
  0
CLASS
  1
AM_HNTEMPLATE_MGR_NAME
  2
AdHoleNoteTemplateMgrName
  3
DesignerServices
 90
     1024
 91
        0
280
     0
281
     0
  0
CLASS
  1
ACADGREFMODULE
  2
AcAdGrefModule
  3
AdGrefServices
 90
     1024
 91
        2
280
     0
281
     0
  0
CLASS
  1
AM_DRAWING_MGR
  2
AcDmDwgMgr
  3
AcMechDwgViewMgmt
 90
     1024
 91
        0
280
     0
281
     0
  0
CLASS
  1
AM_DWG_DOCUMENT
  2
AcDmDwgDocument
  3
AcMechDwgViewMgmt
 90
     1024
 91
        0
280
     0
281
     0
  0
CLASS
  1
AM_DWG_SHEET
  2
AcDmSheet
  3
AcMechDwgViewMgmt
 90
     1024
 91
        0
280
     0
281
     0
  0
CLASS
  1
AM_VIEWDIMPARMAP
  2
AcDmViewDimParMap
  3
AcMechDwgViewMgmt
 90
     1024
 91
        0
280
     0
281
     0
  0
CLASS
  1
AM_DWGMGR_NAME
  2
AcDmDwgMgrName
  3
AcMechDwgViewMgmt
 90
     1024
 91
        0
280
     0
281
     0
  0
CLASS
  1
ACAMPROJECT
  2
AcAmProject
  3
DesignerAssemblies
 90
     1024
 91
        1
280
     0
281
     0
  0
CLASS
  1
ACAMGRCOMPSET
  2
AcAmGrCompSet
  3
DesignerAssemblies
 90
        0
 91
        0
280
     0
281
     0
  0
CLASS
  1
ACAMGRCOMPDEFSET
  2
AcAmGrCompDefSet
  3
DesignerAssemblies
 90
     1024
 91
        1
280
     0
281
     0
  0
CLASS
  1
ACAMGRCOMPDEF
  2
AcAmGrCompDef
  3
DesignerAssemblies
 90
     1024
 91
        1
280
     0
281
     0
  0
CLASS
  1
ACCMCONTEXT
  2
AcCmContext
  3
DesignerAssemblies
 90
     1024
 91
        1
280
     0
281
     0
  0
CLASS
  1
ACAMCOMPDEF
  2
AcAmCompDef
  3
DesignerAssemblies
 90
     1024
 91
        1
280
     0
281
     0
  0
CLASS
  1
ACAMCOMPDEFMGR
  2
AcAmCompDefMgr
  3
DesignerAssemblies
 90
     1024
 91
        1
280
     0
281
     0
  0
CLASS
  1
AMCONTEXTMGR
  2
AcAmContextMgr
  3
DesignerAssemblies
 90
     1024
 91
        1
280
     0
281
     0
  0
CLASS
  1
ACAMCONTEXTMODELER
  2
AcAmContextModeler
  3
DesignerAssemblies
 90
     1024
 91
        1
280
     0
281
     0
  0
CLASS
  1
ACDMVIEWGEOM
  2
AcDmViewGeometry
  3
AcMechDwgViewMgmt
 90
     1024
 91
        0
280
     0
281
     1
  0
CLASS
  1
CBROWSERAPPOBJECT
  2
CBrowserAppObject
  3
McadcomServices
 90
     1024
 91
        2
280
     0
281
     0
  0
CLASS
  1
IM_STATIC_MAN
  2
AcImStaticVarManager
  3
AcMeServices
 90
     1024
 91
        1
280
     0
281
     0
  0
CLASS
  1
ASAPP
  2
AcAsAppObject
  3
AutoSurfServices
 90
     1024
 91
        2
280
     0
281
     0
  0
CLASS
  1
ACIMDBLSTATICVAR
  2
AcImDblStaticVar
  3
AcMeServices
 90
     1024
 91
       22
280
     0
281
     0
  0
CLASS
  1
ACIMSTRSTATICVAR
  2
AcImStrStaticVar
  3
AcMeServices
 90
     1024
 91
       13
280
     0
281
     0
  0
CLASS
  1
ACIMINTSTATICVAR
  2
AcImIntStaticVar
  3
AcMeServices
 90
     1024
 91
       17
280
     0
281
     0
  0
CLASS
  1
CATALOGSTATE
  2
AcAmCatalogState
  3
DesignerAssemblies_arx
 90
     1024
 91
        0
280
     0
281
     0
  0
CLASS
  1
DM_PLACEHOLDER
  2
AcDmSelsetPlaceholder
  3
McadcomServices
 90
     1024
 91
        1
280
     0
281
     0
  0
CLASS
  1
LAYER_INDEX
  2
AcDbLayerIndex
  3
ObjectDBX Classes
 90
        0
 91
        2
280
     0
281
     0
  0
CLASS
  1
IDBUFFER
  2
AcDbIdBuffer
  3
ObjectDBX Classes
 90
        0
 91
       20
280
     0
281
     0
  0
CLASS
  1
ACMSTANDARDJIS
  2
AcmStandardJIS
  3
"Amdt_StdImp|Product Description: AutoCAD Mechanical|Company: Autodesk, Inc."
 90
     1024
 91
        0
280
     0
281
     0
  0
CLASS
  1
ACMSTANDARDANSI
  2
AcmStandardANSI
  3
"Amdt_StdImp|Product Description: AutoCAD Mechanical|Company: Autodesk, Inc."
 90
     1024
 91
        1
280
     0
281
     0
  0
CLASS
  1
ACMSTANDARDBSI
  2
AcmStandardBSI
  3
"Amdt_StdImp|Product Description: AutoCAD Mechanical|Company: Autodesk, Inc."
 90
     1024
 91
        0
280
     0
281
     0
  0
CLASS
  1
ACMSTANDARDDIN
  2
AcmStandardDIN
  3
"Amdt_StdImp|Product Description: AutoCAD Mechanical|Company: Autodesk, Inc."
 90
     1024
 91
        0
280
     0
281
     0
  0
CLASS
  1
ACMSTANDARDISO
  2
AcmStandardISO
  3
"Amdt_StdImp|Product Description: AutoCAD Mechanical|Company: Autodesk, Inc."
 90
     1024
 91
        1
280
     0
281
     0
  0
CLASS
  1
ACDBDICTIONARYWDFLT
  2
AcDbDictionaryWithDefault
  3
ObjectDBX Classes
 90
        0
 91
        1
280
     0
281
     0
  0
CLASS
  1
ACDBPLACEHOLDER
  2
AcDbPlaceHolder
  3
ObjectDBX Classes
 90
        0
 91
        1
280
     0
281
     0
  0
CLASS
  1
LAYOUT
  2
AcDbLayout
  3
ObjectDBX Classes
 90
        0
 91
        2
280
     0
281
     0
  0
CLASS
  1
ACME_DOCUMENT
  2
AcMeDbDoc
  3
AcMeServices
 90
     1024
 91
        2
280
     0
281
     0
  0
CLASS
  1
AMGSETTINGSOBJ
  2
AmgSettingsObj
  3
"AcadM|Product Description: AutoCAD Mechanical|Company: Autodesk, Inc."
 90
     1024
 91
        4
280
     0
281
     0
  0
CLASS
  1
AMGOBJPROPCFG
  2
AmgObjPropCfg
  3
"AmgLay|Product Description: AutoCAD Mechanical|Company: Autodesk, Inc."
 90
     1024
 91
        1
280
     0
281
     0
  0
CLASS
  1
ACDBENTITYCACHE
  2
AcMeEntityCache
  3
AcMeServices
 90
     1024
 91
        1
280
     0
281
     0
  0
CLASS
  1
GSMANAGER
  2
AcMeGSManager
  3
AcMeServices
 90
     1024
 91
        0
280
     0
281
     0
  0
CLASS
  1
AMDTINTERNALREACTOR
  2
AmdtInternalReactor
  3
AcMeServices
 90
     1024
 91
        0
280
     0
281
     0
  0
CLASS
  1
ACME_DATABASE
  2
AcMeDbDatabase
  3
AcMeServices
 90
     1024
 91
        5
280
     0
281
     0
  0
CLASS
  1
ACGREFACADMASTER
  2
AcGrefacadMaster
  3
AcGrefServices
 90
     1024
 91
        1
280
     0
281
     0
  0
CLASS
  1
AMDTMENUSTATEMGR
  2
AmdtMenuStateMgr
  3
McadcomServices
 90
     1024
 91
        1
280
     0
281
     0
  0
CLASS
  1
AMDTMCOMMENUSTATE
  2
AmdtMcomMenuState
  3
McadcomServices
 90
     1024
 91
        1
280
     0
281
     0
  0
CLASS
  1
MAPIADMODULE
  2
MApiAdModule
  3
MApiAdServices
 90
     1024
 91
        2
280
     0
281
     0
  0
CLASS
  1
AMDTDMMENUSTATE
  2
AmdtDmMenuState
  3
AcMechDwgViewMgmt
 90
     1024
 91
        0
280
     0
281
     0
  0
CLASS
  1
AMDTADMENUSTATE
  2
AmdtAdMenuState
  3
DesignerServices
 90
     1024
 91
        0
280
     0
281
     0
  0
CLASS
  1
AMDTAMMENUSTATE
  2
AmdtAmMenuState
  3
DesignerAssemblies_arx
 90
     1024
 91
        1
280
     0
281
     0
  0
CLASS
  1
ACMDATADICTIONARY
  2
AcmDataDictionary
  3
"AcmSymBB|Product Description: AutoCAD Mechanical|Company: Autodesk, Inc."
 90
     1024
 91
        1
280
     0
281
     0
  0
CLASS
  1
ACMDATAENTRYBLOCK
  2
AcmDataEntryBlock
  3
"AcmSymBB" "Product Description: AutoCAD Mechanical|Company: Autodesk, Inc."
 90
     1024
 91
        2
280
     0
281
     0
  0
CLASS
  1
ACMSURFSTANDARDJIS
  2
AcmSurfTextStdJIS
  3
"Amdt_StdImp|Product Description: AutoCAD Mechanical|Company: Autodesk, Inc."
 90
     1024
 91
        0
280
     0
281
     0
  0
CLASS
  1
ACMFCFSTANDARDJIS
  2
AcmFCFStdJIS
  3
"Amdt_StdImp|Product Description: AutoCAD Mechanical|Company: Autodesk, Inc."
 90
     1024
 91
        0
280
     0
281
     0
  0
CLASS
  1
ACMWELDSTANDARDJIS
  2
AcmWeldingStdJIS
  3
"Amdt_StdImp|Product Description: AutoCAD Mechanical|Company: Autodesk, Inc."
 90
     1024
 91
        0
280
     0
281
     0
  0
CLASS
  1
ACMIDSTANDARDJIS
  2
AcmIdStdJIS
  3
"Amdt_StdImp|Product Description: AutoCAD Mechanical|Company: Autodesk, Inc."
 90
     1024
 91
        0
280
     0
281
     0
  0
CLASS
  1
ACMDATUMSTANDARDJIS
  2
AcmDatumStdJIS
  3
"Amdt_StdImp|Product Description: AutoCAD Mechanical|Company: Autodesk, Inc."
 90
     1024
 91
        0
280
     0
281
     0
  0
CLASS
  1
ACMBOMSTANDARDJIS
  2
AcmBOMStdJIS
  3
"Amdt_StdImp|Product Description: AutoCAD Mechanical|Company: Autodesk, Inc."
 90
     1024
 91
        0
280
     0
281
     0
  0
CLASS
  1
ACMSURFSTANDARDANSI
  2
AcmSurfTextStdANSI
  3
"Amdt_StdImp|Product Description: AutoCAD Mechanical|Company: Autodesk, Inc."
 90
     1024
 91
        1
280
     0
281
     0
  0
CLASS
  1
ACMFCFSTANDARDANSI
  2
AcmFCFStdANSI
  3
"Amdt_StdImp|Product Description: AutoCAD Mechanical|Company: Autodesk, Inc."
 90
     1024
 91
        1
280
     0
281
     0
  0
CLASS
  1
ACMWELDSTANDARDANSI
  2
AcmWeldingStdANSI
  3
"Amdt_StdImp|Product Description: AutoCAD Mechanical|Company: Autodesk, Inc."
 90
     1024
 91
        1
280
     0
281
     0
  0
CLASS
  1
ACMIDSTANDARDANSI
  2
AcmIdStdANSI
  3
"Amdt_StdImp|Product Description: AutoCAD Mechanical|Company: Autodesk, Inc."
 90
     1024
 91
        1
280
     0
281
     0
  0
CLASS
  1
ACMDATUMSTANDARDANSI
  2
AcmDatumStdANSI
  3
"Amdt_StdImp|Product Description: AutoCAD Mechanical|Company: Autodesk, Inc."
 90
     1024
 91
        1
280
     0
281
     0
  0
CLASS
  1
ACMBOMSTANDARDANSI
  2
AcmBOMStdANSI
  3
"Amdt_StdImp|Product Description: AutoCAD Mechanical|Company: Autodesk, Inc."
 90
     1024
 91
        1
280
     0
281
     0
  0
CLASS
  1
ACMSURFSTANDARDBSI
  2
AcmSurfTextStdBSI
  3
"Amdt_StdImp|Product Description: AutoCAD Mechanical|Company: Autodesk, Inc."
 90
     1024
 91
        0
280
     0
281
     0
  0
CLASS
  1
ACMFCFSTANDARDBSI
  2
AcmFCFStdBSI
  3
"Amdt_StdImp|Product Description: AutoCAD Mechanical|Company: Autodesk, Inc."
 90
     1024
 91
        0
280
     0
281
     0
  0
CLASS
  1
ACMWELDSTANDARDBSI
  2
AcmWeldingStdBSI
  3
"Amdt_StdImp|Product Description: AutoCAD Mechanical|Company: Autodesk, Inc."
 90
     1024
 91
        0
280
     0
281
     0
  0
CLASS
  1
ACMIDSTANDARDBSI
  2
AcmIdStdBSI
  3
"Amdt_StdImp|Product Description: AutoCAD Mechanical|Company: Autodesk, Inc."
 90
     1024
 91
        0
280
     0
281
     0
  0
CLASS
  1
ACMDATUMSTANDARDBSI
  2
AcmDatumStdBSI
  3
"Amdt_StdImp|Product Description: AutoCAD Mechanical|Company: Autodesk, Inc."
 90
     1024
 91
        0
280
     0
281
     0
  0
CLASS
  1
ACMBOMSTANDARDBSI
  2
AcmBOMStdBSI
  3
"Amdt_StdImp|Product Description: AutoCAD Mechanical|Company: Autodesk, Inc."
 90
     1024
 91
        0
280
     0
281
     0
  0
CLASS
  1
AMDTEDGESTANDARDDIN
  2
AmdtEdgeStdDIN
  3
"Amdt_StdImp|Product Description: AutoCAD Mechanical|Company: Autodesk, Inc."
 90
     1024
 91
        0
280
     0
281
     0
  0
CLASS
  1
ACMSURFSTANDARDDIN
  2
AcmSurfTextStdDIN
  3
"Amdt_StdImp|Product Description: AutoCAD Mechanical|Company: Autodesk, Inc."
 90
     1024
 91
        0
280
     0
281
     0
  0
CLASS
  1
ACMFCFSTANDARDDIN
  2
AcmFCFStdDIN
  3
"Amdt_StdImp|Product Description: AutoCAD Mechanical|Company: Autodesk, Inc."
 90
     1024
 91
        0
280
     0
281
     0
  0
CLASS
  1
ACMWELDSTANDARDDIN
  2
AcmWeldingStdDIN
  3
"Amdt_StdImp|Product Description: AutoCAD Mechanical|Company: Autodesk, Inc."
 90
     1024
 91
        0
280
     0
281
     0
  0
CLASS
  1
ACMIDSTANDARDDIN
  2
AcmIdStdDIN
  3
"Amdt_StdImp|Product Description: AutoCAD Mechanical|Company: Autodesk, Inc."
 90
     1024
 91
        0
280
     0
281
     0
  0
CLASS
  1
ACMDATUMSTANDARDDIN
  2
AcmDatumStdDIN
  3
"Amdt_StdImp|Product Description: AutoCAD Mechanical|Company: Autodesk, Inc."
 90
     1024
 91
        0
280
     0
281
     0
  0
CLASS
  1
ACMBOMSTANDARDDIN
  2
AcmBOMStdDIN
  3
"Amdt_StdImp|Product Description: AutoCAD Mechanical|Company: Autodesk, Inc."
 90
     1024
 91
        0
280
     0
281
     0
  0
CLASS
  1
ACMSURFSTANDARDISO
  2
AcmSurfTextStdISO
  3
"Amdt_StdImp|Product Description: AutoCAD Mechanical|Company: Autodesk, Inc."
 90
     1024
 91
        1
280
     0
281
     0
  0
CLASS
  1
ACMFCFSTANDARDISO
  2
AcmFCFStdISO
  3
"Amdt_StdImp|Product Description: AutoCAD Mechanical|Company: Autodesk, Inc."
 90
     1024
 91
        1
280
     0
281
     0
  0
CLASS
  1
ACMWELDSTANDARDISO
  2
AcmWeldingStdISO
  3
"Amdt_StdImp|Product Description: AutoCAD Mechanical|Company: Autodesk, Inc."
 90
     1024
 91
        1
280
     0
281
     0
  0
CLASS
  1
ACMIDSTANDARDISO
  2
AcmIdStdISO
  3
"Amdt_StdImp|Product Description: AutoCAD Mechanical|Company: Autodesk, Inc."
 90
     1024
 91
        1
280
     0
281
     0
  0
CLASS
  1
ACMDATUMSTANDARDISO
  2
AcmDatumStdISO
  3
"Amdt_StdImp|Product Description: AutoCAD Mechanical|Company: Autodesk, Inc."
 90
     1024
 91
        1
280
     0
281
     0
  0
CLASS
  1
ACMBOMSTANDARDISO
  2
AcmBOMStdISO
  3
"Amdt_StdImp|Product Description: AutoCAD Mechanical|Company: Autodesk, Inc."
 90
     1024
 91
        1
280
     0
281
     0
  0
CLASS
  1
AMDTBROWSERDBTAB
  2
AmdtBrowserDbTab
  3
McadcomServices
 90
     1024
 91
        1
280
     0
281
     0
  0
CLASS
  1
ACAMGFILTERDAT
  2
AcAmgFilterDat
  3
"AcadM|Product Description: AutoCAD Mechanical|Company: Autodesk, Inc."
 90
     1024
 91
        4
280
     0
281
     0
  0
CLASS
  1
MAPIAMMOUDLE
  2
MApiAmModule
  3
MApiAmServices
 90
     1024
 91
        1
280
     0
281
     0
  0
CLASS
  1
AMDTMAPISURFMOUDULE
  2
AmdtMApiSurfModule
  3
MApiSurfServices
 90
     1024
 91
        2
280
     0
281
     0
  0
CLASS
  1
ACAMGLAYSTD
  2
AcAmgLayStd
  3
"AmgLay|Product Description: AutoCAD Mechanical|Company: Autodesk, Inc."
 90
     1024
 91
        2
280
     0
281
     0
  0
CLASS
  1
ACAMGDIMSTD
  2
AcAmgDimStd
  3
"AmgDim|Product Description: AutoCAD Mechanical|Company: Autodesk, Inc."
 90
     1024
 91
        2
280
     0
281
     0
  0
CLASS
  1
ACAMGTITLESTD
  2
AcAmgTitleStd
  3
"AmgTitle|Product Description: AutoCAD Mechanical|Company: Autodesk, Inc."
 90
     1024
 91
        2
280
     0
281
     0
  0
CLASS
  1
ACMDETAILSTANDARDJIS
  2
AmdtDetailSymStdJIS
  3
"Amdt_StdImp|Product Description: AutoCAD Mechanical|Company: Autodesk, Inc."
 90
     1024
 91
        0
280
     0
281
     0
  0
CLASS
  1
ACMSECTIONSTANDARDJIS
  2
AmdtSectionSymStdJIS
  3
"Amdt_StdImp|Product Description: AutoCAD Mechanical|Company: Autodesk, Inc."
 90
     1024
 91
        0
280
     0
281
     0
  0
CLASS
  1
ACMCENTERLINESTANDARDJIS
  2
AmdtCenterLineStdJIS
  3
"Amdt_StdImp|Product Description: AutoCAD Mechanical|Company: Autodesk, Inc."
 90
     1024
 91
        0
280
     0
281
     0
  0
CLASS
  1
ACMTHREADLINESTANDARDJIS
  2
AmdtThreadLineStdJIS
  3
"Amdt_StdImp|Product Description: AutoCAD Mechanical|Company: Autodesk, Inc."
 90
     1024
 91
        0
280
     0
281
     0
  0
CLASS
  1
ACMDETAILSTANDARDANSI
  2
AmdtDetailSymStdANSI
  3
"Amdt_StdImp|Product Description: AutoCAD Mechanical|Company: Autodesk, Inc."
 90
     1024
 91
        0
280
     0
281
     0
  0
CLASS
  1
ACMSECTIONSTANDARDANSI
  2
AmdtSectionSymStdANSI
  3
"Amdt_StdImp|Product Description: AutoCAD Mechanical|Company: Autodesk, Inc."
 90
     1024
 91
        0
280
     0
281
     0
  0
CLASS
  1
ACMCENTERLINESTANDARDANSI
  2
AmdtCenterLineStdANSI
  3
"Amdt_StdImp|Product Description: AutoCAD Mechanical|Company: Autodesk, Inc."
 90
     1024
 91
        1
280
     0
281
     0
  0
CLASS
  1
ACMTHREADLINESTANDARDANSI
  2
AmdtThreadLineStdANSI
  3
"Amdt_StdImp|Product Description: AutoCAD Mechanical|Company: Autodesk, Inc."
 90
     1024
 91
        1
280
     0
281
     0
  0
CLASS
  1
ACMDETAILSTANDARDBSI
  2
AmdtDetailSymStdBSI
  3
"Amdt_StdImp|Product Description: AutoCAD Mechanical|Company: Autodesk, Inc."
 90
     1024
 91
        0
280
     0
281
     0
  0
CLASS
  1
ACMSECTIONSTANDARDBSI
  2
AmdtSectionSymStdBSI
  3
"Amdt_StdImp|Product Description: AutoCAD Mechanical|Company: Autodesk, Inc."
 90
     1024
 91
        0
280
     0
281
     0
  0
CLASS
  1
ACMCENTERLINESTANDARDBSI
  2
AmdtCenterLineStdBSI
  3
"Amdt_StdImp|Product Description: AutoCAD Mechanical|Company: Autodesk, Inc."
 90
     1024
 91
        0
280
     0
281
     0
  0
CLASS
  1
ACMTHREADLINESTANDARDBSI
  2
AmdtThreadLineStdBSI
  3
"Amdt_StdImp|Product Description: AutoCAD Mechanical|Company: Autodesk, Inc."
 90
     1024
 91
        0
280
     0
281
     0
  0
CLASS
  1
ACMDETAILSTANDARDDIN
  2
AmdtDetailSymStdDIN
  3
"Amdt_StdImp|Product Description: AutoCAD Mechanical|Company: Autodesk, Inc."
 90
     1024
 91
        0
280
     0
281
     0
  0
CLASS
  1
ACMSECTIONSTANDARDDIN
  2
AmdtSectionSymStdDIN
  3
"Amdt_StdImp|Product Description: AutoCAD Mechanical|Company: Autodesk, Inc."
 90
     1024
 91
        0
280
     0
281
     0
  0
CLASS
  1
ACMCENTERLINESTANDARDDIN
  2
AmdtCenterLineStdDIN
  3
"Amdt_StdImp|Product Description: AutoCAD Mechanical|Company: Autodesk, Inc."
 90
     1024
 91
        0
280
     0
281
     0
  0
CLASS
  1
ACMTHREADLINESTANDARDDIN
  2
AmdtThreadLineStdDIN
  3
"Amdt_StdImp|Product Description: AutoCAD Mechanical|Company: Autodesk, Inc."
 90
     1024
 91
        0
280
     0
281
     0
  0
CLASS
  1
AMDTEDGESTANDARDISO
  2
AmdtEdgeStdISO
  3
"Amdt_StdImp|Product Description: AutoCAD Mechanical|Company: Autodesk, Inc."
 90
     1024
 91
        1
280
     0
281
     0
  0
CLASS
  1
ACMDETAILSTANDARDISO
  2
AmdtDetailSymStdISO
  3
"Amdt_StdImp|Product Description: AutoCAD Mechanical|Company: Autodesk, Inc."
 90
     1024
 91
        1
280
     0
281
     0
  0
CLASS
  1
ACMSECTIONSTANDARDISO
  2
AmdtSectionSymStdISO
  3
"Amdt_StdImp|Product Description: AutoCAD Mechanical|Company: Autodesk, Inc."
 90
     1024
 91
        1
280
     0
281
     0
  0
CLASS
  1
ACMCENTERLINESTANDARDISO
  2
AmdtCenterLineStdISO
  3
"Amdt_StdImp|Product Description: AutoCAD Mechanical|Company: Autodesk, Inc."
 90
     1024
 91
        1
280
     0
281
     0
  0
CLASS
  1
ACMTHREADLINESTANDARDISO
  2
AmdtThreadLineStdISO
  3
"Amdt_StdImp|Product Description: AutoCAD Mechanical|Company: Autodesk, Inc."
 90
     1024
 91
        1
280
     0
281
     0
  0
CLASS
  1
ACMNOTESTANDARDISO
  2
AmdtNoteStdISO
  3
"Amdt_StdImp|Product Description: AutoCAD Mechanical|Company: Autodesk, Inc."
 90
     1024
 91
        1
280
     0
281
     0
  0
CLASS
  1
ACAMGHOLECHARTSTDISO
  2
AcAmgHoleChartStdISO
  3
"AmgDim" "Product Description: AutoCAD Mechanical|Company: Autodesk, Inc."
 90
     1024
 91
        1
280
     0
281
     0
  0
CLASS
  1
ACMNOTESTANDARDANSI
  2
AmdtNoteStdANSI
  3
"Amdt_StdImp|Product Description: AutoCAD Mechanical|Company: Autodesk, Inc."
 90
     1024
 91
        1
280
     0
281
     0
  0
CLASS
  1
AMDTNOTETEMPLATEDB
  2
AmdtNoteTemplateDB
  3
"AcmSymBB" "Product Description: AutoCAD Mechanical|Company: Autodesk, Inc."
 90
     1024
 91
        8
280
     0
281
     0
  0
CLASS
  1
ACAMGHOLECHARTSTDANSI
  2
AcAmgHoleChartStdANSI
  3
"AmgDim" "Product Description: AutoCAD Mechanical|Company: Autodesk, Inc."
 90
     1024
 91
        1
280
     0
281
     0
  0
CLASS
  1
TABLESTYLE
  2
AcDbTableStyle
  3
ObjectDBX Classes
 90
     4095
 91
        1
280
     0
281
     0
  0
CLASS
  1
ACAD_TABLE
  2
AcDbTable
  3
ObjectDBX Classes
 90
     1025
 91
        0
280
     0
281
     1
  0
CLASS
  1
MATERIAL
  2
AcDbMaterial
  3
ObjectDBX Classes
 90
     1153
 91
        3
280
     0
281
     0
  0
CLASS
  1
VISUALSTYLE
  2
AcDbVisualStyle
  3
ObjectDBX Classes
 90
     4095
 91
       26
280
     0
281
     0
  0
CLASS
  1
SCALE
  2
AcDbScale
  3
ObjectDBX Classes
 90
     1153
 91
       17
280
     0
281
     0
  0
CLASS
  1
MLEADERSTYLE
  2
AcDbMLeaderStyle
  3
ACDB_MLEADERSTYLE_CLASS
 90
     4095
 91
        1
280
     0
281
     0
  0
CLASS
  1
ACRFATTGENMGR
  2
AcRfAttGeneralMgr
  3
AcAttribServices
 90
     1024
 91
        1
280
     0
281
     0
  0
CLASS
  1
ACRFOBJATTMGR
  2
AcRfObjAttGroupMgr
  3
AcAttribServices
 90
     1024
 91
        1
280
     0
281
     0
  0
CLASS
  1
ACRFMCADAPIATTHOLDER
  2
AcRfMCADAPIAttHolder
  3
AcAttribServices
 90
     1024
 91
        1
280
     0
281
     0
  0
CLASS
  1
AMDTSYSATTR
  2
AmdtSystemAttribute
  3
AcAttribServices
 90
     1024
 91
        5
280
     0
281
     0
  0
CLASS
  1
ACMTAPERSTANDARDISO
  2
AcmTaperStdISO
  3
"Amdt_StdImp|Product Description: AutoCAD Mechanical|Company: Autodesk, Inc."
 90
     1024
 91
        1
280
     0
281
     0
  0
CLASS
  1
ACMANOOTATIONVIEWSTANDARDISO
  2
AmdtAnViewStdISO
  3
"Amdt_StdImp|Product Description: AutoCAD Mechanical|Company: Autodesk, Inc."
 90
     1024
 91
        1
280
     0
281
     0
  0
CLASS
  1
ACMTAPERSTANDARDANSI
  2
AcmTaperStdANSI
  3
"Amdt_StdImp|Product Description: AutoCAD Mechanical|Company: Autodesk, Inc."
 90
     1024
 91
        1
280
     0
281
     0
  0
CLASS
  1
ACMANOOTATIONVIEWSTANDARDANSI
  2
AmdtAnViewStdANSI
  3
"Amdt_StdImp|Product Description: AutoCAD Mechanical|Company: Autodesk, Inc."
 90
     1024
 91
        1
280
     0
281
     0
  0
CLASS
  1
CELLSTYLEMAP
  2
AcDbCellStyleMap
  3
ObjectDBX Classes
 90
     1152
 91
        1
280
     0
281
     0
  0
CLASS
  1
CAMSSTRUCTBTNSTATE
  2
StructBtnState
  3
DesignerAssemblies_arx
 90
     1024
 91
        1
280
     0
281
     0
  0
CLASS
  1
ACDBSECTIONVIEWSTYLE
  2
AcDbSectionViewStyle
  3
ObjectDBX Classes
 90
     1025
 91
        5
280
     0
281
     0
  0
CLASS
  1
ACDBDETAILVIEWSTYLE
  2
AcDbDetailViewStyle
  3
ObjectDBX Classes
 90
     1025
 91
        5
280
     0
281
     0
  0
CLASS
  1
FIELD
  2
AcDbField
  3
ObjectDBX Classes
 90
     1152
 91
       14
280
     0
281
     0
  0
CLASS
  1
SORTENTSTABLE
  2
AcDbSortentsTable
  3
ObjectDBX Classes
 90
        0
 91
        1
280
     0
281
     0
  0
CLASS
  1
FIELDLIST
  2
AcDbFieldList
  3
ObjectDBX Classes
 90
     1152
 91
        1
280
     0
281
     0
  0
CLASS
  1
ACMSECTIONSTANDARDCUSTOM
  2
AmdtSectionSymStdCustom
  3
"Amdt_StdImp|Product Description: AutoCAD Mechanical|Company: Autodesk, Inc."
 90
     1024
 91
        8
280
     0
281
     0
  0
CLASS
  1
ACMDETAILTANDARDCUSTOM
  2
AmdtDetailSymStdCustom
  3
"Amdt_StdImp|Product Description: AutoCAD Mechanical|Company: Autodesk, Inc."
 90
     1024
 91
        8
280
     0
281
     0
  0
CLASS
  1
EXACXREFPANELOBJECT
  2
ExAcXREFPanelObject
  3
EXAC_ESW
 90
     1025
 91
        0
280
     0
281
     0
  0
CLASS
  1
NPOCOLLECTION
  2
AcDbImpNonPersistentObjectsCollection
  3
ObjectDBX Classes
 90
     1153
 91
        0
280
     0
281
     0
  0
CLASS
  1
ACAD_EVALUATION_GRAPH
  2
AcDbEvalGraph
  3
ObjectDBX Classes
 90
     1153
 91
        4
280
     0
281
     0
  0
CLASS
  1
ACAECUSTOBJ
  2
AcAeEditorObj
  3
AcAeEditorObj
 90
     1024
 91
        2
280
     0
281
     0
  0
CLASS
  1
ACDB_DYNAMICBLOCKPURGEPREVENTER_VERSION
  2
AcDbDynamicBlockPurgePreventer
  3
ObjectDBX Classes
 90
     1153
 91
        4
280
     0
281
     0
  0
CLASS
  1
PLOTSETTINGS
  2
AcDbPlotSettings
  3
ObjectDBX Classes
 90
        0
 91
        1
280
     0
281
     0
  0
CLASS
  1
DIMASSOC
  2
AcDbDimAssoc
  3
"AcDbDimAssoc|Product Desc:     AcDim ARX App For Dimension|Company:          Autodesk, Inc.|WEB Address:      www.autodesk.com"
 90
        0
 91
       13
280
     0
281
     0
  0
ENDSEC
  0
SECTION
  2
TABLES
  0
TABLE
  2
VPORT
  5
8
330
0
100
AcDbSymbolTable
 70
     1
1001
ACAD
1000
DbSaveVer
1071
      105
  0
VPORT
  5
A35
330
8
100
AcDbSymbolTableRecord
100
AcDbViewportTableRecord
  2
*Active
 70
     0
 10
0.0
 20
0.0
 11
1.0
 21
1.0
 12
42.06941822546435
 22
-44.88659395962668
 13
0.0
 23
0.0
 14
2.5
 24
2.5
 15
10.0
 25
10.0
 16
0.0
 26
0.0
 36
1.0
 17
0.0
 27
0.0
 37
0.0
 40
429.6035928736219
 41
2.050213675213675
 42
50.0
 43
0.0
 44
0.0
 50
0.0
 51
0.0
 71
     0
 72
   100
 73
     1
 74
     1
 75
     0
 76
     0
 77
     0
 78
     0
281
     0
 65
     0
110
0.0
120
0.0
130
0.0
111
1.0
121
0.0
131
0.0
112
0.0
122
1.0
132
0.0
 79
     0
146
0.0
348
A55
 60
     3
 61
     5
292
     1
282
     1
141
0.0
142
0.0
 63
   250
421
  3355443
1001
ACAD_NAV_VCDISPLAY
1070
     3
  0
ENDTAB
  0
TABLE
  2
LTYPE
  5
5
330
0
100
AcDbSymbolTable
 70
    22
  0
LTYPE
  5
14
330
5
100
AcDbSymbolTableRecord
100
AcDbLinetypeTableRecord
  2
BYBLOCK
 70
     0
  3

 72
    65
 73
     0
 40
0.0
  0
LTYPE
  5
15
330
5
100
AcDbSymbolTableRecord
100
AcDbLinetypeTableRecord
  2
BYLAYER
 70
     0
  3

 72
    65
 73
     0
 40
0.0
  0
LTYPE
  5
16
330
5
100
AcDbSymbolTableRecord
100
AcDbLinetypeTableRecord
  2
CONTINUOUS
 70
     0
  3
Solid line
 72
    65
 73
     0
 40
0.0
  0
LTYPE
  5
BD
330
5
100
AcDbSymbolTableRecord
100
AcDbLinetypeTableRecord
  2
HIDDEN
 70
     0
  3
__ __ __ __ __ __ __ __ __ __ __ __ __ __ __ __
 72
    65
 73
     2
 40
0.375
 49
0.25
 74
     0
 49
-0.125
 74
     0
  0
LTYPE
  5
BF
330
5
100
AcDbSymbolTableRecord
100
AcDbLinetypeTableRecord
  2
PHANTOM2
 70
     0
  3
___ _ _ ___ _ _ ___ _ _ ___ _ _ ___ _ _ ___ _ _
 72
    65
 73
     6
 40
1.25
 49
0.625
 74
     0
 49
-0.125
 74
     0
 49
0.125
 74
     0
 49
-0.125
 74
     0
 49
0.125
 74
     0
 49
-0.125
 74
     0
  0
LTYPE
  5
CA
330
5
100
AcDbSymbolTableRecord
100
AcDbLinetypeTableRecord
  2
CENTER
 70
     0
  3
____ _ ____ _ ____ _ ____ _ ____ _ ____ _ ____ 
 72
    65
 73
     4
 40
2.0
 49
1.25
 74
     0
 49
-0.25
 74
     0
 49
0.25
 74
     0
 49
-0.25
 74
     0
  0
LTYPE
  5
14D
330
5
100
AcDbSymbolTableRecord
100
AcDbLinetypeTableRecord
  2
ACANSTGB
 70
     0
  3
__ . . __ . .
 72
    65
 73
     6
 40
0.35433070866
 49
0.15748031496
 74
     0
 49
-0.03937007874
 74
     0
 49
0.03937007874
 74
     0
 49
-0.03937007874
 74
     0
 49
0.03937007874
 74
     0
 49
-0.03937007874
 74
     0
  0
LTYPE
  5
14E
330
5
100
AcDbSymbolTableRecord
100
AcDbLinetypeTableRecord
  2
ACANSTGL
 70
     0
  3
_ _ _ _ _
 72
    65
 73
     2
 40
0.11811023622
 49
0.07874015748
 74
     0
 49
-0.03937007874
 74
     0
  0
LTYPE
  5
15B
330
5
100
AcDbSymbolTableRecord
100
AcDbLinetypeTableRecord
  2
ACISOWELD
 70
     0
  3
_ _ _ _ _
 72
    65
 73
     2
 40
2.0
 49
2.0
 74
     0
 49
-1.0
 74
     0
  0
LTYPE
  5
15C
330
5
100
AcDbSymbolTableRecord
100
AcDbLinetypeTableRecord
  2
ACISOTGB
 70
     0
  3
__ . . __ . .
 72
    65
 73
     6
 40
9.0
 49
4.0
 74
     0
 49
-1.0
 74
     0
 49
1.0
 74
     0
 49
-1.0
 74
     0
 49
1.0
 74
     0
 49
-1.0
 74
     0
  0
LTYPE
  5
15D
330
5
100
AcDbSymbolTableRecord
100
AcDbLinetypeTableRecord
  2
ACISOTGL
 70
     0
  3
_ _ _ _ _
 72
    65
 73
     2
 40
3.0
 49
2.0
 74
     0
 49
-1.0
 74
     0
  0
LTYPE
  5
175
330
5
100
AcDbSymbolTableRecord
100
AcDbLinetypeTableRecord
  2
AM_ISO02W050
 70
     0
  3
__ __ __ __ __ __ __ __ __ __ __ __ __ __ __
 72
    65
 73
     2
 40
7.5
 49
6.0
 74
     0
 49
-1.5
 74
     0
  0
LTYPE
  5
176
330
5
100
AcDbSymbolTableRecord
100
AcDbLinetypeTableRecord
  2
AM_ISO08W050
 70
     0
  3
____ . ____ . ____ . ____ . ____ . ____ . ____
 72
    65
 73
     4
 40
18.0
 49
12.0
 74
     0
 49
-1.5
 74
     0
 49
3.0
 74
     0
 49
-1.5
 74
     0
  0
LTYPE
  5
177
330
5
100
AcDbSymbolTableRecord
100
AcDbLinetypeTableRecord
  2
AM_ISO09W050
 70
     0
  3
_____ . . _____ . . _____ . . ____ .. ____
 72
    65
 73
     6
 40
22.5
 49
12.0
 74
     0
 49
-1.5
 74
     0
 49
3.0
 74
     0
 49
-1.5
 74
     0
 49
3.0
 74
     0
 49
-1.5
 74
     0
  0
LTYPE
  5
178
330
5
100
AcDbSymbolTableRecord
100
AcDbLinetypeTableRecord
  2
AM_ISO02W050x2
 70
     0
  3
 _ _ _ _ _ _ _ _ _ _ _ _
 72
    65
 73
     2
 40
3.75
 49
3.0
 74
     0
 49
-0.75
 74
     0
  0
LTYPE
  5
179
330
5
100
AcDbSymbolTableRecord
100
AcDbLinetypeTableRecord
  2
AM_ISO08W050x2
 70
     0
  3
__ . __ . __ . __ . __ . __
 72
    65
 73
     4
 40
9.0
 49
6.0
 74
     0
 49
-0.75
 74
     0
 49
1.5
 74
     0
 49
-0.75
 74
     0
  0
LTYPE
  5
17C
330
5
100
AcDbSymbolTableRecord
100
AcDbLinetypeTableRecord
  2
Amzigzag
 70
     0
  3
/\/-/\/-/\/-/\/-/\/-/\/
 72
    65
 73
     2
 40
11.0001
 49
0.0001
 74
     4
 75
   135
340
17B
 46
0.04
 50
0.0
 44
0.0
 45
0.0
 49
-11.0
 74
     0
  0
LTYPE
  5
2ED
330
5
100
AcDbSymbolTableRecord
100
AcDbLinetypeTableRecord
  2
Amconstr
 70
     0
  3
_______________________
 72
    65
 73
     2
 40
9999.0
 49
9999.0
 74
     0
 49
0.0
 74
     0
  0
LTYPE
  5
2F8
330
5
100
AcDbSymbolTableRecord
100
AcDbLinetypeTableRecord
  2
CENTER2
 70
     0
  3
Center (.5x) ___ _ ___ _ ___ _ ___ _ ___ _ ___
 72
    65
 73
     4
 40
1.125
 49
0.75
 74
     0
 49
-0.125
 74
     0
 49
0.125
 74
     0
 49
-0.125
 74
     0
  0
LTYPE
  5
2F9
330
5
100
AcDbSymbolTableRecord
100
AcDbLinetypeTableRecord
  2
HIDDEN2
 70
     0
  3
Hidden (.5x) _ _ _ _ _ _ _ _ _ _ _ _ _ _ _ _ _
 72
    65
 73
     2
 40
0.1875
 49
0.125
 74
     0
 49
-0.0625
 74
     0
  0
LTYPE
  5
2FA
330
5
100
AcDbSymbolTableRecord
100
AcDbLinetypeTableRecord
  2
Amzigzag2
 70
     0
  3
/\/-/\/-/\/-/\/-/\/-/\/
 72
    65
 73
     2
 40
0.4401
 49
0.0001
 74
     4
 75
   135
340
17B
 46
0.0016
 50
0.0
 44
0.0
 45
0.0
 49
-0.4400000000000001
 74
     0
  0
ENDTAB
  0
TABLE
  2
LAYER
  5
2
102
{ACAD_XDICTIONARY
360
592
102
}
330
0
100
AcDbSymbolTable
 70
    13
  0
LAYER
  5
F
102
{ACAD_XDICTIONARY
360
AB7
102
}
330
2
100
AcDbSymbolTableRecord
100
AcDbLayerTableRecord
  2
0
 70
     0
 62
     7
  6
CONTINUOUS
370
    -3
390
166
347
A47
348
0
  0
LAYER
  5
5CF
102
{ACAD_XDICTIONARY
360
AB9
102
}
330
2
100
AcDbSymbolTableRecord
100
AcDbLayerTableRecord
  2
AM_0
 70
     0
 62
     7
  6
CONTINUOUS
370
    50
390
166
347
A47
348
0
  0
LAYER
  5
32A7
102
{ACAD_XDICTIONARY
360
43CB
102
}
330
2
100
AcDbSymbolTableRecord
100
AcDbLayerTableRecord
  2
Visible Edges(Roxtec)
 70
     0
 62
     7
  6
CONTINUOUS
370
    18
390
166
347
A47
348
0
  0
LAYER
  5
38A9
102
{ACAD_XDICTIONARY
360
38AA
102
}
330
2
100
AcDbSymbolTableRecord
100
AcDbLayerTableRecord
  2
Visible Edges(ISO)
 70
     0
 62
     7
  6
CONTINUOUS
370
    35
390
166
347
A47
348
0
  0
LAYER
  5
3F23
330
2
100
AcDbSymbolTableRecord
100
AcDbLayerTableRecord
  2
Defpoints
 70
     0
 62
     7
  6
CONTINUOUS
290
     0
370
    -3
390
166
347
A47
348
0
  0
LAYER
  5
404C
102
{ACAD_XDICTIONARY
360
43CE
102
}
330
2
100
AcDbSymbolTableRecord
100
AcDbLayerTableRecord
  2
DIM
 70
     0
 62
     3
  6
CONTINUOUS
370
    25
390
166
347
A47
348
0
1001
AcAecLayerStandard
1000

1000

  0
ENDTAB
  0
TABLE
  2
STYLE
  5
3
330
0
100
AcDbSymbolTable
 70
     7
  0
STYLE
  5
10
330
3
100
AcDbSymbolTableRecord
100
AcDbTextStyleTableRecord
  2
STANDARD
 70
     0
 40
0.0
 41
1.0
 50
0.0
 71
     0
 42
3.5
  3
ISOCP.SHX
  4

  0
STYLE
  5
14C
330
3
100
AcDbSymbolTableRecord
100
AcDbTextStyleTableRecord
  2
ACANSGDT
 70
     0
 40
0.0
 41
1.0
 50
0.0
 71
     0
 42
3.5
  3
amgdt.shx
  4

  0
STYLE
  5
159
330
3
100
AcDbSymbolTableRecord
100
AcDbTextStyleTableRecord
  2
ACISOTS
 70
     0
 40
1.0
 41
1.0
 50
0.0
 71
     0
 42
2.5
  3
isocp.shx
  4

  0
STYLE
  5
15A
330
3
100
AcDbSymbolTableRecord
100
AcDbTextStyleTableRecord
  2
ACISOGDT
 70
     0
 40
0.0
 41
1.0
 50
0.0
 71
     0
 42
2.5
  3
amgdt.shx
  4

  0
STYLE
  5
17B
330
3
100
AcDbSymbolTableRecord
100
AcDbTextStyleTableRecord
  2

 70
     1
 40
0.0
 41
1.0
 50
0.0
 71
     0
 42
3.5
  3
ltypeshp.shx
  4

  0
STYLE
  5
425
330
3
100
AcDbSymbolTableRecord
100
AcDbTextStyleTableRecord
  2
ACANSTS
 70
     0
 40
1.0
 41
1.0
 50
0.0
 71
     0
 42
3.5
  3
romans.shx
  4

  0
STYLE
  5
D0A
330
3
100
AcDbSymbolTableRecord
100
AcDbTextStyleTableRecord
  2
ISOCP
 70
     0
 40
0.0
 41
1.0
 50
0.0
 71
     0
 42
3.5
  3
isocp
  4

  0
ENDTAB
  0
TABLE
  2
VIEW
  5
6
330
0
100
AcDbSymbolTable
 70
     9
  0
VIEW
  5
1C8
330
6
100
AcDbSymbolTableRecord
100
AcDbViewTableRecord
  2
AMDTVIEW1
 70
     0
 40
329.0721649484536
 10
210.0
 20
164.5360824742268
 41
420.0
 11
0.0
 21
0.0
 31
1.0
 12
0.0
 22
0.0
 32
0.0
 42
50.0
 43
0.0
 44
0.0
 50
0.0
 71
     0
281
     0
 72
     0
 73
     0
348
A55
  0
VIEW
  5
1C9
330
6
100
AcDbSymbolTableRecord
100
AcDbViewTableRecord
  2
AMDTVIEW2
 70
     0
 40
329.0721649484536
 10
210.0
 20
164.5360824742268
 41
420.0
 11
0.0
 21
0.0
 31
1.0
 12
0.0
 22
0.0
 32
0.0
 42
50.0
 43
0.0
 44
0.0
 50
0.0
 71
     0
281
     0
 72
     0
 73
     0
348
A55
  0
VIEW
  5
1CA
330
6
100
AcDbSymbolTableRecord
100
AcDbViewTableRecord
  2
AMDTVIEW3
 70
     0
 40
329.0721649484536
 10
210.0
 20
164.5360824742268
 41
420.0
 11
0.0
 21
0.0
 31
1.0
 12
0.0
 22
0.0
 32
0.0
 42
50.0
 43
0.0
 44
0.0
 50
0.0
 71
     0
281
     0
 72
     0
 73
     0
348
A55
  0
VIEW
  5
FA2
330
6
100
AcDbSymbolTableRecord
100
AcDbViewTableRecord
  2
AM_VIEW1
 70
     0
 40
148.5
 10
116.6562170706006
 20
222.75
 41
233.3124341412013
 11
0.0
 21
0.0
 31
1.0
 12
0.0
 22
0.0
 32
0.0
 42
50.0
 43
0.0
 44
0.0
 50
0.0
 71
     0
281
     0
 72
     0
 73
     0
  0
VIEW
  5
FA3
330
6
100
AcDbSymbolTableRecord
100
AcDbViewTableRecord
  2
AM_VIEW2
 70
     0
 40
148.5
 10
303.3437829293994
 20
222.75
 41
233.3124341412013
 11
0.0
 21
0.0
 31
1.0
 12
0.0
 22
0.0
 32
0.0
 42
50.0
 43
0.0
 44
0.0
 50
0.0
 71
     0
281
     0
 72
     0
 73
     0
  0
VIEW
  5
FA4
330
6
100
AcDbSymbolTableRecord
100
AcDbViewTableRecord
  2
AM_VIEW3
 70
     0
 40
148.5
 10
116.6562170706006
 20
74.25
 41
233.3124341412013
 11
0.0
 21
0.0
 31
1.0
 12
0.0
 22
0.0
 32
0.0
 42
50.0
 43
0.0
 44
0.0
 50
0.0
 71
     0
281
     0
 72
     0
 73
     0
  0
VIEW
  5
FA5
330
6
100
AcDbSymbolTableRecord
100
AcDbViewTableRecord
  2
AM_VIEW4
 70
     0
 40
148.5
 10
303.3437829293994
 20
74.25
 41
233.3124341412013
 11
0.0
 21
0.0
 31
1.0
 12
0.0
 22
0.0
 32
0.0
 42
50.0
 43
0.0
 44
0.0
 50
0.0
 71
     0
281
     0
 72
     0
 73
     0
  0
VIEW
  5
FA6
330
6
100
AcDbSymbolTableRecord
100
AcDbViewTableRecord
  2
AM_VIEW5
 70
     0
 40
148.5
 10
210.0
 20
148.5
 41
233.3124341412013
 11
0.0
 21
0.0
 31
1.0
 12
0.0
 22
0.0
 32
0.0
 42
50.0
 43
0.0
 44
0.0
 50
0.0
 71
     0
281
     0
 72
     0
 73
     0
  0
VIEW
  5
FA7
330
6
100
AcDbSymbolTableRecord
100
AcDbViewTableRecord
  2
AM_VIEW6
 70
     0
 40
296.99703
 10
210.0
 20
148.5
 41
466.6202020337196
 11
0.0
 21
0.0
 31
1.0
 12
0.0
 22
0.0
 32
0.0
 42
50.0
 43
0.0
 44
0.0
 50
0.0
 71
     0
281
     0
 72
     0
 73
     0
  0
ENDTAB
  0
TABLE
  2
UCS
  5
7
330
0
100
AcDbSymbolTable
 70
     0
  0
ENDTAB
  0
TABLE
  2
APPID
  5
9
330
0
100
AcDbSymbolTable
 70
    43
  0
APPID
  5
11
330
9
100
AcDbSymbolTableRecord
100
AcDbRegAppTableRecord
  2
ACAD
 70
     0
  0
APPID
  5
CD
330
9
100
AcDbSymbolTableRecord
100
AcDbRegAppTableRecord
  2
AD_DRAW
 70
     0
  0
APPID
  5
E7
330
9
100
AcDbSymbolTableRecord
100
AcDbRegAppTableRecord
  2
DESIGNERASSEMBLIES
 70
     0
  0
APPID
  5
EB
330
9
100
AcDbSymbolTableRecord
100
AcDbRegAppTableRecord
  2
MCAD_NO_VIS
 70
     0
  0
APPID
  5
122
330
9
100
AcDbSymbolTableRecord
100
AcDbRegAppTableRecord
  2
ASURF_PCURVE_APPNAME
 70
     0
  0
APPID
  5
17F
330
9
100
AcDbSymbolTableRecord
100
AcDbRegAppTableRecord
  2
ACAD_TEMP_GRAPHIC
 70
     0
  0
APPID
  5
189
330
9
100
AcDbSymbolTableRecord
100
AcDbRegAppTableRecord
  2
ACATTRIBSERVICES
 70
     0
  0
APPID
  5
1C4
330
9
100
AcDbSymbolTableRecord
100
AcDbRegAppTableRecord
  2
ACADM_DIM_EDIT
 70
     0
  0
APPID
  5
1D5
330
9
100
AcDbSymbolTableRecord
100
AcDbRegAppTableRecord
  2
GENIUS_GENDIM_13
 70
     0
  0
APPID
  5
1D6
330
9
100
AcDbSymbolTableRecord
100
AcDbRegAppTableRecord
  2
GENIUS_GENDTOL_13
 70
     0
  0
APPID
  5
1D7
330
9
100
AcDbSymbolTableRecord
100
AcDbRegAppTableRecord
  2
GENIUS_GE3DTOL_13
 70
     0
  0
APPID
  5
2E9
330
9
100
AcDbSymbolTableRecord
100
AcDbRegAppTableRecord
  2
AMG_3D2D_5.0
 70
     0
  0
APPID
  5
3C0
330
9
100
AcDbSymbolTableRecord
100
AcDbRegAppTableRecord
  2
AMDT_DM_ADJ
 70
     0
  0
APPID
  5
82F
330
9
100
AcDbSymbolTableRecord
100
AcDbRegAppTableRecord
  2
ACAD_PSEXT
 70
     0
  0
APPID
  5
84A
330
9
100
AcDbSymbolTableRecord
100
AcDbRegAppTableRecord
  2
DCO15
 70
     0
  0
APPID
  5
892
330
9
100
AcDbSymbolTableRecord
100
AcDbRegAppTableRecord
  2
ACAD_DSTYLE_DIMTEXT_FILL
 70
     0
  0
APPID
  5
A74
330
9
100
AcDbSymbolTableRecord
100
AcDbRegAppTableRecord
  2
ACAD_MLEADERVER
 70
     0
  0
APPID
  5
AB1
330
9
100
AcDbSymbolTableRecord
100
AcDbRegAppTableRecord
  2
AcAecLayerStandard
 70
     0
  0
APPID
  5
CE6
330
9
100
AcDbSymbolTableRecord
100
AcDbRegAppTableRecord
  2
ACAD_NAV_VCDISPLAY
 70
     0
  0
APPID
  5
D0F
330
9
100
AcDbSymbolTableRecord
100
AcDbRegAppTableRecord
  2
ACAD_DSTYLE_DIMARC_LENGTH_SYMBOL
 70
     0
  0
APPID
  5
D10
330
9
100
AcDbSymbolTableRecord
100
AcDbRegAppTableRecord
  2
ACAD_DSTYLE_DIMJOGGED_JOGANGLE_SYMBOL
 70
     0
  0
APPID
  5
D11
330
9
100
AcDbSymbolTableRecord
100
AcDbRegAppTableRecord
  2
ACAD_EXEMPT_FROM_CAD_STANDARDS
 70
     0
  0
APPID
  5
D91
330
9
100
AcDbSymbolTableRecord
100
AcDbRegAppTableRecord
  2
GENIUS_GENTRA_14
 70
     0
  0
APPID
  5
D92
330
9
100
AcDbSymbolTableRecord
100
AcDbRegAppTableRecord
  2
ACAD_DSTYLE_DIMBREAK
 70
     0
  0
APPID
  5
D93
330
9
100
AcDbSymbolTableRecord
100
AcDbRegAppTableRecord
  2
ACAD_DSTYLE_DIMJAG
 70
     0
  0
APPID
  5
D94
330
9
100
AcDbSymbolTableRecord
100
AcDbRegAppTableRecord
  2
ACAD_DSTYLE_DIMTALN
 70
     0
  0
APPID
  5
F9C
330
9
100
AcDbSymbolTableRecord
100
AcDbRegAppTableRecord
  2
GENIUS_GENOBJ-N-TIT_13
 70
     0
  0
APPID
  5
F9D
330
9
100
AcDbSymbolTableRecord
100
AcDbRegAppTableRecord
  2
GENIUS_GENOLIS_13
 70
     0
  0
APPID
  5
F9E
330
9
100
AcDbSymbolTableRecord
100
AcDbRegAppTableRecord
  2
GENIUS_GENODEF_13
 70
     0
  0
APPID
  5
F9F
330
9
100
AcDbSymbolTableRecord
100
AcDbRegAppTableRecord
  2
GENIUS_GENOENT_13
 70
     0
  0
APPID
  5
FA0
330
9
100
AcDbSymbolTableRecord
100
AcDbRegAppTableRecord
  2
GENIUS_GENTITLE_13
 70
     0
  0
APPID
  5
FA1
330
9
100
AcDbSymbolTableRecord
100
AcDbRegAppTableRecord
  2
GENIUS_GENOREF_13
 70
     0
  0
APPID
  5
FA8
330
9
100
AcDbSymbolTableRecord
100
AcDbRegAppTableRecord
  2
GENIUS_GENSCREG_15
 70
     0
  0
APPID
  5
FA9
330
9
100
AcDbSymbolTableRecord
100
AcDbRegAppTableRecord
  2
GENIUS_GENOBJ-N-SDF_13
 70
     0
  0
APPID
  5
14AF
330
9
100
AcDbSymbolTableRecord
100
AcDbRegAppTableRecord
  2
ACAD_OBJECT_CHANGE_GUID
 70
     0
  0
APPID
  5
16D9
330
9
100
AcDbSymbolTableRecord
100
AcDbRegAppTableRecord
  2
ACAUTHENVIRON
 70
     0
  0
APPID
  5
18D6
330
9
100
AcDbSymbolTableRecord
100
AcDbRegAppTableRecord
  2
AcDbDynamicBlockTrueName
 70
     0
  0
APPID
  5
18D7
330
9
100
AcDbSymbolTableRecord
100
AcDbRegAppTableRecord
  2
AcDbDynamicBlockGUID
 70
     0
  0
APPID
  5
2A26
330
9
100
AcDbSymbolTableRecord
100
AcDbRegAppTableRecord
  2
PE_URL
 70
     0
  0
APPID
  5
38AB
330
9
100
AcDbSymbolTableRecord
100
AcDbRegAppTableRecord
  2
GradientColor1ACI
 70
     0
  0
APPID
  5
38AC
330
9
100
AcDbSymbolTableRecord
100
AcDbRegAppTableRecord
  2
GradientColor2ACI
 70
     0
  0
APPID
  5
3F3B
330
9
100
AcDbSymbolTableRecord
100
AcDbRegAppTableRecord
  2
ACAD_DSTYLE_DIMINSPECT
 70
     0
  0
APPID
  5
3F4E
330
9
100
AcDbSymbolTableRecord
100
AcDbRegAppTableRecord
  2
AcadAnnoMonitorAlertIconDisabled
 70
     0
  0
ENDTAB
  0
TABLE
  2
DIMSTYLE
  5
A
330
0
100
AcDbSymbolTable
 70
    16
100
AcDbDimStyleTable
 71
     2
340
344
340
31B
  0
DIMSTYLE
105
31C
330
A
100
AcDbSymbolTableRecord
100
AcDbDimStyleTableRecord
  2
AM_ANSI$3
 70
     0
  4
mm
 41
0.1
 42
0.05
 43
0.5
 44
0.1
 47
0.1
 48
0.1
 78
     7
 79
     2
140
0.12
141
0.0
146
0.71
147
0.06
176
   256
177
   256
178
     2
274
     4
284
     7
288
     1
289
     0
340
10
371
    -1
372
    -1
  0
DIMSTYLE
105
31D
330
A
100
AcDbSymbolTableRecord
100
AcDbDimStyleTableRecord
  2
AM_ANSI$4
 70
     0
  4
mm
 41
0.1
 42
0.05
 43
0.5
 44
0.1
 47
0.1
 48
0.1
 78
     7
 79
     2
140
0.12
141
0.0
146
0.71
147
0.06
176
   256
177
   256
178
     2
274
     4
284
     7
288
     1
289
     0
340
10
371
    -1
372
    -1
  0
DIMSTYLE
105
31E
330
A
100
AcDbSymbolTableRecord
100
AcDbDimStyleTableRecord
  2
AM_ANSI$7
 70
     0
  4
mm
 41
0.1
 42
0.05
 43
0.5
 44
0.1
 47
0.1
 48
0.1
 78
     7
 79
     2
140
0.24
141
0.0
146
0.71
147
0.06
176
   256
177
   256
178
     2
274
     4
284
     7
340
10
371
    -1
372
    -1
  0
DIMSTYLE
105
31F
330
A
100
AcDbSymbolTableRecord
100
AcDbDimStyleTableRecord
  2
AM_ANSI$SF
 70
     0
  4
mm
 41
0.1
 42
0.05
 43
0.5
 44
0.1
 47
0.1
 48
0.1
 75
     1
 76
     1
 78
     7
 79
     2
140
0.12
141
0.0
146
0.71
147
0.06
176
   256
177
   256
178
     2
274
     4
284
     7
340
10
371
    -1
372
    -1
  0
DIMSTYLE
105
320
330
A
100
AcDbSymbolTableRecord
100
AcDbDimStyleTableRecord
  2
AM_ANSI$SH
 70
     0
  4
mm
 41
0.1
 42
0.05
 43
0.5
 44
0.1
 47
0.1
 48
0.1
 75
     1
 76
     1
 78
     7
 79
     2
140
0.12
141
0.0
146
0.71
147
0.06
173
     1
176
   256
177
   256
178
     2
274
     4
284
     7
340
10
343
2F4
371
    -1
372
    -1
  0
DIMSTYLE
105
344
330
A
100
AcDbSymbolTableRecord
100
AcDbDimStyleTableRecord
  2
AM_ISO
 70
     0
  4
"
 41
2.5
 42
1.0
 43
10.0
 44
1.0
 47
0.1
 48
0.1
 73
     0
 74
     0
 77
     1
 78
     8
 79
     2
140
3.5
141
0.0
143
0.0393701
146
0.71
147
1.5
171
     3
172
     1
176
   256
177
   256
178
     2
271
     2
272
     2
274
     3
283
     0
284
     8
340
10
371
    -1
372
    -1
  0
DIMSTYLE
105
345
330
A
100
AcDbSymbolTableRecord
100
AcDbDimStyleTableRecord
  2
AM_ISO$3
 70
     0
  4
"
 41
2.5
 42
1.0
 43
10.0
 44
1.0
 47
0.1
 48
0.1
 73
     0
 77
     1
 78
     8
 79
     2
140
3.5
141
0.0
143
0.0393701
146
0.71
147
1.5
176
   256
177
   256
178
     2
271
     2
272
     3
274
     4
283
     0
284
     8
288
     1
289
     0
340
10
371
    -1
372
    -1
  0
DIMSTYLE
105
346
330
A
100
AcDbSymbolTableRecord
100
AcDbDimStyleTableRecord
  2
AM_ISO$4
 70
     0
  4
"
 41
2.5
 42
1.0
 43
10.0
 44
1.0
 47
0.1
 48
0.1
 73
     0
 77
     1
 78
     8
 79
     2
140
3.5
141
0.0
143
0.0393701
146
0.71
147
1.5
176
   256
177
   256
178
     2
271
     2
272
     3
274
     4
283
     0
284
     8
288
     1
289
     0
340
10
371
    -1
372
    -1
  0
DIMSTYLE
105
347
330
A
100
AcDbSymbolTableRecord
100
AcDbDimStyleTableRecord
  2
AM_ISO$6
 70
     0
  4
"
 41
2.5
 42
1.0
 43
10.0
 44
1.0
 47
0.1
 48
0.1
 73
     0
 74
     0
 78
     8
 79
     2
140
3.5
141
0.0
143
0.0393701
146
0.71
147
1.5
172
     1
176
   256
177
   256
178
     2
271
     2
272
     3
274
     4
283
     0
284
     8
340
10
371
    -1
372
    -1
  0
DIMSTYLE
105
348
330
A
100
AcDbSymbolTableRecord
100
AcDbDimStyleTableRecord
  2
AM_ISO$7
 70
     0
  4
"
 41
2.5
 42
1.0
 43
10.0
 44
1.0
 47
0.1
 48
0.1
 73
     0
 74
     0
 77
     1
 78
     8
 79
     2
140
5.0
141
0.0
143
0.0393701
146
0.71
147
1.5
172
     1
176
   256
177
   256
178
     2
271
     2
272
     3
274
     4
283
     0
284
     8
340
10
371
    -1
372
    -1
  0
DIMSTYLE
105
349
330
A
100
AcDbSymbolTableRecord
100
AcDbDimStyleTableRecord
  2
AM_ISO$SF
 70
     0
  4
"
 41
2.5
 42
1.0
 43
10.0
 44
1.0
 47
0.1
 48
0.1
 73
     0
 74
     0
 75
     1
 76
     1
 77
     1
 78
     8
 79
     2
140
3.5
141
0.0
143
0.0393701
146
0.71
147
1.5
172
     1
176
   256
177
   256
178
     2
271
     2
272
     3
274
     4
283
     0
284
     8
340
10
371
    -1
372
    -1
  0
DIMSTYLE
105
34A
330
A
100
AcDbSymbolTableRecord
100
AcDbDimStyleTableRecord
  2
AM_ISO$SH
 70
     0
  4
"
 41
2.5
 42
1.0
 43
10.0
 44
1.0
 47
0.1
 48
0.1
 73
     0
 74
     0
 75
     1
 76
     1
 77
     1
 78
     8
 79
     2
140
3.5
141
0.0
143
0.0393701
144
2.0
146
0.71
147
1.5
172
     1
173
     1
176
   256
177
   256
178
     2
271
     2
272
     3
274
     4
283
     0
284
     8
340
10
343
2F4
371
    -1
372
    -1
  0
DIMSTYLE
105
31B
330
A
100
AcDbSymbolTableRecord
100
AcDbDimStyleTableRecord
  2
AM_ANSI
 70
     0
  4
mm
 41
0.1
 42
0.05
 43
0.5
 44
0.1
 47
0.1
 48
0.1
 78
     7
 79
     2
140
0.12
141
0.0
146
0.71
147
0.06
176
   256
177
   256
178
     2
274
     4
284
     7
340
10
371
    -1
372
    -1
  0
DIMSTYLE
105
D0D
330
A
100
AcDbSymbolTableRecord
100
AcDbDimStyleTableRecord
  2
STANDARD
 70
     0
 41
3.5
 42
2.0
 43
10.0
 44
1.0
 46
2.0
 73
     0
 74
     0
 77
     1
 78
     8
140
3.5
141
0.0
143
25.39999999999999
145
1.0
147
1.0
172
     1
175
     1
176
   256
177
   256
178
     3
271
     2
272
     2
284
     8
340
D0A
  0
ENDTAB
  0
TABLE
  2
BLOCK_RECORD
  5
1
330
0
100
AcDbSymbolTable
 70
    27
  0
BLOCK_RECORD
  5
1A
102
{ACAD_XDICTIONARY
360
12A
102
}
330
1
100
AcDbSymbolTableRecord
100
AcDbBlockTableRecord
  2
*MODEL_SPACE
340
169
 70
     0
280
     1
281
     0
  0
BLOCK_RECORD
  5
2CA3
330
1
100
AcDbSymbolTableRecord
100
AcDbBlockTableRecord
  2
*Paper_Space
340
2CA4
 70
     0
280
     1
281
     0
  0
BLOCK_RECORD
  5
2F4
330
1
100
AcDbSymbolTableRecord
100
AcDbBlockTableRecord
  2
GENAXEH
340
0
 70
     0
280
     1
281
     0
  0
BLOCK_RECORD
  5
D74
330
1
100
AcDbSymbolTableRecord
100
AcDbBlockTableRecord
  2
_ACMFILLED15
340
0
310
2800000020000000200000000100080000000000000400000000000000000000000000000000000000000000000080000080000000808000800000008000800080800000C0C0C000C0DCC000F0CAA6000020400000206000002080000020A0000020C0000020E00000400000004020000040400000406000004080000040A0
310
000040C0000040E00000600000006020000060400000606000006080000060A0000060C0000060E00000800000008020000080400000806000008080000080A0000080C0000080E00000A0000000A0200000A0400000A0600000A0800000A0A00000A0C00000A0E00000C0000000C0200000C0400000C0600000C0800000C0
310
A00000C0C00000C0E00000E0000000E0200000E0400000E0600000E0800000E0A00000E0C00000E0E00040000000400020004000400040006000400080004000A0004000C0004000E00040200000402020004020400040206000402080004020A0004020C0004020E000404000004040200040404000404060004040800040
310
40A0004040C0004040E00040600000406020004060400040606000406080004060A0004060C0004060E00040800000408020004080400040806000408080004080A0004080C0004080E00040A0000040A0200040A0400040A0600040A0800040A0A00040A0C00040A0E00040C0000040C0200040C0400040C0600040C08000
310
40C0A00040C0C00040C0E00040E0000040E0200040E0400040E0600040E0800040E0A00040E0C00040E0E00080000000800020008000400080006000800080008000A0008000C0008000E00080200000802020008020400080206000802080008020A0008020C0008020E00080400000804020008040400080406000804080
310
008040A0008040C0008040E00080600000806020008060400080606000806080008060A0008060C0008060E00080800000808020008080400080806000808080008080A0008080C0008080E00080A0000080A0200080A0400080A0600080A0800080A0A00080A0C00080A0E00080C0000080C0200080C0400080C0600080C0
310
800080C0A00080C0C00080C0E00080E0000080E0200080E0400080E0600080E0800080E0A00080E0C00080E0E000C0000000C0002000C0004000C0006000C0008000C000A000C000C000C000E000C0200000C0202000C0204000C0206000C0208000C020A000C020C000C020E000C0400000C0402000C0404000C0406000C0
310
408000C040A000C040C000C040E000C0600000C0602000C0604000C0606000C0608000C060A000C060C000C060E000C0800000C0802000C0804000C0806000C0808000C080A000C080C000C080E000C0A00000C0A02000C0A04000C0A06000C0A08000C0A0A000C0A0C000C0A0E000C0C00000C0C02000C0C04000C0C06000
310
C0C08000C0C0A000F0FBFF00A4A0A000808080000000FF0000FF000000FFFF00FF000000FF00FF00FFFF0000FFFFFF0000000000000000000000000000000000000000000000000000000000000000000000000000000000000000000000000000000000000000000000000000000000000000000000000000000000000000
310
00000000000000000000000000000000000000000000000000000000000000000000000000000000000000000000000000000000000000000000000000000000000000000000000000000000000000000000000000000000000000000000000000000000000000000000000000000000000000000000000000000000000000
310
00000000000000000000000000000000000000000000000000000000000000000000000000000000000000000000000000000000000000000000000000000000000000000000000000000000000000000000000000000000000000000000000000000000000000000000000000000000000000000000000000000000000000
310
00000000000000000000000000000000000000000000000000000000000000000000000000000000000000000000000000000000FFFFFFFF00000000000000000000000000000000000000000000000000000000FFFFFFFFFFFFFFFFFFFFFF000000000000000000000000000000000000000000FFFFFFFFFFFFFFFFFFFFFF
310
FFFFFFFFFFFFFFFF00000000000000000000000000FFFFFFFFFFFFFFFFFFFFFFFFFFFFFFFFFFFFFFFFFFFFFFFFFFFF000000000000FFFFFFFFFFFFFFFFFFFFFFFFFFFFFFFFFFFFFFFFFFFFFFFFFFFFFFFFFFFF0000FFFFFFFFFFFFFFFFFFFFFFFFFFFFFFFFFFFFFFFFFFFFFFFFFF00000000000000FFFFFFFFFFFFFFFFFFFF
310
FFFFFFFFFF0000000000000000000000000000000000FFFFFFFFFF00000000000000000000000000000000000000000000000000000000000000000000000000000000000000000000000000000000000000000000000000000000000000000000000000000000000000000000000000000000000000000000000000000000
310
00000000000000000000000000000000000000000000000000000000000000000000000000000000000000000000000000000000000000000000000000000000000000000000000000000000000000000000000000000000000000000000000000000000000000000000000000000000000000000000000000000000000000
310
00000000000000000000000000000000000000000000000000000000000000000000000000000000000000000000000000000000000000000000000000000000000000000000000000000000000000000000000000000000000000000000000000000000000000000000000000000000000000000000000000000000000000
310
0000000000000000000000000000000000000000000000000000000000000000000000000000000000000000000000000000000000000000
 70
     0
280
     1
281
     0
  0
BLOCK_RECORD
  5
D78
330
1
100
AcDbSymbolTableRecord
100
AcDbBlockTableRecord
  2
_ACMFILLED30
340
0
 70
     0
280
     1
281
     0
  0
BLOCK_RECORD
  5
390D
102
{ACAD_XDICTIONARY
360
4358
102
}
330
1
100
AcDbSymbolTableRecord
100
AcDbBlockTableRecord
  2
HD16
340
0
310
2800000020000000200000000100200000000000001000000100000001000000000000000000000001000000302821FF302821FF302821FF302821FF302821FF302821FF302821FF302821FF302821FF302821FF302821FF302821FF302821FF302821FF302821FF302821FF302821FF302821FF302821FF302821FF302821
310
FF302821FF302821FF302821FF302821FF302821FF302821FF302821FF302821FF302821FF302821FF302821FF302821FF302821FF302821FF302821FF302821FF302821FF302821FF302821FF302821FF302821FF302821FF302821FFFFFFFFFFFFFFFFFFFFFFFFFFFFFFFFFFFFFFFFFFFFFFFFFFFFFFFFFFFFFFFFFF3028
310
21FF302821FF302821FF302821FF302821FF302821FF302821FF302821FF302821FF302821FF302821FF302821FF302821FF302821FF302821FF302821FF302821FF302821FF302821FF302821FF302821FF302821FF302821FFFFFFFFFFFFFFFFFFFFFFFFFFFFFFFFFFFFFFFFFFFFFFFFFFFFFFFFFFFFFFFFFFFFFFFFFFFF
310
FFFFFF302821FF302821FF302821FF302821FF302821FF302821FF302821FF302821FF302821FF302821FF302821FF302821FF302821FF302821FF302821FF302821FF302821FF302821FF302821FF302821FF302821FFFFFFFFFFFFFFFFFFFFFFFFFF302821FF302821FF302821FFFFFFFFFFFFFFFFFFFFFFFFFFFFFFFFFF
310
FFFFFFFFFFFFFFFF302821FF302821FF302821FF302821FF302821FF302821FF302821FF302821FF302821FF302821FF302821FF302821FF302821FF302821FF302821FF302821FF302821FF302821FF302821FF302821FFFFFFFFFF302821FFFFFFFFFFFFFFFFFFFFFFFFFFFFFFFFFFFFFFFFFFFFFFFFFFFFFFFFFFFFFFFF
310
FF302821FFFFFFFFFF302821FF302821FF302821FF302821FF302821FF302821FF302821FF302821FF302821FF302821FF302821FF302821FF302821FF302821FF302821FF302821FF302821FF302821FF302821FF302821FFFFFFFFFF302821FFFFFFFFFFFFFFFFFF302821FF302821FF302821FF302821FFFFFFFFFFFFFF
310
FFFF302821FFFFFFFFFF302821FF302821FF302821FF302821FF302821FF302821FF302821FF302821FF302821FF302821FF302821FF302821FF302821FF302821FF302821FF302821FF302821FF302821FF302821FF302821FFFFFFFFFF302821FFFFFFFFFFFFFFFFFF302821FF302821FF302821FF302821FFFFFFFFFFFF
310
FFFFFF302821FFFFFFFFFF302821FF302821FF302821FF302821FF302821FF302821FF302821FF302821FF302821FF302821FF302821FF302821FF302821FF302821FF302821FF302821FF302821FF302821FF302821FF302821FFFFFFFFFF302821FFFFFFFFFFFFFFFFFF302821FF302821FF302821FF302821FFFFFFFFFF
310
FFFFFFFF302821FFFFFFFFFF302821FF302821FF302821FF302821FF302821FF302821FF302821FF302821FF302821FF302821FF302821FF302821FF302821FF302821FF302821FF302821FF302821FF302821FF302821FF302821FFFFFFFFFF302821FFFFFFFFFFFFFFFFFF302821FF302821FF302821FF302821FFFFFFFF
310
FFFFFFFFFF302821FFFFFFFFFF302821FF302821FF302821FF302821FF302821FF302821FF302821FF302821FF302821FF302821FF302821FF302821FF302821FF302821FF302821FF302821FF302821FF302821FF302821FF302821FFFFFFFFFF302821FFFFFFFFFFFFFFFFFF302821FF302821FF302821FF302821FFFFFF
310
FFFFFFFFFFFF302821FFFFFFFFFF302821FF302821FF302821FF302821FF302821FF302821FF302821FF302821FF302821FF302821FF302821FF302821FF302821FF302821FF302821FF302821FF302821FF302821FF302821FF302821FFFFFFFFFF302821FFFFFFFFFFFFFFFFFF302821FF302821FF302821FF302821FFFF
310
FFFFFFFFFFFFFF302821FFFFFFFFFF302821FF302821FF302821FF302821FF302821FF302821FF302821FF302821FF302821FF302821FF302821FF302821FF302821FF302821FF302821FF302821FF302821FF302821FF302821FF302821FFFFFFFFFF302821FFFFFFFFFFFFFFFFFF302821FF302821FF302821FF302821FF
310
FFFFFFFFFFFFFFFF302821FFFFFFFFFF302821FF302821FF302821FF302821FF302821FF302821FF302821FF302821FF302821FF302821FF302821FF302821FF302821FF302821FF302821FF302821FF302821FF302821FF302821FF302821FFFFFFFFFF302821FFFFFFFFFFFFFFFFFF302821FF302821FF302821FF302821
310
FFFFFFFFFFFFFFFFFF302821FFFFFFFFFF302821FF302821FF302821FF302821FF302821FF302821FF302821FF302821FF302821FF302821FF302821FF302821FF302821FF302821FF302821FF302821FF302821FF302821FF302821FF302821FFFFFFFFFF302821FFFFFFFFFFFFFFFFFF302821FF302821FF302821FF3028
310
21FFFFFFFFFFFFFFFFFF302821FFFFFFFFFF302821FF302821FF302821FF302821FF302821FF302821FF302821FF302821FF302821FF302821FF302821FF302821FF302821FF302821FF302821FF302821FF302821FF302821FF302821FF302821FFFFFFFFFF302821FFFFFFFFFFFFFFFFFF302821FF302821FF302821FF30
310
2821FFFFFFFFFFFFFFFFFF302821FFFFFFFFFF302821FF302821FF302821FF302821FF302821FF302821FF302821FF302821FF302821FF302821FF302821FF302821FF302821FF302821FF302821FF302821FF302821FF302821FF302821FF302821FFFFFFFFFF302821FFFFFFFFFFFFFFFFFF302821FF302821FF302821FF
310
302821FFFFFFFFFFFFFFFFFF302821FFFFFFFFFF302821FF302821FF302821FF302821FF302821FF302821FF302821FF302821FF302821FF302821FF302821FF302821FF302821FF302821FF302821FF302821FF302821FF302821FF302821FF302821FFFFFFFFFF302821FFFFFFFFFFFFFFFFFF302821FF302821FF302821
310
FF302821FFFFFFFFFFFFFFFFFF302821FFFFFFFFFF302821FF302821FF302821FF302821FF302821FF302821FF302821FF302821FF302821FF302821FF302821FF302821FF302821FF302821FF302821FF302821FF302821FF302821FF302821FF302821FFFFFFFFFF302821FFFFFFFFFFFFFFFFFF302821FF302821FF3028
310
21FF302821FFFFFFFFFFFFFFFFFF302821FFFFFFFFFF302821FF302821FF302821FF302821FF302821FF302821FF302821FF302821FF302821FF302821FF302821FF302821FF302821FF302821FF302821FF302821FF302821FF302821FF302821FF302821FFFFFFFFFF302821FFFFFFFFFFFFFFFFFF302821FF302821FF30
310
2821FF302821FFFFFFFFFFFFFFFFFF302821FFFFFFFFFF302821FF302821FF302821FF302821FF302821FF302821FF302821FF302821FF302821FF302821FF302821FF302821FF302821FF302821FF302821FF302821FF302821FF302821FF302821FF302821FFFFFFFFFF302821FFFFFFFFFFFFFFFFFF302821FF302821FF
310
302821FF302821FFFFFFFFFFFFFFFFFF302821FFFFFFFFFF302821FF302821FF302821FF302821FF302821FF302821FF302821FF302821FF302821FF302821FF302821FF302821FF302821FF302821FF302821FF302821FF302821FF302821FF302821FF302821FFFFFFFFFF302821FFFFFFFFFFFFFFFFFF302821FF302821
310
FF302821FF302821FFFFFFFFFFFFFFFFFF302821FFFFFFFFFF302821FF302821FF302821FF302821FF302821FF302821FF302821FF302821FF302821FF302821FF302821FF302821FF302821FF302821FF302821FF302821FF302821FF302821FF302821FF302821FFFFFFFFFF302821FFFFFFFFFFFFFFFFFF302821FF3028
310
21FF302821FF302821FFFFFFFFFFFFFFFFFF302821FFFFFFFFFF302821FF302821FF302821FF302821FF302821FF302821FF302821FF302821FF302821FF302821FF302821FF302821FF302821FF302821FF302821FF302821FF302821FF302821FF302821FF302821FFFFFFFFFF302821FFFFFFFFFFFFFFFFFF302821FF30
310
2821FF302821FF302821FFFFFFFFFFFFFFFFFF302821FFFFFFFFFF302821FF302821FF302821FF302821FF302821FF302821FF302821FF302821FF302821FF302821FF302821FF302821FF302821FF302821FF302821FF302821FF302821FF302821FF302821FF302821FFFFFFFFFF302821FFFFFFFFFFFFFFFFFFFFFFFFFF
310
FFFFFFFFFFFFFFFFFFFFFFFFFFFFFFFFFFFFFFFF302821FFFFFFFFFF302821FF302821FF302821FF302821FF302821FF302821FF302821FF302821FF302821FF302821FF302821FF302821FF302821FF302821FF302821FF302821FF302821FF302821FF302821FF302821FFFFFFFFFF302821FFFFFFFFFFFFFFFFFFFFFFFF
310
FFFFFFFFFFFFFFFFFFFFFFFFFFFFFFFFFFFFFFFFFF302821FFFFFFFFFF302821FF302821FF302821FF302821FF302821FF302821FF302821FF302821FF302821FF302821FF302821FF302821FF302821FF302821FF302821FF302821FF302821FF302821FF302821FF302821FFFFFFFFFF302821FFFFFFFFFFFFFFFFFFFFFF
310
FFFFFFFFFFFFFFFFFFFFFFFFFFFFFFFFFFFFFFFFFFFF302821FFFFFFFFFF302821FF302821FF302821FF302821FF302821FF302821FF302821FF302821FF302821FF302821FF302821FF302821FF302821FF302821FF302821FF302821FF302821FF302821FF302821FF302821FFFFFFFFFF302821FFFFFFFFFFFFFFFFFFFF
310
FFFFFFFFFFFFFFFFFFFFFFFFFFFFFFFFFFFFFFFFFFFFFF302821FFFFFFFFFF302821FF302821FF302821FF302821FF302821FF302821FF302821FF302821FF302821FF302821FF302821FF302821FF302821FF302821FF302821FF302821FF302821FF302821FF302821FF302821FFFFFFFFFF302821FFFFFFFFFFFFFFFFFF
310
FFFFFFFFFFFFFFFFFFFFFFFFFFFFFFFFFFFFFFFFFFFFFFFF302821FFFFFFFFFF302821FF302821FF302821FF302821FF302821FF302821FF302821FF302821FF302821FF302821FF302821FF302821FF302821FF302821FF302821FF302821FF302821FF302821FF302821FF302821FFFFFFFFFFFFFFFFFFFFFFFFFFFFFFFF
310
FFFFFFFFFFFFFFFFFF302821FF302821FF302821FFFFFFFFFFFFFFFFFFFFFFFFFF302821FF302821FF302821FF302821FF302821FF302821FF302821FF302821FF302821FF302821FF302821FF302821FF302821FF302821FF302821FF302821FF302821FF302821FF302821FF302821FF302821FFFFFFFFFFFFFFFFFFFFFF
310
FFFFFFFFFFFFFFFFFFFFFFFFFFFFFFFFFFFFFFFFFFFFFFFFFFFFFFFFFFFF302821FF302821FF302821FF302821FF302821FF302821FF302821FF302821FF302821FF302821FF302821FF302821FF302821FF302821FF302821FF302821FF302821FF302821FF302821FF302821FF302821FF302821FF302821FFFFFFFFFFFF
310
FFFFFFFFFFFFFFFFFFFFFFFFFFFFFFFFFFFFFFFFFFFFFFFFFFFFFF302821FF302821FF302821FF302821FF302821FF302821FF302821FF302821FF302821FF302821FF302821FF302821FF302821FF302821FF302821FF302821FF302821FF302821FF302821FF302821FF302821FF302821FF302821FF302821FF302821FF
310
302821FF302821FF302821FF302821FF302821FF302821FF302821FF302821FF302821FF302821FF302821FF302821FF302821FF302821FF302821FF302821FF302821FF302821FF
102
{BLKREFS
331
3C02
102
}
 70
     4
280
     1
281
     0
1001
AcDbDynamicBlockGUID
1000
{C2512CFD-3D4C-1748-AB6F-4F6DE518D92D}
  0
BLOCK_RECORD
  5
3C04
330
1
100
AcDbSymbolTableRecord
100
AcDbBlockTableRecord
  2
info
340
0
310
2800000020000000200000000100080000000000000400000000000000000000000000000000000000000000000080000080000000808000800000008000800080800000C0C0C000C0DCC000F0CAA6000020400000206000002080000020A0000020C0000020E00000400000004020000040400000406000004080000040A0
310
000040C0000040E00000600000006020000060400000606000006080000060A0000060C0000060E00000800000008020000080400000806000008080000080A0000080C0000080E00000A0000000A0200000A0400000A0600000A0800000A0A00000A0C00000A0E00000C0000000C0200000C0400000C0600000C0800000C0
310
A00000C0C00000C0E00000E0000000E0200000E0400000E0600000E0800000E0A00000E0C00000E0E00040000000400020004000400040006000400080004000A0004000C0004000E00040200000402020004020400040206000402080004020A0004020C0004020E000404000004040200040404000404060004040800040
310
40A0004040C0004040E00040600000406020004060400040606000406080004060A0004060C0004060E00040800000408020004080400040806000408080004080A0004080C0004080E00040A0000040A0200040A0400040A0600040A0800040A0A00040A0C00040A0E00040C0000040C0200040C0400040C0600040C08000
310
40C0A00040C0C00040C0E00040E0000040E0200040E0400040E0600040E0800040E0A00040E0C00040E0E00080000000800020008000400080006000800080008000A0008000C0008000E00080200000802020008020400080206000802080008020A0008020C0008020E00080400000804020008040400080406000804080
310
008040A0008040C0008040E00080600000806020008060400080606000806080008060A0008060C0008060E00080800000808020008080400080806000808080008080A0008080C0008080E00080A0000080A0200080A0400080A0600080A0800080A0A00080A0C00080A0E00080C0000080C0200080C0400080C0600080C0
310
800080C0A00080C0C00080C0E00080E0000080E0200080E0400080E0600080E0800080E0A00080E0C00080E0E000C0000000C0002000C0004000C0006000C0008000C000A000C000C000C000E000C0200000C0202000C0204000C0206000C0208000C020A000C020C000C020E000C0400000C0402000C0404000C0406000C0
310
408000C040A000C040C000C040E000C0600000C0602000C0604000C0606000C0608000C060A000C060C000C060E000C0800000C0802000C0804000C0806000C0808000C080A000C080C000C080E000C0A00000C0A02000C0A04000C0A06000C0A08000C0A0A000C0A0C000C0A0E000C0C00000C0C02000C0C04000C0C06000
310
C0C08000C0C0A000F0FBFF00A4A0A000808080000000FF0000FF000000FFFF00FF000000FF00FF00FFFF0000FFFFFF00FFFFFFFFFFFFFFFFFFFFFFFFFFFFFFFFFFFFFFFFFFFFFFFFFFFFFFFFFFFFFFFFFFFFFFFFFFFFFFFFFFFFFFFFFFFFFFFFFFFFFFFFFFFFFFFFFFFFFFFFFFFFFFFFFFFFFFFFFFFFFFFFFFFFFFFFFFFFFF
310
FFFFFFFFFFFFFFFFFFFFFFFFFFFFFFFFFFFFFFFFFFFFFFFFFFFFFFFFFFFFFFFFFFFFFFFFFFFFFFFFFFFFFFFFFFFFFFFFFFFFFFFFFFFFFFFFFFFFFFFF00FFFFFFFFFFFFFFFFFFFFFFFFFFFFFFFFFFFFFFFFFFFFFFFFFFFFFFFFFFFF00FFFFFFFFFFFFFFFFFFFFFFFFFFFFFFFFFFFFFFFFFFFFFFFFFFFFFFFFFFFF00FFFFFFFF
310
FFFFFFFFFFFFFFFFFFFFFFFFFFFFFFFFFFFF0000000000FFFFFF00FFFFFFFF00FFFFFF00FFFF000000FFFF0000000000FFFFFFFFFFFFFF000000FFFFFFFFFF00FFFFFF00FF00FFFFFF00FFFFFF00FFFF00FFFFFFFFFFFFFF0000FFFFFFFFFF00FFFFFF00FFFFFFFFFF00FFFFFF00FFFF00FFFFFFFFFFFF00FF00FFFFFFFFFF
310
0000000000FFFFFFFFFF00FFFFFF00FFFF00FFFFFFFFFF00FFFFFF00FFFFFFFF00FFFFFF00FFFFFFFFFF00FFFFFF00FFFF00FFFFFFFF00FFFFFFFF00FFFFFFFF00FFFFFF00FFFFFFFFFF00FFFFFF00FFFF00FF00FF00FFFFFFFFFF00FFFFFFFF00FFFFFF00FFFFFFFFFF00FF0000000000FFFFFF00FFFFFFFFFFFFFF00FFFF
310
FFFFFFFFFFFFFFFFFFFFFFFFFFFFFFFFFFFFFFFF00FF00FFFFFFFFFF00FFFFFFFFFFFFFFFFFFFFFFFFFFFFFFFFFFFFFFFFFFFFFFFFFFFF00FFFFFFFF00FFFFFFFFFFFFFFFFFFFFFFFFFFFFFFFFFFFFFFFFFFFFFFFFFFFFFF00FFFFFF00FFFFFFFFFFFFFFFFFFFFFFFFFFFFFFFFFFFFFFFFFFFFFFFFFFFFFFFF00FF00FFFFFF
310
FFFF00000000FFFF00FFFFFF00FF0000000000FFFFFFFFFFFFFFFF0000FFFFFFFFFFFF00FFFF00FF00FFFF00FFFFFFFF00FFFF00FFFFFFFFFFFF000000FFFFFFFFFFFF00FFFF00FF00FF00FFFFFFFFFF00FFFF00FF0000000000FFFFFF00FFFFFFFFFF000000FFFF00000000FFFFFFFF00FFFF00FFFFFFFFFFFFFFFFFFFF00
310
FFFFFFFF00FFFF00FF00FFFFFF00FFFFFF00FFFF00FFFFFFFFFFFFFFFFFFFFFF00FFFFFF00FFFF00FF00FFFFFF00FFFFFF00FFFF00FFFFFFFFFFFFFFFFFFFFFFFF00FF00000000FFFF00000000FFFF0000000000FFFFFFFFFFFFFFFFFFFFFFFFFFFFFFFFFFFFFFFFFFFFFFFFFFFFFFFFFFFFFFFFFFFFFFFFFFFFFFFFFFFFFF
310
FFFFFFFFFFFFFFFFFFFFFFFFFFFFFFFFFFFFFFFFFFFFFFFFFFFFFFFFFFFFFFFFFFFFFFFFFFFFFFFFFFFFFFFFFFFFFFFFFFFFFFFFFFFFFFFFFFFFFFFFFFFFFFFFFFFFFFFFFFFFFFFFFFFFFFFFFFFFFFFFFFFFFFFFFFFFFFFFFFFFFFFFFFFFFFFFFFFFFFFFFFFFFFFFFFFFFFFFFFFFFFFFFFFFFFFFFFFFFFFFFFFFFFFFFFFFFF
310
FFFFFFFFFFFFFFFFFFFFFFFFFFFFFFFFFFFFFFFFFFFFFFFFFFFFFFFFFFFFFFFFFFFFFFFFFFFFFFFFFFFFFFFFFFFFFFFFFFFFFFFFFFFFFFFF
102
{BLKREFS
331
4342
102
}
 70
     4
280
     1
281
     0
  0
ENDTAB
  0
ENDSEC
  0
SECTION
  2
BLOCKS
  0
BLOCK
  5
1B
330
1A
100
AcDbEntity
  8
0
100
AcDbBlockBegin
  2
*MODEL_SPACE
 70
     0
 10
0.0
 20
0.0
 30
0.0
  3
*MODEL_SPACE
  1

  0
ENDBLK
  5
1C
330
1A
100
AcDbEntity
  8
0
100
AcDbBlockEnd
  0
BLOCK
  5
2CA5
330
2CA3
100
AcDbEntity
 67
     1
  8
0
100
AcDbBlockBegin
  2
*Paper_Space
 70
     0
 10
0.0
 20
0.0
 30
0.0
  3
*Paper_Space
  1

  0
ENDBLK
  5
2CA6
330
2CA3
100
AcDbEntity
 67
     1
  8
0
100
AcDbBlockEnd
  0
BLOCK
  5
C49
330
2F4
100
AcDbEntity
  8
0
100
AcDbBlockBegin
  2
GENAXEH
 70
     0
 10
0.0
 20
0.0
 30
0.0
  3
GENAXEH
  1

  0
LINE
  5
C4A
330
2F4
100
AcDbEntity
  8
0
100
AcDbLine
 10
-1.0
 20
0.0
 30
0.0
 11
1.0
 21
0.0
 31
0.0
  0
ENDBLK
  5
C4B
330
2F4
100
AcDbEntity
  8
0
100
AcDbBlockEnd
  0
BLOCK
  5
D75
330
D74
100
AcDbEntity
  8
0
100
AcDbBlockBegin
  2
_ACMFILLED15
 70
     0
 10
0.0
 20
0.0
 30
0.0
  3
_ACMFILLED15
  1

  0
TRACE
  5
D76
330
D74
100
AcDbEntity
  8
AM_0
 62
     0
100
AcDbTrace
 10
-1.0
 20
-0.131652497
 30
0.0
 11
-1.0
 21
0.131652497
 31
0.0
 12
0.0
 22
0.0
 32
0.0
 13
0.0
 23
0.0
 33
0.0
  0
ENDBLK
  5
D77
330
D74
100
AcDbEntity
  8
0
100
AcDbBlockEnd
  0
BLOCK
  5
D79
330
D78
100
AcDbEntity
  8
0
100
AcDbBlockBegin
  2
_ACMFILLED30
 70
     0
 10
0.0
 20
0.0
 30
0.0
  3
_ACMFILLED30
  1

  0
TRACE
  5
D7A
330
D78
100
AcDbEntity
  8
AM_0
 62
     0
100
AcDbTrace
 10
-1.0
 20
-0.26794919
 30
0.0
 11
-1.0
 21
0.26794919
 31
0.0
 12
0.0
 22
0.0
 32
0.0
 13
0.0
 23
0.0
 33
0.0
  0
ENDBLK
  5
D7B
330
D78
100
AcDbEntity
  8
0
100
AcDbBlockEnd
  0
BLOCK
  5
390E
330
390D
100
AcDbEntity
  8
0
100
AcDbBlockBegin
  2
HD16
 70
     0
 10
0.0
 20
0.0
 30
0.0
  3
HD16
  1

  0
ARC
  5
4050
330
390D
100
AcDbEntity
  8
Visible Edges(Roxtec)
100
AcDbCircle
 10
-26.89999999999998
 20
103.0
 30
0.0
 40
14.99999999999999
100
AcDbArc
 50
90.0
 51
180.0
  0
ARC
  5
4051
330
390D
100
AcDbEntity
  8
Visible Edges(Roxtec)
100
AcDbCircle
 10
26.90000000000003
 20
103.0
 30
0.0
 40
15.0
100
AcDbArc
 50
0.0
 51
90.0
  0
ARC
  5
4052
330
390D
100
AcDbEntity
  8
Visible Edges(Roxtec)
100
AcDbCircle
 10
26.90000000000003
 20
-103.0
 30
0.0
 40
15.0
100
AcDbArc
 50
270.0
 51
0.0
  0
ARC
  5
4053
330
390D
100
AcDbEntity
  8
Visible Edges(Roxtec)
100
AcDbCircle
 10
-26.89999999999998
 20
-103.0
 30
0.0
 40
15.0
100
AcDbArc
 50
180.0
 51
270.0
  0
LINE
  5
4054
330
390D
100
AcDbEntity
  8
Visible Edges(Roxtec)
100
AcDbLine
 10
-41.89999999999992
 20
103.0
 30
0.0
 11
-41.89999999999997
 21
-103.0
 31
0.0
  0
LINE
  5
4055
330
390D
100
AcDbEntity
  8
Visible Edges(Roxtec)
100
AcDbLine
 10
41.90000000000003
 20
-103.0
 30
0.0
 11
41.90000000000003
 21
103.0
 31
0.0
  0
LINE
  5
4056
330
390D
100
AcDbEntity
  8
Visible Edges(Roxtec)
100
AcDbLine
 10
-26.89999999999998
 20
-118.0
 30
0.0
 11
26.90000000000003
 21
-118.0
 31
0.0
  0
LINE
  5
4057
330
390D
100
AcDbEntity
  8
Visible Edges(Roxtec)
100
AcDbLine
 10
26.90000000000003
 20
118.0
 30
0.0
 11
-26.89999999999998
 21
118.0
 31
0.0
  0
LINE
  5
4058
330
390D
100
AcDbEntity
  8
Visible Edges(Roxtec)
100
AcDbLine
 10
-20.10000000000002
 20
95.05356537528484
 30
0.0
 11
-20.10000000000002
 21
59.15935655666505
 31
0.0
  0
LINE
  5
4059
330
390D
100
AcDbEntity
  8
Visible Edges(Roxtec)
100
AcDbLine
 10
20.10000000000002
 20
59.26287123842405
 30
0.0
 11
20.10000000000002
 21
95.05356537528525
 31
0.0
  0
LINE
  5
405A
330
390D
100
AcDbEntity
  8
Visible Edges(Roxtec)
100
AcDbLine
 10
14.59884211602832
 20
-102.9687257865643
 30
0.0
 11
14.89305062192761
 21
-102.9687257865642
 31
0.0
  0
LINE
  5
405B
330
390D
100
AcDbEntity
  8
Visible Edges(Roxtec)
100
AcDbLine
 10
14.89305062192761
 20
-102.9687257865642
 30
0.0
 11
14.89305062192761
 21
-105.9803089178168
 31
0.0
  0
LINE
  5
405C
330
390D
100
AcDbEntity
  8
Visible Edges(Roxtec)
100
AcDbLine
 10
14.89305062192761
 20
-105.9803089178168
 30
0.0
 11
14.43899654983102
 21
-105.9803089178168
 31
0.0
  0
LINE
  5
405D
330
390D
100
AcDbEntity
  8
Visible Edges(Roxtec)
100
AcDbLine
 10
14.43899654983102
 20
-105.9803089178168
 30
0.0
 11
14.43899654983102
 21
-103.6335906778484
 31
0.0
  0
SPLINE
  5
405E
330
390D
100
AcDbEntity
  8
Visible Edges(Roxtec)
100
AcDbSpline
210
0.0
220
0.0
230
1.0
 70
     8
 71
     2
 72
     7
 73
     4
 74
     0
 42
0.000000001
 43
0.0000000001
 40
0.0
 40
0.0
 40
0.0
 40
1.0
 40
2.0
 40
2.0
 40
2.0
 10
14.43899654983102
 20
-103.6335906778484
 30
0.0
 10
14.28146758604248
 20
-103.7563706055072
 30
0.0
 10
13.75328223686892
 20
-104.013513472868
 30
0.0
 10
13.53320500804659
 20
-104.0783783403104
 30
0.0
  0
LINE
  5
405F
330
390D
100
AcDbEntity
  8
Visible Edges(Roxtec)
100
AcDbLine
 10
13.53320500804659
 20
-104.0783783403104
 30
0.0
 11
13.53320500804659
 21
-103.7216215693774
 31
0.0
  0
SPLINE
  5
4060
330
390D
100
AcDbEntity
  8
Visible Edges(Roxtec)
100
AcDbSpline
210
0.0
220
0.0
230
1.0
 70
     8
 71
     2
 72
     7
 73
     4
 74
     0
 42
0.000000001
 43
0.0000000001
 40
0.0
 40
0.0
 40
0.0
 40
1.0
 40
2.0
 40
2.0
 40
2.0
 10
13.53320500804659
 20
-103.7216215693774
 30
0.0
 10
13.90849459824886
 20
-103.5779922200407
 30
0.0
 10
14.48301199559546
 20
-103.1656369913
 30
0.0
 10
14.59884211602832
 20
-102.9687257865642
 30
0.0
  0
LINE
  5
4061
330
390D
100
AcDbEntity
  8
Visible Edges(Roxtec)
100
AcDbLine
 10
-5.530436564948047
 20
102.4826412921772
 30
0.0
 11
-5.326936779747256
 21
102.4826412921772
 31
0.0
  0
LINE
  5
4062
330
390D
100
AcDbEntity
  8
Visible Edges(Roxtec)
100
AcDbLine
 10
-5.530436564948047
 20
103.8315541540793
 30
0.0
 11
-5.530436564948047
 21
102.4826412921772
 31
0.0
  0
LINE
  5
4063
330
390D
100
AcDbEntity
  8
Visible Edges(Roxtec)
100
AcDbLine
 10
-5.338565338901616
 20
103.8315541540793
 30
0.0
 11
-5.530436564948047
 21
103.8315541540793
 31
0.0
  0
LINE
  5
4064
330
390D
100
AcDbEntity
  8
Visible Edges(Roxtec)
100
AcDbLine
 10
-5.338565338901616
 20
104.2908822406754
 30
0.0
 11
-5.338565338901616
 21
103.8315541540793
 31
0.0
  0
LINE
  5
4065
330
390D
100
AcDbEntity
  8
Visible Edges(Roxtec)
100
AcDbLine
 10
-5.530436564948047
 20
104.2908822406754
 30
0.0
 11
-5.338565338901616
 21
104.2908822406754
 31
0.0
  0
LINE
  5
4066
330
390D
100
AcDbEntity
  8
Visible Edges(Roxtec)
100
AcDbLine
 10
-5.530436564948047
 20
104.8257959617745
 30
0.0
 11
-5.530436564948047
 21
104.2908822406754
 31
0.0
  0
LINE
  5
4067
330
390D
100
AcDbEntity
  8
Visible Edges(Roxtec)
100
AcDbLine
 10
-6.524678372643165
 20
104.2618108427896
 30
0.0
 11
-5.530436564948047
 21
104.8257959617745
 31
0.0
  0
LINE
  5
4068
330
390D
100
AcDbEntity
  8
Visible Edges(Roxtec)
100
AcDbLine
 10
-6.524678372643165
 20
103.8315541540793
 30
0.0
 11
-6.524678372643165
 21
104.2618108427896
 31
0.0
  0
LINE
  5
4069
330
390D
100
AcDbEntity
  8
Visible Edges(Roxtec)
100
AcDbLine
 10
-6.379321383214232
 20
103.8315541540793
 30
0.0
 11
-6.524678372643165
 21
103.8315541540793
 31
0.0
  0
LINE
  5
406A
330
390D
100
AcDbEntity
  8
Visible Edges(Roxtec)
100
AcDbLine
 10
-6.379321383214232
 20
102.5640412062575
 30
0.0
 11
-6.379321383214232
 21
103.8315541540793
 31
0.0
  0
ARC
  5
406B
330
390D
100
AcDbEntity
  8
Visible Edges(Roxtec)
100
AcDbCircle
 10
-5.933458367382002
 20
102.4823133117584
 30
0.0
 40
0.453291603304427
100
AcDbArc
 50
169.612840296442
 51
268.7621949373194
  0
LINE
  5
406C
330
390D
100
AcDbEntity
  8
Visible Edges(Roxtec)
100
AcDbLine
 10
-5.326936779747256
 20
102.0291274851583
 30
0.0
 11
-5.943250414926865
 21
102.0291274851583
 31
0.0
  0
LINE
  5
406D
330
390D
100
AcDbEntity
  8
Visible Edges(Roxtec)
100
AcDbLine
 10
-5.326936779747256
 20
102.4826412921772
 30
0.0
 11
-5.326936779747256
 21
102.0291274851583
 31
0.0
  0
LINE
  5
406E
330
390D
100
AcDbEntity
  8
Visible Edges(Roxtec)
100
AcDbLine
 10
-18.10672329035554
 20
101.1686141077379
 30
0.0
 11
-18.29278023682462
 21
101.0000000000003
 31
0.0
  0
LINE
  5
406F
330
390D
100
AcDbEntity
  8
Visible Edges(Roxtec)
100
AcDbLine
 10
-18.29278023682462
 20
101.0000000000003
 30
0.0
 11
-18.92072243115837
 21
101.0000000000003
 31
0.0
  0
LINE
  5
4070
330
390D
100
AcDbEntity
  8
Visible Edges(Roxtec)
100
AcDbLine
 10
-18.92072243115837
 20
101.0000000000003
 30
0.0
 11
-18.72885120511194
 21
101.1220998711206
 31
0.0
  0
LINE
  5
4071
330
390D
100
AcDbEntity
  8
Visible Edges(Roxtec)
100
AcDbLine
 10
-18.72885120511194
 20
101.1220998711206
 30
0.0
 11
-18.54279425864291
 21
101.2616425809726
 31
0.0
  0
LINE
  5
4072
330
390D
100
AcDbEntity
  8
Visible Edges(Roxtec)
100
AcDbLine
 10
-18.54279425864291
 20
101.2616425809726
 30
0.0
 11
-18.37418015090492
 21
101.4128138499788
 31
0.0
  0
LINE
  5
4073
330
390D
100
AcDbEntity
  8
Visible Edges(Roxtec)
100
AcDbLine
 10
-18.37418015090492
 20
101.4128138499788
 30
0.0
 11
-18.21719460232151
 21
101.5756136781394
 31
0.0
  0
LINE
  5
4074
330
390D
100
AcDbEntity
  8
Visible Edges(Roxtec)
100
AcDbLine
 10
-18.21719460232151
 20
101.5756136781394
 30
0.0
 11
-18.07765189246959
 21
101.7500420654544
 31
0.0
  0
LINE
  5
4075
330
390D
100
AcDbEntity
  8
Visible Edges(Roxtec)
100
AcDbLine
 10
-18.07765189246959
 20
101.7500420654544
 30
0.0
 11
-17.94392346219473
 21
101.9419132915008
 31
0.0
  0
LINE
  5
4076
330
390D
100
AcDbEntity
  8
Visible Edges(Roxtec)
100
AcDbLine
 10
-17.94392346219473
 20
101.9419132915008
 30
0.0
 11
-17.8276378706513
 21
102.1395987971244
 31
0.0
  0
LINE
  5
4077
330
390D
100
AcDbEntity
  8
Visible Edges(Roxtec)
100
AcDbLine
 10
-17.8276378706513
 20
102.1395987971244
 30
0.0
 11
-17.72879511783969
 21
102.3430985823251
 31
0.0
  0
LINE
  5
4078
330
390D
100
AcDbEntity
  8
Visible Edges(Roxtec)
100
AcDbLine
 10
-17.72879511783969
 20
102.3430985823251
 30
0.0
 11
-17.64739520375934
 21
102.5640412062575
 31
0.0
  0
LINE
  5
4079
330
390D
100
AcDbEntity
  8
Visible Edges(Roxtec)
100
AcDbLine
 10
-17.64739520375934
 20
102.5640412062575
 30
0.0
 11
-17.58343812841036
 21
102.7849838301898
 31
0.0
  0
LINE
  5
407A
330
390D
100
AcDbEntity
  8
Visible Edges(Roxtec)
100
AcDbLine
 10
-17.58343812841036
 20
102.7849838301898
 30
0.0
 11
-17.53692389179326
 21
103.0175550132763
 31
0.0
  0
LINE
  5
407B
330
390D
100
AcDbEntity
  8
Visible Edges(Roxtec)
100
AcDbLine
 10
-17.53692389179326
 20
103.0175550132763
 30
0.0
 11
-17.50785249390742
 21
103.25594047594
 31
0.0
  0
LINE
  5
407C
330
390D
100
AcDbEntity
  8
Visible Edges(Roxtec)
100
AcDbLine
 10
-17.50785249390742
 20
103.25594047594
 30
0.0
 11
-17.49622393475289
 21
103.5001402181809
 31
0.0
  0
LINE
  5
407D
330
390D
100
AcDbEntity
  8
Visible Edges(Roxtec)
100
AcDbLine
 10
-17.49622393475289
 20
103.5001402181809
 30
0.0
 11
-17.50785249390742
 21
103.7443399604218
 31
0.0
  0
LINE
  5
407E
330
390D
100
AcDbEntity
  8
Visible Edges(Roxtec)
100
AcDbLine
 10
-17.50785249390742
 20
103.7443399604218
 30
0.0
 11
-17.53692389179326
 21
103.9827254230857
 31
0.0
  0
LINE
  5
407F
330
390D
100
AcDbEntity
  8
Visible Edges(Roxtec)
100
AcDbLine
 10
-17.53692389179326
 20
103.9827254230857
 30
0.0
 11
-17.58343812841036
 21
104.2152966061723
 31
0.0
  0
LINE
  5
4080
330
390D
100
AcDbEntity
  8
Visible Edges(Roxtec)
100
AcDbLine
 10
-17.58343812841036
 20
104.2152966061723
 30
0.0
 11
-17.64739520375934
 21
104.4362392301045
 31
0.0
  0
LINE
  5
4081
330
390D
100
AcDbEntity
  8
Visible Edges(Roxtec)
100
AcDbLine
 10
-17.64739520375934
 20
104.4362392301045
 30
0.0
 11
-17.73460939741682
 21
104.6513675744595
 31
0.0
  0
LINE
  5
4082
330
390D
100
AcDbEntity
  8
Visible Edges(Roxtec)
100
AcDbLine
 10
-17.73460939741682
 20
104.6513675744595
 30
0.0
 11
-17.83345215022865
 21
104.8606816392374
 31
0.0
  0
LINE
  5
4083
330
390D
100
AcDbEntity
  8
Visible Edges(Roxtec)
100
AcDbLine
 10
-17.83345215022865
 20
104.8606816392374
 30
0.0
 11
-17.94973774177214
 21
105.0583671448611
 31
0.0
  0
LINE
  5
4084
330
390D
100
AcDbEntity
  8
Visible Edges(Roxtec)
100
AcDbLine
 10
-17.94973774177214
 20
105.0583671448611
 30
0.0
 11
-18.07765189246959
 21
105.2444240913305
 31
0.0
  0
LINE
  5
4085
330
390D
100
AcDbEntity
  8
Visible Edges(Roxtec)
100
AcDbLine
 10
-18.07765189246959
 20
105.2444240913305
 30
0.0
 11
-18.22300888189863
 21
105.4246667582225
 31
0.0
  0
LINE
  5
4086
330
390D
100
AcDbEntity
  8
Visible Edges(Roxtec)
100
AcDbLine
 10
-18.22300888189863
 20
105.4246667582225
 30
0.0
 11
-18.37999443048204
 21
105.5874665863831
 31
0.0
  0
LINE
  5
4087
330
390D
100
AcDbEntity
  8
Visible Edges(Roxtec)
100
AcDbLine
 10
-18.37999443048204
 20
105.5874665863831
 30
0.0
 11
-18.54860853821987
 21
105.7386378553893
 31
0.0
  0
LINE
  5
4088
330
390D
100
AcDbEntity
  8
Visible Edges(Roxtec)
100
AcDbLine
 10
-18.54860853821987
 20
105.7386378553893
 30
0.0
 11
-18.73466548468934
 21
105.8781805652413
 31
0.0
  0
LINE
  5
4089
330
390D
100
AcDbEntity
  8
Visible Edges(Roxtec)
100
AcDbLine
 10
-18.73466548468934
 20
105.8781805652413
 30
0.0
 11
-18.92653671073577
 21
106.0002804363617
 31
0.0
  0
LINE
  5
408A
330
390D
100
AcDbEntity
  8
Visible Edges(Roxtec)
100
AcDbLine
 10
-18.92653671073577
 20
106.0002804363617
 30
0.0
 11
-18.29278023682462
 21
106.0002804363617
 31
0.0
  0
LINE
  5
408B
330
390D
100
AcDbEntity
  8
Visible Edges(Roxtec)
100
AcDbLine
 10
-18.29278023682462
 20
106.0002804363617
 30
0.0
 11
-18.1067232903556
 21
105.831666328624
 31
0.0
  0
LINE
  5
408C
330
390D
100
AcDbEntity
  8
Visible Edges(Roxtec)
100
AcDbLine
 10
-18.1067232903556
 20
105.831666328624
 30
0.0
 11
-18.00488868699381
 21
105.7337589769553
 31
0.0
  0
LINE
  5
408D
330
390D
100
AcDbEntity
  8
Visible Edges(Roxtec)
100
AcDbLine
 10
-18.00488868699381
 20
105.7337589769553
 30
0.0
 11
-17.76949507487978
 21
105.4479238765311
 31
0.0
  0
LINE
  5
408E
330
390D
100
AcDbEntity
  8
Visible Edges(Roxtec)
100
AcDbLine
 10
-17.76949507487978
 20
105.4479238765311
 30
0.0
 11
-17.62995236502786
 21
105.2386098117532
 31
0.0
  0
LINE
  5
408F
330
390D
100
AcDbEntity
  8
Visible Edges(Roxtec)
100
AcDbLine
 10
-17.62995236502786
 20
105.2386098117532
 30
0.0
 11
-17.5020382143303
 21
105.0176671878209
 31
0.0
  0
LINE
  5
4090
330
390D
100
AcDbEntity
  8
Visible Edges(Roxtec)
100
AcDbLine
 10
-17.5020382143303
 20
105.0176671878209
 30
0.0
 11
-17.39156690236393
 21
104.7850960047343
 31
0.0
  0
LINE
  5
4091
330
390D
100
AcDbEntity
  8
Visible Edges(Roxtec)
100
AcDbLine
 10
-17.39156690236393
 20
104.7850960047343
 30
0.0
 11
-17.30435270870646
 21
104.5467105420706
 31
0.0
  0
LINE
  5
4092
330
390D
100
AcDbEntity
  8
Visible Edges(Roxtec)
100
AcDbLine
 10
-17.30435270870646
 20
104.5467105420706
 30
0.0
 11
-17.22876707420352
 21
104.2966965202526
 31
0.0
  0
LINE
  5
4093
330
390D
100
AcDbEntity
  8
Visible Edges(Roxtec)
100
AcDbLine
 10
-17.22876707420352
 20
104.2966965202526
 30
0.0
 11
-17.17643855800901
 21
104.0350539392802
 31
0.0
  0
LINE
  5
4094
330
390D
100
AcDbEntity
  8
Visible Edges(Roxtec)
100
AcDbLine
 10
-17.17643855800901
 20
104.0350539392802
 30
0.0
 11
-17.14736716012305
 21
103.7734113583076
 31
0.0
  0
LINE
  5
4095
330
390D
100
AcDbEntity
  8
Visible Edges(Roxtec)
100
AcDbLine
 10
-17.14736716012305
 20
103.7734113583076
 30
0.0
 11
-17.13573860096892
 21
103.5001402181809
 31
0.0
  0
LINE
  5
4096
330
390D
100
AcDbEntity
  8
Visible Edges(Roxtec)
100
AcDbLine
 10
-17.13573860096892
 20
103.5001402181809
 30
0.0
 11
-17.14736716012305
 21
103.1105834865109
 31
0.0
  0
LINE
  5
4097
330
390D
100
AcDbEntity
  8
Visible Edges(Roxtec)
100
AcDbLine
 10
-17.14736716012305
 20
103.1105834865109
 30
0.0
 11
-17.22876707420352
 21
102.7035839161095
 31
0.0
  0
LINE
  5
4098
330
390D
100
AcDbEntity
  8
Visible Edges(Roxtec)
100
AcDbLine
 10
-17.22876707420352
 20
102.7035839161095
 30
0.0
 11
-17.30435270870646
 21
102.4535698942914
 31
0.0
  0
LINE
  5
4099
330
390D
100
AcDbEntity
  8
Visible Edges(Roxtec)
100
AcDbLine
 10
-17.30435270870646
 20
102.4535698942914
 30
0.0
 11
-17.39156690236393
 21
102.2151844316275
 31
0.0
  0
LINE
  5
409A
330
390D
100
AcDbEntity
  8
Visible Edges(Roxtec)
100
AcDbLine
 10
-17.39156690236393
 20
102.2151844316275
 30
0.0
 11
-17.5020382143303
 21
101.9826132485411
 31
0.0
  0
LINE
  5
409B
330
390D
100
AcDbEntity
  8
Visible Edges(Roxtec)
100
AcDbLine
 10
-17.5020382143303
 20
101.9826132485411
 30
0.0
 11
-17.62995236502786
 21
101.7616706246087
 31
0.0
  0
LINE
  5
409C
330
390D
100
AcDbEntity
  8
Visible Edges(Roxtec)
100
AcDbLine
 10
-17.62995236502786
 20
101.7616706246087
 30
0.0
 11
-17.77530935445679
 21
101.5523565598307
 31
0.0
  0
LINE
  5
409D
330
390D
100
AcDbEntity
  8
Visible Edges(Roxtec)
100
AcDbLine
 10
-17.77530935445679
 20
101.5523565598307
 30
0.0
 11
-17.93229490304065
 21
101.3546710542073
 31
0.0
  0
LINE
  5
409E
330
390D
100
AcDbEntity
  8
Visible Edges(Roxtec)
100
AcDbLine
 10
-17.93229490304065
 20
101.3546710542073
 30
0.0
 11
-18.10672329035554
 21
101.1686141077379
 31
0.0
  0
LINE
  5
409F
330
390D
100
AcDbEntity
  8
Visible Edges(Roxtec)
100
AcDbLine
 10
-9.216689816870541
 20
104.2908822406754
 30
0.0
 11
-8.338733600718455
 21
104.2908822406754
 31
0.0
  0
LINE
  5
40A0
330
390D
100
AcDbEntity
  8
Visible Edges(Roxtec)
100
AcDbLine
 10
-8.76317600985169
 20
103.2268690780542
 30
0.0
 11
-9.216689816870541
 21
104.2908822406754
 31
0.0
  0
LINE
  5
40A1
330
390D
100
AcDbEntity
  8
Visible Edges(Roxtec)
100
AcDbLine
 10
-9.280646892219124
 20
102.0523846034671
 30
0.0
 11
-8.76317600985169
 21
103.2268690780542
 31
0.0
  0
LINE
  5
40A2
330
390D
100
AcDbEntity
  8
Visible Edges(Roxtec)
100
AcDbLine
 10
-8.449204912684876
 20
102.0523846034671
 30
0.0
 11
-9.280646892219124
 21
102.0523846034671
 31
0.0
  0
LINE
  5
40A3
330
390D
100
AcDbEntity
  8
Visible Edges(Roxtec)
100
AcDbLine
 10
-8.094533858477575
 20
102.8431266259614
 30
0.0
 11
-8.449204912684876
 21
102.0523846034671
 31
0.0
  0
LINE
  5
40A4
330
390D
100
AcDbEntity
  8
Visible Edges(Roxtec)
100
AcDbLine
 10
-7.739862804270728
 20
102.0523846034671
 30
0.0
 11
-8.094533858477575
 21
102.8431266259614
 31
0.0
  0
LINE
  5
40A5
330
390D
100
AcDbEntity
  8
Visible Edges(Roxtec)
100
AcDbLine
 10
-6.8153923515016
 20
102.0523846034671
 30
0.0
 11
-7.739862804270728
 21
102.0523846034671
 31
0.0
  0
LINE
  5
40A6
330
390D
100
AcDbEntity
  8
Visible Edges(Roxtec)
100
AcDbLine
 10
-7.350306072600744
 20
103.2443119167857
 30
0.0
 11
-6.8153923515016
 21
102.0523846034671
 31
0.0
  0
LINE
  5
40A7
330
390D
100
AcDbEntity
  8
Visible Edges(Roxtec)
100
AcDbLine
 10
-6.896792265581666
 20
104.2908822406754
 30
0.0
 11
-7.350306072600744
 21
103.2443119167857
 31
0.0
  0
LINE
  5
40A8
330
390D
100
AcDbEntity
  8
Visible Edges(Roxtec)
100
AcDbLine
 10
-7.710791406384714
 20
104.2908822406754
 30
0.0
 11
-6.896792265581666
 21
104.2908822406754
 31
0.0
  0
LINE
  5
40A9
330
390D
100
AcDbEntity
  8
Visible Edges(Roxtec)
100
AcDbLine
 10
-8.024762503551585
 20
103.5640972935297
 30
0.0
 11
-7.710791406384714
 21
104.2908822406754
 31
0.0
  0
LINE
  5
40AA
330
390D
100
AcDbEntity
  8
Visible Edges(Roxtec)
100
AcDbLine
 10
-8.338733600718455
 20
104.2908822406754
 30
0.0
 11
-8.024762503551585
 21
103.5640972935297
 31
0.0
  0
LINE
  5
40AB
330
390D
100
AcDbEntity
  8
Visible Edges(Roxtec)
100
AcDbLine
 10
-20.1533497015173
 20
101.0116285591544
 30
0.0
 11
-20.39754944375818
 21
101.0000000000001
 31
0.0
  0
LINE
  5
40AC
330
390D
100
AcDbEntity
  8
Visible Edges(Roxtec)
100
AcDbLine
 10
-20.39754944375818
 20
101.0000000000001
 30
0.0
 11
-20.39754944375818
 21
101.3662996133615
 31
0.0
  0
LINE
  5
40AD
330
390D
100
AcDbEntity
  8
Visible Edges(Roxtec)
100
AcDbLine
 10
-20.39754944375818
 20
101.3662996133615
 30
0.0
 11
-20.17660681982591
 21
101.3779281725157
 31
0.0
  0
LINE
  5
40AE
330
390D
100
AcDbEntity
  8
Visible Edges(Roxtec)
100
AcDbLine
 10
-20.17660681982591
 20
101.3779281725157
 30
0.0
 11
-19.96147847547087
 21
101.4128138499788
 31
0.0
  0
LINE
  5
40AF
330
390D
100
AcDbEntity
  8
Visible Edges(Roxtec)
100
AcDbLine
 10
-19.96147847547087
 20
101.4128138499788
 30
0.0
 11
-19.75797869027008
 21
101.4651423661732
 31
0.0
  0
LINE
  5
40B0
330
390D
100
AcDbEntity
  8
Visible Edges(Roxtec)
100
AcDbLine
 10
-19.75797869027008
 20
101.4651423661732
 30
0.0
 11
-19.56029318464652
 21
101.5349137210992
 31
0.0
  0
LINE
  5
40B1
330
390D
100
AcDbEntity
  8
Visible Edges(Roxtec)
100
AcDbLine
 10
-19.56029318464652
 20
101.5349137210992
 30
0.0
 11
-19.37423623817721
 21
101.6221279147567
 31
0.0
  0
LINE
  5
40B2
330
390D
100
AcDbEntity
  8
Visible Edges(Roxtec)
100
AcDbLine
 10
-19.37423623817721
 20
101.6221279147567
 30
0.0
 11
-19.19980785086227
 21
101.7325992267229
 31
0.0
  0
LINE
  5
40B3
330
390D
100
AcDbEntity
  8
Visible Edges(Roxtec)
100
AcDbLine
 10
-19.19980785086227
 20
101.7325992267229
 30
0.0
 11
-19.03700802270168
 21
101.8546990978433
 31
0.0
  0
LINE
  5
40B4
330
390D
100
AcDbEntity
  8
Visible Edges(Roxtec)
100
AcDbLine
 10
-19.03700802270168
 20
101.8546990978433
 30
0.0
 11
-18.8858367536954
 21
101.9884275281181
 31
0.0
  0
LINE
  5
40B5
330
390D
100
AcDbEntity
  8
Visible Edges(Roxtec)
100
AcDbLine
 10
-18.8858367536954
 20
101.9884275281181
 30
0.0
 11
-18.74629404384342
 21
102.1395987971244
 31
0.0
  0
LINE
  5
40B6
330
390D
100
AcDbEntity
  8
Visible Edges(Roxtec)
100
AcDbLine
 10
-18.74629404384342
 20
102.1395987971244
 30
0.0
 11
-18.62419417272298
 21
102.3082129048622
 31
0.0
  0
LINE
  5
40B7
330
390D
100
AcDbEntity
  8
Visible Edges(Roxtec)
100
AcDbLine
 10
-18.62419417272298
 20
102.3082129048622
 30
0.0
 11
-18.5137228607569
 21
102.4826412921772
 31
0.0
  0
LINE
  5
40B8
330
390D
100
AcDbEntity
  8
Visible Edges(Roxtec)
100
AcDbLine
 10
-18.5137228607569
 20
102.4826412921772
 30
0.0
 11
-18.42650866709943
 21
102.6686982386464
 31
0.0
  0
LINE
  5
40B9
330
390D
100
AcDbEntity
  8
Visible Edges(Roxtec)
100
AcDbLine
 10
-18.42650866709943
 20
102.6686982386464
 30
0.0
 11
-18.35092303259648
 21
102.86638374427
 31
0.0
  0
LINE
  5
40BA
330
390D
100
AcDbEntity
  8
Visible Edges(Roxtec)
100
AcDbLine
 10
-18.35092303259648
 20
102.86638374427
 30
0.0
 11
-18.29859451640203
 21
103.0698835294708
 31
0.0
  0
LINE
  5
40BB
330
390D
100
AcDbEntity
  8
Visible Edges(Roxtec)
100
AcDbLine
 10
-18.29859451640203
 20
103.0698835294708
 30
0.0
 11
-18.26952311851602
 21
103.2791975942487
 31
0.0
  0
LINE
  5
40BC
330
390D
100
AcDbEntity
  8
Visible Edges(Roxtec)
100
AcDbLine
 10
-18.26952311851602
 20
103.2791975942487
 30
0.0
 11
-18.2578945593616
 21
103.5001402181809
 31
0.0
  0
LINE
  5
40BD
330
390D
100
AcDbEntity
  8
Visible Edges(Roxtec)
100
AcDbLine
 10
-18.2578945593616
 20
103.5001402181809
 30
0.0
 11
-18.26952311851602
 21
103.7210828421131
 31
0.0
  0
LINE
  5
40BE
330
390D
100
AcDbEntity
  8
Visible Edges(Roxtec)
100
AcDbLine
 10
-18.26952311851602
 20
103.7210828421131
 30
0.0
 11
-18.29859451640203
 21
103.930396906891
 31
0.0
  0
LINE
  5
40BF
330
390D
100
AcDbEntity
  8
Visible Edges(Roxtec)
100
AcDbLine
 10
-18.29859451640203
 20
103.930396906891
 30
0.0
 11
-18.42650866709943
 21
104.3315821977155
 31
0.0
  0
LINE
  5
40C0
330
390D
100
AcDbEntity
  8
Visible Edges(Roxtec)
100
AcDbLine
 10
-18.42650866709943
 20
104.3315821977155
 30
0.0
 11
-18.5137228607569
 21
104.5176391441848
 31
0.0
  0
LINE
  5
40C1
330
390D
100
AcDbEntity
  8
Visible Edges(Roxtec)
100
AcDbLine
 10
-18.5137228607569
 20
104.5176391441848
 30
0.0
 11
-18.62419417272298
 21
104.6920675314997
 31
0.0
  0
LINE
  5
40C2
330
390D
100
AcDbEntity
  8
Visible Edges(Roxtec)
100
AcDbLine
 10
-18.62419417272298
 20
104.6920675314997
 30
0.0
 11
-18.74629404384342
 21
104.8606816392374
 31
0.0
  0
LINE
  5
40C3
330
390D
100
AcDbEntity
  8
Visible Edges(Roxtec)
100
AcDbLine
 10
-18.74629404384342
 20
104.8606816392374
 30
0.0
 11
-18.8858367536954
 21
105.0118529082437
 31
0.0
  0
LINE
  5
40C4
330
390D
100
AcDbEntity
  8
Visible Edges(Roxtec)
100
AcDbLine
 10
-18.8858367536954
 20
105.0118529082437
 30
0.0
 11
-19.03700802270168
 21
105.1455813385185
 31
0.0
  0
LINE
  5
40C5
330
390D
100
AcDbEntity
  8
Visible Edges(Roxtec)
100
AcDbLine
 10
-19.03700802270168
 20
105.1455813385185
 30
0.0
 11
-19.19980785086227
 21
105.2676812096389
 31
0.0
  0
LINE
  5
40C6
330
390D
100
AcDbEntity
  8
Visible Edges(Roxtec)
100
AcDbLine
 10
-19.19980785086227
 20
105.267681209639
 30
0.0
 11
-19.37423623817721
 21
105.3781525216051
 31
0.0
  0
LINE
  5
40C7
330
390D
100
AcDbEntity
  8
Visible Edges(Roxtec)
100
AcDbLine
 10
-19.37423623817721
 20
105.3781525216051
 30
0.0
 11
-19.56029318464652
 21
105.4653667152626
 31
0.0
  0
LINE
  5
40C8
330
390D
100
AcDbEntity
  8
Visible Edges(Roxtec)
100
AcDbLine
 10
-19.56029318464652
 20
105.4653667152626
 30
0.0
 11
-19.75797869027008
 21
105.5351380701886
 31
0.0
  0
LINE
  5
40C9
330
390D
100
AcDbEntity
  8
Visible Edges(Roxtec)
100
AcDbLine
 10
-19.75797869027008
 20
105.5351380701886
 30
0.0
 11
-19.96147847547087
 21
105.5874665863831
 31
0.0
  0
LINE
  5
40CA
330
390D
100
AcDbEntity
  8
Visible Edges(Roxtec)
100
AcDbLine
 10
-19.96147847547087
 20
105.5874665863831
 30
0.0
 11
-20.17660681982591
 21
105.6223522638461
 31
0.0
  0
LINE
  5
40CB
330
390D
100
AcDbEntity
  8
Visible Edges(Roxtec)
100
AcDbLine
 10
-20.17660681982591
 20
105.6223522638461
 30
0.0
 11
-20.39754944375818
 21
105.6339808230003
 31
0.0
  0
LINE
  5
40CC
330
390D
100
AcDbEntity
  8
Visible Edges(Roxtec)
100
AcDbLine
 10
-20.39754944375818
 20
105.6339808230003
 30
0.0
 11
-20.39754944375818
 21
106.0002804363617
 31
0.0
  0
LINE
  5
40CD
330
390D
100
AcDbEntity
  8
Visible Edges(Roxtec)
100
AcDbLine
 10
-20.39754944375818
 20
106.0002804363617
 30
0.0
 11
-20.1533497015173
 21
105.9886518772074
 31
0.0
  0
LINE
  5
40CE
330
390D
100
AcDbEntity
  8
Visible Edges(Roxtec)
100
AcDbLine
 10
-20.1533497015173
 20
105.9886518772074
 30
0.0
 11
-19.91496423885348
 21
105.9537661997444
 31
0.0
  0
LINE
  5
40CF
330
390D
100
AcDbEntity
  8
Visible Edges(Roxtec)
100
AcDbLine
 10
-19.91496423885348
 20
105.9537661997444
 30
0.0
 11
-19.68820733534409
 21
105.90143768355
 31
0.0
  0
LINE
  5
40D0
330
390D
100
AcDbEntity
  8
Visible Edges(Roxtec)
100
AcDbLine
 10
-19.68820733534409
 20
105.90143768355
 30
0.0
 11
-19.47307899098905
 21
105.8258520490468
 31
0.0
  0
LINE
  5
40D1
330
390D
100
AcDbEntity
  8
Visible Edges(Roxtec)
100
AcDbLine
 10
-19.47307899098905
 20
105.8258520490468
 30
0.0
 11
-19.26376492621114
 21
105.7328235758122
 31
0.0
  0
LINE
  5
40D2
330
390D
100
AcDbEntity
  8
Visible Edges(Roxtec)
100
AcDbLine
 10
-19.26376492621114
 20
105.7328235758122
 30
0.0
 11
-19.06607942058769
 21
105.6223522638461
 31
0.0
  0
LINE
  5
40D3
330
390D
100
AcDbEntity
  8
Visible Edges(Roxtec)
100
AcDbLine
 10
-19.06607942058769
 20
105.6223522638461
 30
0.0
 11
-18.88002247411828
 21
105.4886238335714
 31
0.0
  0
LINE
  5
40D4
330
390D
100
AcDbEntity
  8
Visible Edges(Roxtec)
100
AcDbLine
 10
-18.88002247411828
 20
105.4886238335714
 30
0.0
 11
-18.70559408680333
 21
105.3490811237194
 31
0.0
  0
LINE
  5
40D5
330
390D
100
AcDbEntity
  8
Visible Edges(Roxtec)
100
AcDbLine
 10
-18.70559408680333
 20
105.3490811237194
 30
0.0
 11
-18.54279425864291
 21
105.1862812955588
 31
0.0
  0
LINE
  5
40D6
330
390D
100
AcDbEntity
  8
Visible Edges(Roxtec)
100
AcDbLine
 10
-18.54279425864291
 20
105.1862812955588
 30
0.0
 11
-18.35654886960822
 21
104.96385546335
 31
0.0
  0
LINE
  5
40D7
330
390D
100
AcDbEntity
  8
Visible Edges(Roxtec)
100
AcDbLine
 10
-18.35654886960822
 20
104.96385546335
 30
0.0
 11
-18.15905180655005
 21
104.6281104561509
 31
0.0
  0
LINE
  5
40D8
330
390D
100
AcDbEntity
  8
Visible Edges(Roxtec)
100
AcDbLine
 10
-18.15905180655005
 20
104.6281104561509
 30
0.0
 11
-18.06602333331517
 21
104.418796391373
 31
0.0
  0
LINE
  5
40D9
330
390D
100
AcDbEntity
  8
Visible Edges(Roxtec)
100
AcDbLine
 10
-18.06602333331517
 20
104.418796391373
 30
0.0
 11
-17.99043769881211
 21
104.2036680470179
 31
0.0
  0
LINE
  5
40DA
330
390D
100
AcDbEntity
  8
Visible Edges(Roxtec)
100
AcDbLine
 10
-17.99043769881211
 20
104.2036680470179
 30
0.0
 11
-17.93810918261761
 21
103.9769111435084
 31
0.0
  0
LINE
  5
40DB
330
390D
100
AcDbEntity
  8
Visible Edges(Roxtec)
100
AcDbLine
 10
-17.93810918261761
 20
103.9769111435084
 30
0.0
 11
-17.90322350515464
 21
103.7385256808446
 31
0.0
  0
LINE
  5
40DC
330
390D
100
AcDbEntity
  8
Visible Edges(Roxtec)
100
AcDbLine
 10
-17.90322350515464
 20
103.7385256808446
 30
0.0
 11
-17.89159494600028
 21
103.5001402181809
 31
0.0
  0
LINE
  5
40DD
330
390D
100
AcDbEntity
  8
Visible Edges(Roxtec)
100
AcDbLine
 10
-17.89159494600028
 20
103.5001402181809
 30
0.0
 11
-17.90322350515464
 21
103.2617547555173
 31
0.0
  0
LINE
  5
40DE
330
390D
100
AcDbEntity
  8
Visible Edges(Roxtec)
100
AcDbLine
 10
-17.90322350515464
 20
103.2617547555173
 30
0.0
 11
-17.93810918261761
 21
103.0233692928534
 31
0.0
  0
LINE
  5
40DF
330
390D
100
AcDbEntity
  8
Visible Edges(Roxtec)
100
AcDbLine
 10
-17.93810918261761
 20
103.0233692928534
 30
0.0
 11
-17.99625197838924
 21
102.796612389344
 31
0.0
  0
LINE
  5
40E0
330
390D
100
AcDbEntity
  8
Visible Edges(Roxtec)
100
AcDbLine
 10
-17.99625197838924
 20
102.796612389344
 30
0.0
 11
-18.06602333331517
 21
102.5814840449888
 31
0.0
  0
LINE
  5
40E1
330
390D
100
AcDbEntity
  8
Visible Edges(Roxtec)
100
AcDbLine
 10
-18.06602333331517
 20
102.5814840449888
 30
0.0
 11
-18.16486608612706
 21
102.3721699802109
 31
0.0
  0
LINE
  5
40E2
330
390D
100
AcDbEntity
  8
Visible Edges(Roxtec)
100
AcDbLine
 10
-18.16486608612706
 20
102.3721699802109
 30
0.0
 11
-18.27533739809314
 21
102.1744844745875
 31
0.0
  0
LINE
  5
40E3
330
390D
100
AcDbEntity
  8
Visible Edges(Roxtec)
100
AcDbLine
 10
-18.27533739809314
 20
102.1744844745875
 30
0.0
 11
-18.40325154879099
 21
101.9884275281181
 31
0.0
  0
LINE
  5
40E4
330
390D
100
AcDbEntity
  8
Visible Edges(Roxtec)
100
AcDbLine
 10
-18.40325154879099
 20
101.9884275281181
 30
0.0
 11
-18.54860853821987
 21
101.8139991408031
 31
0.0
  0
LINE
  5
40E5
330
390D
100
AcDbEntity
  8
Visible Edges(Roxtec)
100
AcDbLine
 10
-18.54860853821987
 20
101.8139991408031
 30
0.0
 11
-18.70559408680333
 21
101.6511993126426
 31
0.0
  0
LINE
  5
40E6
330
390D
100
AcDbEntity
  8
Visible Edges(Roxtec)
100
AcDbLine
 10
-18.70559408680333
 20
101.6511993126426
 30
0.0
 11
-18.88002247411828
 21
101.5058423232135
 31
0.0
  0
LINE
  5
40E7
330
390D
100
AcDbEntity
  8
Visible Edges(Roxtec)
100
AcDbLine
 10
-18.88002247411828
 20
101.5058423232135
 30
0.0
 11
-19.06607942058769
 21
101.3779281725158
 31
0.0
  0
LINE
  5
40E8
330
390D
100
AcDbEntity
  8
Visible Edges(Roxtec)
100
AcDbLine
 10
-19.06607942058769
 20
101.3779281725158
 30
0.0
 11
-19.26376492621114
 21
101.2674568605498
 31
0.0
  0
LINE
  5
40E9
330
390D
100
AcDbEntity
  8
Visible Edges(Roxtec)
100
AcDbLine
 10
-19.26376492621114
 20
101.2674568605498
 30
0.0
 11
-19.47307899098905
 21
101.1744283873151
 31
0.0
  0
LINE
  5
40EA
330
390D
100
AcDbEntity
  8
Visible Edges(Roxtec)
100
AcDbLine
 10
-19.47307899098905
 20
101.1744283873151
 30
0.0
 11
-19.69402161492149
 21
101.0988427528119
 31
0.0
  0
LINE
  5
40EB
330
390D
100
AcDbEntity
  8
Visible Edges(Roxtec)
100
AcDbLine
 10
-19.69402161492149
 20
101.0988427528119
 30
0.0
 11
-19.92077851843089
 21
101.0406999570402
 31
0.0
  0
LINE
  5
40EC
330
390D
100
AcDbEntity
  8
Visible Edges(Roxtec)
100
AcDbLine
 10
-19.92077851843089
 20
101.0406999570402
 30
0.0
 11
-20.1533497015173
 21
101.0116285591544
 31
0.0
  0
LINE
  5
40ED
330
390D
100
AcDbEntity
  8
Visible Edges(Roxtec)
100
AcDbLine
 10
-4.925751488922855
 20
102.267512947822
 30
0.0
 11
-4.954822886808756
 21
102.3489128619024
 31
0.0
  0
LINE
  5
40EE
330
390D
100
AcDbEntity
  8
Visible Edges(Roxtec)
100
AcDbLine
 10
-4.885051531882766
 20
102.2035558724732
 30
0.0
 11
-4.925751488922855
 21
102.267512947822
 31
0.0
  0
LINE
  5
40EF
330
390D
100
AcDbEntity
  8
Visible Edges(Roxtec)
100
AcDbLine
 10
-4.838537295265382
 20
102.1454130767015
 30
0.0
 11
-4.885051531882766
 21
102.2035558724732
 31
0.0
  0
LINE
  5
40F0
330
390D
100
AcDbEntity
  8
Visible Edges(Roxtec)
100
AcDbLine
 10
-4.786208779070932
 20
102.1047131196615
 30
0.0
 11
-4.838537295265382
 21
102.1454130767015
 31
0.0
  0
LINE
  5
40F1
330
390D
100
AcDbEntity
  8
Visible Edges(Roxtec)
100
AcDbLine
 10
-4.722251703722349
 20
102.0756417217756
 30
0.0
 11
-4.786208779070932
 21
102.1047131196615
 31
0.0
  0
LINE
  5
40F2
330
390D
100
AcDbEntity
  8
Visible Edges(Roxtec)
100
AcDbLine
 10
-4.652480348796416
 20
102.0523846034671
 30
0.0
 11
-4.722251703722349
 21
102.0756417217756
 31
0.0
  0
LINE
  5
40F3
330
390D
100
AcDbEntity
  8
Visible Edges(Roxtec)
100
AcDbLine
 10
-4.582708993870426
 20
102.0349417647355
 30
0.0
 11
-4.652480348796416
 21
102.0523846034671
 31
0.0
  0
LINE
  5
40F4
330
390D
100
AcDbEntity
  8
Visible Edges(Roxtec)
100
AcDbLine
 10
-4.501309079789962
 20
102.0291274851583
 30
0.0
 11
-4.582708993870426
 21
102.0349417647355
 31
0.0
  0
LINE
  5
40F5
330
390D
100
AcDbEntity
  8
Visible Edges(Roxtec)
100
AcDbLine
 10
-3.245424691122366
 20
102.0291274851583
 30
0.0
 11
-4.501309079789962
 21
102.0291274851583
 31
0.0
  0
LINE
  5
40F6
330
390D
100
AcDbEntity
  8
Visible Edges(Roxtec)
100
AcDbLine
 10
-3.114603400636212
 20
102.0465703238898
 30
0.0
 11
-3.245424691122366
 21
102.0291274851583
 31
0.0
  0
LINE
  5
40F7
330
390D
100
AcDbEntity
  8
Visible Edges(Roxtec)
100
AcDbLine
 10
-3.076810583384599
 20
102.0640131626213
 30
0.0
 11
-3.114603400636212
 21
102.0465703238898
 31
0.0
  0
LINE
  5
40F8
330
390D
100
AcDbEntity
  8
Visible Edges(Roxtec)
100
AcDbLine
 10
-3.039125437977077
 20
102.0747803470235
 30
0.0
 11
-3.076810583384599
 21
102.0640131626213
 31
0.0
  0
LINE
  5
40F9
330
390D
100
AcDbEntity
  8
Visible Edges(Roxtec)
100
AcDbLine
 10
-2.977967830572595
 20
102.0988988400843
 30
0.0
 11
-3.039125437977077
 21
102.0747803470235
 31
0.0
  0
LINE
  5
40FA
330
390D
100
AcDbEntity
  8
Visible Edges(Roxtec)
100
AcDbLine
 10
-2.884939357338168
 20
102.191927313319
 30
0.0
 11
-2.977967830572595
 21
102.0988988400843
 31
0.0
  0
LINE
  5
40FB
330
390D
100
AcDbEntity
  8
Visible Edges(Roxtec)
100
AcDbLine
 10
-2.844239400298022
 20
102.2616986682449
 30
0.0
 11
-2.884939357338168
 21
102.191927313319
 31
0.0
  0
LINE
  5
40FC
330
390D
100
AcDbEntity
  8
Visible Edges(Roxtec)
100
AcDbLine
 10
-2.815168002412178
 20
102.3489128619024
 30
0.0
 11
-2.844239400298022
 21
102.2616986682449
 31
0.0
  0
LINE
  5
40FD
330
390D
100
AcDbEntity
  8
Visible Edges(Roxtec)
100
AcDbLine
 10
-2.797725163680695
 20
102.4477556147142
 30
0.0
 11
-2.815168002412178
 21
102.3489128619024
 31
0.0
  0
LINE
  5
40FE
330
390D
100
AcDbEntity
  8
Visible Edges(Roxtec)
100
AcDbLine
 10
-2.791910884103572
 20
102.5582269266803
 30
0.0
 11
-2.797725163680695
 21
102.4477556147142
 31
0.0
  0
LINE
  5
40FF
330
390D
100
AcDbEntity
  8
Visible Edges(Roxtec)
100
AcDbLine
 10
-2.791910884103572
 20
102.726841034418
 30
0.0
 11
-2.791910884103572
 21
102.5582269266803
 31
0.0
  0
LINE
  5
4100
330
390D
100
AcDbEntity
  8
Visible Edges(Roxtec)
100
AcDbLine
 10
-3.640795702369359
 20
102.726841034418
 30
0.0
 11
-2.791910884103572
 21
102.726841034418
 31
0.0
  0
LINE
  5
4101
330
390D
100
AcDbEntity
  8
Visible Edges(Roxtec)
100
AcDbLine
 10
-3.646609981946767
 20
102.657069679492
 30
0.0
 11
-3.640795702369359
 21
102.726841034418
 31
0.0
  0
LINE
  5
4102
330
390D
100
AcDbEntity
  8
Visible Edges(Roxtec)
100
AcDbLine
 10
-3.669867100255373
 20
102.6047411632976
 30
0.0
 11
-3.646609981946767
 21
102.657069679492
 31
0.0
  0
LINE
  5
4103
330
390D
100
AcDbEntity
  8
Visible Edges(Roxtec)
100
AcDbLine
 10
-3.698938498141217
 20
102.5640412062575
 30
0.0
 11
-3.669867100255373
 21
102.6047411632976
 31
0.0
  0
LINE
  5
4104
330
390D
100
AcDbEntity
  8
Visible Edges(Roxtec)
100
AcDbLine
 10
-3.73382417560424
 20
102.5349698083716
 30
0.0
 11
-3.698938498141217
 21
102.5640412062575
 31
0.0
  0
LINE
  5
4105
330
390D
100
AcDbEntity
  8
Visible Edges(Roxtec)
100
AcDbLine
 10
-3.768709853067207
 20
102.5117126900629
 30
0.0
 11
-3.73382417560424
 21
102.5349698083716
 31
0.0
  0
LINE
  5
4106
330
390D
100
AcDbEntity
  8
Visible Edges(Roxtec)
100
AcDbLine
 10
-3.809409810107297
 20
102.4942698513314
 30
0.0
 11
-3.768709853067207
 21
102.5117126900629
 31
0.0
  0
LINE
  5
4107
330
390D
100
AcDbEntity
  8
Visible Edges(Roxtec)
100
AcDbLine
 10
-4.129195186851177
 20
103.395483185792
 30
0.0
 11
-3.640795702369359
 21
103.395483185792
 31
0.0
  0
LINE
  5
4108
330
390D
100
AcDbEntity
  8
Visible Edges(Roxtec)
100
AcDbLine
 10
-3.640795702369359
 20
103.395483185792
 30
0.0
 11
-3.640795702369359
 21
103.5466544547982
 31
0.0
  0
LINE
  5
4109
330
390D
100
AcDbEntity
  8
Visible Edges(Roxtec)
100
AcDbLine
 10
-3.640795702369359
 20
103.5466544547982
 30
0.0
 11
-3.646609981946767
 21
103.6222400893014
 31
0.0
  0
LINE
  5
410A
330
390D
100
AcDbEntity
  8
Visible Edges(Roxtec)
100
AcDbLine
 10
-3.646609981946767
 20
103.6222400893014
 30
0.0
 11
-3.658238541100843
 21
103.6861971646502
 31
0.0
  0
LINE
  5
410B
330
390D
100
AcDbEntity
  8
Visible Edges(Roxtec)
100
AcDbLine
 10
-3.658238541100843
 20
103.6861971646502
 30
0.0
 11
-3.681495659409733
 21
103.7385256808446
 31
0.0
  0
LINE
  5
410C
330
390D
100
AcDbEntity
  8
Visible Edges(Roxtec)
100
AcDbLine
 10
-3.681495659409733
 20
103.7385256808446
 30
0.0
 11
-3.710567057295349
 21
103.7850399174621
 31
0.0
  0
LINE
  5
410D
330
390D
100
AcDbEntity
  8
Visible Edges(Roxtec)
100
AcDbLine
 10
-3.710567057295349
 20
103.7850399174621
 30
0.0
 11
-3.751267014335667
 21
103.8141113153479
 31
0.0
  0
LINE
  5
410E
330
390D
100
AcDbEntity
  8
Visible Edges(Roxtec)
100
AcDbLine
 10
-3.751267014335667
 20
103.8141113153479
 30
0.0
 11
-3.791966971375813
 21
103.8373684336565
 31
0.0
  0
LINE
  5
410F
330
390D
100
AcDbEntity
  8
Visible Edges(Roxtec)
100
AcDbLine
 10
-3.791966971375813
 20
103.8373684336565
 30
0.0
 11
-3.838481207993197
 21
103.8489969928108
 31
0.0
  0
LINE
  5
4110
330
390D
100
AcDbEntity
  8
Visible Edges(Roxtec)
100
AcDbLine
 10
-3.84429548757032
 20
102.4884555717543
 30
0.0
 11
-3.809409810107297
 21
102.4942698513314
 31
0.0
  0
LINE
  5
4111
330
390D
100
AcDbEntity
  8
Visible Edges(Roxtec)
100
AcDbLine
 10
-3.884995444610296
 20
102.4826412921772
 30
0.0
 11
-3.84429548757032
 21
102.4884555717543
 31
0.0
  0
LINE
  5
4112
330
390D
100
AcDbEntity
  8
Visible Edges(Roxtec)
100
AcDbLine
 10
-3.948952519959277
 20
102.4884555717543
 30
0.0
 11
-3.884995444610296
 21
102.4826412921772
 31
0.0
  0
LINE
  5
4113
330
390D
100
AcDbEntity
  8
Visible Edges(Roxtec)
100
AcDbLine
 10
-4.001281036153727
 20
102.5058984104859
 30
0.0
 11
-3.948952519959277
 21
102.4884555717543
 31
0.0
  0
LINE
  5
4114
330
390D
100
AcDbEntity
  8
Visible Edges(Roxtec)
100
AcDbLine
 10
-4.047795272771054
 20
102.5349698083716
 30
0.0
 11
-4.001281036153727
 21
102.5058984104859
 31
0.0
  0
LINE
  5
4115
330
390D
100
AcDbEntity
  8
Visible Edges(Roxtec)
100
AcDbLine
 10
-4.07686667065667
 20
102.5698554858346
 30
0.0
 11
-4.047795272771054
 21
102.5349698083716
 31
0.0
  0
LINE
  5
4116
330
390D
100
AcDbEntity
  8
Visible Edges(Roxtec)
100
AcDbLine
 10
-4.100123788965561
 20
102.6105554428748
 30
0.0
 11
-4.07686667065667
 21
102.5698554858346
 31
0.0
  0
LINE
  5
4117
330
390D
100
AcDbEntity
  8
Visible Edges(Roxtec)
100
AcDbLine
 10
-4.123380907274167
 20
102.7035839161095
 30
0.0
 11
-4.100123788965561
 21
102.6105554428748
 31
0.0
  0
LINE
  5
4118
330
390D
100
AcDbEntity
  8
Visible Edges(Roxtec)
100
AcDbLine
 10
-4.129195186851177
 20
102.9419693787732
 30
0.0
 11
-4.123380907274167
 21
102.7035839161095
 31
0.0
  0
LINE
  5
4119
330
390D
100
AcDbEntity
  8
Visible Edges(Roxtec)
100
AcDbLine
 10
-2.791910884103572
 20
102.9419693787732
 30
0.0
 11
-4.129195186851177
 21
102.9419693787732
 31
0.0
  0
LINE
  5
411A
330
390D
100
AcDbEntity
  8
Visible Edges(Roxtec)
100
AcDbLine
 10
-2.791910884103572
 20
103.7792256378849
 30
0.0
 11
-2.791910884103572
 21
102.9419693787732
 31
0.0
  0
LINE
  5
411B
330
390D
100
AcDbEntity
  8
Visible Edges(Roxtec)
100
AcDbLine
 10
-2.797725163680695
 20
103.8838826702739
 30
0.0
 11
-2.791910884103572
 21
103.7792256378849
 31
0.0
  0
ARC
  5
411C
330
390D
100
AcDbEntity
  8
Visible Edges(Roxtec)
100
AcDbCircle
 10
-3.212032585497979
 20
103.8969408734917
 30
0.0
 40
0.4145131559361616
100
AcDbArc
 50
358.1947406808884
 51
97.04435690989908
  0
LINE
  5
411D
330
390D
100
AcDbEntity
  8
Visible Edges(Roxtec)
100
AcDbLine
 10
-4.489680520635545
 20
104.3083250794069
 30
0.0
 11
-3.262867529853906
 21
104.3083250794069
 31
0.0
  0
LINE
  5
411E
330
390D
100
AcDbEntity
  8
Visible Edges(Roxtec)
100
AcDbLine
 10
-4.588523273447378
 20
104.2966965202526
 30
0.0
 11
-4.489680520635545
 21
104.3083250794069
 31
0.0
  0
LINE
  5
411F
330
390D
100
AcDbEntity
  8
Visible Edges(Roxtec)
100
AcDbLine
 10
-4.675737467104852
 20
104.2734394019439
 30
0.0
 11
-4.588523273447378
 21
104.2966965202526
 31
0.0
  0
LINE
  5
4120
330
390D
100
AcDbEntity
  8
Visible Edges(Roxtec)
100
AcDbLine
 10
-4.757137381185316
 20
104.2443680040581
 30
0.0
 11
-4.675737467104852
 21
104.2734394019439
 31
0.0
  0
LINE
  5
4121
330
390D
100
AcDbEntity
  8
Visible Edges(Roxtec)
100
AcDbLine
 10
-4.821094456533955
 20
104.1978537674407
 30
0.0
 11
-4.757137381185316
 21
104.2443680040581
 31
0.0
  0
LINE
  5
4122
330
390D
100
AcDbEntity
  8
Visible Edges(Roxtec)
100
AcDbLine
 10
-4.873422972728405
 20
104.1455252512463
 30
0.0
 11
-4.821094456533955
 21
104.1978537674407
 31
0.0
  0
LINE
  5
4123
330
390D
100
AcDbEntity
  8
Visible Edges(Roxtec)
100
AcDbLine
 10
-4.919937209345789
 20
104.0757538963203
 30
0.0
 11
-4.873422972728405
 21
104.1455252512463
 31
0.0
  0
LINE
  5
4124
330
390D
100
AcDbEntity
  8
Visible Edges(Roxtec)
100
AcDbLine
 10
-4.949008607231803
 20
103.99435398224
 30
0.0
 11
-4.919937209345789
 21
104.0757538963203
 31
0.0
  0
LINE
  5
4125
330
390D
100
AcDbEntity
  8
Visible Edges(Roxtec)
100
AcDbLine
 10
-4.972265725540239
 20
103.8955112294281
 30
0.0
 11
-4.949008607231803
 21
103.99435398224
 31
0.0
  0
LINE
  5
4126
330
390D
100
AcDbEntity
  8
Visible Edges(Roxtec)
100
AcDbLine
 10
-4.978080005117362
 20
103.7792256378849
 30
0.0
 11
-4.972265725540239
 21
103.8955112294281
 31
0.0
  0
LINE
  5
4127
330
390D
100
AcDbEntity
  8
Visible Edges(Roxtec)
100
AcDbLine
 10
-4.978080005117362
 20
102.5640412062575
 30
0.0
 11
-4.978080005117362
 21
103.7792256378849
 31
0.0
  0
LINE
  5
4128
330
390D
100
AcDbEntity
  8
Visible Edges(Roxtec)
100
AcDbLine
 10
-4.972265725540239
 20
102.4477556147142
 30
0.0
 11
-4.978080005117362
 21
102.5640412062575
 31
0.0
  0
LINE
  5
4129
330
390D
100
AcDbEntity
  8
Visible Edges(Roxtec)
100
AcDbLine
 10
-4.954822886808756
 20
102.3489128619024
 30
0.0
 11
-4.972265725540239
 21
102.4477556147142
 31
0.0
  0
LINE
  5
412A
330
390D
100
AcDbEntity
  8
Visible Edges(Roxtec)
100
AcDbLine
 10
-4.129195186851177
 20
103.5815401322612
 30
0.0
 11
-4.129195186851177
 21
103.395483185792
 31
0.0
  0
LINE
  5
412B
330
390D
100
AcDbEntity
  8
Visible Edges(Roxtec)
100
AcDbLine
 10
-4.123380907274167
 20
103.6513114871872
 30
0.0
 11
-4.129195186851177
 21
103.5815401322612
 31
0.0
  0
LINE
  5
412C
330
390D
100
AcDbEntity
  8
Visible Edges(Roxtec)
100
AcDbLine
 10
-4.105938068542684
 20
103.7094542829589
 30
0.0
 11
-4.123380907274167
 21
103.6513114871872
 31
0.0
  0
LINE
  5
412D
330
390D
100
AcDbEntity
  8
Visible Edges(Roxtec)
100
AcDbLine
 10
-4.07686667065667
 20
103.7617827991534
 30
0.0
 11
-4.105938068542684
 21
103.7094542829589
 31
0.0
  0
LINE
  5
412E
330
390D
100
AcDbEntity
  8
Visible Edges(Roxtec)
100
AcDbLine
 10
-4.041980993193703
 20
103.7966684766164
 30
0.0
 11
-4.07686667065667
 21
103.7617827991534
 31
0.0
  0
LINE
  5
412F
330
390D
100
AcDbEntity
  8
Visible Edges(Roxtec)
100
AcDbLine
 10
-3.995466756576604
 20
103.8315541540793
 30
0.0
 11
-4.041980993193703
 21
103.7966684766164
 31
0.0
  0
LINE
  5
4130
330
390D
100
AcDbEntity
  8
Visible Edges(Roxtec)
100
AcDbLine
 10
-3.948952519959277
 20
103.8489969928108
 30
0.0
 11
-3.995466756576604
 21
103.8315541540793
 31
0.0
  0
LINE
  5
4131
330
390D
100
AcDbEntity
  8
Visible Edges(Roxtec)
100
AcDbLine
 10
-3.890809724187647
 20
103.854811272388
 30
0.0
 11
-3.948952519959277
 21
103.8489969928108
 31
0.0
  0
LINE
  5
4132
330
390D
100
AcDbEntity
  8
Visible Edges(Roxtec)
100
AcDbLine
 10
-3.838481207993197
 20
103.8489969928108
 30
0.0
 11
-3.890809724187647
 21
103.854811272388
 31
0.0
  0
LINE
  5
4133
330
390D
100
AcDbEntity
  8
Visible Edges(Roxtec)
100
AcDbLine
 10
-1.146469763765821
 20
102.5814840449888
 30
0.0
 11
-1.123212645457329
 21
102.6279982816063
 31
0.0
  0
LINE
  5
4134
330
390D
100
AcDbEntity
  8
Visible Edges(Roxtec)
100
AcDbLine
 10
-1.123212645457329
 20
102.6279982816063
 30
0.0
 11
-1.105769806725845
 21
102.686141077378
 31
0.0
  0
LINE
  5
4135
330
390D
100
AcDbEntity
  8
Visible Edges(Roxtec)
100
AcDbLine
 10
-1.105769806725845
 20
102.686141077378
 30
0.0
 11
-1.099955527148381
 21
102.761726711881
 31
0.0
  0
LINE
  5
4136
330
390D
100
AcDbEntity
  8
Visible Edges(Roxtec)
100
AcDbLine
 10
-1.099955527148381
 20
102.761726711881
 30
0.0
 11
-1.099955527148381
 21
102.9535979379275
 31
0.0
  0
LINE
  5
4137
330
390D
100
AcDbEntity
  8
Visible Edges(Roxtec)
100
AcDbLine
 10
-1.099955527148381
 20
102.9535979379275
 30
0.0
 11
-0.2510707088826507
 21
102.9535979379275
 31
0.0
  0
LINE
  5
4138
330
390D
100
AcDbEntity
  8
Visible Edges(Roxtec)
100
AcDbLine
 10
-0.2510707088826507
 20
102.9535979379275
 30
0.0
 11
-0.2510707088826507
 21
102.5640412062575
 31
0.0
  0
LINE
  5
4139
330
390D
100
AcDbEntity
  8
Visible Edges(Roxtec)
100
AcDbLine
 10
-0.2510707088826507
 20
102.5640412062575
 30
0.0
 11
-0.2568849884596034
 21
102.4535698942914
 31
0.0
  0
LINE
  5
413A
330
390D
100
AcDbEntity
  8
Visible Edges(Roxtec)
100
AcDbLine
 10
-0.2568849884596034
 20
102.4535698942914
 30
0.0
 11
-0.268513547614134
 21
102.3605414210567
 31
0.0
  0
LINE
  5
413B
330
390D
100
AcDbEntity
  8
Visible Edges(Roxtec)
100
AcDbLine
 10
-0.268513547614134
 20
102.3605414210567
 30
0.0
 11
-0.2975849454997501
 21
102.2791415069765
 31
0.0
  0
LINE
  5
413C
330
390D
100
AcDbEntity
  8
Visible Edges(Roxtec)
100
AcDbLine
 10
-0.2975849454997501
 20
102.2791415069765
 30
0.0
 11
-0.3324706229627168
 21
102.2151844316275
 31
0.0
  0
LINE
  5
413D
330
390D
100
AcDbEntity
  8
Visible Edges(Roxtec)
100
AcDbLine
 10
-0.3324706229627168
 20
102.2151844316275
 30
0.0
 11
-0.3731705800030909
 21
102.162855915433
 31
0.0
  0
LINE
  5
413E
330
390D
100
AcDbEntity
  8
Visible Edges(Roxtec)
100
AcDbLine
 10
-0.3731705800030909
 20
102.162855915433
 30
0.0
 11
-0.4196848166201335
 21
102.122155958393
 31
0.0
  0
LINE
  5
413F
330
390D
100
AcDbEntity
  8
Visible Edges(Roxtec)
100
AcDbLine
 10
-0.4196848166201335
 20
102.122155958393
 30
0.0
 11
-0.4778276123920478
 21
102.08727028093
 31
0.0
  0
LINE
  5
4140
330
390D
100
AcDbEntity
  8
Visible Edges(Roxtec)
100
AcDbLine
 10
-0.4778276123920478
 20
102.08727028093
 30
0.0
 11
-0.5359704081635073
 21
102.0640131626213
 31
0.0
  0
LINE
  5
4141
330
390D
100
AcDbEntity
  8
Visible Edges(Roxtec)
100
AcDbLine
 10
-0.5359704081635073
 20
102.0640131626213
 30
0.0
 11
-0.599927483512488
 21
102.0465703238898
 31
0.0
  0
LINE
  5
4142
330
390D
100
AcDbEntity
  8
Visible Edges(Roxtec)
100
AcDbLine
 10
-0.599927483512488
 20
102.0465703238898
 30
0.0
 11
-0.6696988384384781
 21
102.0349417647355
 31
0.0
  0
LINE
  5
4143
330
390D
100
AcDbEntity
  8
Visible Edges(Roxtec)
100
AcDbLine
 10
-0.6696988384384781
 20
102.0349417647355
 30
0.0
 11
-0.7394701933644683
 21
102.0291274851583
 31
0.0
  0
LINE
  5
4144
330
390D
100
AcDbEntity
  8
Visible Edges(Roxtec)
100
AcDbLine
 10
-0.7394701933644683
 20
102.0291274851583
 30
0.0
 11
-1.948840345414453
 21
102.0291274851583
 31
0.0
  0
LINE
  5
4145
330
390D
100
AcDbEntity
  8
Visible Edges(Roxtec)
100
AcDbLine
 10
-1.948840345414453
 20
102.0291274851583
 30
0.0
 11
-2.030240259494973
 21
102.0349417647355
 31
0.0
  0
LINE
  5
4146
330
390D
100
AcDbEntity
  8
Visible Edges(Roxtec)
100
AcDbLine
 10
-2.030240259494973
 20
102.0349417647355
 30
0.0
 11
-2.111640173575324
 21
102.0439274695366
 31
0.0
  0
LINE
  5
4147
330
390D
100
AcDbEntity
  8
Visible Edges(Roxtec)
100
AcDbLine
 10
-2.111640173575324
 20
102.0439274695366
 30
0.0
 11
-2.245368603849897
 21
102.1047131196615
 31
0.0
  0
LINE
  5
4148
330
390D
100
AcDbEntity
  8
Visible Edges(Roxtec)
100
AcDbLine
 10
-2.245368603849897
 20
102.1047131196615
 30
0.0
 11
-2.297697120044347
 21
102.1512273562788
 31
0.0
  0
LINE
  5
4149
330
390D
100
AcDbEntity
  8
Visible Edges(Roxtec)
100
AcDbLine
 10
-2.297697120044347
 20
102.1512273562788
 30
0.0
 11
-2.344211356661844
 21
102.2035558724732
 31
0.0
  0
LINE
  5
414A
330
390D
100
AcDbEntity
  8
Visible Edges(Roxtec)
100
AcDbLine
 10
-2.344211356661844
 20
102.2035558724732
 30
0.0
 11
-2.38491131370182
 21
102.267512947822
 31
0.0
  0
LINE
  5
414B
330
390D
100
AcDbEntity
  8
Visible Edges(Roxtec)
100
AcDbLine
 10
-2.38491131370182
 20
102.267512947822
 30
0.0
 11
-2.408168432010711
 21
102.3547271414794
 31
0.0
  0
LINE
  5
414C
330
390D
100
AcDbEntity
  8
Visible Edges(Roxtec)
100
AcDbLine
 10
-2.408168432010711
 20
102.3547271414794
 30
0.0
 11
-2.425611270742194
 21
102.4477556147142
 31
0.0
  0
LINE
  5
414D
330
390D
100
AcDbEntity
  8
Visible Edges(Roxtec)
100
AcDbLine
 10
-2.425611270742194
 20
102.4477556147142
 30
0.0
 11
-2.431425550319318
 21
102.5640412062575
 31
0.0
  0
LINE
  5
414E
330
390D
100
AcDbEntity
  8
Visible Edges(Roxtec)
100
AcDbLine
 10
-2.431425550319318
 20
102.5640412062575
 30
0.0
 11
-2.431425550319318
 21
103.7734113583076
 31
0.0
  0
LINE
  5
414F
330
390D
100
AcDbEntity
  8
Visible Edges(Roxtec)
100
AcDbLine
 10
-2.431425550319318
 20
103.7734113583076
 30
0.0
 11
-2.425611270742194
 21
103.8838826702739
 31
0.0
  0
LINE
  5
4150
330
390D
100
AcDbEntity
  8
Visible Edges(Roxtec)
100
AcDbLine
 10
-2.425611270742194
 20
103.8838826702739
 30
0.0
 11
-2.413982711587834
 21
103.9769111435084
 31
0.0
  0
LINE
  5
4151
330
390D
100
AcDbEntity
  8
Visible Edges(Roxtec)
100
AcDbLine
 10
-2.413982711587834
 20
103.9769111435084
 30
0.0
 11
-2.38491131370182
 21
104.0583110575887
 31
0.0
  0
LINE
  5
4152
330
390D
100
AcDbEntity
  8
Visible Edges(Roxtec)
100
AcDbLine
 10
-2.38491131370182
 20
104.0583110575887
 30
0.0
 11
-2.350025636238854
 21
104.1222681329376
 31
0.0
  0
LINE
  5
4153
330
390D
100
AcDbEntity
  8
Visible Edges(Roxtec)
100
AcDbLine
 10
-2.350025636238854
 20
104.1222681329376
 30
0.0
 11
-2.270951433989523
 21
104.2112266104683
 31
0.0
  0
LINE
  5
4154
330
390D
100
AcDbEntity
  8
Visible Edges(Roxtec)
100
AcDbLine
 10
-2.270951433989523
 20
104.2112266104683
 30
0.0
 11
-2.19304008765539
 21
104.2501822836352
 31
0.0
  0
LINE
  5
4155
330
390D
100
AcDbEntity
  8
Visible Edges(Roxtec)
100
AcDbLine
 10
-2.19304008765539
 20
104.2501822836352
 30
0.0
 11
-2.1232687327294
 21
104.2734394019439
 31
0.0
  0
LINE
  5
4156
330
390D
100
AcDbEntity
  8
Visible Edges(Roxtec)
100
AcDbLine
 10
-2.1232687327294
 20
104.2734394019439
 30
0.0
 11
-2.053497377803466
 21
104.2908822406754
 31
0.0
  0
LINE
  5
4157
330
390D
100
AcDbEntity
  8
Visible Edges(Roxtec)
100
AcDbLine
 10
-2.053497377803466
 20
104.2908822406754
 30
0.0
 11
-1.977911743300523
 21
104.3025107998297
 31
0.0
  0
LINE
  5
4158
330
390D
100
AcDbEntity
  8
Visible Edges(Roxtec)
100
AcDbLine
 10
-1.977911743300523
 20
104.3025107998297
 30
0.0
 11
-1.90232610879741
 21
104.3083250794069
 31
0.0
  0
LINE
  5
4159
330
390D
100
AcDbEntity
  8
Visible Edges(Roxtec)
100
AcDbLine
 10
-1.90232610879741
 20
104.3083250794069
 30
0.0
 11
-0.722027354632985
 21
104.3083250794069
 31
0.0
  0
LINE
  5
415A
330
390D
100
AcDbEntity
  8
Visible Edges(Roxtec)
100
AcDbLine
 10
-0.722027354632985
 20
104.3083250794069
 30
0.0
 11
-0.6639791760771346
 21
104.3065579050483
 31
0.0
  0
LINE
  5
415B
330
390D
100
AcDbEntity
  8
Visible Edges(Roxtec)
100
AcDbLine
 10
-0.6639791760771346
 20
104.3065579050483
 30
0.0
 11
-0.5708560856265308
 21
104.2850679610982
 31
0.0
  0
LINE
  5
415C
330
390D
100
AcDbEntity
  8
Visible Edges(Roxtec)
100
AcDbLine
 10
-0.5708560856265308
 20
104.2850679610982
 30
0.0
 11
-0.5010847307005406
 21
104.2676251223667
 31
0.0
  0
LINE
  5
415D
330
390D
100
AcDbEntity
  8
Visible Edges(Roxtec)
100
AcDbLine
 10
-0.5010847307005406
 20
104.2676251223667
 30
0.0
 11
-0.4429419349290811
 21
104.2327394449037
 31
0.0
  0
LINE
  5
415E
330
390D
100
AcDbEntity
  8
Visible Edges(Roxtec)
100
AcDbLine
 10
-0.4429419349290811
 20
104.2327394449037
 30
0.0
 11
-0.3847991391571668
 21
104.1920394878636
 31
0.0
  0
LINE
  5
415F
330
390D
100
AcDbEntity
  8
Visible Edges(Roxtec)
100
AcDbLine
 10
-0.3847991391571668
 20
104.1920394878636
 30
0.0
 11
-0.3382849025401242
 21
104.1397109716691
 31
0.0
  0
LINE
  5
4160
330
390D
100
AcDbEntity
  8
Visible Edges(Roxtec)
100
AcDbLine
 10
-0.3382849025401242
 20
104.1397109716691
 30
0.0
 11
-0.3033992250771007
 21
104.0699396167432
 31
0.0
  0
LINE
  5
4161
330
390D
100
AcDbEntity
  8
Visible Edges(Roxtec)
100
AcDbLine
 10
-0.3033992250771007
 20
104.0699396167432
 30
0.0
 11
-0.2743278271910867
 21
103.9885397026628
 31
0.0
  0
LINE
  5
4162
330
390D
100
AcDbEntity
  8
Visible Edges(Roxtec)
100
AcDbLine
 10
-0.2743278271910867
 20
103.9885397026628
 30
0.0
 11
-0.2568849884596602
 21
103.889696949851
 31
0.0
  0
LINE
  5
4163
330
390D
100
AcDbEntity
  8
Visible Edges(Roxtec)
100
AcDbLine
 10
-0.2568849884596602
 20
103.889696949851
 30
0.0
 11
-0.2510707088826507
 21
103.7734113583076
 31
0.0
  0
LINE
  5
4164
330
390D
100
AcDbEntity
  8
Visible Edges(Roxtec)
100
AcDbLine
 10
-0.2510707088826507
 20
103.7734113583076
 30
0.0
 11
-0.2510707088826507
 21
103.3780403470605
 31
0.0
  0
LINE
  5
4165
330
390D
100
AcDbEntity
  8
Visible Edges(Roxtec)
100
AcDbLine
 10
-0.2510707088826507
 20
103.3780403470605
 30
0.0
 11
-1.099955527148381
 21
103.3780403470605
 31
0.0
  0
LINE
  5
4166
330
390D
100
AcDbEntity
  8
Visible Edges(Roxtec)
100
AcDbLine
 10
-1.099955527148381
 20
103.3780403470605
 30
0.0
 11
-1.099955527148381
 21
103.5873544118385
 31
0.0
  0
LINE
  5
4167
330
390D
100
AcDbEntity
  8
Visible Edges(Roxtec)
100
AcDbLine
 10
-1.099955527148381
 20
103.5873544118385
 30
0.0
 11
-1.098294304412206
 21
103.6280543688786
 31
0.0
  0
LINE
  5
4168
330
390D
100
AcDbEntity
  8
Visible Edges(Roxtec)
100
AcDbLine
 10
-1.098294304412206
 20
103.6280543688786
 30
0.0
 11
-1.123212645457329
 21
103.7152685625361
 31
0.0
  0
LINE
  5
4169
330
390D
100
AcDbEntity
  8
Visible Edges(Roxtec)
100
AcDbLine
 10
-1.123212645457329
 20
103.7152685625361
 30
0.0
 11
-1.146469763765821
 21
103.750154239999
 31
0.0
  0
LINE
  5
416A
330
390D
100
AcDbEntity
  8
Visible Edges(Roxtec)
100
AcDbLine
 10
-1.146469763765821
 20
103.750154239999
 30
0.0
 11
-1.175541161651779
 21
103.7850399174621
 31
0.0
  0
LINE
  5
416B
330
390D
100
AcDbEntity
  8
Visible Edges(Roxtec)
100
AcDbLine
 10
-1.175541161651779
 20
103.7850399174621
 30
0.0
 11
-1.204612559537395
 21
103.8082970357706
 31
0.0
  0
LINE
  5
416C
330
390D
100
AcDbEntity
  8
Visible Edges(Roxtec)
100
AcDbLine
 10
-1.204612559537395
 20
103.8082970357706
 30
0.0
 11
-1.274383914463385
 21
103.8431827132336
 31
0.0
  0
LINE
  5
416D
330
390D
100
AcDbEntity
  8
Visible Edges(Roxtec)
100
AcDbLine
 10
-1.274383914463385
 20
103.8431827132336
 30
0.0
 11
-1.309269591926351
 21
103.8489969928108
 31
0.0
  0
LINE
  5
416E
330
390D
100
AcDbEntity
  8
Visible Edges(Roxtec)
100
AcDbLine
 10
-1.309269591926351
 20
103.8489969928108
 30
0.0
 11
-1.355783828543735
 21
103.854811272388
 31
0.0
  0
LINE
  5
416F
330
390D
100
AcDbEntity
  8
Visible Edges(Roxtec)
100
AcDbLine
 10
-1.355783828543735
 20
103.854811272388
 30
0.0
 11
-1.408112344738185
 21
103.8489969928108
 31
0.0
  0
LINE
  5
4170
330
390D
100
AcDbEntity
  8
Visible Edges(Roxtec)
100
AcDbLine
 10
-1.408112344738185
 20
103.8489969928108
 30
0.0
 11
-1.452965358619223
 21
103.8340459881839
 31
0.0
  0
LINE
  5
4171
330
390D
100
AcDbEntity
  8
Visible Edges(Roxtec)
100
AcDbLine
 10
-1.452965358619223
 20
103.8340459881839
 30
0.0
 11
-1.506955097550189
 21
103.7908541970391
 31
0.0
  0
LINE
  5
4172
330
390D
100
AcDbEntity
  8
Visible Edges(Roxtec)
100
AcDbLine
 10
-1.506955097550189
 20
103.7908541970391
 30
0.0
 11
-1.536026495435748
 21
103.750154239999
 31
0.0
  0
LINE
  5
4173
330
390D
100
AcDbEntity
  8
Visible Edges(Roxtec)
100
AcDbLine
 10
-1.536026495435748
 20
103.750154239999
 30
0.0
 11
-1.565097893321649
 21
103.6978257238046
 31
0.0
  0
LINE
  5
4174
330
390D
100
AcDbEntity
  8
Visible Edges(Roxtec)
100
AcDbLine
 10
-1.565097893321649
 20
103.6978257238046
 30
0.0
 11
-1.576726452476123
 21
103.6338686484557
 31
0.0
  0
LINE
  5
4175
330
390D
100
AcDbEntity
  8
Visible Edges(Roxtec)
100
AcDbLine
 10
-1.576726452476123
 20
103.6338686484557
 30
0.0
 11
-1.582540732053132
 21
103.5524687343754
 31
0.0
  0
LINE
  5
4176
330
390D
100
AcDbEntity
  8
Visible Edges(Roxtec)
100
AcDbLine
 10
-1.582540732053132
 20
103.5524687343754
 30
0.0
 11
-1.582540732053132
 21
102.761726711881
 31
0.0
  0
LINE
  5
4177
330
390D
100
AcDbEntity
  8
Visible Edges(Roxtec)
100
AcDbLine
 10
-1.582540732053132
 20
102.761726711881
 30
0.0
 11
-1.576726452476123
 21
102.6919553569551
 31
0.0
  0
LINE
  5
4178
330
390D
100
AcDbEntity
  8
Visible Edges(Roxtec)
100
AcDbLine
 10
-1.576726452476123
 20
102.6919553569551
 30
0.0
 11
-1.565097893321649
 21
102.6338125611835
 31
0.0
  0
LINE
  5
4179
330
390D
100
AcDbEntity
  8
Visible Edges(Roxtec)
100
AcDbLine
 10
-1.565097893321649
 20
102.6338125611835
 30
0.0
 11
-1.536026495435748
 21
102.5814840449888
 31
0.0
  0
LINE
  5
417A
330
390D
100
AcDbEntity
  8
Visible Edges(Roxtec)
100
AcDbLine
 10
-1.536026495435748
 20
102.5814840449888
 30
0.0
 11
-1.501140817972782
 21
102.5349698083716
 31
0.0
  0
LINE
  5
417B
330
390D
100
AcDbEntity
  8
Visible Edges(Roxtec)
100
AcDbLine
 10
-1.501140817972782
 20
102.5349698083716
 30
0.0
 11
-1.454626581355682
 21
102.5058984104859
 31
0.0
  0
LINE
  5
417C
330
390D
100
AcDbEntity
  8
Visible Edges(Roxtec)
100
AcDbLine
 10
-1.454626581355682
 20
102.5058984104859
 30
0.0
 11
-1.402298065161176
 21
102.4884555717543
 31
0.0
  0
LINE
  5
417D
330
390D
100
AcDbEntity
  8
Visible Edges(Roxtec)
100
AcDbLine
 10
-1.402298065161176
 20
102.4884555717543
 30
0.0
 11
-1.338340989812195
 21
102.4826412921772
 31
0.0
  0
LINE
  5
417E
330
390D
100
AcDbEntity
  8
Visible Edges(Roxtec)
100
AcDbLine
 10
-1.338340989812195
 20
102.4826412921772
 30
0.0
 11
-1.280198194040735
 21
102.4884555717543
 31
0.0
  0
LINE
  5
417F
330
390D
100
AcDbEntity
  8
Visible Edges(Roxtec)
100
AcDbLine
 10
-1.280198194040735
 20
102.4884555717543
 30
0.0
 11
-1.245312516577769
 21
102.5000841309086
 31
0.0
  0
LINE
  5
4180
330
390D
100
AcDbEntity
  8
Visible Edges(Roxtec)
100
AcDbLine
 10
-1.245312516577769
 20
102.5000841309086
 30
0.0
 11
-1.210426839114802
 21
102.5175269696401
 31
0.0
  0
LINE
  5
4181
330
390D
100
AcDbEntity
  8
Visible Edges(Roxtec)
100
AcDbLine
 10
-1.210426839114802
 20
102.5175269696401
 30
0.0
 11
-1.175541161651779
 21
102.546598367526
 31
0.0
  0
LINE
  5
4182
330
390D
100
AcDbEntity
  8
Visible Edges(Roxtec)
100
AcDbLine
 10
-1.175541161651779
 20
102.546598367526
 30
0.0
 11
-1.146469763765821
 21
102.5814840449888
 31
0.0
  0
LINE
  5
4183
330
390D
100
AcDbEntity
  8
Visible Edges(Roxtec)
100
AcDbLine
 10
-18.65326557060882
 20
103.2966404329802
 30
0.0
 11
-18.68815124807184
 21
103.0989549273566
 31
0.0
  0
LINE
  5
4184
330
390D
100
AcDbEntity
  8
Visible Edges(Roxtec)
100
AcDbLine
 10
-18.64163701145446
 20
103.5001402181809
 30
0.0
 11
-18.65326557060882
 21
103.2966404329802
 31
0.0
  0
LINE
  5
4185
330
390D
100
AcDbEntity
  8
Visible Edges(Roxtec)
100
AcDbLine
 10
-18.65326557060882
 20
103.7036400033816
 30
0.0
 11
-18.64163701145446
 21
103.5001402181809
 31
0.0
  0
LINE
  5
4186
330
390D
100
AcDbEntity
  8
Visible Edges(Roxtec)
100
AcDbLine
 10
-18.68815124807184
 20
103.9013255090053
 30
0.0
 11
-18.65326557060882
 21
103.7036400033816
 31
0.0
  0
LINE
  5
4187
330
390D
100
AcDbEntity
  8
Visible Edges(Roxtec)
100
AcDbLine
 10
-18.74629404384342
 20
104.0873824554746
 30
0.0
 11
-18.68815124807184
 21
103.9013255090053
 31
0.0
  0
LINE
  5
4188
330
390D
100
AcDbEntity
  8
Visible Edges(Roxtec)
100
AcDbLine
 10
-18.82187967834681
 20
104.2676251223667
 30
0.0
 11
-18.74629404384342
 21
104.0873824554746
 31
0.0
  0
LINE
  5
4189
330
390D
100
AcDbEntity
  8
Visible Edges(Roxtec)
100
AcDbLine
 10
-18.91490815158124
 20
104.4362392301045
 30
0.0
 11
-18.82187967834681
 21
104.2676251223667
 31
0.0
  0
LINE
  5
418A
330
390D
100
AcDbEntity
  8
Visible Edges(Roxtec)
100
AcDbLine
 10
-19.02537946354732
 20
104.593224778688
 30
0.0
 11
-18.91490815158124
 21
104.4362392301045
 31
0.0
  0
LINE
  5
418B
330
390D
100
AcDbEntity
  8
Visible Edges(Roxtec)
100
AcDbLine
 10
-19.15329361424517
 20
104.7327674885399
 30
0.0
 11
-19.02537946354732
 21
104.593224778688
 31
0.0
  0
LINE
  5
418C
330
390D
100
AcDbEntity
  8
Visible Edges(Roxtec)
100
AcDbLine
 10
-19.2986506036741
 20
104.8606816392374
 30
0.0
 11
-19.15329361424517
 21
104.7327674885399
 31
0.0
  0
LINE
  5
418D
330
390D
100
AcDbEntity
  8
Visible Edges(Roxtec)
100
AcDbLine
 10
-19.45563615225757
 20
104.9769672307808
 30
0.0
 11
-19.2986506036741
 21
104.8606816392374
 31
0.0
  0
LINE
  5
418E
330
390D
100
AcDbEntity
  8
Visible Edges(Roxtec)
100
AcDbLine
 10
-19.6242502599955
 20
105.0699957040154
 30
0.0
 11
-19.45563615225757
 21
104.9769672307808
 31
0.0
  0
LINE
  5
418F
330
390D
100
AcDbEntity
  8
Visible Edges(Roxtec)
100
AcDbLine
 10
-19.8044929268874
 20
105.1455813385185
 30
0.0
 11
-19.6242502599955
 21
105.0699957040154
 31
0.0
  0
LINE
  5
4190
330
390D
100
AcDbEntity
  8
Visible Edges(Roxtec)
100
AcDbLine
 10
-20.18823537898027
 20
105.232795532176
 30
0.0
 11
-19.8044929268874
 21
105.1455813385185
 31
0.0
  0
LINE
  5
4191
330
390D
100
AcDbEntity
  8
Visible Edges(Roxtec)
100
AcDbLine
 10
-20.39754944375818
 20
105.2444240913305
 30
0.0
 11
-20.18823537898027
 21
105.232795532176
 31
0.0
  0
LINE
  5
4192
330
390D
100
AcDbEntity
  8
Visible Edges(Roxtec)
100
AcDbLine
 10
-20.4024509497367
 20
101.7555762589756
 30
0.0
 11
-20.39754944375818
 21
105.2444240913305
 31
0.0
  0
LINE
  5
4193
330
390D
100
AcDbEntity
  8
Visible Edges(Roxtec)
100
AcDbLine
 10
-20.19404965855739
 20
101.7674849041859
 30
0.0
 11
-20.4024509497367
 21
101.7555762589756
 31
0.0
  0
LINE
  5
4194
330
390D
100
AcDbEntity
  8
Visible Edges(Roxtec)
100
AcDbLine
 10
-19.99636415293383
 20
101.7965563020716
 30
0.0
 11
-20.19404965855739
 21
101.7674849041859
 31
0.0
  0
LINE
  5
4195
330
390D
100
AcDbEntity
  8
Visible Edges(Roxtec)
100
AcDbLine
 10
-19.8044929268874
 20
101.8546990978433
 30
0.0
 11
-19.99636415293383
 21
101.7965563020716
 31
0.0
  0
LINE
  5
4196
330
390D
100
AcDbEntity
  8
Visible Edges(Roxtec)
100
AcDbLine
 10
-19.6242502599955
 20
101.9302847323465
 30
0.0
 11
-19.8044929268874
 21
101.8546990978433
 31
0.0
  0
LINE
  5
4197
330
390D
100
AcDbEntity
  8
Visible Edges(Roxtec)
100
AcDbLine
 10
-19.45563615225757
 20
102.0233132055811
 30
0.0
 11
-19.6242502599955
 21
101.9302847323465
 31
0.0
  0
LINE
  5
4198
330
390D
100
AcDbEntity
  8
Visible Edges(Roxtec)
100
AcDbLine
 10
-19.22921468795448
 20
102.1910328087685
 30
0.0
 11
-19.45563615225757
 21
102.0233132055811
 31
0.0
  0
LINE
  5
4199
330
390D
100
AcDbEntity
  8
Visible Edges(Roxtec)
100
AcDbLine
 10
-19.08262775476874
 20
102.3376197419543
 30
0.0
 11
-19.22921468795448
 21
102.1910328087685
 31
0.0
  0
LINE
  5
419A
330
390D
100
AcDbEntity
  8
Visible Edges(Roxtec)
100
AcDbLine
 10
-18.91490815158124
 20
102.5640412062575
 30
0.0
 11
-19.08262775476874
 21
102.3376197419543
 31
0.0
  0
LINE
  5
419B
330
390D
100
AcDbEntity
  8
Visible Edges(Roxtec)
100
AcDbLine
 10
-18.82187967834681
 20
102.7326553139953
 30
0.0
 11
-18.91490815158124
 21
102.5640412062575
 31
0.0
  0
LINE
  5
419C
330
390D
100
AcDbEntity
  8
Visible Edges(Roxtec)
100
AcDbLine
 10
-18.74629404384342
 20
102.9128979808874
 30
0.0
 11
-18.82187967834681
 21
102.7326553139953
 31
0.0
  0
LINE
  5
419D
330
390D
100
AcDbEntity
  8
Visible Edges(Roxtec)
100
AcDbLine
 10
-18.68815124807184
 20
103.0989549273566
 30
0.0
 11
-18.74629404384342
 21
102.9128979808874
 31
0.0
  0
LINE
  5
419E
330
390D
100
AcDbEntity
  8
Visible Edges(Roxtec)
100
AcDbLine
 10
-10.60048835623564
 20
102.4884555717543
 30
0.0
 11
-10.54815984004119
 21
102.5058984104859
 31
0.0
  0
LINE
  5
419F
330
390D
100
AcDbEntity
  8
Visible Edges(Roxtec)
100
AcDbLine
 10
-10.54815984004119
 20
102.5058984104859
 30
0.0
 11
-10.50164560342392
 21
102.5233412492173
 31
0.0
  0
LINE
  5
41A0
330
390D
100
AcDbEntity
  8
Visible Edges(Roxtec)
100
AcDbLine
 10
-10.50164560342392
 20
102.5233412492173
 30
0.0
 11
-10.44931708722947
 21
102.587298324566
 31
0.0
  0
LINE
  5
41A1
330
390D
100
AcDbEntity
  8
Visible Edges(Roxtec)
100
AcDbLine
 10
-10.44931708722947
 20
102.587298324566
 30
0.0
 11
-10.43768852807511
 21
102.6279982816063
 31
0.0
  0
LINE
  5
41A2
330
390D
100
AcDbEntity
  8
Visible Edges(Roxtec)
100
AcDbLine
 10
-10.43768852807511
 20
102.6279982816063
 30
0.0
 11
-10.4260599689207
 21
102.6628839590693
 31
0.0
  0
LINE
  5
41A3
330
390D
100
AcDbEntity
  8
Visible Edges(Roxtec)
100
AcDbLine
 10
-10.4260599689207
 20
102.6628839590693
 30
0.0
 11
-10.42024568934357
 21
102.7035839161095
 31
0.0
  0
LINE
  5
41A4
330
390D
100
AcDbEntity
  8
Visible Edges(Roxtec)
100
AcDbLine
 10
-10.42024568934357
 20
102.7035839161095
 30
0.0
 11
-10.42024568934357
 21
103.5640972935297
 31
0.0
  0
LINE
  5
41A5
330
390D
100
AcDbEntity
  8
Visible Edges(Roxtec)
100
AcDbLine
 10
-10.42024568934357
 20
103.5640972935297
 30
0.0
 11
-10.4260599689207
 21
103.6571257667645
 31
0.0
  0
LINE
  5
41A6
330
390D
100
AcDbEntity
  8
Visible Edges(Roxtec)
100
AcDbLine
 10
-10.4260599689207
 20
103.6571257667645
 30
0.0
 11
-10.44931708722947
 21
103.7385256808446
 31
0.0
  0
LINE
  5
41A7
330
390D
100
AcDbEntity
  8
Visible Edges(Roxtec)
100
AcDbLine
 10
-10.44931708722947
 20
103.7385256808446
 30
0.0
 11
-10.47257420553808
 21
103.7734113583076
 31
0.0
  0
LINE
  5
41A8
330
390D
100
AcDbEntity
  8
Visible Edges(Roxtec)
100
AcDbLine
 10
-10.47257420553808
 20
103.7734113583076
 30
0.0
 11
-10.50164560342398
 21
103.8082970357706
 31
0.0
  0
LINE
  5
41A9
330
390D
100
AcDbEntity
  8
Visible Edges(Roxtec)
100
AcDbLine
 10
-10.50164560342398
 20
103.8082970357706
 30
0.0
 11
-10.54815984004119
 21
103.8373684336565
 31
0.0
  0
LINE
  5
41AA
330
390D
100
AcDbEntity
  8
Visible Edges(Roxtec)
100
AcDbLine
 10
-10.54815984004119
 20
103.8373684336565
 30
0.0
 11
-10.60048835623564
 21
103.854811272388
 31
0.0
  0
LINE
  5
41AB
330
390D
100
AcDbEntity
  8
Visible Edges(Roxtec)
100
AcDbLine
 10
-10.03650323725071
 20
102.0291274851583
 30
0.0
 11
-11.19354487310642
 21
102.0291274851583
 31
0.0
  0
LINE
  5
41AC
330
390D
100
AcDbEntity
  8
Visible Edges(Roxtec)
100
AcDbLine
 10
-11.19354487310642
 20
102.0291274851583
 30
0.0
 11
-11.33890186253563
 21
102.0349417647355
 31
0.0
  0
ARC
  5
41AD
330
390D
100
AcDbEntity
  8
Visible Edges(Roxtec)
100
AcDbCircle
 10
-11.33493534129866
 20
102.4482729870494
 30
0.0
 40
0.413350254179527
100
AcDbArc
 50
191.4304844914793
 51
269.4501795705282
  0
LINE
  5
41AE
330
390D
100
AcDbEntity
  8
Visible Edges(Roxtec)
100
AcDbLine
 10
-11.74008715335998
 20
102.3663557006339
 30
0.0
 11
-11.75171571251422
 21
102.4593841738684
 31
0.0
  0
LINE
  5
41AF
330
390D
100
AcDbEntity
  8
Visible Edges(Roxtec)
100
AcDbLine
 10
-11.75171571251422
 20
102.4593841738684
 30
0.0
 11
-11.75752999209146
 21
103.7792256378849
 31
0.0
  0
ARC
  5
41B0
330
390D
100
AcDbEntity
  8
Visible Edges(Roxtec)
100
AcDbCircle
 10
-11.31451939979263
 20
103.8585624205023
 30
0.0
 40
0.4500585628171756
100
AcDbArc
 50
87.92220705468706
 51
190.1532141872578
  0
LINE
  5
41B1
330
390D
100
AcDbEntity
  8
Visible Edges(Roxtec)
100
AcDbLine
 10
-10.66444543158451
 20
102.4826412921772
 30
0.0
 11
-10.60048835623564
 21
102.4884555717543
 31
0.0
  0
LINE
  5
41B2
330
390D
100
AcDbEntity
  8
Visible Edges(Roxtec)
100
AcDbLine
 10
-10.72840250693338
 20
102.4884555717543
 30
0.0
 11
-10.66444543158451
 21
102.4826412921772
 31
0.0
  0
LINE
  5
41B3
330
390D
100
AcDbEntity
  8
Visible Edges(Roxtec)
100
AcDbLine
 10
-10.82724525974504
 20
102.5233412492173
 30
0.0
 11
-10.72840250693338
 21
102.4884555717543
 31
0.0
  0
LINE
  5
41B4
330
390D
100
AcDbEntity
  8
Visible Edges(Roxtec)
100
AcDbLine
 10
-10.87085235657383
 20
102.5669483460461
 30
0.0
 11
-10.82724525974504
 21
102.5233412492173
 31
0.0
  0
LINE
  5
41B5
330
390D
100
AcDbEntity
  8
Visible Edges(Roxtec)
100
AcDbLine
 10
-10.89120233509391
 20
102.6279982816063
 30
0.0
 11
-10.87085235657383
 21
102.5669483460461
 31
0.0
  0
LINE
  5
41B6
330
390D
100
AcDbEntity
  8
Visible Edges(Roxtec)
100
AcDbLine
 10
-10.90864517382545
 20
102.7035839161095
 30
0.0
 11
-10.89120233509391
 21
102.6279982816063
 31
0.0
  0
LINE
  5
41B7
330
390D
100
AcDbEntity
  8
Visible Edges(Roxtec)
100
AcDbLine
 10
-10.90864517382545
 20
103.6222400893014
 30
0.0
 11
-10.90864517382545
 21
102.7035839161095
 31
0.0
  0
LINE
  5
41B8
330
390D
100
AcDbEntity
  8
Visible Edges(Roxtec)
100
AcDbLine
 10
-10.89120233509391
 20
103.6978257238046
 30
0.0
 11
-10.90864517382545
 21
103.6222400893014
 31
0.0
  0
LINE
  5
41B9
330
390D
100
AcDbEntity
  8
Visible Edges(Roxtec)
100
AcDbLine
 10
-10.85631665763094
 20
103.7734113583076
 30
0.0
 11
-10.89120233509391
 21
103.6978257238046
 31
0.0
  0
LINE
  5
41BA
330
390D
100
AcDbEntity
  8
Visible Edges(Roxtec)
100
AcDbLine
 10
-10.82724525974504
 20
103.8082970357706
 30
0.0
 11
-10.85631665763094
 21
103.7734113583076
 31
0.0
  0
LINE
  5
41BB
330
390D
100
AcDbEntity
  8
Visible Edges(Roxtec)
100
AcDbLine
 10
-10.78654530270495
 20
103.8373684336565
 30
0.0
 11
-10.82724525974504
 21
103.8082970357706
 31
0.0
  0
LINE
  5
41BC
330
390D
100
AcDbEntity
  8
Visible Edges(Roxtec)
100
AcDbLine
 10
-10.72840250693338
 20
103.854811272388
 30
0.0
 11
-10.78654530270495
 21
103.8373684336565
 31
0.0
  0
LINE
  5
41BD
330
390D
100
AcDbEntity
  8
Visible Edges(Roxtec)
100
AcDbLine
 10
-10.60048835623564
 20
103.854811272388
 30
0.0
 11
-10.72840250693338
 21
103.854811272388
 31
0.0
  0
LINE
  5
41BE
330
390D
100
AcDbEntity
  8
Visible Edges(Roxtec)
100
AcDbLine
 10
-11.29820190549537
 20
104.3083250794069
 30
0.0
 11
-10.01906039851923
 21
104.3083250794069
 31
0.0
  0
ARC
  5
41BF
330
390D
100
AcDbEntity
  8
Visible Edges(Roxtec)
100
AcDbCircle
 10
-9.993689224168065
 20
103.8925740675418
 30
0.0
 40
0.4165244294813891
100
AcDbArc
 50
0.4040300223269701
 51
93.49213999072354
  0
LINE
  5
41C0
330
390D
100
AcDbEntity
  8
Visible Edges(Roxtec)
100
AcDbLine
 10
-9.577175150654511
 20
103.8955112294281
 30
0.0
 11
-9.577175150654511
 21
102.4535698942914
 31
0.0
  0
ARC
  5
41C1
330
390D
100
AcDbEntity
  8
Visible Edges(Roxtec)
100
AcDbCircle
 10
-10.00531872013528
 20
102.4705644956106
 30
0.0
 40
0.4284807260096171
100
AcDbArc
 50
278.2986630296607
 51
357.7269119786727
  0
ARC
  5
41C2
330
390D
100
AcDbEntity
  8
Visible Edges(Roxtec)
100
AcDbCircle
 10
-9.774810703608579
 20
100.8902313203919
 30
0.0
 40
1.168574968191471
100
AcDbArc
 50
98.29866302971005
 51
102.9406475226086
  0
LINE
  5
41C3
330
390D
100
AcDbEntity
  8
Visible Edges(Roxtec)
100
AcDbLine
 10
-16.72873903056717
 20
103.5001402181809
 30
0.0
 11
-16.7403675897217
 21
103.7617827991533
 31
0.0
  0
LINE
  5
41C4
330
390D
100
AcDbEntity
  8
Visible Edges(Roxtec)
100
AcDbLine
 10
-16.7403675897217
 20
103.2384976372085
 30
0.0
 11
-16.72873903056717
 21
103.5001402181809
 31
0.0
  0
LINE
  5
41C5
330
390D
100
AcDbEntity
  8
Visible Edges(Roxtec)
100
AcDbLine
 10
-16.76362470803013
 20
102.9826693358134
 30
0.0
 11
-16.7403675897217
 21
103.2384976372085
 31
0.0
  0
LINE
  5
41C6
330
390D
100
AcDbEntity
  8
Visible Edges(Roxtec)
100
AcDbLine
 10
-16.81013894464769
 20
102.7326553139953
 30
0.0
 11
-16.76362470803013
 21
102.9826693358134
 31
0.0
  0
LINE
  5
41C7
330
390D
100
AcDbEntity
  8
Visible Edges(Roxtec)
100
AcDbLine
 10
-16.86828174041909
 20
102.4826412921772
 30
0.0
 11
-16.81013894464769
 21
102.7326553139953
 31
0.0
  0
LINE
  5
41C8
330
390D
100
AcDbEntity
  8
Visible Edges(Roxtec)
100
AcDbLine
 10
-16.94386737492249
 20
102.2500701090905
 30
0.0
 11
-16.86828174041909
 21
102.4826412921772
 31
0.0
  0
LINE
  5
41C9
330
390D
100
AcDbEntity
  8
Visible Edges(Roxtec)
100
AcDbLine
 10
-17.03689584815708
 20
102.017498926004
 30
0.0
 11
-16.94386737492249
 21
102.2500701090905
 31
0.0
  0
LINE
  5
41CA
330
390D
100
AcDbEntity
  8
Visible Edges(Roxtec)
100
AcDbLine
 10
-17.14736716012299
 20
101.7965563020717
 30
0.0
 11
-17.03689584815708
 21
102.017498926004
 31
0.0
  0
LINE
  5
41CB
330
390D
100
AcDbEntity
  8
Visible Edges(Roxtec)
100
AcDbLine
 10
-17.2535632665178
 20
101.5814279577167
 30
0.0
 11
-17.14736716012299
 21
101.7965563020717
 31
0.0
  0
LINE
  5
41CC
330
390D
100
AcDbEntity
  8
Visible Edges(Roxtec)
100
AcDbLine
 10
-17.54855245094734
 20
101.1802426668921
 30
0.0
 11
-17.2535632665178
 21
101.5814279577167
 31
0.0
  0
LINE
  5
41CD
330
390D
100
AcDbEntity
  8
Visible Edges(Roxtec)
100
AcDbLine
 10
-17.71135227910821
 20
101.0000000000003
 30
0.0
 11
-17.54855245094734
 21
101.1802426668921
 31
0.0
  0
LINE
  5
41CE
330
390D
100
AcDbEntity
  8
Visible Edges(Roxtec)
100
AcDbLine
 10
-15.80426857779798
 20
101.0000000000003
 30
0.0
 11
-17.71135227910821
 21
101.0000000000003
 31
0.0
  0
LINE
  5
41CF
330
390D
100
AcDbEntity
  8
Visible Edges(Roxtec)
100
AcDbLine
 10
-15.80426857779804
 20
106.0002804363617
 30
0.0
 11
-15.80426857779798
 21
101.0000000000003
 31
0.0
  0
LINE
  5
41D0
330
390D
100
AcDbEntity
  8
Visible Edges(Roxtec)
100
AcDbLine
 10
-17.71135227910821
 20
106.0002804363617
 30
0.0
 11
-15.80426857779804
 21
106.0002804363617
 31
0.0
  0
LINE
  5
41D1
330
390D
100
AcDbEntity
  8
Visible Edges(Roxtec)
100
AcDbLine
 10
-17.54855245094734
 20
105.8142234898925
 30
0.0
 11
-17.71135227910821
 21
106.0002804363617
 31
0.0
  0
LINE
  5
41D2
330
390D
100
AcDbEntity
  8
Visible Edges(Roxtec)
100
AcDbLine
 10
-17.40319546151841
 20
105.6223522638461
 30
0.0
 11
-17.54855245094734
 21
105.8142234898925
 31
0.0
  0
LINE
  5
41D3
330
390D
100
AcDbEntity
  8
Visible Edges(Roxtec)
100
AcDbLine
 10
-17.26946703124349
 20
105.4188524786454
 30
0.0
 11
-17.40319546151841
 21
105.6223522638461
 31
0.0
  0
LINE
  5
41D4
330
390D
100
AcDbEntity
  8
Visible Edges(Roxtec)
100
AcDbLine
 10
-17.14736716012305
 20
105.2037241342903
 30
0.0
 11
-17.26946703124349
 21
105.4188524786454
 31
0.0
  0
LINE
  5
41D5
330
390D
100
AcDbEntity
  8
Visible Edges(Roxtec)
100
AcDbLine
 10
-17.04271012773404
 20
104.9827815103579
 30
0.0
 11
-17.14736716012305
 21
105.2037241342903
 31
0.0
  0
LINE
  5
41D6
330
390D
100
AcDbEntity
  8
Visible Edges(Roxtec)
100
AcDbLine
 10
-16.94968165449961
 20
104.7502103272714
 30
0.0
 11
-17.04271012773404
 21
104.9827815103579
 31
0.0
  0
LINE
  5
41D7
330
390D
100
AcDbEntity
  8
Visible Edges(Roxtec)
100
AcDbLine
 10
-16.8740960199965
 20
104.5118248646076
 30
0.0
 11
-16.94968165449961
 21
104.7502103272714
 31
0.0
  0
LINE
  5
41D8
330
390D
100
AcDbEntity
  8
Visible Edges(Roxtec)
100
AcDbLine
 10
-16.81013894464769
 20
104.2676251223667
 30
0.0
 11
-16.8740960199965
 21
104.5118248646076
 31
0.0
  0
LINE
  5
41D9
330
390D
100
AcDbEntity
  8
Visible Edges(Roxtec)
100
AcDbLine
 10
-16.76943898760754
 20
104.0176111005487
 30
0.0
 11
-16.81013894464769
 21
104.2676251223667
 31
0.0
  0
LINE
  5
41DA
330
390D
100
AcDbEntity
  8
Visible Edges(Roxtec)
100
AcDbLine
 10
-16.7403675897217
 20
103.7617827991533
 30
0.0
 11
-16.76943898760754
 21
104.0176111005487
 31
0.0
  0
ARC
  5
41DB
330
390D
100
AcDbEntity
  8
Visible Edges(Roxtec)
100
AcDbCircle
 10
-13.25179984342293
 20
104.0088896811829
 30
0.0
 40
0.2743360473706193
100
AcDbArc
 50
332.8918771291912
 51
27.10812287080147
  0
ARC
  5
41DC
330
390D
100
AcDbEntity
  8
Visible Edges(Roxtec)
100
AcDbCircle
 10
-13.22232211087799
 20
104.0239794728429
 30
0.0
 40
0.2412205143335243
100
AcDbArc
 50
27.1081228707869
 51
80.38420165430112
  0
ARC
  5
41DD
330
390D
100
AcDbEntity
  8
Visible Edges(Roxtec)
100
AcDbCircle
 10
-16.49023334797016
 20
84.73527420248382
 30
0.0
 40
19.804793676215
100
AcDbArc
 50
80.38420165431396
 51
80.69115392963427
  0
LINE
  5
41DE
330
390D
100
AcDbEntity
  8
Visible Edges(Roxtec)
100
AcDbLine
 10
-13.28668552088595
 20
104.2792536815211
 30
0.0
 11
-13.55414238143538
 21
104.2792536815211
 31
0.0
  0
LINE
  5
41DF
330
390D
100
AcDbEntity
  8
Visible Edges(Roxtec)
100
AcDbLine
 10
-12.92038590752457
 20
102.0523846034671
 30
0.0
 11
-12.93782874625606
 21
102.1163416788158
 31
0.0
  0
LINE
  5
41E0
330
390D
100
AcDbEntity
  8
Visible Edges(Roxtec)
100
AcDbLine
 10
-12.93782874625606
 20
102.1163416788158
 30
0.0
 11
-12.97271442371902
 21
102.3779842597881
 31
0.0
  0
LINE
  5
41E1
330
390D
100
AcDbEntity
  8
Visible Edges(Roxtec)
100
AcDbLine
 10
-12.97271442371902
 20
102.3779842597881
 30
0.0
 11
-12.98434298287316
 21
102.5814840449888
 31
0.0
  0
LINE
  5
41E2
330
390D
100
AcDbEntity
  8
Visible Edges(Roxtec)
100
AcDbLine
 10
-12.98434298287316
 20
102.5814840449888
 30
0.0
 11
-13.00760010118205
 21
102.9361550991959
 31
0.0
  0
ARC
  5
41E3
330
390D
100
AcDbEntity
  8
Visible Edges(Roxtec)
100
AcDbCircle
 10
-13.30530848567014
 20
102.8762565061264
 30
0.0
 40
0.3036743710724231
100
AcDbArc
 50
11.37596594780021
 51
100.8114800752684
  0
LINE
  5
41E4
330
390D
100
AcDbEntity
  8
Visible Edges(Roxtec)
100
AcDbLine
 10
-13.36227115538884
 20
103.1745405618597
 30
0.0
 11
-13.55414238143538
 21
103.1745405618597
 31
0.0
  0
LINE
  5
41E5
330
390D
100
AcDbEntity
  8
Visible Edges(Roxtec)
100
AcDbLine
 10
-13.55414238143538
 20
103.1745405618597
 30
0.0
 11
-13.55414238143538
 21
102.0523846034671
 31
0.0
  0
LINE
  5
41E6
330
390D
100
AcDbEntity
  8
Visible Edges(Roxtec)
100
AcDbLine
 10
-13.55414238143538
 20
102.0523846034671
 30
0.0
 11
-14.40302719970157
 21
102.0523846034671
 31
0.0
  0
LINE
  5
41E7
330
390D
100
AcDbEntity
  8
Visible Edges(Roxtec)
100
AcDbLine
 10
-14.40302719970157
 20
102.0523846034671
 30
0.0
 11
-14.40302719970157
 21
104.8548673596603
 31
0.0
  0
LINE
  5
41E8
330
390D
100
AcDbEntity
  8
Visible Edges(Roxtec)
100
AcDbLine
 10
-14.40302719970157
 20
104.8548673596603
 30
0.0
 11
-12.84480027302118
 21
104.8548673596603
 31
0.0
  0
ARC
  5
41E9
330
390D
100
AcDbEntity
  8
Visible Edges(Roxtec)
100
AcDbCircle
 10
-13.26738706101275
 20
104.0168688520919
 30
0.0
 40
0.2918468589048856
100
AcDbArc
 50
276.4984299332658
 51
332.8918771291985
  0
LINE
  5
41EA
330
390D
100
AcDbEntity
  8
Visible Edges(Roxtec)
100
AcDbLine
 10
-13.55414238143538
 20
103.7268971216904
 30
0.0
 11
-13.23435700469145
 21
103.7268971216904
 31
0.0
  0
LINE
  5
41EB
330
390D
100
AcDbEntity
  8
Visible Edges(Roxtec)
100
AcDbLine
 10
-13.55414238143538
 20
104.2792536815211
 30
0.0
 11
-13.55414238143538
 21
103.7268971216904
 31
0.0
  0
LINE
  5
41EC
330
390D
100
AcDbEntity
  8
Visible Edges(Roxtec)
100
AcDbLine
 10
-12.84480027302118
 20
104.8548673596603
 30
0.0
 11
-12.74014324063222
 21
104.8490530800831
 31
0.0
  0
ARC
  5
41ED
330
390D
100
AcDbEntity
  8
Visible Edges(Roxtec)
100
AcDbCircle
 10
-12.7607054536341
 20
103.8763174562232
 30
0.0
 40
0.9729529271911246
100
AcDbArc
 50
77.38851466566349
 51
88.78903109627204
  0
ARC
  5
41EE
330
390D
100
AcDbEntity
  8
Visible Edges(Roxtec)
100
AcDbCircle
 10
-12.66010617670179
 20
104.3259493576271
 30
0.0
 40
0.5122045562994058
100
AcDbArc
 50
30.69463155046536
 51
77.38851466568327
  0
ARC
  5
41EF
330
390D
100
AcDbEntity
  8
Visible Edges(Roxtec)
100
AcDbCircle
 10
-13.27981490791933
 20
104.1536797748405
 30
0.0
 40
1.145446527676799
100
AcDbArc
 50
348.1656515277011
 51
22.25048533842354
  0
ARC
  5
41F0
330
390D
100
AcDbEntity
  8
Visible Edges(Roxtec)
100
AcDbCircle
 10
-12.68053710197284
 20
103.9682340283797
 30
0.0
 40
0.5241611053916772
100
AcDbArc
 50
276.8474460233874
 51
354.5848738675593
  0
ARC
  5
41F1
330
390D
100
AcDbEntity
  8
Visible Edges(Roxtec)
100
AcDbCircle
 10
-12.67279254847381
 20
102.9301942903956
 30
0.0
 40
0.5205048101401086
100
AcDbArc
 50
9.013547133516786
 51
83.96218792413128
  0
LINE
  5
41F2
330
390D
100
AcDbEntity
  8
Visible Edges(Roxtec)
100
AcDbLine
 10
-12.15871528291581
 20
103.0117407336992
 30
0.0
 11
-12.14127244418432
 21
102.796612389344
 31
0.0
  0
LINE
  5
41F3
330
390D
100
AcDbEntity
  8
Visible Edges(Roxtec)
100
AcDbLine
 10
-12.14127244418432
 20
102.796612389344
 30
0.0
 11
-12.12964388502996
 21
102.3837985393654
 31
0.0
  0
ARC
  5
41F4
330
390D
100
AcDbEntity
  8
Visible Edges(Roxtec)
100
AcDbCircle
 10
-10.49292418405781
 20
102.5553197868918
 30
0.0
 40
1.645682508232773
100
AcDbArc
 50
185.9825169258583
 51
197.7947991533971
  0
LINE
  5
41F5
330
390D
100
AcDbEntity
  8
Visible Edges(Roxtec)
100
AcDbLine
 10
-12.05987253010397
 20
102.0523846034671
 30
0.0
 11
-12.92038590752457
 21
102.0523846034671
 31
0.0
  0
LINE
  5
41F6
330
390D
100
AcDbEntity
  8
Visible Edges(Roxtec)
100
AcDbLine
 10
-26.47142844166012
 20
64.26023011778323
 30
0.0
 11
-28.39884164566178
 21
64.83938071994725
 31
0.0
  0
SPLINE
  5
41F7
330
390D
100
AcDbEntity
  8
Visible Edges(Roxtec)
100
AcDbSpline
210
0.0
220
0.0
230
1.0
 70
     8
 71
     2
 72
     6
 73
     3
 74
     0
 42
0.000000001
 43
0.0000000001
 40
0.0
 40
0.0
 40
0.0
 40
1.0
 40
1.0
 40
1.0
 10
-25.8181465624192
 20
64.07953512990809
 30
0.0
 10
-26.11003846590984
 20
64.14903320216786
 30
0.0
 10
-26.47142844166012
 20
64.26023011778323
 30
0.0
  0
SPLINE
  5
41F8
330
390D
100
AcDbEntity
  8
Visible Edges(Roxtec)
100
AcDbSpline
210
0.0
220
0.0
230
1.0
 70
     8
 71
     2
 72
     6
 73
     3
 74
     0
 42
0.000000001
 43
0.0000000001
 40
0.0
 40
0.0
 40
0.0
 40
1.0
 40
1.0
 40
1.0
 10
-26.88146706799222
 20
63.78764322641757
 30
0.0
 10
-26.32548248991486
 20
63.98223782874459
 30
0.0
 10
-25.8181465624192
 20
64.07953512990809
 30
0.0
  0
LINE
  5
41F9
330
390D
100
AcDbEntity
  8
Visible Edges(Roxtec)
100
AcDbLine
 10
-28.39884164566178
 20
63.2594578772439
 30
0.0
 11
-26.88146706799222
 21
63.78764322641757
 31
0.0
  0
LINE
  5
41FA
330
390D
100
AcDbEntity
  8
Visible Edges(Roxtec)
100
AcDbLine
 10
-28.39884164566178
 20
62.67335746785403
 30
0.0
 11
-28.39884164566178
 21
63.2594578772439
 31
0.0
  0
LINE
  5
41FB
330
390D
100
AcDbEntity
  8
Visible Edges(Roxtec)
100
AcDbLine
 10
-26.37181453808796
 20
61.96679373321399
 30
0.0
 11
-28.39884164566183
 21
62.67335746785403
 31
0.0
  0
LINE
  5
41FC
330
390D
100
AcDbEntity
  8
Visible Edges(Roxtec)
100
AcDbLine
 10
-25.8181465624192
 20
61.80231496219943
 30
0.0
 11
-26.37181453808796
 21
61.96679373321399
 31
0.0
  0
SPLINE
  5
41FD
330
390D
100
AcDbEntity
  8
Visible Edges(Roxtec)
100
AcDbSpline
210
0.0
220
0.0
230
1.0
 70
     8
 71
     2
 72
     6
 73
     3
 74
     0
 42
0.000000001
 43
0.0000000001
 40
0.0
 40
0.0
 40
0.0
 40
1.0
 40
1.0
 40
1.0
 10
-26.43204620071299
 20
61.64478599841084
 30
0.0
 10
-26.12857128517908
 20
61.73281688993973
 30
0.0
 10
-25.8181465624192
 20
61.80231496219943
 30
0.0
  0
LINE
  5
41FE
330
390D
100
AcDbEntity
  8
Visible Edges(Roxtec)
100
AcDbLine
 10
-28.39884164566178
 20
61.08185161310752
 30
0.0
 11
-26.43204620071299
 21
61.64478599841084
 31
0.0
  0
LINE
  5
41FF
330
390D
100
AcDbEntity
  8
Visible Edges(Roxtec)
100
AcDbLine
 10
-28.39884164566178
 20
60.58378209524653
 30
0.0
 11
-28.39884164566178
 21
61.08185161310752
 31
0.0
  0
LINE
  5
4200
330
390D
100
AcDbEntity
  8
Visible Edges(Roxtec)
100
AcDbLine
 10
-25.39884152645249
 20
61.56138831169926
 30
0.0
 11
-28.39884164566178
 21
60.58378209524653
 31
0.0
  0
LINE
  5
4201
330
390D
100
AcDbEntity
  8
Visible Edges(Roxtec)
100
AcDbLine
 10
-25.39884152645249
 20
62.05945782956025
 30
0.0
 11
-25.39884152645249
 21
61.56138831169926
 31
0.0
  0
LINE
  5
4202
330
390D
100
AcDbEntity
  8
Visible Edges(Roxtec)
100
AcDbLine
 10
-27.68532810379582
 20
62.84246944368596
 30
0.0
 11
-25.39884152645249
 21
62.05945782956025
 31
0.0
  0
SPLINE
  5
4203
330
390D
100
AcDbEntity
  8
Visible Edges(Roxtec)
100
AcDbSpline
210
0.0
220
0.0
230
1.0
 70
     8
 71
     2
 72
     6
 73
     3
 74
     0
 42
0.000000001
 43
0.0000000001
 40
0.0
 40
0.0
 40
0.0
 40
1.0
 40
1.0
 40
1.0
 10
-28.03745166991149
 20
62.95134975689274
 30
0.0
 10
-27.84054046517577
 20
62.89806790149362
 30
0.0
 10
-27.68532810379582
 20
62.84246944368596
 30
0.0
  0
LINE
  5
4204
330
390D
100
AcDbEntity
  8
Visible Edges(Roxtec)
100
AcDbLine
 10
-27.68532810379582
 20
63.06717987732554
 30
0.0
 11
-28.03745166991149
 21
62.95134975689274
 31
0.0
  0
LINE
  5
4205
330
390D
100
AcDbEntity
  8
Visible Edges(Roxtec)
100
AcDbLine
 10
-25.39884152645249
 20
63.84787488904255
 30
0.0
 11
-27.68532810379582
 21
63.06717987732554
 31
0.0
  0
LINE
  5
4206
330
390D
100
AcDbEntity
  8
Visible Edges(Roxtec)
100
AcDbLine
 10
-25.39884152645249
 20
64.31814517799961
 30
0.0
 11
-25.39884152645249
 21
63.84787488904255
 31
0.0
  0
LINE
  5
4207
330
390D
100
AcDbEntity
  8
Visible Edges(Roxtec)
100
AcDbLine
 10
-28.39884164566178
 20
65.33050043058222
 30
0.0
 11
-25.39884152645249
 21
64.31814517799961
 31
0.0
  0
LINE
  5
4208
330
390D
100
AcDbEntity
  8
Visible Edges(Roxtec)
100
AcDbLine
 10
-28.39884164566178
 20
64.83938071994725
 30
0.0
 11
-28.39884164566178
 21
65.33050043058222
 31
0.0
  0
LINE
  5
4209
330
390D
100
AcDbEntity
  8
Visible Edges(Roxtec)
100
AcDbLine
 10
-26.77490335719409
 20
66.27567421331377
 30
0.0
 11
-25.75328169497686
 21
66.27567421331377
 31
0.0
  0
LINE
  5
420A
330
390D
100
AcDbEntity
  8
Visible Edges(Roxtec)
100
AcDbLine
 10
-25.75328169497686
 20
66.27567421331377
 30
0.0
 11
-25.75328169497686
 21
68.54131136897922
 31
0.0
  0
LINE
  5
420B
330
390D
100
AcDbEntity
  8
Visible Edges(Roxtec)
100
AcDbLine
 10
-25.75328169497686
 20
68.54131136897922
 30
0.0
 11
-25.39884152645249
 21
68.54131136897922
 31
0.0
  0
LINE
  5
420C
330
390D
100
AcDbEntity
  8
Visible Edges(Roxtec)
100
AcDbLine
 10
-25.39884152645249
 20
68.54131136897922
 30
0.0
 11
-25.39884152645249
 21
65.78687110508742
 31
0.0
  0
LINE
  5
420D
330
390D
100
AcDbEntity
  8
Visible Edges(Roxtec)
100
AcDbLine
 10
-25.39884152645249
 20
65.78687110508742
 30
0.0
 11
-28.39884164566178
 21
65.78687110508742
 31
0.0
  0
LINE
  5
420E
330
390D
100
AcDbEntity
  8
Visible Edges(Roxtec)
100
AcDbLine
 10
-28.39884164566178
 20
65.78687110508742
 30
0.0
 11
-28.39884164566178
 21
68.45559707985905
 31
0.0
  0
LINE
  5
420F
330
390D
100
AcDbEntity
  8
Visible Edges(Roxtec)
100
AcDbLine
 10
-28.39884164566178
 20
68.45559707985905
 30
0.0
 11
-28.04440147713746
 21
68.45559707985905
 31
0.0
  0
LINE
  5
4210
330
390D
100
AcDbEntity
  8
Visible Edges(Roxtec)
100
AcDbLine
 10
-28.04440147713746
 20
68.45559707985905
 30
0.0
 11
-28.04440147713746
 21
66.27567421331377
 31
0.0
  0
LINE
  5
4211
330
390D
100
AcDbEntity
  8
Visible Edges(Roxtec)
100
AcDbLine
 10
-28.04440147713746
 20
66.27567421331377
 30
0.0
 11
-27.12934352571841
 21
66.27567421331377
 31
0.0
  0
LINE
  5
4212
330
390D
100
AcDbEntity
  8
Visible Edges(Roxtec)
100
AcDbLine
 10
-27.12934352571841
 20
66.27567421331377
 30
0.0
 11
-27.12934352571841
 21
68.31660093533958
 31
0.0
  0
LINE
  5
4213
330
390D
100
AcDbEntity
  8
Visible Edges(Roxtec)
100
AcDbLine
 10
-27.12934352571841
 20
68.31660093533958
 30
0.0
 11
-26.77490335719409
 21
68.31660093533958
 31
0.0
  0
LINE
  5
4214
330
390D
100
AcDbEntity
  8
Visible Edges(Roxtec)
100
AcDbLine
 10
-26.77490335719409
 20
68.31660093533958
 30
0.0
 11
-26.77490335719409
 21
66.27567421331377
 31
0.0
  0
SPLINE
  5
4215
330
390D
100
AcDbEntity
  8
Visible Edges(Roxtec)
100
AcDbSpline
210
0.0
220
0.0
230
1.0
 70
     8
 71
     2
 72
     8
 73
     5
 74
     0
 42
0.000000001
 43
0.0000000001
 40
0.0
 40
0.0
 40
0.0
 40
1.0
 40
2.0
 40
3.0
 40
3.0
 40
3.0
 10
-26.91621610412204
 20
72.25945823487183
 30
0.0
 10
-26.40656357421779
 20
72.25945823487183
 30
0.0
 10
-25.69536663476043
 20
71.8100373675926
 30
0.0
 10
-25.39884152645249
 20
71.10810683776993
 30
0.0
 10
-25.39884152645249
 20
70.53822264524064
 30
0.0
  0
SPLINE
  5
4216
330
390D
100
AcDbEntity
  8
Visible Edges(Roxtec)
100
AcDbSpline
210
0.0
220
0.0
230
1.0
 70
     8
 71
     2
 72
     8
 73
     5
 74
     0
 42
0.000000001
 43
0.0000000001
 40
0.0
 40
0.0
 40
0.0
 40
1.0
 40
2.0
 40
3.0
 40
3.0
 40
3.0
 10
-28.34324318785406
 20
71.20077093411612
 30
0.0
 10
-28.2714285131857
 20
71.52277866891933
 30
0.0
 10
-27.89150571816617
 20
71.99536556028511
 30
0.0
 10
-27.31235511600221
 20
72.25945823487183
 30
0.0
 10
-26.91621610412204
 20
72.25945823487183
 30
0.0
  0
SPLINE
  5
4217
330
390D
100
AcDbEntity
  8
Visible Edges(Roxtec)
100
AcDbSpline
210
0.0
220
0.0
230
1.0
 70
     8
 71
     2
 72
     6
 73
     3
 74
     0
 42
0.000000001
 43
0.0000000001
 40
0.0
 40
0.0
 40
0.0
 40
1.0
 40
1.0
 40
1.0
 10
-28.39884164566178
 20
70.4803075850241
 30
0.0
 10
-28.39884164566178
 20
70.95289447638993
 30
0.0
 10
-28.34324318785406
 20
71.20077093411612
 30
0.0
  0
LINE
  5
4218
330
390D
100
AcDbEntity
  8
Visible Edges(Roxtec)
100
AcDbLine
 10
-25.75328169497686
 20
69.69497936848984
 30
0.0
 11
-25.75328169497686
 21
70.4803075850241
 31
0.0
  0
SPLINE
  5
4219
330
390D
100
AcDbEntity
  8
Visible Edges(Roxtec)
100
AcDbSpline
210
0.0
220
0.0
230
1.0
 70
     8
 71
     2
 72
     7
 73
     4
 74
     0
 42
0.000000001
 43
0.0000000001
 40
0.0
 40
0.0
 40
0.0
 40
1.0
 40
2.0
 40
2.0
 40
2.0
 10
-25.75328169497686
 20
70.4803075850241
 30
0.0
 10
-25.75328169497686
 20
70.95752768120724
 30
0.0
 10
-25.95945930934721
 20
71.44864739184232
 30
0.0
 10
-26.18880294780411
 20
71.57837712672699
 30
0.0
  0
SPLINE
  5
421A
330
390D
100
AcDbEntity
  8
Visible Edges(Roxtec)
100
AcDbSpline
210
0.0
220
0.0
230
1.0
 70
     8
 71
     2
 72
     6
 73
     3
 74
     0
 42
0.000000001
 43
0.0000000001
 40
0.0
 40
0.0
 40
0.0
 40
1.0
 40
1.0
 40
1.0
 10
-26.18880294780411
 20
71.57837712672699
 30
0.0
 10
-26.49459446574673
 20
71.75443890978488
 30
0.0
 10
-26.9185327065307
 20
71.75443890978488
 30
0.0
  0
LINE
  5
421B
330
390D
100
AcDbEntity
  8
Visible Edges(Roxtec)
100
AcDbLine
 10
-28.39884164566178
 20
69.20617626026341
 30
0.0
 11
-28.39884164566178
 21
70.4803075850241
 31
0.0
  0
LINE
  5
421C
330
390D
100
AcDbEntity
  8
Visible Edges(Roxtec)
100
AcDbLine
 10
-25.39884152645249
 20
69.20617626026341
 30
0.0
 11
-28.39884164566178
 21
69.20617626026341
 31
0.0
  0
LINE
  5
421D
330
390D
100
AcDbEntity
  8
Visible Edges(Roxtec)
100
AcDbLine
 10
-25.39884152645249
 20
70.53822264524064
 30
0.0
 11
-25.39884152645249
 21
69.20617626026341
 31
0.0
  0
LINE
  5
421E
330
390D
100
AcDbEntity
  8
Visible Edges(Roxtec)
100
AcDbLine
 10
-28.04440147713746
 20
69.69497936848984
 30
0.0
 11
-25.75328169497686
 21
69.69497936848984
 31
0.0
  0
LINE
  5
421F
330
390D
100
AcDbEntity
  8
Visible Edges(Roxtec)
100
AcDbLine
 10
-28.04440147713746
 20
70.46872457298093
 30
0.0
 11
-28.04440147713746
 21
69.69497936848984
 31
0.0
  0
SPLINE
  5
4220
330
390D
100
AcDbEntity
  8
Visible Edges(Roxtec)
100
AcDbSpline
210
0.0
220
0.0
230
1.0
 70
     8
 71
     2
 72
     6
 73
     3
 74
     0
 42
0.000000001
 43
0.0000000001
 40
0.0
 40
0.0
 40
0.0
 40
1.0
 40
1.0
 40
1.0
 10
-27.98416981451243
 20
71.09189062090933
 30
0.0
 10
-28.04440147713746
 20
70.8949794161735
 30
0.0
 10
-28.04440147713746
 20
70.46872457298093
 30
0.0
  0
SPLINE
  5
4221
330
390D
100
AcDbEntity
  8
Visible Edges(Roxtec)
100
AcDbSpline
210
0.0
220
0.0
230
1.0
 70
     8
 71
     2
 72
     7
 73
     4
 74
     0
 42
0.000000001
 43
0.0000000001
 40
0.0
 40
0.0
 40
0.0
 40
1.0
 40
2.0
 40
2.0
 40
2.0
 10
-26.9185327065307
 20
71.75443890978488
 30
0.0
 10
-27.37490338103595
 20
71.75443890978488
 30
0.0
 10
-27.89613892298348
 20
71.38378252439998
 30
0.0
 10
-27.98416981451243
 20
71.09189062090933
 30
0.0
  0
LINE
  5
4222
330
390D
100
AcDbEntity
  8
Visible Edges(Roxtec)
100
AcDbLine
 10
-26.77490335719409
 20
77.45096423266955
 30
0.0
 11
-25.75328169497686
 21
77.45096423266955
 31
0.0
  0
LINE
  5
4223
330
390D
100
AcDbEntity
  8
Visible Edges(Roxtec)
100
AcDbLine
 10
-25.75328169497686
 20
77.45096423266955
 30
0.0
 11
-25.75328169497686
 21
79.71660138833488
 31
0.0
  0
LINE
  5
4224
330
390D
100
AcDbEntity
  8
Visible Edges(Roxtec)
100
AcDbLine
 10
-25.75328169497686
 20
79.71660138833488
 30
0.0
 11
-25.39884152645249
 21
79.71660138833488
 31
0.0
  0
LINE
  5
4225
330
390D
100
AcDbEntity
  8
Visible Edges(Roxtec)
100
AcDbLine
 10
-25.39884152645249
 20
79.71660138833488
 30
0.0
 11
-25.39884152645249
 21
76.96216112444313
 31
0.0
  0
LINE
  5
4226
330
390D
100
AcDbEntity
  8
Visible Edges(Roxtec)
100
AcDbLine
 10
-25.39884152645249
 20
76.96216112444313
 30
0.0
 11
-28.39884164566183
 21
76.96216112444313
 31
0.0
  0
LINE
  5
4227
330
390D
100
AcDbEntity
  8
Visible Edges(Roxtec)
100
AcDbLine
 10
-28.39884164566183
 20
76.96216112444313
 30
0.0
 11
-28.39884164566183
 21
79.63088709921464
 31
0.0
  0
LINE
  5
4228
330
390D
100
AcDbEntity
  8
Visible Edges(Roxtec)
100
AcDbLine
 10
-28.39884164566183
 20
79.63088709921464
 30
0.0
 11
-28.04440147713746
 21
79.63088709921464
 31
0.0
  0
LINE
  5
4229
330
390D
100
AcDbEntity
  8
Visible Edges(Roxtec)
100
AcDbLine
 10
-28.04440147713746
 20
79.63088709921464
 30
0.0
 11
-28.04440147713746
 21
77.45096423266955
 31
0.0
  0
LINE
  5
422A
330
390D
100
AcDbEntity
  8
Visible Edges(Roxtec)
100
AcDbLine
 10
-28.04440147713746
 20
77.45096423266955
 30
0.0
 11
-27.12934352571841
 21
77.45096423266955
 31
0.0
  0
LINE
  5
422B
330
390D
100
AcDbEntity
  8
Visible Edges(Roxtec)
100
AcDbLine
 10
-27.12934352571841
 20
77.45096423266955
 30
0.0
 11
-27.12934352571841
 21
79.49189095469535
 31
0.0
  0
LINE
  5
422C
330
390D
100
AcDbEntity
  8
Visible Edges(Roxtec)
100
AcDbLine
 10
-27.12934352571841
 20
79.49189095469535
 30
0.0
 11
-26.77490335719409
 21
79.49189095469535
 31
0.0
  0
LINE
  5
422D
330
390D
100
AcDbEntity
  8
Visible Edges(Roxtec)
100
AcDbLine
 10
-26.77490335719409
 20
79.49189095469535
 30
0.0
 11
-26.77490335719409
 21
77.45096423266955
 31
0.0
  0
SPLINE
  5
422E
330
390D
100
AcDbEntity
  8
Visible Edges(Roxtec)
100
AcDbSpline
210
0.0
220
0.0
230
1.0
 70
     8
 71
     2
 72
     8
 73
     5
 74
     0
 42
0.000000001
 43
0.0000000001
 40
0.0
 40
0.0
 40
0.0
 40
1.0
 40
2.0
 40
3.0
 40
3.0
 40
3.0
 10
-27.46293427256484
 20
75.74362825749023
 30
0.0
 10
-27.71776053751699
 20
75.65559736596134
 30
0.0
 10
-27.96795359765179
 20
75.38455488414854
 30
0.0
 10
-28.11158294698851
 20
74.94208382409522
 30
0.0
 10
-28.11158294698851
 20
74.66640813746528
 30
0.0
  0
LINE
  5
422F
330
390D
100
AcDbEntity
  8
Visible Edges(Roxtec)
100
AcDbLine
 10
-27.5602315737284
 20
76.18378271513484
 30
0.0
 11
-27.46293427256484
 21
75.74362825749023
 31
0.0
  0
SPLINE
  5
4230
330
390D
100
AcDbEntity
  8
Visible Edges(Roxtec)
100
AcDbSpline
210
0.0
220
0.0
230
1.0
 70
     8
 71
     2
 72
     8
 73
     5
 74
     0
 42
0.000000001
 43
0.0000000001
 40
0.0
 40
0.0
 40
0.0
 40
1.0
 40
2.0
 40
3.0
 40
3.0
 40
3.0
 10
-28.4521235010609
 20
74.6779911495085
 30
0.0
 10
-28.4521235010609
 20
75.08339657102329
 30
0.0
 10
-28.2505790915078
 20
75.69266300449976
 30
0.0
 10
-27.88223930853155
 20
76.08648541397133
 30
0.0
 10
-27.5602315737284
 20
76.18378271513484
 30
0.0
  0
SPLINE
  5
4231
330
390D
100
AcDbEntity
  8
Visible Edges(Roxtec)
100
AcDbSpline
210
0.0
220
0.0
230
1.0
 70
     8
 71
     2
 72
     8
 73
     5
 74
     0
 42
0.000000001
 43
0.0000000001
 40
0.0
 40
0.0
 40
0.0
 40
1.0
 40
2.0
 40
3.0
 40
3.0
 40
3.0
 10
-26.88610027280953
 20
72.82702582499251
 30
0.0
 10
-27.37721998344455
 20
72.82702582499251
 30
0.0
 10
-28.1069497421712
 20
73.3250953428535
 30
0.0
 10
-28.4521235010609
 20
74.12895637865711
 30
0.0
 10
-28.4521235010609
 20
74.6779911495085
 30
0.0
  0
SPLINE
  5
4232
330
390D
100
AcDbEntity
  8
Visible Edges(Roxtec)
100
AcDbSpline
210
0.0
220
0.0
230
1.0
 70
     8
 71
     2
 72
     8
 73
     5
 74
     0
 42
0.000000001
 43
0.0000000001
 40
0.0
 40
0.0
 40
0.0
 40
1.0
 40
2.0
 40
3.0
 40
3.0
 40
3.0
 10
-25.34787627346208
 20
74.71042358322961
 30
0.0
 10
-25.34787627346208
 20
74.16833861960424
 30
0.0
 10
-25.70926624921237
 20
73.32046213803619
 30
0.0
 10
-26.39961376699182
 20
72.82702582499251
 30
0.0
 10
-26.88610027280953
 20
72.82702582499251
 30
0.0
  0
SPLINE
  5
4233
330
390D
100
AcDbEntity
  8
Visible Edges(Roxtec)
100
AcDbSpline
210
0.0
220
0.0
230
1.0
 70
     8
 71
     2
 72
     7
 73
     4
 74
     0
 42
0.000000001
 43
0.0000000001
 40
0.0
 40
0.0
 40
0.0
 40
1.0
 40
2.0
 40
2.0
 40
2.0
 10
-25.8181465624192
 20
76.24169777535121
 30
0.0
 10
-25.584169719145
 20
75.88262440200953
 30
0.0
 10
-25.34787627346208
 20
75.11582900474451
 30
0.0
 10
-25.34787627346208
 20
74.71042358322961
 30
0.0
  0
LINE
  5
4234
330
390D
100
AcDbEntity
  8
Visible Edges(Roxtec)
100
AcDbLine
 10
-26.93243232098268
 20
76.24169777535121
 30
0.0
 11
-25.8181465624192
 21
76.24169777535121
 31
0.0
  0
LINE
  5
4235
330
390D
100
AcDbEntity
  8
Visible Edges(Roxtec)
100
AcDbLine
 10
-26.93011571857403
 20
74.6779911495085
 30
0.0
 11
-26.93243232098268
 21
76.24169777535121
 31
0.0
  0
LINE
  5
4236
330
390D
100
AcDbEntity
  8
Visible Edges(Roxtec)
100
AcDbLine
 10
-26.57567555004965
 20
74.6779911495085
 30
0.0
 11
-26.93011571857403
 21
74.6779911495085
 31
0.0
  0
LINE
  5
4237
330
390D
100
AcDbEntity
  8
Visible Edges(Roxtec)
100
AcDbLine
 10
-26.57567555004965
 20
75.76216107675941
 30
0.0
 11
-26.57567555004965
 21
74.6779911495085
 31
0.0
  0
LINE
  5
4238
330
390D
100
AcDbEntity
  8
Visible Edges(Roxtec)
100
AcDbLine
 10
-26.01737436956364
 20
75.76216107675941
 30
0.0
 11
-26.57567555004965
 21
75.76216107675941
 31
0.0
  0
SPLINE
  5
4239
330
390D
100
AcDbEntity
  8
Visible Edges(Roxtec)
100
AcDbSpline
210
0.0
220
0.0
230
1.0
 70
     8
 71
     2
 72
     7
 73
     4
 74
     0
 42
0.000000001
 43
0.0000000001
 40
0.0
 40
0.0
 40
0.0
 40
1.0
 40
2.0
 40
2.0
 40
2.0
 10
-25.70694964680371
 20
74.69189076396038
 30
0.0
 10
-25.70694964680371
 20
74.9791494626337
 30
0.0
 10
-25.88996123708751
 20
75.58378269129298
 30
0.0
 10
-26.01737436956364
 20
75.76216107675941
 30
0.0
  0
SPLINE
  5
423A
330
390D
100
AcDbEntity
  8
Visible Edges(Roxtec)
100
AcDbSpline
210
0.0
220
0.0
230
1.0
 70
     8
 71
     2
 72
     7
 73
     4
 74
     0
 42
0.000000001
 43
0.0000000001
 40
0.0
 40
0.0
 40
0.0
 40
1.0
 40
2.0
 40
2.0
 40
2.0
 10
-26.90926629689608
 20
73.33204515007953
 30
0.0
 10
-26.30694967064556
 20
73.33204515007953
 30
0.0
 10
-25.70694964680371
 20
74.0872575353012
 30
0.0
 10
-25.70694964680371
 20
74.69189076396038
 30
0.0
  0
SPLINE
  5
423B
330
390D
100
AcDbEntity
  8
Visible Edges(Roxtec)
100
AcDbSpline
210
0.0
220
0.0
230
1.0
 70
     8
 71
     2
 72
     8
 73
     5
 74
     0
 42
0.000000001
 43
0.0000000001
 40
0.0
 40
0.0
 40
0.0
 40
1.0
 40
2.0
 40
3.0
 40
3.0
 40
3.0
 10
-28.11158294698851
 20
74.66640813746528
 30
0.0
 10
-28.11158294698851
 20
74.26563592076786
 30
0.0
 10
-27.85212347721904
 20
73.68416871619524
 30
0.0
 10
-27.30308870636759
 20
73.33204515007953
 30
0.0
 10
-26.90926629689608
 20
73.33204515007953
 30
0.0
  0
SPLINE
  5
423C
330
390D
100
AcDbEntity
  8
Visible Edges(Roxtec)
100
AcDbSpline
210
0.0
220
0.0
230
1.0
 70
     8
 71
     2
 72
     6
 73
     3
 74
     0
 42
0.000000001
 43
0.0000000001
 40
0.0
 40
0.0
 40
0.0
 40
1.0
 40
1.0
 40
1.0
 10
-27.46293427256484
 20
93.95675639434234
 30
0.0
 10
-27.84517366999307
 20
93.77837800887574
 30
0.0
 10
-28.08378371808459
 20
93.69729692457282
 30
0.0
  0
SPLINE
  5
423D
330
390D
100
AcDbEntity
  8
Visible Edges(Roxtec)
100
AcDbSpline
210
0.0
220
0.0
230
1.0
 70
     8
 71
     2
 72
     6
 73
     3
 74
     0
 42
0.000000001
 43
0.0000000001
 40
0.0
 40
0.0
 40
0.0
 40
1.0
 40
1.0
 40
1.0
 10
-28.08378371808459
 20
93.69729692457282
 30
0.0
 10
-27.79420841700267
 20
93.62548224990439
 30
0.0
 10
-27.51158292314659
 20
93.49343591261112
 30
0.0
  0
LINE
  5
423E
330
390D
100
AcDbEntity
  8
Visible Edges(Roxtec)
100
AcDbLine
 10
-27.51158292314659
 20
93.49343591261112
 30
0.0
 11
-26.63127400785743
 21
93.08571388868761
 31
0.0
  0
LINE
  5
423F
330
390D
100
AcDbEntity
  8
Visible Edges(Roxtec)
100
AcDbLine
 10
-26.30694967064562
 20
92.94208453935107
 30
0.0
 11
-25.39884152645254
 21
92.54362892506225
 31
0.0
  0
LINE
  5
4240
330
390D
100
AcDbEntity
  8
Visible Edges(Roxtec)
100
AcDbLine
 10
-25.39884152645254
 20
92.54362892506225
 30
0.0
 11
-25.39884152645254
 21
92.02470998552326
 31
0.0
  0
LINE
  5
4241
330
390D
100
AcDbEntity
  8
Visible Edges(Roxtec)
100
AcDbLine
 10
-25.39884152645254
 20
92.02470998552326
 30
0.0
 11
-28.39884164566183
 21
93.44247065962065
 31
0.0
  0
LINE
  5
4242
330
390D
100
AcDbEntity
  8
Visible Edges(Roxtec)
100
AcDbLine
 10
-28.39884164566183
 20
93.44247065962065
 30
0.0
 11
-28.39884164566183
 21
93.9706560087942
 31
0.0
  0
LINE
  5
4243
330
390D
100
AcDbEntity
  8
Visible Edges(Roxtec)
100
AcDbLine
 10
-26.63127400785743
 20
94.34131239417911
 30
0.0
 11
-27.46293427256484
 21
93.95675639434234
 31
0.0
  0
LINE
  5
4244
330
390D
100
AcDbEntity
  8
Visible Edges(Roxtec)
100
AcDbLine
 10
-26.63127400785743
 20
93.08571388868761
 30
0.0
 11
-26.63127400785743
 21
94.34131239417911
 31
0.0
  0
LINE
  5
4245
330
390D
100
AcDbEntity
  8
Visible Edges(Roxtec)
100
AcDbLine
 10
-28.39884164566183
 20
93.9706560087942
 30
0.0
 11
-25.39884152645254
 21
95.48108077923785
 31
0.0
  0
LINE
  5
4246
330
390D
100
AcDbEntity
  8
Visible Edges(Roxtec)
100
AcDbLine
 10
-25.39884152645254
 20
95.48108077923785
 30
0.0
 11
-25.39884152645254
 21
94.92277959875172
 31
0.0
  0
LINE
  5
4247
330
390D
100
AcDbEntity
  8
Visible Edges(Roxtec)
100
AcDbLine
 10
-25.39884152645254
 20
94.92277959875172
 30
0.0
 11
-26.30694967064562
 21
94.49420815315045
 31
0.0
  0
LINE
  5
4248
330
390D
100
AcDbEntity
  8
Visible Edges(Roxtec)
100
AcDbLine
 10
-26.30694967064562
 20
94.49420815315045
 30
0.0
 11
-26.30694967064562
 21
92.94208453935107
 31
0.0
  0
LINE
  5
4249
330
390D
100
AcDbEntity
  8
Visible Edges(Roxtec)
100
AcDbLine
 10
-26.30694967064556
 20
83.89111892873273
 30
0.0
 11
-26.30694967064556
 21
82.33899531493335
 31
0.0
  0
LINE
  5
424A
330
390D
100
AcDbEntity
  8
Visible Edges(Roxtec)
100
AcDbLine
 10
-25.39884152645249
 20
84.31969037433402
 30
0.0
 11
-26.30694967064556
 21
83.89111892873273
 31
0.0
  0
LINE
  5
424B
330
390D
100
AcDbEntity
  8
Visible Edges(Roxtec)
100
AcDbLine
 10
-25.39884152645249
 20
84.87799155482003
 30
0.0
 11
-25.39884152645249
 21
84.31969037433402
 31
0.0
  0
LINE
  5
424C
330
390D
100
AcDbEntity
  8
Visible Edges(Roxtec)
100
AcDbLine
 10
-28.39884164566183
 20
83.36756678437655
 30
0.0
 11
-25.39884152645249
 21
84.87799155482003
 31
0.0
  0
LINE
  5
424D
330
390D
100
AcDbEntity
  8
Visible Edges(Roxtec)
100
AcDbLine
 10
-26.63127400785743
 20
82.48262466427002
 30
0.0
 11
-26.63127400785743
 21
83.73822316976145
 31
0.0
  0
LINE
  5
424E
330
390D
100
AcDbEntity
  8
Visible Edges(Roxtec)
100
AcDbLine
 10
-26.63127400785743
 20
83.73822316976145
 30
0.0
 11
-27.46293427256484
 21
83.35366716992451
 31
0.0
  0
LINE
  5
424F
330
390D
100
AcDbEntity
  8
Visible Edges(Roxtec)
100
AcDbLine
 10
-28.39884164566183
 20
82.83938143520293
 30
0.0
 11
-28.39884164566183
 21
83.36756678437655
 31
0.0
  0
LINE
  5
4250
330
390D
100
AcDbEntity
  8
Visible Edges(Roxtec)
100
AcDbLine
 10
-25.39884152645249
 20
81.4216207611056
 30
0.0
 11
-28.39884164566183
 21
82.83938143520293
 31
0.0
  0
LINE
  5
4251
330
390D
100
AcDbEntity
  8
Visible Edges(Roxtec)
100
AcDbLine
 10
-25.39884152645249
 20
81.94053970064453
 30
0.0
 11
-25.39884152645249
 21
81.4216207611056
 31
0.0
  0
LINE
  5
4252
330
390D
100
AcDbEntity
  8
Visible Edges(Roxtec)
100
AcDbLine
 10
-26.30694967064556
 20
82.33899531493335
 30
0.0
 11
-25.39884152645249
 21
81.94053970064453
 31
0.0
  0
LINE
  5
4253
330
390D
100
AcDbEntity
  8
Visible Edges(Roxtec)
100
AcDbLine
 10
-27.51158292314659
 20
82.8903466881934
 30
0.0
 11
-26.63127400785743
 21
82.48262466427002
 31
0.0
  0
SPLINE
  5
4254
330
390D
100
AcDbEntity
  8
Visible Edges(Roxtec)
100
AcDbSpline
210
0.0
220
0.0
230
1.0
 70
     8
 71
     2
 72
     6
 73
     3
 74
     0
 42
0.000000001
 43
0.0000000001
 40
0.0
 40
0.0
 40
0.0
 40
1.0
 40
1.0
 40
1.0
 10
-28.08378371808459
 20
83.09420770015515
 30
0.0
 10
-27.79420841700267
 20
83.02239302548684
 30
0.0
 10
-27.51158292314659
 20
82.8903466881934
 30
0.0
  0
SPLINE
  5
4255
330
390D
100
AcDbEntity
  8
Visible Edges(Roxtec)
100
AcDbSpline
210
0.0
220
0.0
230
1.0
 70
     8
 71
     2
 72
     6
 73
     3
 74
     0
 42
0.000000001
 43
0.0000000001
 40
0.0
 40
0.0
 40
0.0
 40
1.0
 40
1.0
 40
1.0
 10
-27.46293427256484
 20
83.35366716992451
 30
0.0
 10
-27.84517366999307
 20
83.17528878445807
 30
0.0
 10
-28.08378371808459
 20
83.09420770015515
 30
0.0
  0
LINE
  5
4256
330
390D
100
AcDbEntity
  8
Visible Edges(Roxtec)
100
AcDbLine
 10
28.39884164566172
 20
91.16061928005313
 30
0.0
 11
28.39884164566172
 21
90.66949956941812
 31
0.0
  0
LINE
  5
4257
330
390D
100
AcDbEntity
  8
Visible Edges(Roxtec)
100
AcDbLine
 10
28.39884164566172
 20
90.66949956941812
 30
0.0
 11
25.39884152645243
 21
91.68185482200073
 31
0.0
  0
LINE
  5
4258
330
390D
100
AcDbEntity
  8
Visible Edges(Roxtec)
100
AcDbLine
 10
25.39884152645243
 20
91.68185482200073
 30
0.0
 11
25.39884152645243
 21
92.15212511095785
 31
0.0
  0
LINE
  5
4259
330
390D
100
AcDbEntity
  8
Visible Edges(Roxtec)
100
AcDbLine
 10
25.39884152645243
 20
92.15212511095785
 30
0.0
 11
27.68532810379577
 21
92.9328201226748
 31
0.0
  0
LINE
  5
425A
330
390D
100
AcDbEntity
  8
Visible Edges(Roxtec)
100
AcDbLine
 10
27.68532810379577
 20
92.9328201226748
 30
0.0
 11
28.03745166991144
 21
93.04865024310766
 31
0.0
  0
SPLINE
  5
425B
330
390D
100
AcDbEntity
  8
Visible Edges(Roxtec)
100
AcDbSpline
210
0.0
220
0.0
230
1.0
 70
     8
 71
     2
 72
     6
 73
     3
 74
     0
 42
0.000000001
 43
0.0000000001
 40
0.0
 40
0.0
 40
0.0
 40
1.0
 40
1.0
 40
1.0
 10
28.03745166991144
 20
93.04865024310766
 30
0.0
 10
27.84054046517577
 20
93.10193209850671
 30
0.0
 10
27.68532810379577
 20
93.15753055631445
 30
0.0
  0
LINE
  5
425C
330
390D
100
AcDbEntity
  8
Visible Edges(Roxtec)
100
AcDbLine
 10
27.68532810379577
 20
93.15753055631445
 30
0.0
 11
25.39884152645243
 21
93.94054217044015
 31
0.0
  0
LINE
  5
425D
330
390D
100
AcDbEntity
  8
Visible Edges(Roxtec)
100
AcDbLine
 10
25.39884152645243
 20
93.94054217044015
 30
0.0
 11
25.39884152645243
 21
94.43861168830109
 31
0.0
  0
LINE
  5
425E
330
390D
100
AcDbEntity
  8
Visible Edges(Roxtec)
100
AcDbLine
 10
25.39884152645243
 20
94.43861168830109
 30
0.0
 11
28.39884164566172
 21
95.41621790475392
 31
0.0
  0
LINE
  5
425F
330
390D
100
AcDbEntity
  8
Visible Edges(Roxtec)
100
AcDbLine
 10
28.39884164566172
 20
95.41621790475392
 30
0.0
 11
28.39884164566172
 21
94.91814838689288
 31
0.0
  0
LINE
  5
4260
330
390D
100
AcDbEntity
  8
Visible Edges(Roxtec)
100
AcDbLine
 10
28.39884164566172
 20
94.91814838689288
 30
0.0
 11
26.43204620071293
 21
94.3552140015895
 31
0.0
  0
SPLINE
  5
4261
330
390D
100
AcDbEntity
  8
Visible Edges(Roxtec)
100
AcDbSpline
210
0.0
220
0.0
230
1.0
 70
     8
 71
     2
 72
     6
 73
     3
 74
     0
 42
0.000000001
 43
0.0000000001
 40
0.0
 40
0.0
 40
0.0
 40
1.0
 40
1.0
 40
1.0
 10
26.43204620071293
 20
94.3552140015895
 30
0.0
 10
26.12857128517908
 20
94.26718311006061
 30
0.0
 10
25.81814656241915
 20
94.19768503780096
 30
0.0
  0
LINE
  5
4262
330
390D
100
AcDbEntity
  8
Visible Edges(Roxtec)
100
AcDbLine
 10
25.81814656241915
 20
94.19768503780096
 30
0.0
 11
26.37181453808796
 21
94.03320626678635
 31
0.0
  0
LINE
  5
4263
330
390D
100
AcDbEntity
  8
Visible Edges(Roxtec)
100
AcDbLine
 10
26.37181453808796
 20
94.03320626678635
 30
0.0
 11
28.39884164566172
 21
93.32664253214636
 31
0.0
  0
LINE
  5
4264
330
390D
100
AcDbEntity
  8
Visible Edges(Roxtec)
100
AcDbLine
 10
28.39884164566172
 20
93.32664253214636
 30
0.0
 11
28.39884164566172
 21
92.74054212275643
 31
0.0
  0
LINE
  5
4265
330
390D
100
AcDbEntity
  8
Visible Edges(Roxtec)
100
AcDbLine
 10
28.39884164566172
 20
92.74054212275643
 30
0.0
 11
26.88146706799216
 21
92.21235677358293
 31
0.0
  0
SPLINE
  5
4266
330
390D
100
AcDbEntity
  8
Visible Edges(Roxtec)
100
AcDbSpline
210
0.0
220
0.0
230
1.0
 70
     8
 71
     2
 72
     6
 73
     3
 74
     0
 42
0.000000001
 43
0.0000000001
 40
0.0
 40
0.0
 40
0.0
 40
1.0
 40
1.0
 40
1.0
 10
26.88146706799216
 20
92.21235677358293
 30
0.0
 10
26.32548248991475
 20
92.01776217125587
 30
0.0
 10
25.81814656241915
 20
91.92046487009225
 30
0.0
  0
SPLINE
  5
4267
330
390D
100
AcDbEntity
  8
Visible Edges(Roxtec)
100
AcDbSpline
210
0.0
220
0.0
230
1.0
 70
     8
 71
     2
 72
     6
 73
     3
 74
     0
 42
0.000000001
 43
0.0000000001
 40
0.0
 40
0.0
 40
0.0
 40
1.0
 40
1.0
 40
1.0
 10
25.81814656241915
 20
91.92046487009225
 30
0.0
 10
26.11003846590984
 20
91.85096679783248
 30
0.0
 10
26.47142844166001
 20
91.73976988221715
 30
0.0
  0
LINE
  5
4268
330
390D
100
AcDbEntity
  8
Visible Edges(Roxtec)
100
AcDbLine
 10
26.47142844166001
 20
91.73976988221715
 30
0.0
 11
28.39884164566172
 21
91.16061928005313
 31
0.0
  0
LINE
  5
4269
330
390D
100
AcDbEntity
  8
Visible Edges(Roxtec)
100
AcDbLine
 10
-25.39884152645249
 20
88.51969054122703
 30
0.0
 11
-25.39884152645249
 21
87.90579090293334
 31
0.0
  0
LINE
  5
426A
330
390D
100
AcDbEntity
  8
Visible Edges(Roxtec)
100
AcDbLine
 10
-26.21428557429937
 20
87.87567507162078
 30
0.0
 11
-25.39884152645249
 21
88.51969054122703
 31
0.0
  0
SPLINE
  5
426B
330
390D
100
AcDbEntity
  8
Visible Edges(Roxtec)
100
AcDbSpline
210
0.0
220
0.0
230
1.0
 70
     8
 71
     2
 72
     6
 73
     3
 74
     0
 42
0.000000001
 43
0.0000000001
 40
0.0
 40
0.0
 40
0.0
 40
1.0
 40
1.0
 40
1.0
 10
-26.5988415741362
 20
87.49111907178383
 30
0.0
 10
-26.42509639348702
 20
87.70887969819751
 30
0.0
 10
-26.21428557429937
 20
87.87567507162078
 30
0.0
  0
SPLINE
  5
426C
330
390D
100
AcDbEntity
  8
Visible Edges(Roxtec)
100
AcDbSpline
210
0.0
220
0.0
230
1.0
 70
     8
 71
     2
 72
     6
 73
     3
 74
     0
 42
0.000000001
 43
0.0000000001
 40
0.0
 40
0.0
 40
0.0
 40
1.0
 40
1.0
 40
1.0
 10
-26.76563694755941
 20
87.1783777466153
 30
0.0
 10
-26.68223926084784
 20
87.38455536098575
 30
0.0
 10
-26.5988415741362
 20
87.49111907178383
 30
0.0
  0
SPLINE
  5
426D
330
390D
100
AcDbEntity
  8
Visible Edges(Roxtec)
100
AcDbSpline
210
0.0
220
0.0
230
1.0
 70
     8
 71
     2
 72
     7
 73
     4
 74
     0
 42
0.000000001
 43
0.0000000001
 40
0.0
 40
0.0
 40
0.0
 40
1.0
 40
2.0
 40
2.0
 40
2.0
 10
-27.58339759781495
 20
88.2162156256931
 30
0.0
 10
-27.24285704374256
 20
88.2162156256931
 30
0.0
 10
-26.82123540536719
 20
87.68571367411096
 30
0.0
 10
-26.76563694755941
 20
87.1783777466153
 30
0.0
  0
SPLINE
  5
426E
330
390D
100
AcDbEntity
  8
Visible Edges(Roxtec)
100
AcDbSpline
210
0.0
220
0.0
230
1.0
 70
     8
 71
     2
 72
     8
 73
     5
 74
     0
 42
0.000000001
 43
0.0000000001
 40
0.0
 40
0.0
 40
0.0
 40
1.0
 40
2.0
 40
3.0
 40
3.0
 40
3.0
 10
-28.39884164566183
 20
86.90270205998535
 30
0.0
 10
-28.39884164566183
 20
87.41467119229822
 30
0.0
 10
-28.23204627223856
 20
87.90347430052463
 30
0.0
 10
-27.84054046517577
 20
88.2162156256931
 30
0.0
 10
-27.58339759781495
 20
88.2162156256931
 30
0.0
  0
LINE
  5
426F
330
390D
100
AcDbEntity
  8
Visible Edges(Roxtec)
100
AcDbLine
 10
-27.07374506791069
 20
85.75366726529194
 30
0.0
 11
-27.07374506791069
 21
86.80308815641309
 31
0.0
  0
SPLINE
  5
4270
330
390D
100
AcDbEntity
  8
Visible Edges(Roxtec)
100
AcDbSpline
210
0.0
220
0.0
230
1.0
 70
     8
 71
     2
 72
     8
 73
     5
 74
     0
 42
0.000000001
 43
0.0000000001
 40
0.0
 40
0.0
 40
0.0
 40
1.0
 40
2.0
 40
3.0
 40
3.0
 40
3.0
 10
-27.07374506791069
 20
86.80308815641309
 30
0.0
 10
-27.07374506791069
 20
87.14594531289412
 30
0.0
 10
-27.18494198352613
 20
87.5027020838271
 30
0.0
 10
-27.42123542920905
 20
87.7111963006061
 30
0.0
 10
-27.57876439299764
 20
87.7111963006061
 30
0.0
  0
LINE
  5
4271
330
390D
100
AcDbEntity
  8
Visible Edges(Roxtec)
100
AcDbLine
 10
-28.39884164566183
 20
85.26486415706562
 30
0.0
 11
-28.39884164566183
 21
86.90270205998535
 31
0.0
  0
LINE
  5
4272
330
390D
100
AcDbEntity
  8
Visible Edges(Roxtec)
100
AcDbLine
 10
-25.39884152645249
 20
85.26486415706562
 30
0.0
 11
-28.39884164566183
 21
85.26486415706562
 31
0.0
  0
LINE
  5
4273
330
390D
100
AcDbEntity
  8
Visible Edges(Roxtec)
100
AcDbLine
 10
-25.39884152645249
 20
85.75366726529194
 30
0.0
 11
-25.39884152645249
 21
85.26486415706562
 31
0.0
  0
LINE
  5
4274
330
390D
100
AcDbEntity
  8
Visible Edges(Roxtec)
100
AcDbLine
 10
-26.73088791142959
 20
85.75366726529194
 30
0.0
 11
-25.39884152645249
 21
85.75366726529194
 31
0.0
  0
LINE
  5
4275
330
390D
100
AcDbEntity
  8
Visible Edges(Roxtec)
100
AcDbLine
 10
-26.73088791142959
 20
86.31891825300403
 30
0.0
 11
-26.73088791142959
 21
85.75366726529194
 31
0.0
  0
SPLINE
  5
4276
330
390D
100
AcDbEntity
  8
Visible Edges(Roxtec)
100
AcDbSpline
210
0.0
220
0.0
230
1.0
 70
     8
 71
     2
 72
     8
 73
     5
 74
     0
 42
0.000000001
 43
0.0000000001
 40
0.0
 40
0.0
 40
0.0
 40
1.0
 40
2.0
 40
3.0
 40
3.0
 40
3.0
 10
-26.02200757438095
 20
87.41467119229822
 30
0.0
 10
-26.38803075494855
 20
87.12741249362494
 30
0.0
 10
-26.6428570199007
 20
86.83552059013436
 30
0.0
 10
-26.73088791142959
 20
86.56216150591296
 30
0.0
 10
-26.73088791142959
 20
86.31891825300403
 30
0.0
  0
LINE
  5
4277
330
390D
100
AcDbEntity
  8
Visible Edges(Roxtec)
100
AcDbLine
 10
-25.39884152645249
 20
87.90579090293334
 30
0.0
 11
-26.02200757438095
 21
87.41467119229822
 31
0.0
  0
LINE
  5
4278
330
390D
100
AcDbEntity
  8
Visible Edges(Roxtec)
100
AcDbLine
 10
-28.06756750122401
 20
85.75366726529194
 30
0.0
 11
-27.07374506791069
 21
85.75366726529194
 31
0.0
  0
LINE
  5
4279
330
390D
100
AcDbEntity
  8
Visible Edges(Roxtec)
100
AcDbLine
 10
-28.06756750122401
 20
86.91891827684584
 30
0.0
 11
-28.06756750122401
 21
85.75366726529194
 31
0.0
  0
SPLINE
  5
427A
330
390D
100
AcDbEntity
  8
Visible Edges(Roxtec)
100
AcDbSpline
210
0.0
220
0.0
230
1.0
 70
     8
 71
     2
 72
     7
 73
     4
 74
     0
 42
0.000000001
 43
0.0000000001
 40
0.0
 40
0.0
 40
0.0
 40
1.0
 40
2.0
 40
2.0
 40
2.0
 10
-27.57876439299764
 20
87.7111963006061
 30
0.0
 10
-27.80810803145454
 20
87.7111963006061
 30
0.0
 10
-28.06756750122401
 20
87.31274068631728
 30
0.0
 10
-28.06756750122401
 20
86.91891827684594
 30
0.0
  0
SPLINE
  5
427B
330
390D
100
AcDbEntity
  8
Visible Edges(Roxtec)
100
AcDbSpline
210
0.0
220
0.0
230
1.0
 70
     8
 71
     2
 72
     7
 73
     4
 74
     0
 42
0.000000001
 43
0.0000000001
 40
0.0
 40
0.0
 40
0.0
 40
1.0
 40
2.0
 40
2.0
 40
2.0
 10
26.91853270653064
 20
84.24556109021551
 30
0.0
 10
27.37490338103583
 20
84.24556109021551
 30
0.0
 10
27.89613892298343
 20
84.61621747560043
 30
0.0
 10
27.98416981451231
 20
84.90810937909101
 30
0.0
  0
SPLINE
  5
427C
330
390D
100
AcDbEntity
  8
Visible Edges(Roxtec)
100
AcDbSpline
210
0.0
220
0.0
230
1.0
 70
     8
 71
     2
 72
     6
 73
     3
 74
     0
 42
0.000000001
 43
0.0000000001
 40
0.0
 40
0.0
 40
0.0
 40
1.0
 40
1.0
 40
1.0
 10
27.98416981451231
 20
84.90810937909101
 30
0.0
 10
28.04440147713746
 20
85.10502058382678
 30
0.0
 10
28.04440147713746
 20
85.53127542701941
 30
0.0
  0
LINE
  5
427D
330
390D
100
AcDbEntity
  8
Visible Edges(Roxtec)
100
AcDbLine
 10
28.04440147713746
 20
85.53127542701941
 30
0.0
 11
28.04440147713746
 21
86.3050206315105
 31
0.0
  0
LINE
  5
427E
330
390D
100
AcDbEntity
  8
Visible Edges(Roxtec)
100
AcDbLine
 10
28.04440147713746
 20
86.3050206315105
 30
0.0
 11
25.75328169497686
 21
86.3050206315105
 31
0.0
  0
LINE
  5
427F
330
390D
100
AcDbEntity
  8
Visible Edges(Roxtec)
100
AcDbLine
 10
25.39884152645243
 20
85.46177735475982
 30
0.0
 11
25.39884152645243
 21
86.79382373973693
 31
0.0
  0
LINE
  5
4280
330
390D
100
AcDbEntity
  8
Visible Edges(Roxtec)
100
AcDbLine
 10
25.39884152645243
 20
86.79382373973693
 30
0.0
 11
28.39884164566172
 21
86.79382373973693
 31
0.0
  0
LINE
  5
4281
330
390D
100
AcDbEntity
  8
Visible Edges(Roxtec)
100
AcDbLine
 10
28.39884164566172
 20
86.79382373973693
 30
0.0
 11
28.39884164566172
 21
85.51969241497625
 31
0.0
  0
SPLINE
  5
4282
330
390D
100
AcDbEntity
  8
Visible Edges(Roxtec)
100
AcDbSpline
210
0.0
220
0.0
230
1.0
 70
     8
 71
     2
 72
     6
 73
     3
 74
     0
 42
0.000000001
 43
0.0000000001
 40
0.0
 40
0.0
 40
0.0
 40
1.0
 40
1.0
 40
1.0
 10
26.18880294780411
 20
84.42162287327334
 30
0.0
 10
26.49459446574662
 20
84.24556109021551
 30
0.0
 10
26.91853270653064
 20
84.24556109021551
 30
0.0
  0
SPLINE
  5
4283
330
390D
100
AcDbEntity
  8
Visible Edges(Roxtec)
100
AcDbSpline
210
0.0
220
0.0
230
1.0
 70
     8
 71
     2
 72
     7
 73
     4
 74
     0
 42
0.000000001
 43
0.0000000001
 40
0.0
 40
0.0
 40
0.0
 40
1.0
 40
2.0
 40
2.0
 40
2.0
 10
25.75328169497686
 20
85.51969241497625
 30
0.0
 10
25.75328169497686
 20
85.04247231879309
 30
0.0
 10
25.95945930934715
 20
84.55135260815813
 30
0.0
 10
26.18880294780411
 20
84.42162287327334
 30
0.0
  0
LINE
  5
4284
330
390D
100
AcDbEntity
  8
Visible Edges(Roxtec)
100
AcDbLine
 10
25.75328169497686
 20
86.3050206315105
 30
0.0
 11
25.75328169497686
 21
85.51969241497625
 31
0.0
  0
SPLINE
  5
4285
330
390D
100
AcDbEntity
  8
Visible Edges(Roxtec)
100
AcDbSpline
210
0.0
220
0.0
230
1.0
 70
     8
 71
     2
 72
     6
 73
     3
 74
     0
 42
0.000000001
 43
0.0000000001
 40
0.0
 40
0.0
 40
0.0
 40
1.0
 40
1.0
 40
1.0
 10
28.39884164566172
 20
85.51969241497625
 30
0.0
 10
28.39884164566172
 20
85.04710552361041
 30
0.0
 10
28.34324318785406
 20
84.79922906588422
 30
0.0
  0
SPLINE
  5
4286
330
390D
100
AcDbEntity
  8
Visible Edges(Roxtec)
100
AcDbSpline
210
0.0
220
0.0
230
1.0
 70
     8
 71
     2
 72
     8
 73
     5
 74
     0
 42
0.000000001
 43
0.0000000001
 40
0.0
 40
0.0
 40
0.0
 40
1.0
 40
2.0
 40
3.0
 40
3.0
 40
3.0
 10
28.34324318785406
 20
84.79922906588422
 30
0.0
 10
28.27142851318564
 20
84.47722133108106
 30
0.0
 10
27.89150571816612
 20
84.00463443971535
 30
0.0
 10
27.3123551160021
 20
83.74054176512851
 30
0.0
 10
26.91621610412204
 20
83.74054176512851
 30
0.0
  0
SPLINE
  5
4287
330
390D
100
AcDbEntity
  8
Visible Edges(Roxtec)
100
AcDbSpline
210
0.0
220
0.0
230
1.0
 70
     8
 71
     2
 72
     8
 73
     5
 74
     0
 42
0.000000001
 43
0.0000000001
 40
0.0
 40
0.0
 40
0.0
 40
1.0
 40
2.0
 40
3.0
 40
3.0
 40
3.0
 10
26.91621610412204
 20
83.74054176512851
 30
0.0
 10
26.40656357421773
 20
83.74054176512851
 30
0.0
 10
25.69536663476032
 20
84.18996263240774
 30
0.0
 10
25.39884152645243
 20
84.89189316223052
 30
0.0
 10
25.39884152645243
 20
85.46177735475982
 30
0.0
  0
LINE
  5
4288
330
390D
100
AcDbEntity
  8
Visible Edges(Roxtec)
100
AcDbLine
 10
-26.77490335719409
 20
91.52895707007099
 30
0.0
 11
-26.77490335719409
 21
89.48803034804518
 31
0.0
  0
LINE
  5
4289
330
390D
100
AcDbEntity
  8
Visible Edges(Roxtec)
100
AcDbLine
 10
-27.12934352571841
 20
91.52895707007099
 30
0.0
 11
-26.77490335719409
 21
91.52895707007099
 31
0.0
  0
LINE
  5
428A
330
390D
100
AcDbEntity
  8
Visible Edges(Roxtec)
100
AcDbLine
 10
-27.12934352571841
 20
89.48803034804518
 30
0.0
 11
-27.12934352571841
 21
91.52895707007099
 31
0.0
  0
LINE
  5
428B
330
390D
100
AcDbEntity
  8
Visible Edges(Roxtec)
100
AcDbLine
 10
-28.04440147713746
 20
89.48803034804518
 30
0.0
 11
-27.12934352571841
 21
89.48803034804518
 31
0.0
  0
LINE
  5
428C
330
390D
100
AcDbEntity
  8
Visible Edges(Roxtec)
100
AcDbLine
 10
-28.04440147713746
 20
91.66795321459034
 30
0.0
 11
-28.04440147713746
 21
89.48803034804518
 31
0.0
  0
LINE
  5
428D
330
390D
100
AcDbEntity
  8
Visible Edges(Roxtec)
100
AcDbLine
 10
-28.39884164566183
 20
91.66795321459034
 30
0.0
 11
-28.04440147713746
 21
91.66795321459034
 31
0.0
  0
LINE
  5
428E
330
390D
100
AcDbEntity
  8
Visible Edges(Roxtec)
100
AcDbLine
 10
-28.39884164566183
 20
88.99922723981882
 30
0.0
 11
-28.39884164566183
 21
91.66795321459034
 31
0.0
  0
LINE
  5
428F
330
390D
100
AcDbEntity
  8
Visible Edges(Roxtec)
100
AcDbLine
 10
-25.39884152645249
 20
88.99922723981882
 30
0.0
 11
-28.39884164566183
 21
88.99922723981882
 31
0.0
  0
LINE
  5
4290
330
390D
100
AcDbEntity
  8
Visible Edges(Roxtec)
100
AcDbLine
 10
-25.39884152645254
 20
91.75366750371063
 30
0.0
 11
-25.39884152645249
 21
88.99922723981882
 31
0.0
  0
LINE
  5
4291
330
390D
100
AcDbEntity
  8
Visible Edges(Roxtec)
100
AcDbLine
 10
-25.75328169497686
 20
91.75366750371063
 30
0.0
 11
-25.39884152645254
 21
91.75366750371063
 31
0.0
  0
LINE
  5
4292
330
390D
100
AcDbEntity
  8
Visible Edges(Roxtec)
100
AcDbLine
 10
-25.75328169497686
 20
89.48803034804518
 30
0.0
 11
-25.75328169497686
 21
91.75366750371063
 31
0.0
  0
LINE
  5
4293
330
390D
100
AcDbEntity
  8
Visible Edges(Roxtec)
100
AcDbLine
 10
-26.77490335719409
 20
89.48803034804518
 30
0.0
 11
-25.75328169497686
 21
89.48803034804518
 31
0.0
  0
SPLINE
  5
4294
330
390D
100
AcDbEntity
  8
Visible Edges(Roxtec)
100
AcDbSpline
210
0.0
220
0.0
230
1.0
 70
     8
 71
     2
 72
     8
 73
     5
 74
     0
 42
0.000000001
 43
0.0000000001
 40
0.0
 40
0.0
 40
0.0
 40
1.0
 40
2.0
 40
3.0
 40
3.0
 40
3.0
 10
28.11158294698845
 20
81.33359186253512
 30
0.0
 10
28.11158294698845
 20
81.7343640792326
 30
0.0
 10
27.85212347721893
 20
82.3158312838052
 30
0.0
 10
27.30308870636753
 20
82.66795484992087
 30
0.0
 10
26.90926629689602
 20
82.66795484992087
 30
0.0
  0
SPLINE
  5
4295
330
390D
100
AcDbEntity
  8
Visible Edges(Roxtec)
100
AcDbSpline
210
0.0
220
0.0
230
1.0
 70
     8
 71
     2
 72
     7
 73
     4
 74
     0
 42
0.000000001
 43
0.0000000001
 40
0.0
 40
0.0
 40
0.0
 40
1.0
 40
2.0
 40
2.0
 40
2.0
 10
26.90926629689602
 20
82.66795484992087
 30
0.0
 10
26.30694967064556
 20
82.66795484992087
 30
0.0
 10
25.70694964680365
 20
81.91274246469902
 30
0.0
 10
25.70694964680365
 20
81.30810923603991
 30
0.0
  0
SPLINE
  5
4296
330
390D
100
AcDbEntity
  8
Visible Edges(Roxtec)
100
AcDbSpline
210
0.0
220
0.0
230
1.0
 70
     8
 71
     2
 72
     7
 73
     4
 74
     0
 42
0.000000001
 43
0.0000000001
 40
0.0
 40
0.0
 40
0.0
 40
1.0
 40
2.0
 40
2.0
 40
2.0
 10
25.70694964680365
 20
81.30810923603991
 30
0.0
 10
25.70694964680365
 20
81.02085053736653
 30
0.0
 10
25.88996123708751
 20
80.41621730870742
 30
0.0
 10
26.01737436956353
 20
80.23783892324093
 30
0.0
  0
LINE
  5
4297
330
390D
100
AcDbEntity
  8
Visible Edges(Roxtec)
100
AcDbLine
 10
26.01737436956353
 20
80.23783892324093
 30
0.0
 11
26.57567555004965
 21
80.23783892324093
 31
0.0
  0
LINE
  5
4298
330
390D
100
AcDbEntity
  8
Visible Edges(Roxtec)
100
AcDbLine
 10
26.57567555004965
 20
80.23783892324093
 30
0.0
 11
26.57567555004965
 21
81.32200885049178
 31
0.0
  0
LINE
  5
4299
330
390D
100
AcDbEntity
  8
Visible Edges(Roxtec)
100
AcDbLine
 10
26.57567555004965
 20
81.32200885049178
 30
0.0
 11
26.93011571857392
 21
81.32200885049178
 31
0.0
  0
LINE
  5
429A
330
390D
100
AcDbEntity
  8
Visible Edges(Roxtec)
100
AcDbLine
 10
26.93011571857392
 20
81.32200885049178
 30
0.0
 11
26.93243232098263
 21
79.75830222464913
 31
0.0
  0
LINE
  5
429B
330
390D
100
AcDbEntity
  8
Visible Edges(Roxtec)
100
AcDbLine
 10
26.93243232098263
 20
79.75830222464913
 30
0.0
 11
25.81814656241915
 21
79.75830222464913
 31
0.0
  0
SPLINE
  5
429C
330
390D
100
AcDbEntity
  8
Visible Edges(Roxtec)
100
AcDbSpline
210
0.0
220
0.0
230
1.0
 70
     8
 71
     2
 72
     7
 73
     4
 74
     0
 42
0.000000001
 43
0.0000000001
 40
0.0
 40
0.0
 40
0.0
 40
1.0
 40
2.0
 40
2.0
 40
2.0
 10
25.81814656241915
 20
79.75830222464913
 30
0.0
 10
25.58416971914494
 20
80.11737559799087
 30
0.0
 10
25.34787627346202
 20
80.88417099525589
 30
0.0
 10
25.34787627346202
 20
81.28957641677061
 30
0.0
  0
SPLINE
  5
429D
330
390D
100
AcDbEntity
  8
Visible Edges(Roxtec)
100
AcDbSpline
210
0.0
220
0.0
230
1.0
 70
     8
 71
     2
 72
     8
 73
     5
 74
     0
 42
0.000000001
 43
0.0000000001
 40
0.0
 40
0.0
 40
0.0
 40
1.0
 40
2.0
 40
3.0
 40
3.0
 40
3.0
 10
25.34787627346202
 20
81.28957641677061
 30
0.0
 10
25.34787627346202
 20
81.83166138039609
 30
0.0
 10
25.70926624921231
 20
82.67953786196409
 30
0.0
 10
26.39961376699171
 20
83.17297417500787
 30
0.0
 10
26.88610027280953
 20
83.17297417500787
 30
0.0
  0
SPLINE
  5
429E
330
390D
100
AcDbEntity
  8
Visible Edges(Roxtec)
100
AcDbSpline
210
0.0
220
0.0
230
1.0
 70
     8
 71
     2
 72
     8
 73
     5
 74
     0
 42
0.000000001
 43
0.0000000001
 40
0.0
 40
0.0
 40
0.0
 40
1.0
 40
2.0
 40
3.0
 40
3.0
 40
3.0
 10
26.88610027280953
 20
83.17297417500787
 30
0.0
 10
27.37721998344455
 20
83.17297417500787
 30
0.0
 10
28.10694974217114
 20
82.67490465714695
 30
0.0
 10
28.45212350106084
 20
81.87104362134324
 30
0.0
 10
28.45212350106084
 20
81.32200885049178
 30
0.0
  0
SPLINE
  5
429F
330
390D
100
AcDbEntity
  8
Visible Edges(Roxtec)
100
AcDbSpline
210
0.0
220
0.0
230
1.0
 70
     8
 71
     2
 72
     8
 73
     5
 74
     0
 42
0.000000001
 43
0.0000000001
 40
0.0
 40
0.0
 40
0.0
 40
1.0
 40
2.0
 40
3.0
 40
3.0
 40
3.0
 10
28.45212350106084
 20
81.32200885049178
 30
0.0
 10
28.45212350106084
 20
80.916603428977
 30
0.0
 10
28.25057909150775
 20
80.30733699550063
 30
0.0
 10
27.88223930853155
 20
79.91351458602912
 30
0.0
 10
27.56023157372835
 20
79.8162172848655
 30
0.0
  0
LINE
  5
42A0
330
390D
100
AcDbEntity
  8
Visible Edges(Roxtec)
100
AcDbLine
 10
27.56023157372835
 20
79.8162172848655
 30
0.0
 11
27.46293427256472
 21
80.25637174251011
 31
0.0
  0
SPLINE
  5
42A1
330
390D
100
AcDbEntity
  8
Visible Edges(Roxtec)
100
AcDbSpline
210
0.0
220
0.0
230
1.0
 70
     8
 71
     2
 72
     8
 73
     5
 74
     0
 42
0.000000001
 43
0.0000000001
 40
0.0
 40
0.0
 40
0.0
 40
1.0
 40
2.0
 40
3.0
 40
3.0
 40
3.0
 10
27.46293427256472
 20
80.25637174251011
 30
0.0
 10
27.71776053751694
 20
80.34440263403912
 30
0.0
 10
27.96795359765173
 20
80.61544511585186
 30
0.0
 10
28.11158294698845
 20
81.05791617590501
 30
0.0
 10
28.11158294698845
 20
81.33359186253512
 30
0.0
  0
LINE
  5
42A2
330
390D
100
AcDbEntity
  8
Visible Edges(Roxtec)
100
AcDbLine
 10
26.77490335719403
 20
87.68339906466076
 30
0.0
 11
26.77490335719403
 21
89.7243257866865
 31
0.0
  0
LINE
  5
42A3
330
390D
100
AcDbEntity
  8
Visible Edges(Roxtec)
100
AcDbLine
 10
27.12934352571835
 20
87.68339906466076
 30
0.0
 11
26.77490335719403
 21
87.68339906466076
 31
0.0
  0
LINE
  5
42A4
330
390D
100
AcDbEntity
  8
Visible Edges(Roxtec)
100
AcDbLine
 10
27.12934352571835
 20
89.7243257866865
 30
0.0
 11
27.12934352571835
 21
87.68339906466076
 31
0.0
  0
LINE
  5
42A5
330
390D
100
AcDbEntity
  8
Visible Edges(Roxtec)
100
AcDbLine
 10
28.04440147713746
 20
89.7243257866865
 30
0.0
 11
27.12934352571835
 21
89.7243257866865
 31
0.0
  0
LINE
  5
42A6
330
390D
100
AcDbEntity
  8
Visible Edges(Roxtec)
100
AcDbLine
 10
28.04440147713746
 20
87.54440292014146
 30
0.0
 11
28.04440147713746
 21
89.7243257866865
 31
0.0
  0
LINE
  5
42A7
330
390D
100
AcDbEntity
  8
Visible Edges(Roxtec)
100
AcDbLine
 10
28.39884164566172
 20
87.54440292014146
 30
0.0
 11
28.04440147713746
 21
87.54440292014146
 31
0.0
  0
LINE
  5
42A8
330
390D
100
AcDbEntity
  8
Visible Edges(Roxtec)
100
AcDbLine
 10
28.39884164566172
 20
90.21312889491298
 30
0.0
 11
28.39884164566172
 21
87.54440292014146
 31
0.0
  0
LINE
  5
42A9
330
390D
100
AcDbEntity
  8
Visible Edges(Roxtec)
100
AcDbLine
 10
25.39884152645243
 20
90.21312889491298
 30
0.0
 11
28.39884164566172
 21
90.21312889491298
 31
0.0
  0
LINE
  5
42AA
330
390D
100
AcDbEntity
  8
Visible Edges(Roxtec)
100
AcDbLine
 10
25.39884152645243
 20
87.45868863102112
 30
0.0
 11
25.39884152645243
 21
90.21312889491298
 31
0.0
  0
LINE
  5
42AB
330
390D
100
AcDbEntity
  8
Visible Edges(Roxtec)
100
AcDbLine
 10
25.75328169497686
 20
87.45868863102112
 30
0.0
 11
25.39884152645243
 21
87.45868863102112
 31
0.0
  0
LINE
  5
42AC
330
390D
100
AcDbEntity
  8
Visible Edges(Roxtec)
100
AcDbLine
 10
25.75328169497686
 20
89.7243257866865
 30
0.0
 11
25.75328169497686
 21
87.45868863102112
 31
0.0
  0
LINE
  5
42AD
330
390D
100
AcDbEntity
  8
Visible Edges(Roxtec)
100
AcDbLine
 10
26.77490335719403
 20
89.7243257866865
 30
0.0
 11
25.75328169497686
 21
89.7243257866865
 31
0.0
  0
SPLINE
  5
42AE
330
390D
100
AcDbEntity
  8
Visible Edges(Roxtec)
100
AcDbSpline
210
0.0
220
0.0
230
1.0
 70
     8
 71
     2
 72
     6
 73
     3
 74
     0
 42
0.000000001
 43
0.0000000001
 40
0.0
 40
0.0
 40
0.0
 40
1.0
 40
1.0
 40
1.0
 10
27.46293427256472
 20
72.64633283007583
 30
0.0
 10
27.84517366999307
 20
72.82471121554232
 30
0.0
 10
28.08378371808453
 20
72.90579229984519
 30
0.0
  0
SPLINE
  5
42AF
330
390D
100
AcDbEntity
  8
Visible Edges(Roxtec)
100
AcDbSpline
210
0.0
220
0.0
230
1.0
 70
     8
 71
     2
 72
     6
 73
     3
 74
     0
 42
0.000000001
 43
0.0000000001
 40
0.0
 40
0.0
 40
0.0
 40
1.0
 40
1.0
 40
1.0
 10
28.08378371808453
 20
72.90579229984519
 30
0.0
 10
27.79420841700255
 20
72.9776069745136
 30
0.0
 10
27.51158292314654
 20
73.10965331180693
 30
0.0
  0
LINE
  5
42B0
330
390D
100
AcDbEntity
  8
Visible Edges(Roxtec)
100
AcDbLine
 10
27.51158292314654
 20
73.10965331180693
 30
0.0
 11
26.63127400785731
 21
73.51737533573032
 31
0.0
  0
LINE
  5
42B1
330
390D
100
AcDbEntity
  8
Visible Edges(Roxtec)
100
AcDbLine
 10
26.30694967064556
 20
73.66100468506704
 30
0.0
 11
25.39884152645243
 21
74.05946029935581
 31
0.0
  0
LINE
  5
42B2
330
390D
100
AcDbEntity
  8
Visible Edges(Roxtec)
100
AcDbLine
 10
25.39884152645243
 20
74.05946029935581
 30
0.0
 11
25.39884152645243
 21
74.57837923889474
 31
0.0
  0
LINE
  5
42B3
330
390D
100
AcDbEntity
  8
Visible Edges(Roxtec)
100
AcDbLine
 10
25.39884152645243
 20
74.57837923889474
 30
0.0
 11
28.39884164566172
 21
73.16061856479734
 31
0.0
  0
LINE
  5
42B4
330
390D
100
AcDbEntity
  8
Visible Edges(Roxtec)
100
AcDbLine
 10
28.39884164566172
 20
73.16061856479734
 30
0.0
 11
28.39884164566172
 21
72.63243321562384
 31
0.0
  0
LINE
  5
42B5
330
390D
100
AcDbEntity
  8
Visible Edges(Roxtec)
100
AcDbLine
 10
26.63127400785731
 20
72.26177683023895
 30
0.0
 11
27.46293427256472
 21
72.64633283007583
 31
0.0
  0
LINE
  5
42B6
330
390D
100
AcDbEntity
  8
Visible Edges(Roxtec)
100
AcDbLine
 10
26.63127400785731
 20
73.51737533573032
 30
0.0
 11
26.63127400785731
 21
72.26177683023895
 31
0.0
  0
LINE
  5
42B7
330
390D
100
AcDbEntity
  8
Visible Edges(Roxtec)
100
AcDbLine
 10
28.39884164566172
 20
72.63243321562384
 30
0.0
 11
25.39884152645243
 21
71.1220084451802
 31
0.0
  0
LINE
  5
42B8
330
390D
100
AcDbEntity
  8
Visible Edges(Roxtec)
100
AcDbLine
 10
25.39884152645243
 20
71.1220084451802
 30
0.0
 11
25.39884152645243
 21
71.68030962566638
 31
0.0
  0
LINE
  5
42B9
330
390D
100
AcDbEntity
  8
Visible Edges(Roxtec)
100
AcDbLine
 10
25.39884152645243
 20
71.68030962566638
 30
0.0
 11
26.30694967064556
 21
72.1088810712676
 31
0.0
  0
LINE
  5
42BA
330
390D
100
AcDbEntity
  8
Visible Edges(Roxtec)
100
AcDbLine
 10
26.30694967064556
 20
72.1088810712676
 30
0.0
 11
26.30694967064556
 21
73.66100468506704
 31
0.0
  0
LINE
  5
42BB
330
390D
100
AcDbEntity
  8
Visible Edges(Roxtec)
100
AcDbLine
 10
26.77490335719403
 20
76.50810904530499
 30
0.0
 11
26.77490335719403
 21
78.54903576733085
 31
0.0
  0
LINE
  5
42BC
330
390D
100
AcDbEntity
  8
Visible Edges(Roxtec)
100
AcDbLine
 10
27.12934352571835
 20
76.50810904530499
 30
0.0
 11
26.77490335719403
 21
76.50810904530499
 31
0.0
  0
LINE
  5
42BD
330
390D
100
AcDbEntity
  8
Visible Edges(Roxtec)
100
AcDbLine
 10
27.12934352571835
 20
78.54903576733085
 30
0.0
 11
27.12934352571835
 21
76.50810904530499
 31
0.0
  0
LINE
  5
42BE
330
390D
100
AcDbEntity
  8
Visible Edges(Roxtec)
100
AcDbLine
 10
28.04440147713746
 20
78.54903576733085
 30
0.0
 11
27.12934352571835
 21
78.54903576733085
 31
0.0
  0
LINE
  5
42BF
330
390D
100
AcDbEntity
  8
Visible Edges(Roxtec)
100
AcDbLine
 10
28.04440147713746
 20
76.36911290078575
 30
0.0
 11
28.04440147713746
 21
78.54903576733085
 31
0.0
  0
LINE
  5
42C0
330
390D
100
AcDbEntity
  8
Visible Edges(Roxtec)
100
AcDbLine
 10
28.39884164566172
 20
76.36911290078575
 30
0.0
 11
28.04440147713746
 21
76.36911290078575
 31
0.0
  0
LINE
  5
42C1
330
390D
100
AcDbEntity
  8
Visible Edges(Roxtec)
100
AcDbLine
 10
28.39884164566172
 20
79.0378388755571
 30
0.0
 11
28.39884164566172
 21
76.36911290078575
 31
0.0
  0
LINE
  5
42C2
330
390D
100
AcDbEntity
  8
Visible Edges(Roxtec)
100
AcDbLine
 10
25.39884152645243
 20
79.0378388755571
 30
0.0
 11
28.39884164566172
 21
79.0378388755571
 31
0.0
  0
LINE
  5
42C3
330
390D
100
AcDbEntity
  8
Visible Edges(Roxtec)
100
AcDbLine
 10
25.39884152645243
 20
76.28339861166541
 30
0.0
 11
25.39884152645243
 21
79.0378388755571
 31
0.0
  0
LINE
  5
42C4
330
390D
100
AcDbEntity
  8
Visible Edges(Roxtec)
100
AcDbLine
 10
25.75328169497686
 20
76.28339861166541
 30
0.0
 11
25.39884152645243
 21
76.28339861166541
 31
0.0
  0
LINE
  5
42C5
330
390D
100
AcDbEntity
  8
Visible Edges(Roxtec)
100
AcDbLine
 10
25.75328169497686
 20
78.54903576733085
 30
0.0
 11
25.75328169497686
 21
76.28339861166541
 31
0.0
  0
LINE
  5
42C6
330
390D
100
AcDbEntity
  8
Visible Edges(Roxtec)
100
AcDbLine
 10
26.77490335719403
 20
78.54903576733085
 30
0.0
 11
25.75328169497686
 21
78.54903576733085
 31
0.0
  0
SPLINE
  5
42C7
330
390D
100
AcDbEntity
  8
Visible Edges(Roxtec)
100
AcDbSpline
210
0.0
220
0.0
230
1.0
 70
     8
 71
     2
 72
     7
 73
     4
 74
     0
 42
0.000000001
 43
0.0000000001
 40
0.0
 40
0.0
 40
0.0
 40
1.0
 40
2.0
 40
2.0
 40
2.0
 10
27.57876439299764
 20
68.28880369939406
 30
0.0
 10
27.80810803145454
 20
68.28880369939406
 30
0.0
 10
28.06756750122395
 20
68.687259313683
 30
0.0
 10
28.06756750122395
 20
69.08108172315451
 30
0.0
  0
LINE
  5
42C8
330
390D
100
AcDbEntity
  8
Visible Edges(Roxtec)
100
AcDbLine
 10
28.06756750122395
 20
69.08108172315445
 30
0.0
 11
28.06756750122395
 21
70.2463327347084
 31
0.0
  0
LINE
  5
42C9
330
390D
100
AcDbEntity
  8
Visible Edges(Roxtec)
100
AcDbLine
 10
28.06756750122395
 20
70.2463327347084
 30
0.0
 11
27.07374506791064
 21
70.2463327347084
 31
0.0
  0
LINE
  5
42CA
330
390D
100
AcDbEntity
  8
Visible Edges(Roxtec)
100
AcDbLine
 10
25.39884152645243
 20
68.09420909706711
 30
0.0
 11
26.02200757438084
 21
68.58532880770212
 31
0.0
  0
SPLINE
  5
42CB
330
390D
100
AcDbEntity
  8
Visible Edges(Roxtec)
100
AcDbSpline
210
0.0
220
0.0
230
1.0
 70
     8
 71
     2
 72
     8
 73
     5
 74
     0
 42
0.000000001
 43
0.0000000001
 40
0.0
 40
0.0
 40
0.0
 40
1.0
 40
2.0
 40
3.0
 40
3.0
 40
3.0
 10
26.02200757438084
 20
68.58532880770212
 30
0.0
 10
26.38803075494855
 20
68.87258750637546
 30
0.0
 10
26.64285701990065
 20
69.16447940986603
 30
0.0
 10
26.73088791142954
 20
69.43783849408743
 30
0.0
 10
26.73088791142954
 20
69.68108174699636
 30
0.0
  0
LINE
  5
42CC
330
390D
100
AcDbEntity
  8
Visible Edges(Roxtec)
100
AcDbLine
 10
26.73088791142954
 20
69.68108174699636
 30
0.0
 11
26.73088791142954
 21
70.2463327347084
 31
0.0
  0
LINE
  5
42CD
330
390D
100
AcDbEntity
  8
Visible Edges(Roxtec)
100
AcDbLine
 10
26.73088791142954
 20
70.2463327347084
 30
0.0
 11
25.39884152645243
 21
70.2463327347084
 31
0.0
  0
LINE
  5
42CE
330
390D
100
AcDbEntity
  8
Visible Edges(Roxtec)
100
AcDbLine
 10
25.39884152645243
 20
70.2463327347084
 30
0.0
 11
25.39884152645243
 21
70.73513584293476
 31
0.0
  0
LINE
  5
42CF
330
390D
100
AcDbEntity
  8
Visible Edges(Roxtec)
100
AcDbLine
 10
25.39884152645243
 20
70.73513584293476
 30
0.0
 11
28.39884164566172
 21
70.73513584293476
 31
0.0
  0
LINE
  5
42D0
330
390D
100
AcDbEntity
  8
Visible Edges(Roxtec)
100
AcDbLine
 10
28.39884164566172
 20
70.73513584293476
 30
0.0
 11
28.39884164566172
 21
69.09729794001498
 31
0.0
  0
SPLINE
  5
42D1
330
390D
100
AcDbEntity
  8
Visible Edges(Roxtec)
100
AcDbSpline
210
0.0
220
0.0
230
1.0
 70
     8
 71
     2
 72
     8
 73
     5
 74
     0
 42
0.000000001
 43
0.0000000001
 40
0.0
 40
0.0
 40
0.0
 40
1.0
 40
2.0
 40
3.0
 40
3.0
 40
3.0
 10
27.07374506791064
 20
69.19691184358725
 30
0.0
 10
27.07374506791064
 20
68.85405468710621
 30
0.0
 10
27.18494198352613
 20
68.49729791617324
 30
0.0
 10
27.42123542920905
 20
68.28880369939406
 30
0.0
 10
27.57876439299764
 20
68.28880369939406
 30
0.0
  0
LINE
  5
42D2
330
390D
100
AcDbEntity
  8
Visible Edges(Roxtec)
100
AcDbLine
 10
27.07374506791064
 20
70.2463327347084
 30
0.0
 11
27.07374506791064
 21
69.19691184358725
 31
0.0
  0
SPLINE
  5
42D3
330
390D
100
AcDbEntity
  8
Visible Edges(Roxtec)
100
AcDbSpline
210
0.0
220
0.0
230
1.0
 70
     8
 71
     2
 72
     8
 73
     5
 74
     0
 42
0.000000001
 43
0.0000000001
 40
0.0
 40
0.0
 40
0.0
 40
1.0
 40
2.0
 40
3.0
 40
3.0
 40
3.0
 10
28.39884164566172
 20
69.09729794001498
 30
0.0
 10
28.39884164566172
 20
68.58532880770212
 30
0.0
 10
28.23204627223856
 20
68.0965256994757
 30
0.0
 10
27.84054046517577
 20
67.78378437430723
 30
0.0
 10
27.58339759781495
 20
67.78378437430723
 30
0.0
  0
SPLINE
  5
42D4
330
390D
100
AcDbEntity
  8
Visible Edges(Roxtec)
100
AcDbSpline
210
0.0
220
0.0
230
1.0
 70
     8
 71
     2
 72
     7
 73
     4
 74
     0
 42
0.000000001
 43
0.0000000001
 40
0.0
 40
0.0
 40
0.0
 40
1.0
 40
2.0
 40
2.0
 40
2.0
 10
27.58339759781495
 20
67.78378437430723
 30
0.0
 10
27.24285704374245
 20
67.78378437430723
 30
0.0
 10
26.82123540536713
 20
68.31428632588938
 30
0.0
 10
26.76563694755941
 20
68.82162225338504
 30
0.0
  0
SPLINE
  5
42D5
330
390D
100
AcDbEntity
  8
Visible Edges(Roxtec)
100
AcDbSpline
210
0.0
220
0.0
230
1.0
 70
     8
 71
     2
 72
     6
 73
     3
 74
     0
 42
0.000000001
 43
0.0000000001
 40
0.0
 40
0.0
 40
0.0
 40
1.0
 40
1.0
 40
1.0
 10
26.76563694755941
 20
68.82162225338504
 30
0.0
 10
26.68223926084773
 20
68.61544463901464
 30
0.0
 10
26.59884157413614
 20
68.5088809282164
 30
0.0
  0
SPLINE
  5
42D6
330
390D
100
AcDbEntity
  8
Visible Edges(Roxtec)
100
AcDbSpline
210
0.0
220
0.0
230
1.0
 70
     8
 71
     2
 72
     6
 73
     3
 74
     0
 42
0.000000001
 43
0.0000000001
 40
0.0
 40
0.0
 40
0.0
 40
1.0
 40
1.0
 40
1.0
 10
26.59884157413614
 20
68.5088809282164
 30
0.0
 10
26.42509639348702
 20
68.29112030180283
 30
0.0
 10
26.21428557429931
 20
68.12432492837962
 30
0.0
  0
LINE
  5
42D7
330
390D
100
AcDbEntity
  8
Visible Edges(Roxtec)
100
AcDbLine
 10
26.21428557429931
 20
68.12432492837962
 30
0.0
 11
25.39884152645243
 21
67.48030945877338
 31
0.0
  0
LINE
  5
42D8
330
390D
100
AcDbEntity
  8
Visible Edges(Roxtec)
100
AcDbLine
 10
25.39884152645243
 20
67.48030945877338
 30
0.0
 11
25.39884152645243
 21
68.09420909706711
 31
0.0
  0
LINE
  5
42D9
330
390D
100
AcDbEntity
  8
Visible Edges(Roxtec)
100
AcDbLine
 10
26.30694967064556
 20
61.50579184684989
 30
0.0
 11
26.30694967064556
 21
63.05791546064932
 31
0.0
  0
LINE
  5
42DA
330
390D
100
AcDbEntity
  8
Visible Edges(Roxtec)
100
AcDbLine
 10
25.39884152645243
 20
61.07722040124861
 30
0.0
 11
26.30694967064556
 21
61.50579184684989
 31
0.0
  0
LINE
  5
42DB
330
390D
100
AcDbEntity
  8
Visible Edges(Roxtec)
100
AcDbLine
 10
25.39884152645243
 20
60.51891922076254
 30
0.0
 11
25.39884152645243
 21
61.07722040124861
 31
0.0
  0
LINE
  5
42DC
330
390D
100
AcDbEntity
  8
Visible Edges(Roxtec)
100
AcDbLine
 10
28.39884164566172
 20
62.02934399120613
 30
0.0
 11
25.39884152645243
 21
60.51891922076254
 31
0.0
  0
LINE
  5
42DD
330
390D
100
AcDbEntity
  8
Visible Edges(Roxtec)
100
AcDbLine
 10
26.63127400785731
 20
62.91428611131277
 30
0.0
 11
26.63127400785731
 21
61.65868760582123
 31
0.0
  0
LINE
  5
42DE
330
390D
100
AcDbEntity
  8
Visible Edges(Roxtec)
100
AcDbLine
 10
26.63127400785731
 20
61.65868760582123
 30
0.0
 11
27.46293427256484
 21
62.04324360565806
 31
0.0
  0
LINE
  5
42DF
330
390D
100
AcDbEntity
  8
Visible Edges(Roxtec)
100
AcDbLine
 10
28.39884164566172
 20
62.55752934037963
 30
0.0
 11
28.39884164566172
 21
62.02934399120613
 31
0.0
  0
LINE
  5
42E0
330
390D
100
AcDbEntity
  8
Visible Edges(Roxtec)
100
AcDbLine
 10
25.39884152645243
 20
63.97529001447702
 30
0.0
 11
28.39884164566172
 21
62.55752934037963
 31
0.0
  0
LINE
  5
42E1
330
390D
100
AcDbEntity
  8
Visible Edges(Roxtec)
100
AcDbLine
 10
25.39884152645243
 20
63.45637107493814
 30
0.0
 11
25.39884152645243
 21
63.97529001447702
 31
0.0
  0
LINE
  5
42E2
330
390D
100
AcDbEntity
  8
Visible Edges(Roxtec)
100
AcDbLine
 10
26.30694967064556
 20
63.05791546064932
 30
0.0
 11
25.39884152645243
 21
63.45637107493814
 31
0.0
  0
LINE
  5
42E3
330
390D
100
AcDbEntity
  8
Visible Edges(Roxtec)
100
AcDbLine
 10
27.51158292314654
 20
62.50656408738928
 30
0.0
 11
26.63127400785731
 21
62.91428611131277
 31
0.0
  0
SPLINE
  5
42E4
330
390D
100
AcDbEntity
  8
Visible Edges(Roxtec)
100
AcDbSpline
210
0.0
220
0.0
230
1.0
 70
     8
 71
     2
 72
     6
 73
     3
 74
     0
 42
0.000000001
 43
0.0000000001
 40
0.0
 40
0.0
 40
0.0
 40
1.0
 40
1.0
 40
1.0
 10
28.08378371808453
 20
62.30270307542753
 30
0.0
 10
27.79420841700255
 20
62.37451775009583
 30
0.0
 10
27.51158292314654
 20
62.50656408738928
 30
0.0
  0
SPLINE
  5
42E5
330
390D
100
AcDbEntity
  8
Visible Edges(Roxtec)
100
AcDbSpline
210
0.0
220
0.0
230
1.0
 70
     8
 71
     2
 72
     6
 73
     3
 74
     0
 42
0.000000001
 43
0.0000000001
 40
0.0
 40
0.0
 40
0.0
 40
1.0
 40
1.0
 40
1.0
 10
27.46293427256484
 20
62.04324360565806
 30
0.0
 10
27.84517366999307
 20
62.2216219911246
 30
0.0
 10
28.08378371808453
 20
62.30270307542753
 30
0.0
  0
LINE
  5
42E6
330
390D
100
AcDbEntity
  8
Visible Edges(Roxtec)
100
AcDbLine
 10
26.77490335719403
 20
66.51196965195509
 30
0.0
 11
25.75328169497686
 21
66.51196965195509
 31
0.0
  0
LINE
  5
42E7
330
390D
100
AcDbEntity
  8
Visible Edges(Roxtec)
100
AcDbLine
 10
25.75328169497686
 20
66.51196965195509
 30
0.0
 11
25.75328169497686
 21
64.24633249628982
 31
0.0
  0
LINE
  5
42E8
330
390D
100
AcDbEntity
  8
Visible Edges(Roxtec)
100
AcDbLine
 10
25.75328169497686
 20
64.24633249628982
 30
0.0
 11
25.39884152645243
 21
64.24633249628982
 31
0.0
  0
LINE
  5
42E9
330
390D
100
AcDbEntity
  8
Visible Edges(Roxtec)
100
AcDbLine
 10
25.39884152645243
 20
64.24633249628982
 30
0.0
 11
25.39884152645243
 21
67.00077276018157
 31
0.0
  0
LINE
  5
42EA
330
390D
100
AcDbEntity
  8
Visible Edges(Roxtec)
100
AcDbLine
 10
25.39884152645243
 20
67.00077276018157
 30
0.0
 11
28.39884164566172
 21
67.00077276018157
 31
0.0
  0
LINE
  5
42EB
330
390D
100
AcDbEntity
  8
Visible Edges(Roxtec)
100
AcDbLine
 10
28.39884164566172
 20
67.00077276018157
 30
0.0
 11
28.39884164566172
 21
64.33204678541006
 31
0.0
  0
LINE
  5
42EC
330
390D
100
AcDbEntity
  8
Visible Edges(Roxtec)
100
AcDbLine
 10
28.39884164566172
 20
64.33204678541006
 30
0.0
 11
28.04440147713746
 21
64.33204678541006
 31
0.0
  0
LINE
  5
42ED
330
390D
100
AcDbEntity
  8
Visible Edges(Roxtec)
100
AcDbLine
 10
28.04440147713746
 20
64.33204678541006
 30
0.0
 11
28.04440147713746
 21
66.51196965195509
 31
0.0
  0
LINE
  5
42EE
330
390D
100
AcDbEntity
  8
Visible Edges(Roxtec)
100
AcDbLine
 10
28.04440147713746
 20
66.51196965195509
 30
0.0
 11
27.12934352571835
 21
66.51196965195509
 31
0.0
  0
LINE
  5
42EF
330
390D
100
AcDbEntity
  8
Visible Edges(Roxtec)
100
AcDbLine
 10
27.12934352571835
 20
66.51196965195509
 30
0.0
 11
27.12934352571835
 21
64.47104292992941
 31
0.0
  0
LINE
  5
42F0
330
390D
100
AcDbEntity
  8
Visible Edges(Roxtec)
100
AcDbLine
 10
27.12934352571835
 20
64.47104292992941
 30
0.0
 11
26.77490335719403
 21
64.47104292992941
 31
0.0
  0
LINE
  5
42F1
330
390D
100
AcDbEntity
  8
Visible Edges(Roxtec)
100
AcDbLine
 10
26.77490335719403
 20
64.47104292992941
 30
0.0
 11
26.77490335719403
 21
66.51196965195509
 31
0.0
  0
LINE
  5
42F2
330
390D
100
AcDbEntity
  8
Visible Edges(Roxtec)
100
AcDbLine
 10
7.391892022700005
 20
-105.9803089178168
 30
0.0
 11
6.903088914473642
 21
-105.9803089178168
 31
0.0
  0
LINE
  5
42F3
330
390D
100
AcDbEntity
  8
Visible Edges(Roxtec)
100
AcDbLine
 10
7.391892022700005
 20
-102.9803087986075
 30
0.0
 11
7.391892022700005
 21
-105.9803089178168
 31
0.0
  0
LINE
  5
42F4
330
390D
100
AcDbEntity
  8
Visible Edges(Roxtec)
100
AcDbLine
 10
6.903088914473642
 20
-102.9803087986075
 30
0.0
 11
7.391892022700005
 21
-102.9803087986075
 31
0.0
  0
LINE
  5
42F5
330
390D
100
AcDbEntity
  8
Visible Edges(Roxtec)
100
AcDbLine
 10
6.903088914473642
 20
-104.2127412800124
 30
0.0
 11
6.903088914473642
 21
-102.9803087986075
 31
0.0
  0
LINE
  5
42F6
330
390D
100
AcDbEntity
  8
Visible Edges(Roxtec)
100
AcDbLine
 10
4.984942120106666
 20
-104.2127412800124
 30
0.0
 11
6.903088914473642
 21
-104.2127412800124
 31
0.0
  0
LINE
  5
42F7
330
390D
100
AcDbEntity
  8
Visible Edges(Roxtec)
100
AcDbLine
 10
4.984942120106666
 20
-102.9803087986075
 30
0.0
 11
4.984942120106666
 21
-104.2127412800124
 31
0.0
  0
LINE
  5
42F8
330
390D
100
AcDbEntity
  8
Visible Edges(Roxtec)
100
AcDbLine
 10
4.496139011880245
 20
-102.9803087986075
 30
0.0
 11
4.984942120106666
 21
-102.9803087986075
 31
0.0
  0
LINE
  5
42F9
330
390D
100
AcDbEntity
  8
Visible Edges(Roxtec)
100
AcDbLine
 10
4.496139011880245
 20
-105.9803089178168
 30
0.0
 11
4.496139011880245
 21
-102.9803087986075
 31
0.0
  0
LINE
  5
42FA
330
390D
100
AcDbEntity
  8
Visible Edges(Roxtec)
100
AcDbLine
 10
4.984942120106666
 20
-105.9803089178168
 30
0.0
 11
4.496139011880245
 21
-105.9803089178168
 31
0.0
  0
LINE
  5
42FB
330
390D
100
AcDbEntity
  8
Visible Edges(Roxtec)
100
AcDbLine
 10
4.984942120106666
 20
-104.5671814485367
 30
0.0
 11
4.984942120106666
 21
-105.9803089178168
 31
0.0
  0
LINE
  5
42FC
330
390D
100
AcDbEntity
  8
Visible Edges(Roxtec)
100
AcDbLine
 10
6.903088914473642
 20
-104.5671814485367
 30
0.0
 11
4.984942120106666
 21
-104.5671814485367
 31
0.0
  0
LINE
  5
42FD
330
390D
100
AcDbEntity
  8
Visible Edges(Roxtec)
100
AcDbLine
 10
6.903088914473642
 20
-105.9803089178168
 30
0.0
 11
6.903088914473642
 21
-104.5671814485367
 31
0.0
  0
SPLINE
  5
42FE
330
390D
100
AcDbEntity
  8
Visible Edges(Roxtec)
100
AcDbSpline
210
0.0
220
0.0
230
1.0
 70
     8
 71
     2
 72
     7
 73
     4
 74
     0
 42
0.000000001
 43
0.0000000001
 40
0.0
 40
0.0
 40
0.0
 40
1.0
 40
2.0
 40
2.0
 40
2.0
 10
10.75791532247694
 20
-104.4606177377386
 30
0.0
 10
10.75791532247694
 20
-104.0042470632334
 30
0.0
 10
10.38725893709204
 20
-103.4830115212858
 30
0.0
 10
10.09536703360135
 20
-103.3949806297569
 30
0.0
  0
SPLINE
  5
42FF
330
390D
100
AcDbEntity
  8
Visible Edges(Roxtec)
100
AcDbSpline
210
0.0
220
0.0
230
1.0
 70
     8
 71
     2
 72
     6
 73
     3
 74
     0
 42
0.000000001
 43
0.0000000001
 40
0.0
 40
0.0
 40
0.0
 40
1.0
 40
1.0
 40
1.0
 10
10.09536703360135
 20
-103.3949806297569
 30
0.0
 10
9.898455828865621
 20
-103.3347489671319
 30
0.0
 10
9.472200985672941
 20
-103.3347489671319
 30
0.0
  0
LINE
  5
4300
330
390D
100
AcDbEntity
  8
Visible Edges(Roxtec)
100
AcDbLine
 10
9.472200985672941
 20
-103.3347489671319
 30
0.0
 11
8.698455781181905
 21
-103.3347489671319
 31
0.0
  0
LINE
  5
4301
330
390D
100
AcDbEntity
  8
Visible Edges(Roxtec)
100
AcDbLine
 10
8.698455781181905
 20
-103.3347489671319
 30
0.0
 11
8.698455781181905
 21
-105.6258687492924
 31
0.0
  0
LINE
  5
4302
330
390D
100
AcDbEntity
  8
Visible Edges(Roxtec)
100
AcDbLine
 10
9.541699057932646
 20
-105.9803089178168
 30
0.0
 11
8.209652672955542
 21
-105.9803089178168
 31
0.0
  0
LINE
  5
4303
330
390D
100
AcDbEntity
  8
Visible Edges(Roxtec)
100
AcDbLine
 10
8.209652672955542
 20
-105.9803089178168
 30
0.0
 11
8.209652672955542
 21
-102.9803087986075
 31
0.0
  0
LINE
  5
4304
330
390D
100
AcDbEntity
  8
Visible Edges(Roxtec)
100
AcDbLine
 10
8.209652672955542
 20
-102.9803087986075
 30
0.0
 11
9.483783997716273
 21
-102.9803087986075
 31
0.0
  0
SPLINE
  5
4305
330
390D
100
AcDbEntity
  8
Visible Edges(Roxtec)
100
AcDbSpline
210
0.0
220
0.0
230
1.0
 70
     8
 71
     2
 72
     6
 73
     3
 74
     0
 42
0.000000001
 43
0.0000000001
 40
0.0
 40
0.0
 40
0.0
 40
1.0
 40
1.0
 40
1.0
 10
10.58185353941911
 20
-105.1903474964652
 30
0.0
 10
10.75791532247694
 20
-104.8845559785226
 30
0.0
 10
10.75791532247694
 20
-104.4606177377386
 30
0.0
  0
SPLINE
  5
4306
330
390D
100
AcDbEntity
  8
Visible Edges(Roxtec)
100
AcDbSpline
210
0.0
220
0.0
230
1.0
 70
     8
 71
     2
 72
     7
 73
     4
 74
     0
 42
0.000000001
 43
0.0000000001
 40
0.0
 40
0.0
 40
0.0
 40
1.0
 40
2.0
 40
2.0
 40
2.0
 10
9.483783997716273
 20
-105.6258687492924
 30
0.0
 10
9.961004093899305
 20
-105.6258687492924
 30
0.0
 10
10.45212380453438
 20
-105.4196911349221
 30
0.0
 10
10.58185353941911
 20
-105.1903474964652
 30
0.0
  0
LINE
  5
4307
330
390D
100
AcDbEntity
  8
Visible Edges(Roxtec)
100
AcDbLine
 10
8.698455781181905
 20
-105.6258687492924
 30
0.0
 11
9.483783997716273
 21
-105.6258687492924
 31
0.0
  0
SPLINE
  5
4308
330
390D
100
AcDbEntity
  8
Visible Edges(Roxtec)
100
AcDbSpline
210
0.0
220
0.0
230
1.0
 70
     8
 71
     2
 72
     6
 73
     3
 74
     0
 42
0.000000001
 43
0.0000000001
 40
0.0
 40
0.0
 40
0.0
 40
1.0
 40
1.0
 40
1.0
 10
9.483783997716273
 20
-102.9803087986075
 30
0.0
 10
9.956370889081995
 20
-102.9803087986075
 30
0.0
 10
10.20424734680819
 20
-103.0359072564152
 30
0.0
  0
SPLINE
  5
4309
330
390D
100
AcDbEntity
  8
Visible Edges(Roxtec)
100
AcDbSpline
210
0.0
220
0.0
230
1.0
 70
     8
 71
     2
 72
     8
 73
     5
 74
     0
 42
0.000000001
 43
0.0000000001
 40
0.0
 40
0.0
 40
0.0
 40
1.0
 40
2.0
 40
3.0
 40
3.0
 40
3.0
 10
10.20424734680819
 20
-103.0359072564152
 30
0.0
 10
10.52625508161134
 20
-103.1077219310836
 30
0.0
 10
10.99884197297717
 20
-103.4876447261031
 30
0.0
 10
11.26293464756389
 20
-104.0667953282671
 30
0.0
 10
11.26293464756389
 20
-104.4629343401472
 30
0.0
  0
SPLINE
  5
430A
330
390D
100
AcDbEntity
  8
Visible Edges(Roxtec)
100
AcDbSpline
210
0.0
220
0.0
230
1.0
 70
     8
 71
     2
 72
     8
 73
     5
 74
     0
 42
0.000000001
 43
0.0000000001
 40
0.0
 40
0.0
 40
0.0
 40
1.0
 40
2.0
 40
3.0
 40
3.0
 40
3.0
 10
11.26293464756389
 20
-104.4629343401472
 30
0.0
 10
11.26293464756389
 20
-104.9725868700515
 30
0.0
 10
10.81351378028466
 20
-105.6837838095089
 30
0.0
 10
10.11158325046199
 20
-105.9803089178168
 30
0.0
 10
9.541699057932646
 20
-105.9803089178168
 30
0.0
  0
SPLINE
  5
430B
330
390D
100
AcDbEntity
  8
Visible Edges(Roxtec)
100
AcDbSpline
210
0.0
220
0.0
230
1.0
 70
     8
 71
     2
 72
     7
 73
     4
 74
     0
 42
0.000000001
 43
0.0000000001
 40
0.0
 40
0.0
 40
0.0
 40
1.0
 40
2.0
 40
2.0
 40
2.0
 10
17.37644840400662
 20
-104.0343628945459
 30
0.0
 10
17.81660286165123
 20
-104.0343628945459
 30
0.0
 10
18.46988474089221
 20
-104.5648648461281
 30
0.0
 10
18.46988474089221
 20
-105.0073359061813
 30
0.0
  0
SPLINE
  5
430C
330
390D
100
AcDbEntity
  8
Visible Edges(Roxtec)
100
AcDbSpline
210
0.0
220
0.0
230
1.0
 70
     8
 71
     2
 72
     7
 73
     4
 74
     0
 42
0.000000001
 43
0.0000000001
 40
0.0
 40
0.0
 40
0.0
 40
1.0
 40
2.0
 40
2.0
 40
2.0
 10
16.48455647667418
 20
-104.4328185088347
 30
0.0
 10
16.63976883805412
 20
-104.235907304099
 30
0.0
 10
17.1123557294199
 20
-104.0343628945459
 30
0.0
 10
17.37644840400662
 20
-104.0343628945459
 30
0.0
  0
SPLINE
  5
430D
330
390D
100
AcDbEntity
  8
Visible Edges(Roxtec)
100
AcDbSpline
210
0.0
220
0.0
230
1.0
 70
     8
 71
     2
 72
     6
 73
     3
 74
     0
 42
0.000000001
 43
0.0000000001
 40
0.0
 40
0.0
 40
0.0
 40
1.0
 40
1.0
 40
1.0
 10
16.69073409104447
 20
-103.5988416417186
 30
0.0
 10
16.48687307908278
 20
-103.8814671355746
 30
0.0
 10
16.48455647667418
 20
-104.4328185088347
 30
0.0
  0
SPLINE
  5
430E
330
390D
100
AcDbEntity
  8
Visible Edges(Roxtec)
100
AcDbSpline
210
0.0
220
0.0
230
1.0
 70
     8
 71
     2
 72
     6
 73
     3
 74
     0
 42
0.000000001
 43
0.0000000001
 40
0.0
 40
0.0
 40
0.0
 40
1.0
 40
1.0
 40
1.0
 10
17.32548315101621
 20
-103.2722007020981
 30
0.0
 10
16.93166074154476
 20
-103.2722007020981
 30
0.0
 10
16.69073409104447
 20
-103.5988416417186
 30
0.0
  0
SPLINE
  5
430F
330
390D
100
AcDbEntity
  8
Visible Edges(Roxtec)
100
AcDbSpline
210
0.0
220
0.0
230
1.0
 70
     8
 71
     2
 72
     6
 73
     3
 74
     0
 42
0.000000001
 43
0.0000000001
 40
0.0
 40
0.0
 40
0.0
 40
1.0
 40
1.0
 40
1.0
 10
17.76100440384357
 20
-103.4158300514348
 30
0.0
 10
17.58030941596837
 20
-103.2722007020981
 30
0.0
 10
17.32548315101621
 20
-103.2722007020981
 30
0.0
  0
SPLINE
  5
4310
330
390D
100
AcDbEntity
  8
Visible Edges(Roxtec)
100
AcDbSpline
210
0.0
220
0.0
230
1.0
 70
     8
 71
     2
 72
     7
 73
     4
 74
     0
 42
0.000000001
 43
0.0000000001
 40
0.0
 40
0.0
 40
0.0
 40
1.0
 40
2.0
 40
2.0
 40
2.0
 10
16.55405454893383
 20
-105.0073359061813
 30
0.0
 10
16.55405454893383
 20
-105.3316602433932
 30
0.0
 10
17.01505842825634
 20
-105.7277992552733
 30
0.0
 10
17.31853334379025
 20
-105.7277992552733
 30
0.0
  0
SPLINE
  5
4311
330
390D
100
AcDbEntity
  8
Visible Edges(Roxtec)
100
AcDbSpline
210
0.0
220
0.0
230
1.0
 70
     8
 71
     2
 72
     7
 73
     4
 74
     0
 42
0.000000001
 43
0.0000000001
 40
0.0
 40
0.0
 40
0.0
 40
1.0
 40
2.0
 40
2.0
 40
2.0
 10
17.31853334379025
 20
-105.7277992552733
 30
0.0
 10
17.58494262078568
 20
-105.7277992552733
 30
0.0
 10
18.00656425916105
 20
-105.3548262674797
 30
0.0
 10
18.00656425916105
 20
-105.0305019302679
 30
0.0
  0
SPLINE
  5
4312
330
390D
100
AcDbEntity
  8
Visible Edges(Roxtec)
100
AcDbSpline
210
0.0
220
0.0
230
1.0
 70
     8
 71
     2
 72
     6
 73
     3
 74
     0
 42
0.000000001
 43
0.0000000001
 40
0.0
 40
0.0
 40
0.0
 40
1.0
 40
1.0
 40
1.0
 10
17.95096580135328
 20
-103.7424709910553
 30
0.0
 10
17.88610093391094
 20
-103.5131273525984
 30
0.0
 10
17.76100440384357
 20
-103.4158300514348
 30
0.0
  0
LINE
  5
4313
330
390D
100
AcDbEntity
  8
Visible Edges(Roxtec)
100
AcDbLine
 10
18.40270327104122
 20
-103.7146717621514
 30
0.0
 11
17.95096580135328
 21
-103.7424709910553
 31
0.0
  0
SPLINE
  5
4314
330
390D
100
AcDbEntity
  8
Visible Edges(Roxtec)
100
AcDbSpline
210
0.0
220
0.0
230
1.0
 70
     8
 71
     2
 72
     7
 73
     4
 74
     0
 42
0.000000001
 43
0.0000000001
 40
0.0
 40
0.0
 40
0.0
 40
1.0
 40
2.0
 40
2.0
 40
2.0
 10
17.35328237992007
 20
-102.9687257865642
 30
0.0
 10
17.77490401829544
 20
-102.9687257865642
 30
0.0
 10
18.34247160841613
 20
-103.3509651839924
 30
0.0
 10
18.40270327104122
 20
-103.7146717621514
 30
0.0
  0
SPLINE
  5
4315
330
390D
100
AcDbEntity
  8
Visible Edges(Roxtec)
100
AcDbSpline
210
0.0
220
0.0
230
1.0
 70
     8
 71
     2
 72
     7
 73
     4
 74
     0
 42
0.000000001
 43
0.0000000001
 40
0.0
 40
0.0
 40
0.0
 40
1.0
 40
2.0
 40
2.0
 40
2.0
 10
16.0328190069863
 20
-104.5764478581713
 30
0.0
 10
16.0328190069863
 20
-103.7077219549254
 30
0.0
 10
16.77413177775611
 20
-102.9687257865642
 30
0.0
 10
17.35328237992007
 20
-102.9687257865642
 30
0.0
  0
SPLINE
  5
4316
330
390D
100
AcDbEntity
  8
Visible Edges(Roxtec)
100
AcDbSpline
210
0.0
220
0.0
230
1.0
 70
     8
 71
     2
 72
     7
 73
     4
 74
     0
 42
0.000000001
 43
0.0000000001
 40
0.0
 40
0.0
 40
0.0
 40
1.0
 40
2.0
 40
2.0
 40
2.0
 10
17.31621674138159
 20
-106.0312741708072
 30
0.0
 10
16.75791556089552
 20
-106.0312741708072
 30
0.0
 10
16.0328190069863
 20
-105.359459472297
 30
0.0
 10
16.0328190069863
 20
-104.5764478581713
 30
0.0
  0
SPLINE
  5
4317
330
390D
100
AcDbEntity
  8
Visible Edges(Roxtec)
100
AcDbSpline
210
0.0
220
0.0
230
1.0
 70
     8
 71
     2
 72
     8
 73
     5
 74
     0
 42
0.000000001
 43
0.0000000001
 40
0.0
 40
0.0
 40
0.0
 40
1.0
 40
2.0
 40
3.0
 40
3.0
 40
3.0
 10
18.46988474089221
 20
-105.0073359061813
 30
0.0
 10
18.46988474089221
 20
-105.3084942193066
 30
0.0
 10
18.14092719886309
 20
-105.797297327533
 30
0.0
 10
17.62664146414147
 20
-106.0312741708072
 30
0.0
 10
17.31621674138159
 20
-106.0312741708072
 30
0.0
  0
SPLINE
  5
4318
330
390D
100
AcDbEntity
  8
Visible Edges(Roxtec)
100
AcDbSpline
210
0.0
220
0.0
230
1.0
 70
     8
 71
     2
 72
     7
 73
     4
 74
     0
 42
0.000000001
 43
0.0000000001
 40
0.0
 40
0.0
 40
0.0
 40
1.0
 40
2.0
 40
2.0
 40
2.0
 10
17.28841751247773
 20
-104.3586872317577
 30
0.0
 10
16.99420900657844
 20
-104.3586872317577
 30
0.0
 10
16.55405454893383
 20
-104.7084941954647
 30
0.0
 10
16.55405454893383
 20
-105.0073359061813
 30
0.0
  0
SPLINE
  5
4319
330
390D
100
AcDbEntity
  8
Visible Edges(Roxtec)
100
AcDbSpline
210
0.0
220
0.0
230
1.0
 70
     8
 71
     2
 72
     7
 73
     4
 74
     0
 42
0.000000001
 43
0.0000000001
 40
0.0
 40
0.0
 40
0.0
 40
1.0
 40
2.0
 40
2.0
 40
2.0
 10
18.00656425916105
 20
-105.0305019302679
 30
0.0
 10
18.00656425916105
 20
-104.7108107978734
 30
0.0
 10
17.58957582560299
 20
-104.3586872317577
 30
0.0
 10
17.28841751247773
 20
-104.3586872317577
 30
0.0
  0
LINE
  5
431A
330
390D
100
AcDbEntity
  8
Visible Edges(Roxtec)
100
AcDbLine
 10
-20.40000000000004
 20
59.8734993995198
 30
0.0
 11
-20.40000000000009
 21
94.00000000000023
 31
0.0
  0
LINE
  5
431B
330
390D
100
AcDbEntity
  8
Visible Edges(Roxtec)
100
AcDbLine
 10
20.40000000000004
 20
94.00000000000034
 30
0.0
 11
20.40000000000004
 21
59.97701408127841
 31
0.0
  0
ARC
  5
431C
330
390D
100
AcDbEntity
  8
Visible Edges(Roxtec)
100
AcDbCircle
 10
-18.40000000000003
 20
94.00000000000023
 30
0.0
 40
1.999999999999995
100
AcDbArc
 50
90.0
 51
180.0
  0
ARC
  5
431D
330
390D
100
AcDbEntity
  8
Visible Edges(Roxtec)
100
AcDbCircle
 10
18.40000000000003
 20
94.00000000000023
 30
0.0
 40
1.999999999999995
100
AcDbArc
 50
0.0
 51
90.0
  0
ARC
  5
431E
330
390D
100
AcDbEntity
  8
Visible Edges(Roxtec)
100
AcDbCircle
 10
19.40000000000009
 20
59.97701408127841
 30
0.0
 40
0.99999999999999
100
AcDbArc
 50
314.4270040008046
 51
0.0
  0
ARC
  5
431F
330
390D
100
AcDbEntity
  8
Visible Edges(Roxtec)
100
AcDbCircle
 10
-19.40000000000003
 20
59.8734993995198
 30
0.0
 40
0.9999999999999888
100
AcDbArc
 50
180.0
 51
225.5729959991908
  0
LINE
  5
4320
330
390D
100
AcDbEntity
  8
Visible Edges(Roxtec)
100
AcDbLine
 10
-18.40000000000003
 20
96.00000000000022
 30
0.0
 11
18.40000000000003
 21
96.00000000000022
 31
0.0
  0
ARC
  5
4321
330
390D
100
AcDbEntity
  8
Visible Edges(Roxtec)
100
AcDbCircle
 10
-22.90000000000009
 20
100.0000000000003
 30
0.0
 40
10.0
100
AcDbArc
 50
90.0
 51
180.0
  0
ARC
  5
4322
330
390D
100
AcDbEntity
  8
Visible Edges(Roxtec)
100
AcDbCircle
 10
-22.89999999999998
 20
-100.0
 30
0.0
 40
10.00000000000001
100
AcDbArc
 50
180.0
 51
270.0
  0
ARC
  5
4323
330
390D
100
AcDbEntity
  8
Visible Edges(Roxtec)
100
AcDbCircle
 10
22.90000000000009
 20
-100.0
 30
0.0
 40
10.0
100
AcDbArc
 50
270.0
 51
0.0
  0
ARC
  5
4324
330
390D
100
AcDbEntity
  8
Visible Edges(Roxtec)
100
AcDbCircle
 10
22.90000000000009
 20
100.0000000000003
 30
0.0
 40
10.00000000000001
100
AcDbArc
 50
0.0
 51
90.0
  0
LINE
  5
4325
330
390D
100
AcDbEntity
  8
Visible Edges(Roxtec)
100
AcDbLine
 10
-32.90000000000009
 20
100.0000000000003
 30
0.0
 11
-32.89999999999998
 21
-100.0
 31
0.0
  0
LINE
  5
4326
330
390D
100
AcDbEntity
  8
Visible Edges(Roxtec)
100
AcDbLine
 10
-22.89999999999998
 20
-110.0
 30
0.0
 11
22.90000000000009
 21
-110.0
 31
0.0
  0
LINE
  5
4327
330
390D
100
AcDbEntity
  8
Visible Edges(Roxtec)
100
AcDbLine
 10
32.90000000000015
 20
-100.0
 30
0.0
 11
32.90000000000004
 21
100.0000000000003
 31
0.0
  0
LINE
  5
4328
330
390D
100
AcDbEntity
  8
Visible Edges(Roxtec)
100
AcDbLine
 10
22.90000000000004
 20
110.0000000000003
 30
0.0
 11
-22.90000000000009
 21
110.0000000000003
 31
0.0
  0
ARC
  5
4329
330
390D
100
AcDbEntity
  8
Visible Edges(Roxtec)
100
AcDbCircle
 10
-28.39999999999998
 20
104.5499999999999
 30
0.0
 40
2.999999999999996
100
AcDbArc
 50
119.6384861902403
 51
161.1614606564134
  0
ARC
  5
432A
330
390D
100
AcDbEntity
  8
Visible Edges(Roxtec)
100
AcDbCircle
 10
28.40000000000003
 20
104.5499999999999
 30
0.0
 40
3.0
100
AcDbArc
 50
18.83853934358347
 51
60.36151380976408
  0
ARC
  5
432B
330
390D
100
AcDbEntity
  8
Visible Edges(Roxtec)
100
AcDbCircle
 10
-28.39999999999998
 20
-104.5500000000001
 30
0.0
 40
3.000000000000001
100
AcDbArc
 50
198.8385393435731
 51
240.3615138097786
  0
ARC
  5
432C
330
390D
100
AcDbEntity
  8
Visible Edges(Roxtec)
100
AcDbCircle
 10
28.40000000000003
 20
-104.5500000000001
 30
0.0
 40
3.0
100
AcDbArc
 50
299.6384861902258
 51
341.1614606564238
  0
ARC
  5
432D
330
390D
100
AcDbEntity
  8
Visible Edges(Roxtec)
100
AcDbCircle
 10
26.90000000000003
 20
-103.0500000000001
 30
0.0
 40
15.00000000000002
100
AcDbArc
 50
270.0
 51
0.0
  0
ARC
  5
432E
330
390D
100
AcDbEntity
  8
Visible Edges(Roxtec)
100
AcDbCircle
 10
-26.90000000000003
 20
-103.0500000000001
 30
0.0
 40
15.00000000000002
100
AcDbArc
 50
180.0
 51
270.0
  0
LINE
  5
432F
330
390D
100
AcDbEntity
  8
Visible Edges(Roxtec)
100
AcDbLine
 10
41.90000000000003
 20
-103.0500000000001
 30
0.0
 11
41.90000000000003
 21
-103.0000000000002
 31
0.0
  0
LINE
  5
4330
330
390D
100
AcDbEntity
  8
Visible Edges(Roxtec)
100
AcDbLine
 10
-41.90000000000003
 20
-103.0000000000002
 30
0.0
 11
-41.90000000000003
 21
-103.0500000000001
 31
0.0
  0
LINE
  5
4331
330
390D
100
AcDbEntity
  8
Visible Edges(Roxtec)
100
AcDbLine
 10
-26.90000000000003
 20
-118.0500000000001
 30
0.0
 11
26.90000000000003
 21
-118.0500000000001
 31
0.0
  0
LINE
  5
4332
330
390D
100
AcDbEntity
  8
AM_0
100
AcDbLine
 10
-20.10000000000002
 20
59.15935655666505
 30
0.0
 11
-20.10000000000002
 21
-97.00000000000017
 31
0.0
  0
LINE
  5
4333
330
390D
100
AcDbEntity
  8
AM_0
100
AcDbLine
 10
20.10000000000013
 20
-97.00000000000009
 30
0.0
 11
20.10000000000013
 21
59.26287123842405
 31
0.0
  0
LINE
  5
4334
330
390D
100
AcDbEntity
  8
AM_0
100
AcDbLine
 10
-20.10000000000002
 20
-97.00000000000006
 30
0.0
 11
20.10000000000013
 21
-97.00000000000002
 31
0.0
  0
LINE
  5
4335
330
390D
100
AcDbEntity
  8
AM_0
100
AcDbLine
 10
-20.09999999999997
 20
63.00000000000022
 30
0.0
 11
20.09999999999991
 21
63.00000000000022
 31
0.0
  0
LINE
  5
4336
330
390D
100
AcDbEntity
  8
Visible Edges(ISO)
100
AcDbLine
 10
19.99999999999994
 20
92.18666385686566
 30
0.0
 11
-20.0
 21
92.18666385686566
 31
0.0
  0
LINE
  5
4337
330
390D
100
AcDbEntity
  8
Visible Edges(ISO)
100
AcDbLine
 10
-20.0
 20
66.61371669411579
 30
0.0
 11
19.99999999999994
 21
66.61371669411579
 31
0.0
  0
CIRCLE
  5
4338
330
390D
100
AcDbEntity
  8
Visible Edges(ISO)
100
AcDbCircle
 10
-0.0000000000000568
 20
79.50000000000028
 30
0.0
 40
10.0
  0
LINE
  5
4339
330
390D
100
AcDbEntity
  8
Visible Edges(ISO)
100
AcDbLine
 10
-3.752776749732618
 20
86.0000000000004
 30
0.0
 11
-7.505553499465122
 21
79.5000000000004
 31
0.0
  0
LINE
  5
433A
330
390D
100
AcDbEntity
  8
Visible Edges(ISO)
100
AcDbLine
 10
3.752776749732561
 20
86.0000000000004
 30
0.0
 11
-3.752776749732618
 21
86.0000000000004
 31
0.0
  0
LINE
  5
433B
330
390D
100
AcDbEntity
  8
Visible Edges(ISO)
100
AcDbLine
 10
7.505553499465065
 20
79.5000000000004
 30
0.0
 11
3.752776749732561
 21
86.0000000000004
 31
0.0
  0
LINE
  5
433C
330
390D
100
AcDbEntity
  8
Visible Edges(ISO)
100
AcDbLine
 10
3.752776749732561
 20
73.00000000000039
 30
0.0
 11
7.505553499465065
 21
79.5000000000004
 31
0.0
  0
LINE
  5
433D
330
390D
100
AcDbEntity
  8
Visible Edges(ISO)
100
AcDbLine
 10
-3.752776749732618
 20
73.00000000000039
 30
0.0
 11
3.752776749732561
 21
73.00000000000039
 31
0.0
  0
LINE
  5
433E
330
390D
100
AcDbEntity
  8
Visible Edges(ISO)
100
AcDbLine
 10
-7.505553499465122
 20
79.5000000000004
 30
0.0
 11
-3.752776749732618
 21
73.00000000000039
 31
0.0
  0
HATCH
  5
433F
330
390D
100
AcDbEntity
  8
AM_0
100
AcDbHatch
 10
0.0
 20
0.0
 30
0.0
210
0.0
220
0.0
230
1.0
  2
SOLID
 70
     1
 71
     0
 91
        1
 92
        7
 72
     0
 73
     1
 93
        4
 10
19.99999999999994
 20
63.00000000000022
 10
19.99999999999994
 20
64.00000000000023
 10
-20.0
 20
64.00000000000023
 10
-20.0
 20
63.00000000000022
 97
        0
 75
     1
 76
     1
 47
0.0635257714881428
 98
        1
 10
7.05668996753468
 20
63.47980481949338
450
        0
451
        0
460
0.0
461
0.0
452
        0
462
1.0
453
        2
463
0.0
 63
     5
421
      255
463
1.0
 63
     2
421
 16776960
470
LINEAR
1001
GradientColor1ACI
1070
     5
1001
GradientColor2ACI
1070
     2
1001
ACAD
1010
0.0
1020
0.0
1030
0.0
  0
LINE
  5
4340
330
390D
100
AcDbEntity
  8
AM_0
100
AcDbLine
 10
-20.0
 20
63.00000000000022
 30
0.0
 11
19.99999999999994
 21
63.00000000000022
 31
0.0
  0
LINE
  5
4341
330
390D
100
AcDbEntity
  8
AM_0
100
AcDbLine
 10
-20.0
 20
64.00000000000023
 30
0.0
 11
19.99999999999994
 21
64.00000000000023
 31
0.0
  0
INSERT
  5
4342
330
390D
100
AcDbEntity
  8
0
100
AcDbBlockReference
 66
     1
  2
info
 10
-20.10000000000002
 20
-97.00000000000006
 30
0.0
  0
ATTRIB
  5
4343
330
4342
100
AcDbEntity
  8
0
100
AcDbText
 10
-10.63290704968051
 20
-94.1089047645207
 30
0.00000001
 40
5.0
  1
40
100
AcDbAttribute
280
     0
  2
BRD
 70
     1
280
     1
  0
ATTRIB
  5
4344
330
4342
100
AcDbEntity
  8
0
100
AcDbText
 10
-10.63290704968051
 20
-102.4422380978539
 30
0.00000001
 40
5.0
  1
160
100
AcDbAttribute
280
     0
  2
HJD
 70
     1
280
     1
  0
SEQEND
  5
4345
330
4342
100
AcDbEntity
  8
0
  0
LINE
  5
43A4
330
390D
100
AcDbEntity
  8
DIM
100
AcDbLine
 10
-1.000000000000028
 20
63.00000000000025
 30
0.0
 11
-53.9341707236487
 21
63.00000000000024
 31
0.0
  0
LINE
  5
43A5
330
390D
100
AcDbEntity
  8
DIM
100
AcDbLine
 10
-21.10000000000003
 20
-97.00000000000024
 30
0.0
 11
-53.93417072364867
 21
-97.00000000000024
 31
0.0
  0
LINE
  5
43A6
330
390D
100
AcDbEntity
  8
DIM
100
AcDbLine
 10
-52.93417072364871
 20
60.50000000000024
 30
0.0
 11
-52.93417072364867
 21
-94.50000000000022
 31
0.0
  0
SOLID
  5
43A7
330
390D
100
AcDbEntity
  8
DIM
100
AcDbTrace
 10
-53.35083739031537
 20
60.50000000000024
 30
0.0
 11
-52.51750405698204
 21
60.50000000000024
 31
0.0
 12
-52.93417072364871
 22
63.00000000000024
 32
0.0
 13
-52.93417072364871
 23
63.00000000000024
 33
0.0
  0
SOLID
  5
43A8
330
390D
100
AcDbEntity
  8
DIM
100
AcDbTrace
 10
-53.35083739031533
 20
-94.50000000000022
 30
0.0
 11
-52.517504056982
 21
-94.50000000000022
 31
0.0
 12
-52.93417072364867
 22
-97.00000000000024
 32
0.0
 13
-52.93417072364867
 23
-97.00000000000024
 33
0.0
  0
MTEXT
  5
43A9
330
390D
100
AcDbEntity
  8
DIM
 62
     2
100
AcDbMText
 10
-56.3608624802176
 20
-16.99999999999997
 30
0.0
 40
3.5
 41
0.0
 46
0.0
 71
     5
 72
     1
  1
160 [6.299"]
 11
0.0000000000000001
 21
1.0
 31
0.0
 73
     1
 44
1.0
  0
LINE
  5
43AA
330
390D
100
AcDbEntity
  8
DIM
100
AcDbLine
 10
-23.9000000000001
 20
110.0000000000003
 30
0.0
 11
-63.93417072364883
 21
110.0000000000003
 31
0.0
  0
LINE
  5
43AB
330
390D
100
AcDbEntity
  8
DIM
100
AcDbLine
 10
-23.89999999999998
 20
-110.0000000000001
 30
0.0
 11
-63.93417072364878
 21
-110.0000000000001
 31
0.0
  0
LINE
  5
43AC
330
390D
100
AcDbEntity
  8
DIM
100
AcDbLine
 10
-62.93417072364882
 20
107.5000000000003
 30
0.0
 11
-62.93417072364878
 21
-107.5000000000001
 31
0.0
  0
SOLID
  5
43AD
330
390D
100
AcDbEntity
  8
DIM
100
AcDbTrace
 10
-63.35083739031549
 20
107.5000000000003
 30
0.0
 11
-62.51750405698216
 21
107.5000000000003
 31
0.0
 12
-62.93417072364882
 22
110.0000000000003
 32
0.0
 13
-62.93417072364882
 23
110.0000000000003
 33
0.0
  0
SOLID
  5
43AE
330
390D
100
AcDbEntity
  8
DIM
100
AcDbTrace
 10
-63.35083739031545
 20
-107.5000000000001
 30
0.0
 11
-62.51750405698212
 21
-107.5000000000001
 31
0.0
 12
-62.93417072364878
 22
-110.0000000000001
 32
0.0
 13
-62.93417072364878
 23
-110.0000000000001
 33
0.0
  0
MTEXT
  5
43AF
330
390D
100
AcDbEntity
  8
DIM
 62
     2
100
AcDbMText
 10
-66.35917072364879
 20
0.000000000000118
 30
0.0
 40
3.5
 41
0.0
 46
0.0
 71
     5
 72
     1
  1
220 [8.661"]
 11
0.0000000000000001
 21
1.0
 31
0.0
 73
     1
 44
1.0
  0
LINE
  5
43B0
330
390D
100
AcDbEntity
  8
DIM
100
AcDbLine
 10
-27.89999999999999
 20
118.0000000000001
 30
0.0
 11
-73.93417072364896
 21
118.0000000000001
 31
0.0
  0
LINE
  5
43B1
330
390D
100
AcDbEntity
  8
DIM
100
AcDbLine
 10
-27.90000000000005
 20
-118.0500000000002
 30
0.0
 11
-73.9341707236489
 21
-118.0500000000002
 31
0.0
  0
LINE
  5
43B2
330
390D
100
AcDbEntity
  8
DIM
100
AcDbLine
 10
-72.93417072364896
 20
115.5000000000001
 30
0.0
 11
-72.9341707236489
 21
-115.5500000000002
 31
0.0
  0
SOLID
  5
43B3
330
390D
100
AcDbEntity
  8
DIM
100
AcDbTrace
 10
-73.35083739031563
 20
115.5000000000001
 30
0.0
 11
-72.51750405698229
 21
115.5000000000001
 31
0.0
 12
-72.93417072364896
 22
118.0000000000001
 32
0.0
 13
-72.93417072364896
 23
118.0000000000001
 33
0.0
  0
SOLID
  5
43B4
330
390D
100
AcDbEntity
  8
DIM
100
AcDbTrace
 10
-73.35083739031557
 20
-115.5500000000002
 30
0.0
 11
-72.51750405698223
 21
-115.5500000000002
 31
0.0
 12
-72.9341707236489
 22
-118.0500000000002
 32
0.0
 13
-72.9341707236489
 23
-118.0500000000002
 33
0.0
  0
MTEXT
  5
43B5
330
390D
100
AcDbEntity
  8
DIM
 62
     2
100
AcDbMText
 10
-76.36086248021783
 20
-0.0250000000000363
 30
0.0
 40
3.5
 41
0.0
 46
0.0
 71
     5
 72
     1
  1
236.05 [9.293"]
 11
0.0000000000000001
 21
1.0
 31
0.0
 73
     1
 44
1.0
  0
LINE
  5
43B6
330
390D
100
AcDbEntity
  8
DIM
100
AcDbLine
 10
-20.10000000000002
 20
-98.00000000000006
 30
0.0
 11
-20.10000000000003
 21
-128.8979867409086
 31
0.0
  0
LINE
  5
43B7
330
390D
100
AcDbEntity
  8
DIM
100
AcDbLine
 10
20.10000000000013
 20
-98.00000000000004
 30
0.0
 11
20.10000000000013
 21
-128.8979867409086
 31
0.0
  0
LINE
  5
43B8
330
390D
100
AcDbEntity
  8
DIM
100
AcDbLine
 10
-17.60000000000002
 20
-127.8979867409086
 30
0.0
 11
17.60000000000013
 21
-127.8979867409086
 31
0.0
  0
SOLID
  5
43B9
330
390D
100
AcDbEntity
  8
DIM
100
AcDbTrace
 10
-17.60000000000002
 20
-127.481320074242
 30
0.0
 11
-17.60000000000002
 21
-128.3146534075753
 31
0.0
 12
-20.10000000000003
 22
-127.8979867409086
 32
0.0
 13
-20.10000000000003
 23
-127.8979867409086
 33
0.0
  0
SOLID
  5
43BA
330
390D
100
AcDbEntity
  8
DIM
100
AcDbTrace
 10
17.60000000000013
 20
-127.481320074242
 30
0.0
 11
17.60000000000013
 21
-128.3146534075753
 31
0.0
 12
20.10000000000013
 22
-127.8979867409086
 32
0.0
 13
20.10000000000013
 23
-127.8979867409086
 33
0.0
  0
MTEXT
  5
43BB
330
390D
100
AcDbEntity
  8
DIM
 62
     2
100
AcDbMText
 10
0.0000000000000535
 20
-124.4729867409086
 30
0.0
 40
3.5
 41
0.0
 46
0.0
 71
     5
 72
     1
  1
40.2 [1.583"]
 73
     1
 44
1.0
  0
LINE
  5
43BC
330
390D
100
AcDbEntity
  8
DIM
100
AcDbLine
 10
-32.89999999999998
 20
-101.0
 30
0.0
 11
-32.89999999999998
 21
-138.8979867409087
 31
0.0
  0
LINE
  5
43BD
330
390D
100
AcDbEntity
  8
DIM
100
AcDbLine
 10
32.90000000000009
 20
-101.0
 30
0.0
 11
32.90000000000009
 21
-138.8979867409087
 31
0.0
  0
LINE
  5
43BE
330
390D
100
AcDbEntity
  8
DIM
100
AcDbLine
 10
-30.39999999999998
 20
-137.8979867409087
 30
0.0
 11
30.40000000000009
 21
-137.8979867409087
 31
0.0
  0
SOLID
  5
43BF
330
390D
100
AcDbEntity
  8
DIM
100
AcDbTrace
 10
-30.39999999999998
 20
-137.481320074242
 30
0.0
 11
-30.39999999999998
 21
-138.3146534075754
 31
0.0
 12
-32.89999999999998
 22
-137.8979867409087
 32
0.0
 13
-32.89999999999998
 23
-137.8979867409087
 33
0.0
  0
SOLID
  5
43C0
330
390D
100
AcDbEntity
  8
DIM
100
AcDbTrace
 10
30.40000000000009
 20
-137.481320074242
 30
0.0
 11
30.40000000000009
 21
-138.3146534075754
 31
0.0
 12
32.90000000000009
 22
-137.8979867409087
 32
0.0
 13
32.90000000000009
 23
-137.8979867409087
 33
0.0
  0
MTEXT
  5
43C1
330
390D
100
AcDbEntity
  8
DIM
 62
     2
100
AcDbMText
 10
0.0000000000000571
 20
-134.4721408626242
 30
0.0
 40
3.5
 41
0.0
 46
0.0
 71
     5
 72
     1
  1
65.8 [2.591"]
 73
     1
 44
1.0
  0
LINE
  5
43C2
330
390D
100
AcDbEntity
  8
DIM
100
AcDbLine
 10
-41.89999999999997
 20
-104.0
 30
0.0
 11
-41.89999999999997
 21
-148.8979867409088
 31
0.0
  0
LINE
  5
43C3
330
390D
100
AcDbEntity
  8
DIM
100
AcDbLine
 10
41.89999603882328
 20
-104.0609011599121
 30
0.0
 11
41.89999603882328
 21
-148.8979867409088
 31
0.0
  0
LINE
  5
43C4
330
390D
100
AcDbEntity
  8
DIM
100
AcDbLine
 10
-39.39999999999998
 20
-147.8979867409088
 30
0.0
 11
39.39999603882328
 21
-147.8979867409088
 31
0.0
  0
SOLID
  5
43C5
330
390D
100
AcDbEntity
  8
DIM
100
AcDbTrace
 10
-39.39999999999998
 20
-147.4813200742421
 30
0.0
 11
-39.39999999999998
 21
-148.3146534075754
 31
0.0
 12
-41.89999999999997
 22
-147.8979867409088
 32
0.0
 13
-41.89999999999997
 23
-147.8979867409088
 33
0.0
  0
SOLID
  5
43C6
330
390D
100
AcDbEntity
  8
DIM
100
AcDbTrace
 10
39.39999603882328
 20
-147.4813200742421
 30
0.0
 11
39.39999603882328
 21
-148.3146534075754
 31
0.0
 12
41.89999603882328
 22
-147.8979867409088
 32
0.0
 13
41.89999603882328
 23
-147.8979867409088
 33
0.0
  0
MTEXT
  5
43C7
330
390D
100
AcDbEntity
  8
DIM
 62
     2
100
AcDbMText
 10
-0.0000019805883473
 20
-144.4712949843399
 30
0.0
 40
3.5
 41
0.0
 46
0.0
 71
     5
 72
     1
  1
83.8 [3.299"]
 73
     1
 44
1.0
  0
ENDBLK
  5
390F
330
390D
100
AcDbEntity
  8
0
100
AcDbBlockEnd
  0
BLOCK
  5
3C05
330
3C04
100
AcDbEntity
  8
0
100
AcDbBlockBegin
  2
info
 70
     2
 10
0.0
 20
0.0
 30
0.0
  3
info
  1

  0
POINT
  5
3C06
330
3C04
100
AcDbEntity
  8
0
100
AcDbPoint
 10
0.0
 20
0.0
 30
0.0
  0
ATTDEF
  5
3C07
330
3C04
100
AcDbEntity
  8
0
100
AcDbText
 10
9.467092950319427
 20
2.891095235479383
 30
0.00000001
 40
5.0
  1

100
AcDbAttributeDefinition
280
     0
  3
bredd
  2
BRD
 70
     1
280
     1
  0
ATTDEF
  5
3C08
330
3C04
100
AcDbEntity
  8
0
100
AcDbText
 10
9.467092950319427
 20
-5.442238097853946
 30
0.00000001
 40
5.0
  1

100
AcDbAttributeDefinition
280
     0
  3
Höjd
  2
HJD
 70
     1
280
     1
  0
ENDBLK
  5
3C09
330
3C04
100
AcDbEntity
  8
0
100
AcDbBlockEnd
  0
ENDSEC
  0
SECTION
  2
ENTITIES
  0
INSERT
  5
3C02
330
1A
100
AcDbEntity
  8
AM_0
100
AcDbBlockReference
  2
HD16
 10
0.0
 20
0.0
 30
0.0
  0
VIEWPORT
  5
2CAA
102
{ACAD_XDICTIONARY
360
2CAB
102
}
330
2CA3
100
AcDbEntity
 67
     1
  8
0
100
AcDbViewport
 10
128.5
 20
97.5
 30
0.0
 40
349.2069620253165
 41
222.18
 68
     1
 69
     1
 12
128.5
 22
97.5
 13
0.0
 23
0.0
 14
10.0
 24
10.0
 15
10.0
 25
10.0
 16
0.0
 26
0.0
 36
1.0
 17
0.0
 27
0.0
 37
0.0
 42
50.0
 43
0.0
 44
0.0
 45
222.18
 50
0.0
 51
0.0
 72
   100
 90
   819232
  1

281
     0
 71
     1
 74
     0
110
0.0
120
0.0
130
0.0
111
1.0
121
0.0
131
0.0
112
0.0
122
1.0
132
0.0
 79
     0
146
0.0
170
     0
 61
     5
348
A55
292
     1
282
     1
141
0.0
142
0.0
 63
   250
421
  3355443
  0
ENDSEC
  0
SECTION
  2
OBJECTS
  0
DICTIONARY
  5
C
330
0
100
AcDbDictionary
281
     1
  3
ACAD_CIP_PREVIOUS_PRODUCT_INFO
350
CD7
  3
ACAD_COLOR
350
3CA
  3
ACAD_DETAILVIEWSTYLE
350
CCB
  3
ACAD_FIELDLIST
350
D6A
  3
ACAD_GROUP
350
D
  3
ACAD_LAYOUT
350
167
  3
ACAD_MATERIAL
350
3C9
  3
ACAD_MLEADERSTYLE
350
A72
  3
ACAD_MLINESTYLE
350
E
  3
ACAD_PLOTSETTINGS
350
168
  3
ACAD_PLOTSTYLENAME
350
165
  3
ACAD_SCALELIST
350
A60
  3
ACAD_SECTIONVIEWSTYLE
350
CC9
  3
ACAD_TABLESTYLE
350
650
  3
ACAD_VISUALSTYLE
350
A4F
  3
ACASAPPOBJECT
350
EE
  3
ACASGREF_MASTER
350
9B
  3
ACDB_RECOMPOSE_DATA
350
43D1
  3
ACDBVARIABLEDICTIONARY
350
5D
  3
AcDsDecomposeData
350
43D8
  3
ACMDICTIONARY
350
142
  3
AD_GREF_MODULE
350
AF
  3
AD_MAPI_MODULE
350
18E
  3
AMG
350
171
  3
AMGSNAPSETTINGS
350
1F2
  3
ASE_INDEX_DICTIONARY
350
849
  3
coolorange
350
13F2
  3
MAPISURF_MODULE
350
2E8
  0
DICTIONARY
  5
592
330
2
100
AcDbDictionary
280
     1
281
     1
  3
ACAD_LAYERFILTERS
360
C7C
  3
ACAD_LAYERSTATES
360
822
  3
ACLYDICTIONARY
360
C7B
  3
AMLAYER_GROUPCOLORS
360
593
  0
DICTIONARY
  5
AB7
330
F
100
AcDbDictionary
280
     1
281
     1
  3
ADSK_XREC_LAYER_RECONCILED
360
43C9
  0
DICTIONARY
  5
AB9
330
5CF
100
AcDbDictionary
280
     1
281
     1
  3
ADSK_XREC_LAYER_RECONCILED
360
43CA
  0
DICTIONARY
  5
43CB
330
32A7
100
AcDbDictionary
280
     1
281
     1
  3
ADSK_XREC_LAYER_RECONCILED
360
43CC
  0
DICTIONARY
  5
38AA
330
38A9
100
AcDbDictionary
280
     1
281
     1
  3
ADSK_XREC_LAYER_RECONCILED
360
43CD
  0
DICTIONARY
  5
43CE
330
404C
100
AcDbDictionary
280
     1
281
     1
  3
ADSK_XREC_LAYER_RECONCILED
360
43CF
  0
DICTIONARY
  5
12A
330
1A
100
AcDbDictionary
280
     1
281
     1
  3
ACAD_INDEX
360
403E
  0
DICTIONARY
  5
4358
330
390D
100
AcDbDictionary
280
     1
281
     1
  3
ACAD_SORTENTS
360
43A3
  0
DICTIONARY
  5
2CAB
330
2CAA
100
AcDbDictionary
280
     1
281
     1
  3
ASDK_XREC_ANNOTATION_SCALE_INFO
360
2CAC
  0
XRECORD
  5
CD7
102
{ACAD_REACTORS
330
C
102
}
330
C
100
AcDbXrecord
280
     1
300
AMECH_PP
300
2019
300
87089AMECH_PP_2019_0F
  0
DICTIONARY
  5
3CA
102
{ACAD_REACTORS
330
C
102
}
330
C
100
AcDbDictionary
281
     1
  0
DICTIONARY
  5
CCB
102
{ACAD_REACTORS
330
C
102
}
330
C
100
AcDbDictionary
281
     1
  3
Imperial24
350
10E8
  3
Metric50
350
CCC
  0
FIELDLIST
  5
D6A
102
{ACAD_REACTORS
330
C
102
}
330
C
100
AcDbIdSet
 90
       14
330
314E
330
314F
330
3150
330
31E2
330
31E3
330
31E4
330
31E5
330
31E9
330
31EA
330
31EB
330
31EF
330
31F0
330
31F1
330
31F2
100
AcDbFieldList
  0
DICTIONARY
  5
D
102
{ACAD_REACTORS
330
C
102
}
330
C
100
AcDbDictionary
281
     1
  0
DICTIONARY
  5
167
102
{ACAD_REACTORS
330
C
102
}
330
C
100
AcDbDictionary
281
     1
  3
Layout1
350
2CA4
  3
Model
350
169
  0
DICTIONARY
  5
3C9
102
{ACAD_REACTORS
330
C
102
}
330
C
100
AcDbDictionary
281
     1
  3
ByBlock
350
A3F
  3
ByLayer
350
A37
  3
Global
350
A47
  0
DICTIONARY
  5
A72
102
{ACAD_REACTORS
330
C
102
}
330
C
100
AcDbDictionary
281
     1
  3
Standard
350
A73
  0
DICTIONARY
  5
E
102
{ACAD_REACTORS
330
C
102
}
330
C
100
AcDbDictionary
281
     1
  3
STANDARD
350
13
  0
DICTIONARY
  5
168
102
{ACAD_REACTORS
330
C
102
}
330
C
100
AcDbDictionary
281
     1
  3
Setup1
350
2C89
  0
ACDBDICTIONARYWDFLT
  5
165
102
{ACAD_REACTORS
330
C
102
}
330
C
100
AcDbDictionary
281
     1
  3
Normal
350
166
100
AcDbDictionaryWithDefault
340
166
  0
DICTIONARY
  5
A60
102
{ACAD_REACTORS
330
C
102
}
330
C
100
AcDbDictionary
281
     1
  3
A0
350
A61
  3
A1
350
A62
  3
A2
350
A63
  3
A3
350
A64
  3
A4
350
A65
  3
A5
350
A66
  3
A6
350
A67
  3
A7
350
A68
  3
A8
350
A69
  3
A9
350
A6A
  3
B0
350
A6B
  3
B1
350
A6C
  3
B2
350
A6D
  3
B3
350
A6E
  3
B4
350
A6F
  3
B5
350
A70
  3
B6
350
A71
  0
DICTIONARY
  5
CC9
102
{ACAD_REACTORS
330
C
102
}
330
C
100
AcDbDictionary
281
     1
  3
Imperial24
350
10E5
  3
Metric50
350
CCA
  0
DICTIONARY
  5
650
102
{ACAD_REACTORS
330
C
102
}
330
C
100
AcDbDictionary
281
     1
  3
Standard
350
651
  0
DICTIONARY
  5
A4F
102
{ACAD_REACTORS
330
C
102
}
330
C
100
AcDbDictionary
281
     1
  3
2dWireframe
350
A55
  3
3D Hidden
350
A57
  3
3dWireframe
350
A56
  3
Basic
350
A54
  3
Brighten
350
A5B
  3
ColorChange
350
A5F
  3
Conceptual
350
A58
  3
Dim
350
A5A
  3
EdgeColorOff
350
CC8
  3
Facepattern
350
A5E
  3
Flat
350
A50
  3
FlatWithEdges
350
A51
  3
Gouraud
350
A52
  3
GouraudWithEdges
350
A53
  3
Hidden
350
CC0
  3
JitterOff
350
CC6
  3
Linepattern
350
A5D
  3
OverhangOff
350
CC7
  3
Realistic
350
A59
  3
Shaded
350
CC5
  3
Shaded with edges
350
CC4
  3
Shades of Gray
350
CC1
  3
Sketchy
350
CC2
  3
Thicken
350
A5C
  3
Wireframe
350
CBF
  3
X-Ray
350
CC3
  0
ACAD_PROXY_OBJECT
  5
EE
102
{ACAD_REACTORS
330
C
102
}
330
C
100
AcDbProxyObject
 90
      499
 91
      544
 95
  3276827
 70
     0
162
                 0
161
                10
310
404C
 94
        0
  0
ACAD_PROXY_OBJECT
  5
9B
102
{ACAD_REACTORS
330
C
102
}
330
C
100
AcDbProxyObject
 90
      499
 91
      514
 95
  3276827
 70
     0
162
                 0
161
                34
310
010000404C
 94
        0
  0
XRECORD
  5
43D1
102
{ACAD_REACTORS
330
C
102
}
330
C
100
AcDbXrecord
280
     1
 90
        1
330
651
  0
DICTIONARY
  5
5D
102
{ACAD_REACTORS
330
C
102
}
330
C
100
AcDbDictionary
281
     1
  3
CANNOSCALE
350
AF4
  3
CMLEADERSTYLE
350
AF2
  3
CTABLESTYLE
350
66F
  3
CVIEWDETAILSTYLE
350
FFA
  3
CVIEWSECTIONSTYLE
350
FFB
  3
DIMADEC
350
5E
  3
DIMASSOC
350
3C7
  3
INDEXCTL
350
128
  3
LAYEREVAL
350
AF6
  3
LAYERNOTIFY
350
AF7
  3
LIGHTINGUNITS
350
AF5
  3
MSLTSCALE
350
AF3
  0
DICTIONARY
  5
43D8
102
{ACAD_REACTORS
330
C
102
}
330
C
100
AcDbDictionary
281
     1
  3
AcDsRecords
350
43DA
  3
AcDsSchemas
350
43D9
1001
ACAD
1070
     2
  0
DICTIONARY
  5
142
102
{ACAD_REACTORS
330
C
102
}
330
C
100
AcDbDictionary
281
     1
  3
ACMSTDDICTIONARY
350
143
  3
AMDTSECTSYM_ARROWCOLOR
350
47D
  0
ACAD_PROXY_OBJECT
  5
AF
102
{ACAD_REACTORS
330
C
102
}
330
C
100
AcDbProxyObject
 90
      499
 91
      526
 95
  3276827
 70
     0
162
                 0
161
               114
310
00000043800000000000000000000C
 94
        0
  0
ACAD_PROXY_OBJECT
  5
18E
102
{ACAD_REACTORS
330
C
102
}
330
C
100
AcDbProxyObject
 90
      499
 91
      570
 95
  3276827
 70
     0
162
                 0
161
                34
310
05000044CC
 94
        0
  0
DICTIONARY
  5
171
102
{ACAD_REACTORS
330
C
102
}
330
C
100
AcDbDictionary
281
     1
  0
DICTIONARY
  5
1F2
102
{ACAD_REACTORS
330
C
102
}
330
C
100
AcDbDictionary
281
     1
  0
DICTIONARY
  5
849
102
{ACAD_REACTORS
330
C
102
}
330
C
100
AcDbDictionary
281
     1
  3
ASEBlockHierarchyIndexRecord
350
84B
1001
DCO15
1040
1524370329.156
  0
DICTIONARY
  5
13F2
102
{ACAD_REACTORS
330
C
102
}
330
C
100
AcDbDictionary
281
     1
  3
myviewproperty
350
13F3
  0
ACAD_PROXY_OBJECT
  5
2E8
102
{ACAD_REACTORS
330
C
102
}
330
C
100
AcDbProxyObject
 90
      499
 91
      610
 95
  3276827
 70
     0
162
                 0
161
                 8
310
04C0
 94
        0
  0
DICTIONARY
  5
C7C
102
{ACAD_REACTORS
330
592
102
}
330
592
100
AcDbDictionary
281
     1
  0
DICTIONARY
  5
822
102
{ACAD_REACTORS
330
592
102
}
330
592
100
AcDbDictionary
281
     1
  0
DICTIONARY
  5
C7B
102
{ACAD_REACTORS
330
592
102
}
330
592
100
AcDbDictionary
281
     1
1001
ACAD
1000
<All
  0
DICTIONARY
  5
593
102
{ACAD_REACTORS
330
592
102
}
330
592
100
AcDbDictionary
280
     1
281
     1
  0
XRECORD
  5
43C9
102
{ACAD_REACTORS
330
AB7
102
}
330
AB7
100
AcDbXrecord
280
     1
290
     1
  0
XRECORD
  5
43CA
102
{ACAD_REACTORS
330
AB9
102
}
330
AB9
100
AcDbXrecord
280
     1
290
     1
  0
XRECORD
  5
43CC
102
{ACAD_REACTORS
330
43CB
102
}
330
43CB
100
AcDbXrecord
280
     1
290
     1
  0
XRECORD
  5
43CD
102
{ACAD_REACTORS
330
38AA
102
}
330
38AA
100
AcDbXrecord
280
     1
290
     1
  0
XRECORD
  5
43CF
102
{ACAD_REACTORS
330
43CE
102
}
330
43CE
100
AcDbXrecord
280
     1
290
     1
  0
DICTIONARY
  5
403E
102
{ACAD_REACTORS
330
12A
102
}
330
12A
100
AcDbDictionary
281
     1
  3
*A1
350
403F
  0
SORTENTSTABLE
  5
43A3
102
{ACAD_REACTORS
330
4358
102
}
330
4358
100
AcDbSortentsTable
330
390D
  0
XRECORD
  5
2CAC
102
{ACAD_REACTORS
330
2CAB
102
}
330
2CAB
100
AcDbXrecord
280
     1
 90
        1
340
A61
  0
ACDBDETAILVIEWSTYLE
  5
10E8
102
{ACAD_XDICTIONARY
360
43E1
102
}
102
{ACAD_REACTORS
330
CCB
330
3147
330
3156
102
}
330
CCB
100
AcDbModelDocViewStyle
 70
     0
  3
Imperial24
290
     0
100
AcDbDetailViewStyle
 70
     0
 71
     0
 90
        3
 71
     1
340
10
 62
   256
 40
0.24
340
0
 62
   256
 40
0.24
300

 40
0.36
280
     3
 71
     2
340
16
 90
       25
 62
   256
 71
     3
340
10
 62
   256
 40
0.24
 90
        1
 40
0.75
 90
        1
300
%<\AcVar ViewType \f "%tc1">% %<\AcVar ViewDetailId>%\PSCALE %<\AcVar ViewScale \f "%sn">%
 71
     4
340
16
 90
       25
 62
   256
340
16
 90
       25
 62
   256
280
     0
  0
ACDBDETAILVIEWSTYLE
  5
CCC
102
{ACAD_XDICTIONARY
360
43DD
102
}
102
{ACAD_REACTORS
330
CCB
330
3149
330
3158
102
}
330
CCB
100
AcDbModelDocViewStyle
 70
     0
  3
Metric50
290
     0
100
AcDbDetailViewStyle
 70
     0
 71
     0
 90
        3
 71
     1
340
10
 62
   256
 40
5.0
340
0
 62
   256
 40
5.0
300

 40
0.0
280
     1
 71
     2
340
16
 90
       25
 62
   256
 71
     3
340
10
 62
   256
 40
5.0
 90
        0
 40
15.0
 90
        1
300
%<\AcVar ViewDetailId>% (%<\AcVar ViewScale \f "%sn">%)
 71
     4
340
16
 90
       25
 62
   256
340
16
 90
       25
 62
   256
280
     0
  0
LAYOUT
  5
2CA4
102
{ACAD_REACTORS
330
167
102
}
330
167
100
AcDbPlotSettings
  1

  2
none_device
  4
ISO_A4_(210.00_x_297.00_MM)
  6

 40
7.5
 41
20.0
 42
7.5
 43
20.0
 44
210.0
 45
297.0
 46
0.0
 47
0.0
 48
0.0
 49
0.0
140
0.0
141
0.0
142
1.0
143
2.0
 70
   688
 72
     1
 73
     1
 74
     5
  7
@Layout.ctb
 75
    17
147
0.5
 76
     0
 77
     2
 78
   300
148
0.0
149
0.0
100
AcDbLayout
  1
Layout1
 70
     1
 71
     1
 10
0.0
 20
0.0
 11
12.0
 21
9.0
 12
0.0
 22
0.0
 32
0.0
 14
1.000000000000000E+20
 24
1.000000000000000E+20
 34
1.000000000000000E+20
 15
-1.000000000000000E+20
 25
-1.000000000000000E+20
 35
-1.000000000000000E+20
146
0.0
 13
0.0
 23
0.0
 33
0.0
 16
1.0
 26
0.0
 36
0.0
 17
0.0
 27
1.0
 37
0.0
 76
     0
330
2CA3
331
2CAA
1001
ACAD_PSEXT
1000
None
1000
None
1000
Not applicable
1000
The layout will not be plotted unless a new plotter configuration name is selected.
1070
     0
  0
LAYOUT
  5
169
102
{ACAD_XDICTIONARY
360
1474
102
}
102
{ACAD_REACTORS
330
167
102
}
330
167
100
AcDbPlotSettings
  1

  2
none_device
  4
Letter_(8.50_x_11.00_Inches)
  6

 40
6.349999904632568
 41
6.349999904632568
 42
6.350006103515625
 43
6.350006103515625
 44
215.8999938964844
 45
279.3999938964844
 46
38.1308720290886
 47
0.0
 48
0.0
 49
0.0
140
0.0
141
0.0
142
1.0
143
24.24127445441685
 70
 11956
 72
     0
 73
     1
 74
     0
  7
@Layout.ctb
 75
     0
147
0.0412519565289521
 76
     0
 77
     2
 78
   300
148
8019.824937415057
149
-189.2331007602539
100
AcDbLayout
  1
Model
 70
     1
 71
     0
 10
0.0
 20
0.0
 11
12.0
 21
9.0
 12
0.0
 22
0.0
 32
0.0
 14
0.0
 24
0.0
 34
0.0
 15
0.0
 25
0.0
 35
0.0
146
0.0
 13
0.0
 23
0.0
 33
0.0
 16
1.0
 26
0.0
 36
0.0
 17
0.0
 27
1.0
 37
0.0
 76
     0
330
1A
331
A35
1001
ACAD_PSEXT
1000
None
1000
None
1000
Not applicable
1000
The layout will not be plotted unless a new plotter configuration name is selected.
1070
     0
  0
MATERIAL
  5
A3F
102
{ACAD_XDICTIONARY
360
A40
102
}
102
{ACAD_REACTORS
330
3C9
102
}
330
3C9
100
AcDbMaterial
  1
ByBlock
 72
     0
 43
0.0008202099737533
 43
0.0
 43
0.0
 43
0.0
 43
0.0
 43
0.0008202099737533
 43
0.0
 43
0.0
 43
0.0
 43
0.0
 43
1.0
 43
0.0
 43
0.0
 43
0.0
 43
0.0
 43
1.0
 77
     0
 47
0.0008202099737533
 47
0.0
 47
0.0
 47
0.0
 47
0.0
 47
0.0008202099737533
 47
0.0
 47
0.0
 47
0.0
 47
0.0
 47
1.0
 47
0.0
 47
0.0
 47
0.0
 47
0.0
 47
1.0
171
     0
 49
0.0008202099737533
 49
0.0
 49
0.0
 49
0.0
 49
0.0
 49
0.0008202099737533
 49
0.0
 49
0.0
 49
0.0
 49
0.0
 49
1.0
 49
0.0
 49
0.0
 49
0.0
 49
0.0
 49
1.0
175
     0
142
0.0008202099737533
142
0.0
142
0.0
142
0.0
142
0.0
142
0.0008202099737533
142
0.0
142
0.0
142
0.0
142
0.0
142
1.0
142
0.0
142
0.0
142
0.0
142
0.0
142
1.0
179
     0
144
0.0008202099737533
144
0.0
144
0.0
144
0.0
144
0.0
144
0.0008202099737533
144
0.0
144
0.0
144
0.0
144
0.0
144
1.0
144
0.0
144
0.0
144
0.0
144
0.0
144
1.0
147
0.0008202099737533
147
0.0
147
0.0
147
0.0
147
0.0
147
0.0008202099737533
147
0.0
147
0.0
147
0.0
147
0.0
147
1.0
147
0.0
147
0.0
147
0.0
147
0.0
147
1.0
  0
MATERIAL
  5
A37
102
{ACAD_XDICTIONARY
360
A38
102
}
102
{ACAD_REACTORS
330
3C9
102
}
330
3C9
100
AcDbMaterial
  1
ByLayer
 72
     0
 43
0.0008202099737533
 43
0.0
 43
0.0
 43
0.0
 43
0.0
 43
0.0008202099737533
 43
0.0
 43
0.0
 43
0.0
 43
0.0
 43
1.0
 43
0.0
 43
0.0
 43
0.0
 43
0.0
 43
1.0
 77
     0
 47
0.0008202099737533
 47
0.0
 47
0.0
 47
0.0
 47
0.0
 47
0.0008202099737533
 47
0.0
 47
0.0
 47
0.0
 47
0.0
 47
1.0
 47
0.0
 47
0.0
 47
0.0
 47
0.0
 47
1.0
171
     0
 49
0.0008202099737533
 49
0.0
 49
0.0
 49
0.0
 49
0.0
 49
0.0008202099737533
 49
0.0
 49
0.0
 49
0.0
 49
0.0
 49
1.0
 49
0.0
 49
0.0
 49
0.0
 49
0.0
 49
1.0
175
     0
142
0.0008202099737533
142
0.0
142
0.0
142
0.0
142
0.0
142
0.0008202099737533
142
0.0
142
0.0
142
0.0
142
0.0
142
1.0
142
0.0
142
0.0
142
0.0
142
0.0
142
1.0
179
     0
144
0.0008202099737533
144
0.0
144
0.0
144
0.0
144
0.0
144
0.0008202099737533
144
0.0
144
0.0
144
0.0
144
0.0
144
1.0
144
0.0
144
0.0
144
0.0
144
0.0
144
1.0
147
0.0008202099737533
147
0.0
147
0.0
147
0.0
147
0.0
147
0.0008202099737533
147
0.0
147
0.0
147
0.0
147
0.0
147
1.0
147
0.0
147
0.0
147
0.0
147
0.0
147
1.0
  0
MATERIAL
  5
A47
102
{ACAD_XDICTIONARY
360
A48
102
}
102
{ACAD_REACTORS
330
3C9
102
}
330
3C9
100
AcDbMaterial
  1
Global
 72
     0
 43
0.0008202099737533
 43
0.0
 43
0.0
 43
0.0
 43
0.0
 43
0.0008202099737533
 43
0.0
 43
0.0
 43
0.0
 43
0.0
 43
1.0
 43
0.0
 43
0.0
 43
0.0
 43
0.0
 43
1.0
 77
     0
 47
0.0008202099737533
 47
0.0
 47
0.0
 47
0.0
 47
0.0
 47
0.0008202099737533
 47
0.0
 47
0.0
 47
0.0
 47
0.0
 47
1.0
 47
0.0
 47
0.0
 47
0.0
 47
0.0
 47
1.0
171
     0
 49
0.0008202099737533
 49
0.0
 49
0.0
 49
0.0
 49
0.0
 49
0.0008202099737533
 49
0.0
 49
0.0
 49
0.0
 49
0.0
 49
1.0
 49
0.0
 49
0.0
 49
0.0
 49
0.0
 49
1.0
175
     0
142
0.0008202099737533
142
0.0
142
0.0
142
0.0
142
0.0
142
0.0008202099737533
142
0.0
142
0.0
142
0.0
142
0.0
142
1.0
142
0.0
142
0.0
142
0.0
142
0.0
142
1.0
179
     0
144
0.0008202099737533
144
0.0
144
0.0
144
0.0
144
0.0
144
0.0008202099737533
144
0.0
144
0.0
144
0.0
144
0.0
144
1.0
144
0.0
144
0.0
144
0.0
144
0.0
144
1.0
147
0.0008202099737533
147
0.0
147
0.0
147
0.0
147
0.0
147
0.0008202099737533
147
0.0
147
0.0
147
0.0
147
0.0
147
1.0
147
0.0
147
0.0
147
0.0
147
0.0
147
1.0
  0
MLEADERSTYLE
  5
A73
102
{ACAD_XDICTIONARY
360
1497
102
}
102
{ACAD_REACTORS
330
A72
102
}
330
A72
100
AcDbMLeaderStyle
179
     2
170
     2
171
     1
172
     0
 90
        2
 40
0.0
 41
0.0
173
     1
 91
-1056964608
340
14
 92
       -2
290
     1
 42
2.0
291
     1
 43
0.36
  3
Standard
 44
4.0
300

342
10
174
     1
178
     6
175
     1
176
     0
 93
-1056964608
 45
4.0
292
     0
297
     0
 46
4.0
 94
-1056964608
 47
1.0
 49
1.0
140
1.0
293
     1
141
0.0
294
     1
177
     0
142
1.0
295
     0
296
     0
143
0.125
271
     0
272
     9
273
     9
298
     1
  0
MLINESTYLE
  5
13
102
{ACAD_REACTORS
330
E
102
}
330
E
100
AcDbMlineStyle
  2
STANDARD
 70
     0
  3

 62
     0
 51
90.0
 52
90.0
 71
     2
 49
0.5
 62
   256
  6
BYLAYER
 49
-0.5
 62
   256
  6
BYLAYER
  0
PLOTSETTINGS
  5
2C89
102
{ACAD_REACTORS
330
168
102
}
330
168
100
AcDbPlotSettings
  1
Setup1
  2
none_device
  4
ISO_A4_(210.00_x_297.00_MM)
  6

 40
7.5
 41
20.0
 42
7.5
 43
20.0
 44
210.0
 45
297.0
 46
0.0
 47
0.0
 48
0.0
 49
0.0
140
0.0
141
0.0
142
1.0
143
2.0
 70
   688
 72
     1
 73
     1
 74
     5
  7
@Layout.ctb
 75
    17
147
0.5
 76
     0
 77
     2
 78
   300
148
0.0
149
0.0
1001
ACAD_PSEXT
1000
None
1000
None
1000
Not applicable
1000
The layout will not be plotted unless a new plotter configuration name is selected.
1070
     0
  0
ACDBPLACEHOLDER
  5
166
102
{ACAD_REACTORS
330
165
102
}
330
165
  0
SCALE
  5
A61
102
{ACAD_REACTORS
330
A60
102
}
330
A60
100
AcDbScale
 70
     0
300
1:1
140
1.0
141
1.0
290
     1
  0
SCALE
  5
A62
102
{ACAD_REACTORS
330
A60
102
}
330
A60
100
AcDbScale
 70
     0
300
1:2
140
1.0
141
2.0
290
     0
  0
SCALE
  5
A63
102
{ACAD_REACTORS
330
A60
102
}
330
A60
100
AcDbScale
 70
     0
300
1:4
140
1.0
141
4.0
290
     0
  0
SCALE
  5
A64
102
{ACAD_REACTORS
330
A60
102
}
330
A60
100
AcDbScale
 70
     0
300
1:5
140
1.0
141
5.0
290
     0
  0
SCALE
  5
A65
102
{ACAD_REACTORS
330
A60
102
}
330
A60
100
AcDbScale
 70
     0
300
1:8
140
1.0
141
8.0
290
     0
  0
SCALE
  5
A66
102
{ACAD_REACTORS
330
A60
102
}
330
A60
100
AcDbScale
 70
     0
300
1:10
140
1.0
141
10.0
290
     0
  0
SCALE
  5
A67
102
{ACAD_REACTORS
330
A60
102
}
330
A60
100
AcDbScale
 70
     0
300
1:16
140
1.0
141
16.0
290
     0
  0
SCALE
  5
A68
102
{ACAD_REACTORS
330
A60
102
}
330
A60
100
AcDbScale
 70
     0
300
1:20
140
1.0
141
20.0
290
     0
  0
SCALE
  5
A69
102
{ACAD_REACTORS
330
A60
102
}
330
A60
100
AcDbScale
 70
     0
300
1:30
140
1.0
141
30.0
290
     0
  0
SCALE
  5
A6A
102
{ACAD_REACTORS
330
A60
102
}
330
A60
100
AcDbScale
 70
     0
300
1:40
140
1.0
141
40.0
290
     0
  0
SCALE
  5
A6B
102
{ACAD_REACTORS
330
A60
102
}
330
A60
100
AcDbScale
 70
     0
300
1:50
140
1.0
141
50.0
290
     0
  0
SCALE
  5
A6C
102
{ACAD_REACTORS
330
A60
102
}
330
A60
100
AcDbScale
 70
     0
300
1:100
140
1.0
141
100.0
290
     0
  0
SCALE
  5
A6D
102
{ACAD_REACTORS
330
A60
102
}
330
A60
100
AcDbScale
 70
     0
300
2:1
140
2.0
141
1.0
290
     0
  0
SCALE
  5
A6E
102
{ACAD_REACTORS
330
A60
102
}
330
A60
100
AcDbScale
 70
     0
300
4:1
140
4.0
141
1.0
290
     0
  0
SCALE
  5
A6F
102
{ACAD_REACTORS
330
A60
102
}
330
A60
100
AcDbScale
 70
     0
300
8:1
140
8.0
141
1.0
290
     0
  0
SCALE
  5
A70
102
{ACAD_REACTORS
330
A60
102
}
330
A60
100
AcDbScale
 70
     0
300
10:1
140
10.0
141
1.0
290
     0
  0
SCALE
  5
A71
102
{ACAD_REACTORS
330
A60
102
}
330
A60
100
AcDbScale
 70
     0
300
100:1
140
100.0
141
1.0
290
     0
  0
ACDBSECTIONVIEWSTYLE
  5
10E5
102
{ACAD_XDICTIONARY
360
43DF
102
}
102
{ACAD_REACTORS
330
CC9
330
3143
330
3152
102
}
330
CC9
100
AcDbModelDocViewStyle
 70
     0
  3
Imperial24
290
     0
100
AcDbSectionViewStyle
 70
     0
 71
     0
 90
       78
 71
     1
340
10
 62
   256
 40
0.24
340
0
340
0
 62
   256
 40
0.24
300
I, O, Q, S, X, Z
 40
0.48
 90
        3
 40
0.18
 90
        1
 71
     2
340
16
 90
       25
 62
   256
340
16
 90
       50
 62
   256
 40
0.24
 40
0.0
 40
0.24
 71
     3
340
10
 62
   256
 40
0.24
 90
        1
 40
0.75
 90
        1
300
%<\AcVar ViewType \f "%tc1">% %<\AcVar ViewSectionStartId>%-%<\AcVar ViewSectionEndId>%\PSCALE %<\AcVar ViewScale \f "%sn">%
 71
     4
 62
   256
 62
   257
300
ANSI31
 40
1.0
 90
        0
290
     0
290
     0
 90
        6
 40
0.0
 40
1.570796326794896
 40
0.2617993877991494
 40
1.308996938995747
 40
-0.2617993877991494
 40
1.832595714594046
  0
ACDBSECTIONVIEWSTYLE
  5
CCA
102
{ACAD_XDICTIONARY
360
43DB
102
}
102
{ACAD_REACTORS
330
CC9
330
3145
330
3154
102
}
330
CC9
100
AcDbModelDocViewStyle
 70
     0
  3
Metric50
290
     0
100
AcDbSectionViewStyle
 70
     0
 71
     0
 90
      102
 71
     1
340
10
 62
   256
 40
5.0
340
0
340
0
 62
   256
 40
5.0
300
I, O, Q, S, X, Z
 40
10.0
 90
        0
 40
2.5
 90
        0
 71
     2
340
16
 90
       25
 62
   256
340
16
 90
       50
 62
   256
 40
5.0
 40
2.5
 40
5.0
 71
     3
340
10
 62
   256
 40
5.0
 90
        0
 40
15.0
 90
        1
300
%<\AcVar ViewSectionStartId>%-%<\AcVar ViewSectionEndId>% (%<\AcVar ViewScale \f "%sn">%)
 71
     4
 62
   256
 62
   257
300
ANSI31
 40
1.0
 90
        0
290
     0
290
     0
 90
        6
 40
0.0
 40
1.570796326794896
 40
0.2617993877991494
 40
1.308996938995747
 40
-0.2617993877991494
 40
1.832595714594046
  0
TABLESTYLE
  5
651
102
{ACAD_XDICTIONARY
360
AED
102
}
102
{ACAD_REACTORS
330
650
102
}
330
650
100
AcDbTableStyle
280
     0
  3
Standard
 70
     0
 71
     0
 40
1.5
 41
1.5
280
     0
281
     0
  7
STANDARD
140
4.5
170
     2
 62
     0
 63
     7
283
     0
 90
        4
 91
        0
  1

274
    -2
284
     1
 64
     0
275
    -2
285
     1
 65
     0
276
    -2
286
     1
 66
     0
277
    -2
287
     1
 67
     0
278
    -2
288
     1
 68
     0
279
    -2
289
     1
 69
     0
  7
STANDARD
140
6.0
170
     5
 62
     0
 63
     7
283
     0
 90
        4
 91
        0
  1

274
    -2
284
     1
 64
     0
275
    -2
285
     1
 65
     0
276
    -2
286
     1
 66
     0
277
    -2
287
     1
 67
     0
278
    -2
288
     1
 68
     0
279
    -2
289
     1
 69
     0
  7
STANDARD
140
4.5
170
     5
 62
     0
 63
     7
283
     0
 90
        4
 91
        0
  1

274
    -2
284
     1
 64
     0
275
    -2
285
     1
 65
     0
276
    -2
286
     1
 66
     0
277
    -2
287
     1
 67
     0
278
    -2
288
     1
 68
     0
279
    -2
289
     1
 69
     0
  0
VISUALSTYLE
  5
A55
102
{ACAD_REACTORS
330
A4F
102
}
330
A4F
100
AcDbVisualStyle
  2
2dWireframe
 70
     4
177
     3
291
     0
 70
    58
 90
        0
176
     1
 90
        2
176
     1
 90
        0
176
     1
 90
        0
176
     1
 40
0.6
176
     1
 40
30.0
176
     1
 62
     7
420
 16777215
176
     1
 90
        1
176
     1
 90
        4
176
     1
 62
     7
176
     1
 62
   257
176
     1
 90
        1
176
     1
 90
        1
176
     1
 40
1.0
176
     1
 90
        0
176
     1
 62
   257
176
     1
 40
1.0
176
     1
 90
        1
176
     1
 90
        6
176
     1
 90
        2
176
     1
 62
     7
176
     1
 90
        5
176
     1
 90
        0
176
     1
 90
        0
176
     1
290
     0
176
     1
 90
        1
176
     1
 40
0.0
176
     1
 90
        0
176
     1
290
     1
176
     1
290
     1
176
     1
290
     0
176
     1
290
     0
176
     1
290
     0
176
     1
290
     0
176
     1
290
     0
176
     1
290
     0
176
     1
290
     0
176
     1
 90
       50
176
     1
 40
0.0
176
     1
 40
1.0
176
     1
 90
        0
176
     1
 62
    18
420
        0
176
     1
 90
       50
176
     1
 90
        3
176
     1
 62
     5
420
      255
176
     1
290
     0
176
     1
 90
       50
176
     1
 90
       50
176
     1
 90
       50
176
     1
290
     0
176
     1
 90
       50
176
     1
 62
   256
176
     0
 40
1.0
176
     0
 90
        2
176
     1
  1
strokes_ogs.tif
176
     1
290
     0
176
     1
 40
1.0
176
     1
 40
1.0
176
     1
1001
ACAD
1000
AcDbSavedByObjectVersion
1070
     0
  0
VISUALSTYLE
  5
A57
102
{ACAD_REACTORS
330
A4F
102
}
330
A4F
100
AcDbVisualStyle
  2
3D Hidden
 70
     6
177
     3
291
     0
 70
    58
 90
        1
176
     1
 90
        2
176
     1
 90
        2
176
     1
 90
        0
176
     1
 40
0.6
176
     1
 40
30.0
176
     1
 62
     7
420
 16777215
176
     1
 90
        2
176
     1
 90
        2
176
     1
 62
     7
176
     1
 62
   257
176
     1
 90
        2
176
     1
 90
        1
176
     1
 40
40.0
176
     1
 90
        0
176
     1
 62
   257
176
     1
 40
1.0
176
     1
 90
        1
176
     1
 90
        6
176
     1
 90
        2
176
     1
 62
     7
176
     1
 90
        3
176
     1
 90
        0
176
     1
 90
        0
176
     1
290
     0
176
     1
 90
        1
176
     1
 40
0.0
176
     1
 90
        0
176
     1
290
     0
176
     1
290
     1
176
     1
290
     1
176
     1
290
     0
176
     1
290
     0
176
     1
290
     0
176
     1
290
     0
176
     1
290
     0
176
     1
290
     0
176
     1
 90
       50
176
     1
 40
0.0
176
     1
 40
1.0
176
     1
 90
        0
176
     1
 62
    18
420
        0
176
     1
 90
       50
176
     1
 90
        3
176
     1
 62
     5
420
      255
176
     1
290
     0
176
     1
 90
       50
176
     1
 90
       50
176
     1
 90
       50
176
     1
290
     0
176
     1
 90
       50
176
     1
 62
   256
176
     0
 40
1.0
176
     0
 90
        2
176
     1
  1
strokes_ogs.tif
176
     1
290
     0
176
     1
 40
1.0
176
     1
 40
1.0
176
     1
1001
ACAD
1000
AcDbSavedByObjectVersion
1070
     0
  0
VISUALSTYLE
  5
A56
102
{ACAD_REACTORS
330
A4F
102
}
330
A4F
100
AcDbVisualStyle
  2
3dWireframe
 70
     5
177
     3
291
     0
 70
    58
 90
        0
176
     1
 90
        2
176
     1
 90
        0
176
     1
 90
        0
176
     1
 40
0.6
176
     1
 40
30.0
176
     1
 62
     7
420
 16777215
176
     1
 90
        1
176
     1
 90
        4
176
     1
 62
     7
176
     1
 62
   257
176
     1
 90
        1
176
     1
 90
        1
176
     1
 40
1.0
176
     1
 90
        0
176
     1
 62
   257
176
     1
 40
1.0
176
     1
 90
        1
176
     1
 90
        6
176
     1
 90
        2
176
     1
 62
     7
176
     1
 90
        5
176
     1
 90
        0
176
     1
 90
        0
176
     1
290
     0
176
     1
 90
        1
176
     1
 40
0.0
176
     1
 90
        0
176
     1
290
     0
176
     1
290
     1
176
     1
290
     1
176
     1
290
     0
176
     1
290
     0
176
     1
290
     0
176
     1
290
     0
176
     1
290
     0
176
     1
290
     0
176
     1
 90
       50
176
     1
 40
0.0
176
     1
 40
1.0
176
     1
 90
        0
176
     1
 62
    18
420
        0
176
     1
 90
       50
176
     1
 90
        3
176
     1
 62
     5
420
      255
176
     1
290
     0
176
     1
 90
       50
176
     1
 90
       50
176
     1
 90
       50
176
     1
290
     0
176
     1
 90
       50
176
     1
 62
   256
176
     0
 40
1.0
176
     0
 90
        2
176
     1
  1
strokes_ogs.tif
176
     1
290
     0
176
     1
 40
1.0
176
     1
 40
1.0
176
     1
1001
ACAD
1000
AcDbSavedByObjectVersion
1070
     0
  0
VISUALSTYLE
  5
A54
102
{ACAD_REACTORS
330
A4F
102
}
330
A4F
100
AcDbVisualStyle
  2
Basic
 70
     7
177
     3
291
     1
 70
    58
 90
        1
176
     1
 90
        0
176
     1
 90
        1
176
     1
 90
        0
176
     1
 40
0.6
176
     1
 40
30.0
176
     1
 62
     7
420
 16777215
176
     1
 90
        0
176
     1
 90
        4
176
     1
 62
     7
176
     1
 62
   257
176
     1
 90
        1
176
     1
 90
        1
176
     1
 40
1.0
176
     1
 90
        8
176
     1
 62
     7
176
     1
 40
1.0
176
     1
 90
        1
176
     1
 90
        6
176
     1
 90
        2
176
     1
 62
     7
176
     1
 90
        5
176
     1
 90
        0
176
     1
 90
        0
176
     1
290
     0
176
     1
 90
        1
176
     1
 40
0.0
176
     1
 90
        0
176
     1
290
     0
176
     1
290
     1
176
     1
290
     1
176
     1
290
     0
176
     1
290
     0
176
     1
290
     0
176
     1
290
     0
176
     1
290
     0
176
     1
290
     0
176
     1
 90
       50
176
     1
 40
0.0
176
     1
 40
1.0
176
     1
 90
        0
176
     1
 62
    18
420
        0
176
     1
 90
       50
176
     1
 90
        3
176
     1
 62
     5
420
      255
176
     1
290
     0
176
     1
 90
       50
176
     1
 90
       50
176
     1
 90
       50
176
     1
290
     0
176
     1
 90
       50
176
     1
 62
   256
176
     0
 40
1.0
176
     0
 90
        2
176
     1
  1
strokes_ogs.tif
176
     1
290
     0
176
     1
 40
1.0
176
     1
 40
1.0
176
     1
1001
ACAD
1000
AcDbSavedByObjectVersion
1070
     0
  0
VISUALSTYLE
  5
A5B
102
{ACAD_REACTORS
330
A4F
102
}
330
A4F
100
AcDbVisualStyle
  2
Brighten
 70
    12
177
     3
291
     1
 70
    58
 90
        2
176
     1
 90
        2
176
     1
 90
        0
176
     1
 90
        0
176
     1
 40
0.6
176
     1
 40
30.0
176
     1
 62
     7
420
 16777215
176
     1
 90
        1
176
     1
 90
        4
176
     1
 62
     7
176
     1
 62
   257
176
     1
 90
        1
176
     1
 90
        1
176
     1
 40
1.0
176
     1
 90
        8
176
     1
 62
     7
176
     1
 40
1.0
176
     1
 90
        1
176
     1
 90
        6
176
     1
 90
        2
176
     1
 62
     7
176
     1
 90
        5
176
     1
 90
        0
176
     1
 90
        0
176
     1
290
     0
176
     1
 90
        1
176
     1
 40
50.0
176
     1
 90
        0
176
     1
290
     0
176
     1
290
     1
176
     1
290
     1
176
     1
290
     0
176
     1
290
     0
176
     1
290
     0
176
     1
290
     0
176
     1
290
     0
176
     1
290
     0
176
     1
 90
       50
176
     1
 40
0.0
176
     1
 40
1.0
176
     1
 90
        0
176
     1
 62
    18
420
        0
176
     1
 90
       50
176
     1
 90
        3
176
     1
 62
     5
420
      255
176
     1
290
     0
176
     1
 90
       50
176
     1
 90
       50
176
     1
 90
       50
176
     1
290
     0
176
     1
 90
       50
176
     1
 62
   256
176
     0
 40
1.0
176
     0
 90
        2
176
     1
  1
strokes_ogs.tif
176
     1
290
     0
176
     1
 40
1.0
176
     1
 40
1.0
176
     1
1001
ACAD
1000
AcDbSavedByObjectVersion
1070
     0
  0
VISUALSTYLE
  5
A5F
102
{ACAD_REACTORS
330
A4F
102
}
330
A4F
100
AcDbVisualStyle
  2
ColorChange
 70
    16
177
     3
291
     1
 70
    58
 90
        2
176
     1
 90
        2
176
     1
 90
        3
176
     1
 90
        0
176
     1
 40
0.6
176
     1
 40
30.0
176
     1
 62
     8
420
  8421504
176
     1
 90
        1
176
     1
 90
        4
176
     1
 62
     7
176
     1
 62
   257
176
     1
 90
        1
176
     1
 90
        1
176
     1
 40
1.0
176
     1
 90
        8
176
     1
 62
     8
420
  8421504
176
     1
 40
1.0
176
     1
 90
        1
176
     1
 90
        6
176
     1
 90
        2
176
     1
 62
     7
176
     1
 90
        5
176
     1
 90
        0
176
     1
 90
        0
176
     1
290
     0
176
     1
 90
        1
176
     1
 40
0.0
176
     1
 90
        0
176
     1
290
     0
176
     1
290
     1
176
     1
290
     1
176
     1
290
     0
176
     1
290
     0
176
     1
290
     0
176
     1
290
     0
176
     1
290
     0
176
     1
290
     0
176
     1
 90
       50
176
     1
 40
0.0
176
     1
 40
1.0
176
     1
 90
        0
176
     1
 62
    18
420
        0
176
     1
 90
       50
176
     1
 90
        3
176
     1
 62
     5
420
      255
176
     1
290
     0
176
     1
 90
       50
176
     1
 90
       50
176
     1
 90
       50
176
     1
290
     0
176
     1
 90
       50
176
     1
 62
   256
176
     0
 40
1.0
176
     0
 90
        2
176
     1
  1
strokes_ogs.tif
176
     1
290
     0
176
     1
 40
1.0
176
     1
 40
1.0
176
     1
1001
ACAD
1000
AcDbSavedByObjectVersion
1070
     0
  0
VISUALSTYLE
  5
A58
102
{ACAD_REACTORS
330
A4F
102
}
330
A4F
100
AcDbVisualStyle
  2
Conceptual
 70
     9
177
     3
291
     0
 70
    58
 90
        3
176
     1
 90
        2
176
     1
 90
        0
176
     1
 90
        0
176
     1
 40
0.6
176
     1
 40
30.0
176
     1
 62
     7
420
 16777215
176
     1
 90
        2
176
     1
 90
        2
176
     1
 62
     7
176
     1
 62
   257
176
     1
 90
        1
176
     1
 90
        1
176
     1
 40
40.0
176
     1
 90
        8
176
     1
 62
     7
176
     1
 40
1.0
176
     1
 90
        1
176
     1
 90
        6
176
     1
 90
        2
176
     1
 62
     7
176
     1
 90
        3
176
     1
 90
        0
176
     1
 90
        0
176
     1
290
     0
176
     1
 90
        1
176
     1
 40
0.0
176
     1
 90
        0
176
     1
290
     0
176
     1
290
     1
176
     1
290
     1
176
     1
290
     0
176
     1
290
     0
176
     1
290
     0
176
     1
290
     0
176
     1
290
     0
176
     1
290
     0
176
     1
 90
       50
176
     1
 40
0.0
176
     1
 40
1.0
176
     1
 90
        0
176
     1
 62
    18
420
        0
176
     1
 90
       50
176
     1
 90
        3
176
     1
 62
     5
420
      255
176
     1
290
     0
176
     1
 90
       50
176
     1
 90
       50
176
     1
 90
       50
176
     1
290
     0
176
     1
 90
       50
176
     1
 62
   256
176
     0
 40
1.0
176
     0
 90
        2
176
     1
  1
strokes_ogs.tif
176
     1
290
     0
176
     1
 40
1.0
176
     1
 40
1.0
176
     1
1001
ACAD
1000
AcDbSavedByObjectVersion
1070
     0
  0
VISUALSTYLE
  5
A5A
102
{ACAD_REACTORS
330
A4F
102
}
330
A4F
100
AcDbVisualStyle
  2
Dim
 70
    11
177
     3
291
     1
 70
    58
 90
        2
176
     1
 90
        2
176
     1
 90
        0
176
     1
 90
        0
176
     1
 40
0.6
176
     1
 40
30.0
176
     1
 62
     7
420
 16777215
176
     1
 90
        1
176
     1
 90
        4
176
     1
 62
     7
176
     1
 62
   257
176
     1
 90
        1
176
     1
 90
        1
176
     1
 40
1.0
176
     1
 90
        8
176
     1
 62
     7
176
     1
 40
1.0
176
     1
 90
        1
176
     1
 90
        6
176
     1
 90
        2
176
     1
 62
     7
176
     1
 90
        5
176
     1
 90
        0
176
     1
 90
        0
176
     1
290
     0
176
     1
 90
        1
176
     1
 40
-50.0
176
     1
 90
        0
176
     1
290
     0
176
     1
290
     1
176
     1
290
     1
176
     1
290
     0
176
     1
290
     0
176
     1
290
     0
176
     1
290
     0
176
     1
290
     0
176
     1
290
     0
176
     1
 90
       50
176
     1
 40
0.0
176
     1
 40
1.0
176
     1
 90
        0
176
     1
 62
    18
420
        0
176
     1
 90
       50
176
     1
 90
        3
176
     1
 62
     5
420
      255
176
     1
290
     0
176
     1
 90
       50
176
     1
 90
       50
176
     1
 90
       50
176
     1
290
     0
176
     1
 90
       50
176
     1
 62
   256
176
     0
 40
1.0
176
     0
 90
        2
176
     1
  1
strokes_ogs.tif
176
     1
290
     0
176
     1
 40
1.0
176
     1
 40
1.0
176
     1
1001
ACAD
1000
AcDbSavedByObjectVersion
1070
     0
  0
VISUALSTYLE
  5
CC8
102
{ACAD_REACTORS
330
A4F
102
}
330
A4F
100
AcDbVisualStyle
  2
EdgeColorOff
 70
    22
177
     3
291
     1
 70
    58
 90
        2
176
     0
 90
        2
176
     0
 90
        0
176
     0
 90
        0
176
     0
 40
0.6
176
     0
 40
30.0
176
     0
 62
     7
420
 16777215
176
     0
 90
        1
176
     0
 90
        4
176
     0
 62
     7
176
     0
 62
   257
176
     0
 90
        1
176
     0
 90
        1
176
     0
 40
1.0
176
     0
 90
        8
176
     2
 62
     7
176
     0
 40
1.0
176
     0
 90
        1
176
     0
 90
        6
176
     0
 90
        2
176
     0
 62
     7
176
     0
 90
        5
176
     0
 90
        0
176
     0
 90
        0
176
     0
290
     0
176
     0
 90
        1
176
     0
 40
0.0
176
     0
 90
        0
176
     0
290
     0
176
     0
290
     1
176
     0
290
     1
176
     0
290
     0
176
     0
290
     0
176
     0
290
     0
176
     0
290
     0
176
     0
290
     0
176
     0
290
     0
176
     0
 90
       50
176
     0
 40
0.0
176
     0
 40
1.0
176
     0
 90
        0
176
     0
 62
    18
420
        0
176
     0
 90
       50
176
     0
 90
        3
176
     0
 62
     5
420
      255
176
     0
290
     0
176
     0
 90
       50
176
     0
 90
       50
176
     0
 90
       50
176
     0
290
     0
176
     0
 90
       50
176
     0
 62
   256
176
     0
 40
1.0
176
     0
 90
        2
176
     0
  1
strokes_ogs.tif
176
     0
290
     0
176
     0
 40
1.0
176
     0
 40
1.0
176
     0
1001
ACAD
1000
AcDbSavedByObjectVersion
1070
     0
  0
VISUALSTYLE
  5
A5E
102
{ACAD_REACTORS
330
A4F
102
}
330
A4F
100
AcDbVisualStyle
  2
Facepattern
 70
    15
177
     3
291
     1
 70
    58
 90
        2
176
     1
 90
        2
176
     1
 90
        0
176
     1
 90
        0
176
     1
 40
0.6
176
     1
 40
30.0
176
     1
 62
     7
420
 16777215
176
     1
 90
        1
176
     1
 90
        4
176
     1
 62
     7
176
     1
 62
   257
176
     1
 90
        1
176
     1
 90
        1
176
     1
 40
1.0
176
     1
 90
        8
176
     1
 62
     7
176
     1
 40
1.0
176
     1
 90
        1
176
     1
 90
        6
176
     1
 90
        2
176
     1
 62
     7
176
     1
 90
        5
176
     1
 90
        0
176
     1
 90
        0
176
     1
290
     0
176
     1
 90
        1
176
     1
 40
0.0
176
     1
 90
        0
176
     1
290
     0
176
     1
290
     1
176
     1
290
     1
176
     1
290
     0
176
     1
290
     0
176
     1
290
     0
176
     1
290
     0
176
     1
290
     0
176
     1
290
     0
176
     1
 90
       50
176
     1
 40
0.0
176
     1
 40
1.0
176
     1
 90
        0
176
     1
 62
    18
420
        0
176
     1
 90
       50
176
     1
 90
        3
176
     1
 62
     5
420
      255
176
     1
290
     0
176
     1
 90
       50
176
     1
 90
       50
176
     1
 90
       50
176
     1
290
     0
176
     1
 90
       50
176
     1
 62
   256
176
     0
 40
1.0
176
     0
 90
        2
176
     1
  1
strokes_ogs.tif
176
     1
290
     0
176
     1
 40
1.0
176
     1
 40
1.0
176
     1
1001
ACAD
1000
AcDbSavedByObjectVersion
1070
     0
  0
VISUALSTYLE
  5
A50
102
{ACAD_REACTORS
330
A4F
102
}
330
A4F
100
AcDbVisualStyle
  2
Flat
 70
     0
177
     3
291
     1
 70
    58
 90
        2
176
     1
 90
        1
176
     1
 90
        1
176
     1
 90
        2
176
     1
 40
0.6
176
     1
 40
30.0
176
     1
 62
     7
420
 16777215
176
     1
 90
        0
176
     1
 90
        4
176
     1
 62
     7
176
     1
 62
   257
176
     1
 90
        1
176
     1
 90
        1
176
     1
 40
1.0
176
     1
 90
        8
176
     1
 62
     7
176
     1
 40
1.0
176
     1
 90
        1
176
     1
 90
        6
176
     1
 90
        2
176
     1
 62
     7
176
     1
 90
        5
176
     1
 90
        0
176
     1
 90
        0
176
     1
290
     0
176
     1
 90
       13
176
     1
 40
0.0
176
     1
 90
        0
176
     1
290
     0
176
     1
290
     1
176
     1
290
     1
176
     1
290
     0
176
     1
290
     0
176
     1
290
     0
176
     1
290
     0
176
     1
290
     0
176
     1
290
     0
176
     1
 90
       50
176
     1
 40
0.0
176
     1
 40
1.0
176
     1
 90
        0
176
     1
 62
    18
420
        0
176
     1
 90
       50
176
     1
 90
        3
176
     1
 62
     5
420
      255
176
     1
290
     0
176
     1
 90
       50
176
     1
 90
       50
176
     1
 90
       50
176
     1
290
     0
176
     1
 90
       50
176
     1
 62
   256
176
     0
 40
1.0
176
     0
 90
        2
176
     1
  1
strokes_ogs.tif
176
     1
290
     0
176
     1
 40
1.0
176
     1
 40
1.0
176
     1
1001
ACAD
1000
AcDbSavedByObjectVersion
1070
     0
  0
VISUALSTYLE
  5
A51
102
{ACAD_REACTORS
330
A4F
102
}
330
A4F
100
AcDbVisualStyle
  2
FlatWithEdges
 70
     1
177
     3
291
     1
 70
    58
 90
        2
176
     1
 90
        1
176
     1
 90
        1
176
     1
 90
        2
176
     1
 40
0.6
176
     1
 40
30.0
176
     1
 62
     7
420
 16777215
176
     1
 90
        1
176
     1
 90
        4
176
     1
 62
     7
176
     1
 62
   257
176
     1
 90
        1
176
     1
 90
        1
176
     1
 40
1.0
176
     1
 90
        0
176
     1
 62
   257
176
     1
 40
1.0
176
     1
 90
        1
176
     1
 90
        6
176
     1
 90
        2
176
     1
 62
     7
176
     1
 90
        5
176
     1
 90
        0
176
     1
 90
        0
176
     1
290
     0
176
     1
 90
       13
176
     1
 40
0.0
176
     1
 90
        0
176
     1
290
     0
176
     1
290
     1
176
     1
290
     1
176
     1
290
     0
176
     1
290
     0
176
     1
290
     0
176
     1
290
     0
176
     1
290
     0
176
     1
290
     0
176
     1
 90
       50
176
     1
 40
0.0
176
     1
 40
1.0
176
     1
 90
        0
176
     1
 62
    18
420
        0
176
     1
 90
       50
176
     1
 90
        3
176
     1
 62
     5
420
      255
176
     1
290
     0
176
     1
 90
       50
176
     1
 90
       50
176
     1
 90
       50
176
     1
290
     0
176
     1
 90
       50
176
     1
 62
   256
176
     0
 40
1.0
176
     0
 90
        2
176
     1
  1
strokes_ogs.tif
176
     1
290
     0
176
     1
 40
1.0
176
     1
 40
1.0
176
     1
1001
ACAD
1000
AcDbSavedByObjectVersion
1070
     0
  0
VISUALSTYLE
  5
A52
102
{ACAD_REACTORS
330
A4F
102
}
330
A4F
100
AcDbVisualStyle
  2
Gouraud
 70
     2
177
     3
291
     1
 70
    58
 90
        2
176
     1
 90
        2
176
     1
 90
        1
176
     1
 90
        2
176
     1
 40
0.6
176
     1
 40
30.0
176
     1
 62
     7
420
 16777215
176
     1
 90
        0
176
     1
 90
        4
176
     1
 62
     7
176
     1
 62
   257
176
     1
 90
        1
176
     1
 90
        1
176
     1
 40
1.0
176
     1
 90
        0
176
     1
 62
     7
176
     1
 40
1.0
176
     1
 90
        1
176
     1
 90
        6
176
     1
 90
        2
176
     1
 62
     7
176
     1
 90
        5
176
     1
 90
        0
176
     1
 90
        0
176
     1
290
     0
176
     1
 90
       13
176
     1
 40
0.0
176
     1
 90
        0
176
     1
290
     0
176
     1
290
     1
176
     1
290
     1
176
     1
290
     0
176
     1
290
     0
176
     1
290
     0
176
     1
290
     0
176
     1
290
     0
176
     1
290
     0
176
     1
 90
       50
176
     1
 40
0.0
176
     1
 40
1.0
176
     1
 90
        0
176
     1
 62
    18
420
        0
176
     1
 90
       50
176
     1
 90
        3
176
     1
 62
     5
420
      255
176
     1
290
     0
176
     1
 90
       50
176
     1
 90
       50
176
     1
 90
       50
176
     1
290
     0
176
     1
 90
       50
176
     1
 62
   256
176
     0
 40
1.0
176
     0
 90
        2
176
     1
  1
strokes_ogs.tif
176
     1
290
     0
176
     1
 40
1.0
176
     1
 40
1.0
176
     1
1001
ACAD
1000
AcDbSavedByObjectVersion
1070
     0
  0
VISUALSTYLE
  5
A53
102
{ACAD_REACTORS
330
A4F
102
}
330
A4F
100
AcDbVisualStyle
  2
GouraudWithEdges
 70
     3
177
     3
291
     1
 70
    58
 90
        2
176
     1
 90
        2
176
     1
 90
        1
176
     1
 90
        2
176
     1
 40
0.6
176
     1
 40
30.0
176
     1
 62
     7
420
 16777215
176
     1
 90
        1
176
     1
 90
        4
176
     1
 62
     7
176
     1
 62
   257
176
     1
 90
        1
176
     1
 90
        1
176
     1
 40
1.0
176
     1
 90
        0
176
     1
 62
   257
176
     1
 40
1.0
176
     1
 90
        1
176
     1
 90
        6
176
     1
 90
        2
176
     1
 62
     7
176
     1
 90
        5
176
     1
 90
        0
176
     1
 90
        0
176
     1
290
     0
176
     1
 90
       13
176
     1
 40
0.0
176
     1
 90
        0
176
     1
290
     0
176
     1
290
     1
176
     1
290
     1
176
     1
290
     0
176
     1
290
     0
176
     1
290
     0
176
     1
290
     0
176
     1
290
     0
176
     1
290
     0
176
     1
 90
       50
176
     1
 40
0.0
176
     1
 40
1.0
176
     1
 90
        0
176
     1
 62
    18
420
        0
176
     1
 90
       50
176
     1
 90
        3
176
     1
 62
     5
420
      255
176
     1
290
     0
176
     1
 90
       50
176
     1
 90
       50
176
     1
 90
       50
176
     1
290
     0
176
     1
 90
       50
176
     1
 62
   256
176
     0
 40
1.0
176
     0
 90
        2
176
     1
  1
strokes_ogs.tif
176
     1
290
     0
176
     1
 40
1.0
176
     1
 40
1.0
176
     1
1001
ACAD
1000
AcDbSavedByObjectVersion
1070
     0
  0
VISUALSTYLE
  5
CC0
102
{ACAD_REACTORS
330
A4F
102
}
330
A4F
100
AcDbVisualStyle
  2
Hidden
 70
     6
177
     3
291
     0
 70
    58
 90
        1
176
     1
 90
        2
176
     1
 90
        2
176
     1
 90
        0
176
     1
 40
0.6
176
     1
 40
30.0
176
     1
 62
     7
420
 16777215
176
     1
 90
        2
176
     1
 90
        2
176
     1
 62
     7
176
     1
 62
   257
176
     1
 90
        2
176
     1
 90
        1
176
     1
 40
40.0
176
     1
 90
        0
176
     1
 62
   257
176
     1
 40
1.0
176
     1
 90
        1
176
     1
 90
        6
176
     1
 90
        2
176
     1
 62
     7
176
     1
 90
        3
176
     1
 90
        0
176
     1
 90
        0
176
     1
290
     0
176
     1
 90
        1
176
     1
 40
0.0
176
     1
 90
        0
176
     1
290
     0
176
     1
290
     1
176
     1
290
     1
176
     1
290
     0
176
     1
290
     0
176
     1
290
     0
176
     1
290
     0
176
     1
290
     0
176
     1
290
     0
176
     1
 90
       50
176
     1
 40
0.0
176
     1
 40
1.0
176
     1
 90
        0
176
     1
 62
    18
420
        0
176
     1
 90
       50
176
     1
 90
        3
176
     1
 62
     5
420
      255
176
     1
290
     0
176
     1
 90
       50
176
     1
 90
       50
176
     1
 90
       50
176
     1
290
     0
176
     1
 90
       50
176
     1
 62
   256
176
     0
 40
1.0
176
     0
 90
        2
176
     1
  1
strokes_ogs.tif
176
     1
290
     0
176
     1
 40
1.0
176
     1
 40
1.0
176
     1
1001
ACAD
1000
AcDbSavedByObjectVersion
1070
     0
  0
VISUALSTYLE
  5
CC6
102
{ACAD_REACTORS
330
A4F
102
}
330
A4F
100
AcDbVisualStyle
  2
JitterOff
 70
    20
177
     3
291
     1
 70
    58
 90
        2
176
     0
 90
        2
176
     0
 90
        0
176
     0
 90
        0
176
     0
 40
0.6
176
     0
 40
30.0
176
     0
 62
     7
420
 16777215
176
     0
 90
        1
176
     0
 90
        4
176
     0
 62
     7
176
     0
 62
   257
176
     0
 90
        1
176
     0
 90
        1
176
     0
 40
1.0
176
     0
 90
       10
176
     2
 62
     7
176
     0
 40
1.0
176
     0
 90
        1
176
     0
 90
        6
176
     0
 90
        2
176
     0
 62
     7
176
     0
 90
        5
176
     0
 90
        0
176
     0
 90
        0
176
     0
290
     0
176
     0
 90
        1
176
     0
 40
0.0
176
     0
 90
        0
176
     0
290
     0
176
     0
290
     1
176
     0
290
     1
176
     0
290
     0
176
     0
290
     0
176
     0
290
     0
176
     0
290
     0
176
     0
290
     0
176
     0
290
     0
176
     0
 90
       50
176
     0
 40
0.0
176
     0
 40
1.0
176
     0
 90
        0
176
     0
 62
    18
420
        0
176
     0
 90
       50
176
     0
 90
        3
176
     0
 62
     5
420
      255
176
     0
290
     0
176
     0
 90
       50
176
     0
 90
       50
176
     0
 90
       50
176
     0
290
     0
176
     0
 90
       50
176
     0
 62
   256
176
     0
 40
1.0
176
     0
 90
        2
176
     0
  1
strokes_ogs.tif
176
     0
290
     0
176
     0
 40
1.0
176
     0
 40
1.0
176
     0
1001
ACAD
1000
AcDbSavedByObjectVersion
1070
     0
  0
VISUALSTYLE
  5
A5D
102
{ACAD_REACTORS
330
A4F
102
}
330
A4F
100
AcDbVisualStyle
  2
Linepattern
 70
    14
177
     3
291
     1
 70
    58
 90
        2
176
     1
 90
        2
176
     1
 90
        0
176
     1
 90
        0
176
     1
 40
0.6
176
     1
 40
30.0
176
     1
 62
     7
420
 16777215
176
     1
 90
        1
176
     1
 90
        4
176
     1
 62
     7
176
     1
 62
   257
176
     1
 90
        7
176
     1
 90
        7
176
     1
 40
1.0
176
     1
 90
        8
176
     1
 62
     7
176
     1
 40
1.0
176
     1
 90
        1
176
     1
 90
        6
176
     1
 90
        2
176
     1
 62
     7
176
     1
 90
        5
176
     1
 90
        0
176
     1
 90
        0
176
     1
290
     0
176
     1
 90
        1
176
     1
 40
0.0
176
     1
 90
        0
176
     1
290
     0
176
     1
290
     1
176
     1
290
     1
176
     1
290
     0
176
     1
290
     0
176
     1
290
     0
176
     1
290
     0
176
     1
290
     0
176
     1
290
     0
176
     1
 90
       50
176
     1
 40
0.0
176
     1
 40
1.0
176
     1
 90
        0
176
     1
 62
    18
420
        0
176
     1
 90
       50
176
     1
 90
        3
176
     1
 62
     5
420
      255
176
     1
290
     0
176
     1
 90
       50
176
     1
 90
       50
176
     1
 90
       50
176
     1
290
     0
176
     1
 90
       50
176
     1
 62
   256
176
     0
 40
1.0
176
     0
 90
        2
176
     1
  1
strokes_ogs.tif
176
     1
290
     0
176
     1
 40
1.0
176
     1
 40
1.0
176
     1
1001
ACAD
1000
AcDbSavedByObjectVersion
1070
     0
  0
VISUALSTYLE
  5
CC7
102
{ACAD_REACTORS
330
A4F
102
}
330
A4F
100
AcDbVisualStyle
  2
OverhangOff
 70
    21
177
     3
291
     1
 70
    58
 90
        2
176
     0
 90
        2
176
     0
 90
        0
176
     0
 90
        0
176
     0
 40
0.6
176
     0
 40
30.0
176
     0
 62
     7
420
 16777215
176
     0
 90
        1
176
     0
 90
        4
176
     0
 62
     7
176
     0
 62
   257
176
     0
 90
        1
176
     0
 90
        1
176
     0
 40
1.0
176
     0
 90
        9
176
     2
 62
     7
176
     0
 40
1.0
176
     0
 90
        1
176
     0
 90
        6
176
     0
 90
        2
176
     0
 62
     7
176
     0
 90
        5
176
     0
 90
        0
176
     0
 90
        0
176
     0
290
     0
176
     0
 90
        1
176
     0
 40
0.0
176
     0
 90
        0
176
     0
290
     0
176
     0
290
     1
176
     0
290
     1
176
     0
290
     0
176
     0
290
     0
176
     0
290
     0
176
     0
290
     0
176
     0
290
     0
176
     0
290
     0
176
     0
 90
       50
176
     0
 40
0.0
176
     0
 40
1.0
176
     0
 90
        0
176
     0
 62
    18
420
        0
176
     0
 90
       50
176
     0
 90
        3
176
     0
 62
     5
420
      255
176
     0
290
     0
176
     0
 90
       50
176
     0
 90
       50
176
     0
 90
       50
176
     0
290
     0
176
     0
 90
       50
176
     0
 62
   256
176
     0
 40
1.0
176
     0
 90
        2
176
     0
  1
strokes_ogs.tif
176
     0
290
     0
176
     0
 40
1.0
176
     0
 40
1.0
176
     0
1001
ACAD
1000
AcDbSavedByObjectVersion
1070
     0
  0
VISUALSTYLE
  5
A59
102
{ACAD_REACTORS
330
A4F
102
}
330
A4F
100
AcDbVisualStyle
  2
Realistic
 70
     8
177
     3
291
     0
 70
    58
 90
        2
176
     1
 90
        2
176
     1
 90
        0
176
     1
 90
        0
176
     1
 40
0.6
176
     1
 40
30.0
176
     1
 62
     7
420
 16777215
176
     1
 90
        1
176
     1
 90
        0
176
     1
 62
     7
176
     1
 62
   257
176
     1
 90
        1
176
     1
 90
        1
176
     1
 40
1.0
176
     1
 90
        8
176
     1
 62
     8
420
  7895160
176
     1
 40
1.0
176
     1
 90
        1
176
     1
 90
        6
176
     1
 90
        2
176
     1
 62
     7
176
     1
 90
        5
176
     1
 90
        0
176
     1
 90
        0
176
     1
290
     0
176
     1
 90
       13
176
     1
 40
0.0
176
     1
 90
        0
176
     1
290
     0
176
     1
290
     1
176
     1
290
     1
176
     1
290
     0
176
     1
290
     0
176
     1
290
     0
176
     1
290
     0
176
     1
290
     0
176
     1
290
     0
176
     1
 90
       50
176
     1
 40
0.0
176
     1
 40
1.0
176
     1
 90
        0
176
     1
 62
    18
420
        0
176
     1
 90
       50
176
     1
 90
        3
176
     1
 62
     5
420
      255
176
     1
290
     0
176
     1
 90
       50
176
     1
 90
       50
176
     1
 90
       50
176
     1
290
     0
176
     1
 90
       50
176
     1
 62
   256
176
     0
 40
1.0
176
     0
 90
        2
176
     1
  1
strokes_ogs.tif
176
     1
290
     0
176
     1
 40
1.0
176
     1
 40
1.0
176
     1
1001
ACAD
1000
AcDbSavedByObjectVersion
1070
     0
  0
VISUALSTYLE
  5
CC5
102
{ACAD_REACTORS
330
A4F
102
}
330
A4F
100
AcDbVisualStyle
  2
Shaded
 70
    27
177
     3
291
     0
 70
    58
 90
        2
176
     1
 90
        2
176
     1
 90
        1
176
     1
 90
        2
176
     1
 40
0.6
176
     1
 40
30.0
176
     1
 62
     7
420
 16777215
176
     1
 90
        0
176
     1
 90
        4
176
     1
 62
     7
176
     1
 62
   257
176
     1
 90
        1
176
     1
 90
        1
176
     1
 40
1.0
176
     1
 90
        8
176
     1
 62
   257
176
     1
 40
1.0
176
     1
 90
        1
176
     1
 90
        6
176
     1
 90
        2
176
     1
 62
     8
420
  7895160
176
     1
 90
        3
176
     1
 90
        0
176
     1
 90
        0
176
     1
290
     0
176
     1
 90
        5
176
     1
 40
0.0
176
     1
 90
        0
176
     1
290
     0
176
     1
290
     1
176
     1
290
     1
176
     1
290
     0
176
     1
290
     0
176
     1
290
     0
176
     1
290
     0
176
     1
290
     0
176
     1
290
     0
176
     1
 90
       50
176
     1
 40
0.0
176
     1
 40
1.0
176
     1
 90
        0
176
     1
 62
    18
420
        0
176
     1
 90
       50
176
     1
 90
        3
176
     1
 62
     5
420
      255
176
     1
290
     0
176
     1
 90
       50
176
     1
 90
       50
176
     1
 90
       50
176
     1
290
     0
176
     1
 90
       50
176
     1
 62
   256
176
     0
 40
1.0
176
     0
 90
        2
176
     1
  1
strokes_ogs.tif
176
     1
290
     0
176
     1
 40
1.0
176
     1
 40
1.0
176
     1
1001
ACAD
1000
AcDbSavedByObjectVersion
1070
     0
  0
VISUALSTYLE
  5
CC4
102
{ACAD_REACTORS
330
A4F
102
}
330
A4F
100
AcDbVisualStyle
  2
Shaded with edges
 70
    26
177
     3
291
     0
 70
    58
 90
        2
176
     1
 90
        2
176
     1
 90
        1
176
     1
 90
        2
176
     1
 40
0.6
176
     1
 40
30.0
176
     1
 62
     7
420
 16777215
176
     1
 90
        1
176
     1
 90
        2
176
     1
 62
     7
176
     1
 62
   257
176
     1
 90
        2
176
     1
 90
        1
176
     1
 40
1.0
176
     1
 90
        8
176
     1
 62
   257
176
     1
 40
1.0
176
     1
 90
        1
176
     1
 90
        6
176
     1
 90
        2
176
     1
 62
     7
176
     1
 90
        3
176
     1
 90
        0
176
     1
 90
        0
176
     1
290
     0
176
     1
 90
        5
176
     1
 40
0.0
176
     1
 90
        0
176
     1
290
     0
176
     1
290
     1
176
     1
290
     1
176
     1
290
     0
176
     1
290
     0
176
     1
290
     0
176
     1
290
     0
176
     1
290
     0
176
     1
290
     0
176
     1
 90
       50
176
     1
 40
0.0
176
     1
 40
1.0
176
     1
 90
        0
176
     1
 62
    18
420
        0
176
     1
 90
       50
176
     1
 90
        3
176
     1
 62
     5
420
      255
176
     1
290
     0
176
     1
 90
       50
176
     1
 90
       50
176
     1
 90
       50
176
     1
290
     0
176
     1
 90
       50
176
     1
 62
   256
176
     0
 40
1.0
176
     0
 90
        2
176
     1
  1
strokes_ogs.tif
176
     1
290
     0
176
     1
 40
1.0
176
     1
 40
1.0
176
     1
1001
ACAD
1000
AcDbSavedByObjectVersion
1070
     0
  0
VISUALSTYLE
  5
CC1
102
{ACAD_REACTORS
330
A4F
102
}
330
A4F
100
AcDbVisualStyle
  2
Shades of Gray
 70
    23
177
     3
291
     0
 70
    58
 90
        2
176
     1
 90
        2
176
     1
 90
        3
176
     1
 90
        0
176
     1
 40
0.6
176
     1
 40
30.0
176
     1
 62
     7
420
 16777215
176
     1
 90
        2
176
     1
 90
        2
176
     1
 62
     7
176
     1
 62
     7
176
     1
 90
        1
176
     1
 90
        1
176
     1
 40
40.0
176
     1
 90
        8
176
     1
 62
     7
176
     1
 40
1.0
176
     1
 90
        1
176
     1
 90
        6
176
     1
 90
        2
176
     1
 62
     7
176
     1
 90
        3
176
     1
 90
        0
176
     1
 90
        0
176
     1
290
     0
176
     1
 90
        1
176
     1
 40
0.0
176
     1
 90
        0
176
     1
290
     0
176
     1
290
     1
176
     1
290
     1
176
     1
290
     0
176
     1
290
     0
176
     1
290
     0
176
     1
290
     0
176
     1
290
     0
176
     1
290
     0
176
     1
 90
       50
176
     1
 40
0.0
176
     1
 40
1.0
176
     1
 90
        0
176
     1
 62
    18
420
        0
176
     1
 90
       50
176
     1
 90
        3
176
     1
 62
     5
420
      255
176
     1
290
     0
176
     1
 90
       50
176
     1
 90
       50
176
     1
 90
       50
176
     1
290
     0
176
     1
 90
       50
176
     1
 62
   256
176
     0
 40
1.0
176
     0
 90
        2
176
     1
  1
strokes_ogs.tif
176
     1
290
     0
176
     1
 40
1.0
176
     1
 40
1.0
176
     1
1001
ACAD
1000
AcDbSavedByObjectVersion
1070
     0
  0
VISUALSTYLE
  5
CC2
102
{ACAD_REACTORS
330
A4F
102
}
330
A4F
100
AcDbVisualStyle
  2
Sketchy
 70
    24
177
     3
291
     0
 70
    58
 90
        1
176
     1
 90
        2
176
     1
 90
        2
176
     1
 90
        0
176
     1
 40
0.6
176
     1
 40
30.0
176
     1
 62
     7
420
 16777215
176
     1
 90
        2
176
     1
 90
        2
176
     1
 62
     7
176
     1
 62
     7
176
     1
 90
        1
176
     1
 90
        1
176
     1
 40
40.0
176
     1
 90
       11
176
     1
 62
     7
176
     1
 40
1.0
176
     1
 90
        1
176
     1
 90
        6
176
     1
 90
        2
176
     1
 62
     7
176
     1
 90
        6
176
     1
 90
        0
176
     1
 90
        0
176
     1
290
     0
176
     1
 90
        1
176
     1
 40
0.0
176
     1
 90
        0
176
     1
290
     0
176
     1
290
     1
176
     1
290
     1
176
     1
290
     0
176
     1
290
     0
176
     1
290
     0
176
     1
290
     0
176
     1
290
     0
176
     1
290
     0
176
     1
 90
       50
176
     1
 40
0.0
176
     1
 40
1.0
176
     1
 90
        0
176
     1
 62
    18
420
        0
176
     1
 90
       50
176
     1
 90
        3
176
     1
 62
     5
420
      255
176
     1
290
     0
176
     1
 90
       50
176
     1
 90
       50
176
     1
 90
       50
176
     1
290
     0
176
     1
 90
       50
176
     1
 62
   256
176
     0
 40
1.0
176
     0
 90
        2
176
     1
  1
strokes_ogs.tif
176
     1
290
     0
176
     1
 40
1.0
176
     1
 40
1.0
176
     1
1001
ACAD
1000
AcDbSavedByObjectVersion
1070
     0
  0
VISUALSTYLE
  5
A5C
102
{ACAD_REACTORS
330
A4F
102
}
330
A4F
100
AcDbVisualStyle
  2
Thicken
 70
    13
177
     3
291
     1
 70
    58
 90
        2
176
     1
 90
        2
176
     1
 90
        0
176
     1
 90
        0
176
     1
 40
0.6
176
     1
 40
30.0
176
     1
 62
     7
420
 16777215
176
     1
 90
        1
176
     1
 90
        4
176
     1
 62
     7
176
     1
 62
   257
176
     1
 90
        1
176
     1
 90
        1
176
     1
 40
1.0
176
     1
 90
       12
176
     1
 62
     7
176
     1
 40
1.0
176
     1
 90
        1
176
     1
 90
        6
176
     1
 90
        2
176
     1
 62
     7
176
     1
 90
        5
176
     1
 90
        0
176
     1
 90
        0
176
     1
290
     0
176
     1
 90
        1
176
     1
 40
0.0
176
     1
 90
        0
176
     1
290
     0
176
     1
290
     1
176
     1
290
     1
176
     1
290
     0
176
     1
290
     0
176
     1
290
     0
176
     1
290
     0
176
     1
290
     0
176
     1
290
     0
176
     1
 90
       50
176
     1
 40
0.0
176
     1
 40
1.0
176
     1
 90
        0
176
     1
 62
    18
420
        0
176
     1
 90
       50
176
     1
 90
        3
176
     1
 62
     5
420
      255
176
     1
290
     0
176
     1
 90
       50
176
     1
 90
       50
176
     1
 90
       50
176
     1
290
     0
176
     1
 90
       50
176
     1
 62
   256
176
     0
 40
1.0
176
     0
 90
        2
176
     1
  1
strokes_ogs.tif
176
     1
290
     0
176
     1
 40
1.0
176
     1
 40
1.0
176
     1
1001
ACAD
1000
AcDbSavedByObjectVersion
1070
     0
  0
VISUALSTYLE
  5
CBF
102
{ACAD_REACTORS
330
A4F
102
}
330
A4F
100
AcDbVisualStyle
  2
Wireframe
 70
     5
177
     3
291
     0
 70
    58
 90
        0
176
     1
 90
        2
176
     1
 90
        0
176
     1
 90
        0
176
     1
 40
0.6
176
     1
 40
30.0
176
     1
 62
     7
420
 16777215
176
     1
 90
        1
176
     1
 90
        4
176
     1
 62
     7
176
     1
 62
   257
176
     1
 90
        1
176
     1
 90
        1
176
     1
 40
1.0
176
     1
 90
        0
176
     1
 62
   257
176
     1
 40
1.0
176
     1
 90
        1
176
     1
 90
        6
176
     1
 90
        2
176
     1
 62
     7
176
     1
 90
        3
176
     1
 90
        0
176
     1
 90
        0
176
     1
290
     0
176
     1
 90
        1
176
     1
 40
0.0
176
     1
 90
        0
176
     1
290
     0
176
     1
290
     1
176
     1
290
     1
176
     1
290
     0
176
     1
290
     0
176
     1
290
     0
176
     1
290
     0
176
     1
290
     0
176
     1
290
     0
176
     1
 90
       50
176
     1
 40
0.0
176
     1
 40
1.0
176
     1
 90
        0
176
     1
 62
    18
420
        0
176
     1
 90
       50
176
     1
 90
        3
176
     1
 62
     5
420
      255
176
     1
290
     0
176
     1
 90
       50
176
     1
 90
       50
176
     1
 90
       50
176
     1
290
     0
176
     1
 90
       50
176
     1
 62
   256
176
     0
 40
1.0
176
     0
 90
        2
176
     1
  1
strokes_ogs.tif
176
     1
290
     0
176
     1
 40
1.0
176
     1
 40
1.0
176
     1
1001
ACAD
1000
AcDbSavedByObjectVersion
1070
     0
  0
VISUALSTYLE
  5
CC3
102
{ACAD_REACTORS
330
A4F
102
}
330
A4F
100
AcDbVisualStyle
  2
X-Ray
 70
    25
177
     3
291
     0
 70
    58
 90
        2
176
     1
 90
        2
176
     1
 90
        1
176
     1
 90
        1
176
     1
 40
0.5
176
     1
 40
30.0
176
     1
 62
     7
420
 16777215
176
     1
 90
        1
176
     1
 90
        0
176
     1
 62
     7
176
     1
 62
   257
176
     1
 90
        1
176
     1
 90
        1
176
     1
 40
1.0
176
     1
 90
        8
176
     1
 62
     7
176
     1
 40
1.0
176
     1
 90
        1
176
     1
 90
        6
176
     1
 90
        2
176
     1
 62
     7
176
     1
 90
        3
176
     1
 90
        0
176
     1
 90
        0
176
     1
290
     0
176
     1
 90
       13
176
     1
 40
0.0
176
     1
 90
        0
176
     1
290
     0
176
     1
290
     1
176
     1
290
     1
176
     1
290
     0
176
     1
290
     0
176
     1
290
     0
176
     1
290
     0
176
     1
290
     0
176
     1
290
     0
176
     1
 90
       50
176
     1
 40
0.0
176
     1
 40
1.0
176
     1
 90
        0
176
     1
 62
    18
420
        0
176
     1
 90
       50
176
     1
 90
        3
176
     1
 62
     5
420
      255
176
     1
290
     0
176
     1
 90
       50
176
     1
 90
       50
176
     1
 90
       50
176
     1
290
     0
176
     1
 90
       50
176
     1
 62
   256
176
     0
 40
1.0
176
     0
 90
        2
176
     1
  1
strokes_ogs.tif
176
     1
290
     0
176
     1
 40
1.0
176
     1
 40
1.0
176
     1
1001
ACAD
1000
AcDbSavedByObjectVersion
1070
     0
  0
DICTIONARYVAR
  5
AF4
102
{ACAD_REACTORS
330
5D
102
}
330
5D
100
DictionaryVariables
280
     0
  1
1:1
  0
DICTIONARYVAR
  5
AF2
102
{ACAD_REACTORS
330
5D
102
}
330
5D
100
DictionaryVariables
280
     0
  1
STANDARD
  0
DICTIONARYVAR
  5
66F
102
{ACAD_REACTORS
330
5D
102
}
330
5D
100
DictionaryVariables
280
     0
  1
STANDARD
  0
DICTIONARYVAR
  5
FFA
102
{ACAD_REACTORS
330
5D
102
}
330
5D
100
DictionaryVariables
280
     0
  1
Metric50
  0
DICTIONARYVAR
  5
FFB
102
{ACAD_REACTORS
330
5D
102
}
330
5D
100
DictionaryVariables
280
     0
  1
Metric50
  0
DICTIONARYVAR
  5
5E
102
{ACAD_REACTORS
330
5D
102
}
330
5D
100
DictionaryVariables
280
     0
  1
0
  0
DICTIONARYVAR
  5
3C7
102
{ACAD_REACTORS
330
5D
102
}
330
5D
100
DictionaryVariables
280
     0
  1
1
  0
DICTIONARYVAR
  5
128
102
{ACAD_REACTORS
330
5D
102
}
330
5D
100
DictionaryVariables
280
     0
  1
1
  0
DICTIONARYVAR
  5
AF6
102
{ACAD_REACTORS
330
5D
102
}
330
5D
100
DictionaryVariables
280
     0
  1
1
  0
DICTIONARYVAR
  5
AF7
102
{ACAD_REACTORS
330
5D
102
}
330
5D
100
DictionaryVariables
280
     0
  1
15
  0
DICTIONARYVAR
  5
AF5
102
{ACAD_REACTORS
330
5D
102
}
330
5D
100
DictionaryVariables
280
     0
  1
0
  0
DICTIONARYVAR
  5
AF3
102
{ACAD_REACTORS
330
5D
102
}
330
5D
100
DictionaryVariables
280
     0
  1
0
  0
DICTIONARY
  5
43DA
102
{ACAD_REACTORS
330
43D8
102
}
330
43D8
100
AcDbDictionary
281
     1
  0
DICTIONARY
  5
43D9
102
{ACAD_REACTORS
330
43D8
102
}
330
43D8
100
AcDbDictionary
281
     1
  3
2785972481440
350
43D2
  3
2785972481456
350
43D3
  3
2785972481472
350
43D4
  3
2785972481488
350
43D5
  3
2785972481504
350
43D6
  3
2785972481520
350
43D7
  0
DICTIONARY
  5
143
102
{ACAD_REACTORS
330
142
102
}
330
142
100
AcDbDictionary
281
     1
  0
XRECORD
  5
47D
102
{ACAD_REACTORS
330
142
102
}
330
142
100
AcDbXrecord
280
     1
 90
-1056964608
  0
XRECORD
  5
84B
102
{ACAD_REACTORS
330
849
102
}
330
849
100
AcDbXrecord
280
     1
  0
DICTIONARY
  5
13F3
102
{ACAD_REACTORS
330
13F2
102
}
330
13F2
100
AcDbDictionary
281
     1
  3
_HasBOM
350
13F9
  3
Comment
350
13F8
  3
Folder
350
13F7
  3
GEN-TITLE-DES1
350
13F5
  3
GEN-TITLE-DES2
350
13F6
  3
GEN-TITLE-NR
350
13F4
  0
LAYER_INDEX
  5
403F
102
{ACAD_REACTORS
330
403E
102
}
330
403E
100
AcDbIndex
 40
2458904.528009259
100
AcDbLayerIndex
  8
0
360
4040
 90
        0
  8
AM_0
360
4041
 90
        1
  8
Visible Edges(Roxtec)
360
4042
 90
        0
  8
Visible Edges(ISO)
360
4043
 90
        0
  8
Defpoints
360
4044
 90
        0
  8
DIM
360
4045
 90
        0
  0
DICTIONARY
  5
43E1
330
10E8
100
AcDbDictionary
280
     1
281
     1
  3
ACAD_XREC_ROUNDTRIP
360
43E2
  0
DICTIONARY
  5
43DD
330
CCC
100
AcDbDictionary
280
     1
281
     1
  3
ACAD_XREC_ROUNDTRIP
360
43DE
  0
DICTIONARY
  5
1474
330
169
100
AcDbDictionary
280
     1
281
     1
  0
DICTIONARY
  5
A40
330
A3F
100
AcDbDictionary
280
     1
281
     1
  3
BUMPTILE
360
A42
  3
DIFFUSETILE
360
A41
  3
OPACITYTILE
360
A45
  3
REFLECTIONTILE
360
A44
  3
REFRACTIONTILE
360
A46
  3
SPECULARTILE
360
A43
  0
DICTIONARY
  5
A38
330
A37
100
AcDbDictionary
280
     1
281
     1
  3
BUMPTILE
360
A3A
  3
DIFFUSETILE
360
A39
  3
OPACITYTILE
360
A3D
  3
REFLECTIONTILE
360
A3C
  3
REFRACTIONTILE
360
A3E
  3
SPECULARTILE
360
A3B
  0
DICTIONARY
  5
A48
330
A47
100
AcDbDictionary
280
     1
281
     1
  3
BUMPTILE
360
A4A
  3
DIFFUSETILE
360
A49
  3
OPACITYTILE
360
A4D
  3
REFLECTIONTILE
360
A4C
  3
REFRACTIONTILE
360
A4E
  3
SPECULARTILE
360
A4B
  0
DICTIONARY
  5
1497
330
A73
100
AcDbDictionary
280
     1
281
     1
  3
ACAD_XREC_ROUNDTRIP
360
1498
  0
DICTIONARY
  5
43DF
330
10E5
100
AcDbDictionary
280
     1
281
     1
  3
ACAD_XREC_ROUNDTRIP
360
43E0
  0
DICTIONARY
  5
43DB
330
CCA
100
AcDbDictionary
280
     1
281
     1
  3
ACAD_XREC_ROUNDTRIP
360
43DC
  0
DICTIONARY
  5
AED
330
651
100
AcDbDictionary
280
     1
281
     1
  3
ACAD_ROUNDTRIP_2008_TABLESTYLE_CELLSTYLEMAP
360
43D0
  0
XRECORD
  5
43D2
102
{ACAD_REACTORS
330
43D9
102
}
330
43D9
100
AcDbXrecord
280
     1
  1
AcDb3DSolid_ASM_Data
102
{ATTRRECORD
341
43D4
  2
AcDbDs::TreatedAsObjectData
280
     1
291
     1
102
ATTRRECORD}
102
{ATTRRECORD
341
43D5
  2
AcDbDs::Legacy
280
     1
291
     1
102
ATTRRECORD}
  2
AcDbDs::ID
280
    10
 91
        8
102
{ATTRRECORD
341
43D6
  2
AcDs:Indexable
280
     1
291
     1
102
ATTRRECORD}
102
{ATTRRECORD
341
43D7
  2
AcDbDs::HandleAttribute
280
     7
282
     1
102
ATTRRECORD}
  2
ASM_Data
280
    15
 91
        0
  0
XRECORD
  5
43D3
102
{ACAD_REACTORS
330
43D9
102
}
330
43D9
100
AcDbXrecord
280
     1
  1
AcDb_Thumbnail_Schema
102
{ATTRRECORD
341
43D4
  2
AcDbDs::TreatedAsObjectData
280
     1
291
     1
102
ATTRRECORD}
102
{ATTRRECORD
341
43D5
  2
AcDbDs::Legacy
280
     1
291
     1
102
ATTRRECORD}
  2
AcDbDs::ID
280
    10
 91
        8
102
{ATTRRECORD
341
43D6
  2
AcDs:Indexable
280
     1
291
     1
102
ATTRRECORD}
102
{ATTRRECORD
341
43D7
  2
AcDbDs::HandleAttribute
280
     7
282
     1
102
ATTRRECORD}
  2
Thumbnail_Data
280
    15
 91
        0
  0
XRECORD
  5
43D4
102
{ACAD_REACTORS
330
43D9
102
}
330
43D9
100
AcDbXrecord
280
     1
  1
AcDbDs::TreatedAsObjectDataSchema
  2
AcDbDs::TreatedAsObjectData
280
     1
 91
        0
  0
XRECORD
  5
43D5
102
{ACAD_REACTORS
330
43D9
102
}
330
43D9
100
AcDbXrecord
280
     1
  1
AcDbDs::LegacySchema
  2
AcDbDs::Legacy
280
     1
 91
        0
  0
XRECORD
  5
43D6
102
{ACAD_REACTORS
330
43D9
102
}
330
43D9
100
AcDbXrecord
280
     1
  1
AcDbDs::IndexedPropertySchema
  2
AcDs:Indexable
280
     1
 91
        0
  0
XRECORD
  5
43D7
102
{ACAD_REACTORS
330
43D9
102
}
330
43D9
100
AcDbXrecord
280
     1
  1
AcDbDs::HandleAttributeSchema
  2
AcDbDs::HandleAttribute
280
     7
 91
        1
284
     1
  0
XRECORD
  5
13F9
102
{ACAD_REACTORS
330
13F3
102
}
330
13F3
100
AcDbXrecord
280
     1
  1
_HasBOM
  1
False
  0
XRECORD
  5
13F8
102
{ACAD_REACTORS
330
13F3
102
}
330
13F3
100
AcDbXrecord
280
     1
  1
Comment
  1

  0
XRECORD
  5
13F7
102
{ACAD_REACTORS
330
13F3
102
}
330
13F3
100
AcDbXrecord
280
     1
  1
Folder
  1

  0
XRECORD
  5
13F5
102
{ACAD_REACTORS
330
13F3
102
}
330
13F3
100
AcDbXrecord
280
     1
  1
GEN-TITLE-DES1
  1

  0
XRECORD
  5
13F6
102
{ACAD_REACTORS
330
13F3
102
}
330
13F3
100
AcDbXrecord
280
     1
  1
GEN-TITLE-DES2
  1

  0
XRECORD
  5
13F4
102
{ACAD_REACTORS
330
13F3
102
}
330
13F3
100
AcDbXrecord
280
     1
  1
GEN-TITLE-NR
  1

  0
IDBUFFER
  5
4040
330
0
100
AcDbIdBuffer
  0
IDBUFFER
  5
4041
330
0
100
AcDbIdBuffer
330
3C02
  0
IDBUFFER
  5
4042
330
0
100
AcDbIdBuffer
  0
IDBUFFER
  5
4043
330
0
100
AcDbIdBuffer
  0
IDBUFFER
  5
4044
330
0
100
AcDbIdBuffer
  0
IDBUFFER
  5
4045
330
0
100
AcDbIdBuffer
  0
XRECORD
  5
43E2
102
{ACAD_REACTORS
330
43E1
102
}
330
43E1
100
AcDbXrecord
280
     1
102
DISPLAYNAME
  1
Imperial24
102
FLAGS
 90
        0
  0
XRECORD
  5
43DE
102
{ACAD_REACTORS
330
43DD
102
}
330
43DD
100
AcDbXrecord
280
     1
102
DISPLAYNAME
  1
Metric50
102
FLAGS
 90
        0
  0
XRECORD
  5
A42
102
{ACAD_REACTORS
330
A40
102
}
330
A40
100
AcDbXrecord
280
     1
270
     1
271
     1
  0
XRECORD
  5
A41
102
{ACAD_REACTORS
330
A40
102
}
330
A40
100
AcDbXrecord
280
     1
270
     1
271
     1
  0
XRECORD
  5
A45
102
{ACAD_REACTORS
330
A40
102
}
330
A40
100
AcDbXrecord
280
     1
270
     1
271
     1
  0
XRECORD
  5
A44
102
{ACAD_REACTORS
330
A40
102
}
330
A40
100
AcDbXrecord
280
     1
270
     1
271
     1
  0
XRECORD
  5
A46
102
{ACAD_REACTORS
330
A40
102
}
330
A40
100
AcDbXrecord
280
     1
270
     1
271
     1
  0
XRECORD
  5
A43
102
{ACAD_REACTORS
330
A40
102
}
330
A40
100
AcDbXrecord
280
     1
270
     1
271
     1
  0
XRECORD
  5
A3A
102
{ACAD_REACTORS
330
A38
102
}
330
A38
100
AcDbXrecord
280
     1
270
     1
271
     1
  0
XRECORD
  5
A39
102
{ACAD_REACTORS
330
A38
102
}
330
A38
100
AcDbXrecord
280
     1
270
     1
271
     1
  0
XRECORD
  5
A3D
102
{ACAD_REACTORS
330
A38
102
}
330
A38
100
AcDbXrecord
280
     1
270
     1
271
     1
  0
XRECORD
  5
A3C
102
{ACAD_REACTORS
330
A38
102
}
330
A38
100
AcDbXrecord
280
     1
270
     1
271
     1
  0
XRECORD
  5
A3E
102
{ACAD_REACTORS
330
A38
102
}
330
A38
100
AcDbXrecord
280
     1
270
     1
271
     1
  0
XRECORD
  5
A3B
102
{ACAD_REACTORS
330
A38
102
}
330
A38
100
AcDbXrecord
280
     1
270
     1
271
     1
  0
XRECORD
  5
A4A
102
{ACAD_REACTORS
330
A48
102
}
330
A48
100
AcDbXrecord
280
     1
270
     1
271
     1
  0
XRECORD
  5
A49
102
{ACAD_REACTORS
330
A48
102
}
330
A48
100
AcDbXrecord
280
     1
270
     1
271
     1
  0
XRECORD
  5
A4D
102
{ACAD_REACTORS
330
A48
102
}
330
A48
100
AcDbXrecord
280
     1
270
     1
271
     1
  0
XRECORD
  5
A4C
102
{ACAD_REACTORS
330
A48
102
}
330
A48
100
AcDbXrecord
280
     1
270
     1
271
     1
  0
XRECORD
  5
A4E
102
{ACAD_REACTORS
330
A48
102
}
330
A48
100
AcDbXrecord
280
     1
270
     1
271
     1
  0
XRECORD
  5
A4B
102
{ACAD_REACTORS
330
A48
102
}
330
A48
100
AcDbXrecord
280
     1
270
     1
271
     1
  0
XRECORD
  5
1498
102
{ACAD_REACTORS
330
1497
102
}
330
1497
100
AcDbXrecord
280
     1
102
ACAD_ROUNDTRIP_2012_MLEADER_STYLE
298
     1
  0
XRECORD
  5
43E0
102
{ACAD_REACTORS
330
43DF
102
}
330
43DF
100
AcDbXrecord
280
     1
102
DISPLAYNAME
  1
Imperial24
102
FLAGS
 90
        0
  0
XRECORD
  5
43DC
102
{ACAD_REACTORS
330
43DB
102
}
330
43DB
100
AcDbXrecord
280
     1
102
DISPLAYNAME
  1
Metric50
102
FLAGS
 90
        0
  0
CELLSTYLEMAP
  5
43D0
102
{ACAD_REACTORS
330
AED
102
}
330
AED
100
AcDbCellStyleMap
 90
        3
300
CELLSTYLE
  1
TABLEFORMAT_BEGIN
 90
        5
170
     1
 91
        0
 92
    32768
 62
   257
 93
        1
300
CONTENTFORMAT
  1
CONTENTFORMAT_BEGIN
 90
        0
 91
        0
 92
        4
 93
        0
300

 40
0.0
140
1.0
 94
        5
 62
     0
340
10
144
6.0
309
CONTENTFORMAT_END
171
     1
301
MARGIN
  1
CELLMARGIN_BEGIN
 40
1.5
 40
1.5
 40
1.5
 40
1.5
 40
0.18
 40
0.18
309
CELLMARGIN_END
 94
        6
 95
        1
302
GRIDFORMAT
  1
GRIDFORMAT_BEGIN
 90
        0
 91
        1
 62
     0
 92
       -2
340
0
 93
        0
 40
0.045
309
GRIDFORMAT_END
 95
        2
302
GRIDFORMAT
  1
GRIDFORMAT_BEGIN
 90
        0
 91
        1
 62
     0
 92
       -2
340
0
 93
        0
 40
0.045
309
GRIDFORMAT_END
 95
        4
302
GRIDFORMAT
  1
GRIDFORMAT_BEGIN
 90
        0
 91
        1
 62
     0
 92
       -2
340
0
 93
        0
 40
0.045
309
GRIDFORMAT_END
 95
        8
302
GRIDFORMAT
  1
GRIDFORMAT_BEGIN
 90
        0
 91
        1
 62
     0
 92
       -2
340
0
 93
        0
 40
0.045
309
GRIDFORMAT_END
 95
       16
302
GRIDFORMAT
  1
GRIDFORMAT_BEGIN
 90
        0
 91
        1
 62
     0
 92
       -2
340
0
 93
        0
 40
0.045
309
GRIDFORMAT_END
 95
       32
302
GRIDFORMAT
  1
GRIDFORMAT_BEGIN
 90
        0
 91
        1
 62
     0
 92
       -2
340
0
 93
        0
 40
0.045
309
GRIDFORMAT_END
309
TABLEFORMAT_END
  1
CELLSTYLE_BEGIN
 90
        1
 91
        1
300
_TITLE
309
CELLSTYLE_END
300
CELLSTYLE
  1
TABLEFORMAT_BEGIN
 90
        5
170
     1
 91
        0
 92
        0
 62
   257
 93
        1
300
CONTENTFORMAT
  1
CONTENTFORMAT_BEGIN
 90
        0
 91
        0
 92
        4
 93
        0
300

 40
0.0
140
1.0
 94
        5
 62
     0
340
10
144
4.5
309
CONTENTFORMAT_END
171
     1
301
MARGIN
  1
CELLMARGIN_BEGIN
 40
1.5
 40
1.5
 40
1.5
 40
1.5
 40
0.18
 40
0.18
309
CELLMARGIN_END
 94
        6
 95
        1
302
GRIDFORMAT
  1
GRIDFORMAT_BEGIN
 90
        0
 91
        1
 62
     0
 92
       -2
340
0
 93
        0
 40
0.045
309
GRIDFORMAT_END
 95
        2
302
GRIDFORMAT
  1
GRIDFORMAT_BEGIN
 90
        0
 91
        1
 62
     0
 92
       -2
340
0
 93
        0
 40
0.045
309
GRIDFORMAT_END
 95
        4
302
GRIDFORMAT
  1
GRIDFORMAT_BEGIN
 90
        0
 91
        1
 62
     0
 92
       -2
340
0
 93
        0
 40
0.045
309
GRIDFORMAT_END
 95
        8
302
GRIDFORMAT
  1
GRIDFORMAT_BEGIN
 90
        0
 91
        1
 62
     0
 92
       -2
340
0
 93
        0
 40
0.045
309
GRIDFORMAT_END
 95
       16
302
GRIDFORMAT
  1
GRIDFORMAT_BEGIN
 90
        0
 91
        1
 62
     0
 92
       -2
340
0
 93
        0
 40
0.045
309
GRIDFORMAT_END
 95
       32
302
GRIDFORMAT
  1
GRIDFORMAT_BEGIN
 90
        0
 91
        1
 62
     0
 92
       -2
340
0
 93
        0
 40
0.045
309
GRIDFORMAT_END
309
TABLEFORMAT_END
  1
CELLSTYLE_BEGIN
 90
        2
 91
        1
300
_HEADER
309
CELLSTYLE_END
300
CELLSTYLE
  1
TABLEFORMAT_BEGIN
 90
        5
170
     1
 91
        0
 92
        0
 62
   257
 93
        1
300
CONTENTFORMAT
  1
CONTENTFORMAT_BEGIN
 90
        0
 91
        0
 92
        4
 93
        0
300

 40
0.0
140
1.0
 94
        2
 62
     0
340
10
144
4.5
309
CONTENTFORMAT_END
171
     1
301
MARGIN
  1
CELLMARGIN_BEGIN
 40
1.5
 40
1.5
 40
1.5
 40
1.5
 40
0.18
 40
0.18
309
CELLMARGIN_END
 94
        6
 95
        1
302
GRIDFORMAT
  1
GRIDFORMAT_BEGIN
 90
        0
 91
        1
 62
     0
 92
       -2
340
0
 93
        0
 40
0.045
309
GRIDFORMAT_END
 95
        2
302
GRIDFORMAT
  1
GRIDFORMAT_BEGIN
 90
        0
 91
        1
 62
     0
 92
       -2
340
0
 93
        0
 40
0.045
309
GRIDFORMAT_END
 95
        4
302
GRIDFORMAT
  1
GRIDFORMAT_BEGIN
 90
        0
 91
        1
 62
     0
 92
       -2
340
0
 93
        0
 40
0.045
309
GRIDFORMAT_END
 95
        8
302
GRIDFORMAT
  1
GRIDFORMAT_BEGIN
 90
        0
 91
        1
 62
     0
 92
       -2
340
0
 93
        0
 40
0.045
309
GRIDFORMAT_END
 95
       16
302
GRIDFORMAT
  1
GRIDFORMAT_BEGIN
 90
        0
 91
        1
 62
     0
 92
       -2
340
0
 93
        0
 40
0.045
309
GRIDFORMAT_END
 95
       32
302
GRIDFORMAT
  1
GRIDFORMAT_BEGIN
 90
        0
 91
        1
 62
     0
 92
       -2
340
0
 93
        0
 40
0.045
309
GRIDFORMAT_END
309
TABLEFORMAT_END
  1
CELLSTYLE_BEGIN
 90
        3
 91
        2
300
_DATA
309
CELLSTYLE_END
  0
ENDSEC
  0
SECTION
  2
ACDSDATA
 70
     2
 71
     8
  0
ACDSSCHEMA
 90
        0
  1
AcDb3DSolid_ASM_Data
  2
AcDbDs::ID
280
    10
 91
        8
  2
ASM_Data
280
    15
 91
        0
101
ACDSRECORD
 95
        0
 90
        2
  2
AcDbDs::TreatedAsObjectData
280
     1
291
     1
101
ACDSRECORD
 95
        0
 90
        3
  2
AcDbDs::Legacy
280
     1
291
     1
101
ACDSRECORD
  1
AcDbDs::ID
 90
        4
  2
AcDs:Indexable
280
     1
291
     1
101
ACDSRECORD
  1
AcDbDs::ID
 90
        5
  2
AcDbDs::HandleAttribute
280
     7
282
     1
  0
ACDSSCHEMA
 90
        1
  1
AcDb_Thumbnail_Schema
  2
AcDbDs::ID
280
    10
 91
        8
  2
Thumbnail_Data
280
    15
 91
        0
101
ACDSRECORD
 95
        1
 90
        2
  2
AcDbDs::TreatedAsObjectData
280
     1
291
     1
101
ACDSRECORD
 95
        1
 90
        3
  2
AcDbDs::Legacy
280
     1
291
     1
101
ACDSRECORD
  1
AcDbDs::ID
 90
        4
  2
AcDs:Indexable
280
     1
291
     1
101
ACDSRECORD
  1
AcDbDs::ID
 90
        5
  2
AcDbDs::HandleAttribute
280
     7
282
     1
  0
ACDSSCHEMA
 90
        2
  1
AcDbDs::TreatedAsObjectDataSchema
  2
AcDbDs::TreatedAsObjectData
280
     1
 91
        0
  0
ACDSSCHEMA
 90
        3
  1
AcDbDs::LegacySchema
  2
AcDbDs::Legacy
280
     1
 91
        0
  0
ACDSSCHEMA
 90
        4
  1
AcDbDs::IndexedPropertySchema
  2
AcDs:Indexable
280
     1
 91
        0
  0
ACDSSCHEMA
 90
        5
  1
AcDbDs::HandleAttributeSchema
  2
AcDbDs::HandleAttribute
280
     7
 91
        1
284
     1
  0
ACDSRECORD
 90
        1
  2
AcDbDs::ID
280
    10
320
2CA4
  2
Thumbnail_Data
280
    15
 94
      907
310
89504E470D0A1A0A0000000D4948445200000100000000BF08030000002647F24000000300504C5445212830000000C8C8C80000000000000000000000000000000000000000000000000000330000660000990000CC0000FF0033000033330033660033990033CC0033FF0066000066330066660066990066CC0066FF0099
310
000099330099660099990099CC0099FF00CC0000CC3300CC6600CC9900CCCC00CCFF00FF0000FF3300FF6600FF9900FFCC00FFFF3300003300333300663300993300CC3300FF3333003333333333663333993333CC3333FF3366003366333366663366993366CC3366FF3399003399333399663399993399CC3399FF33CC00
310
33CC3333CC6633CC9933CCCC33CCFF33FF0033FF3333FF6633FF9933FFCC33FFFF6600006600336600666600996600CC6600FF6633006633336633666633996633CC6633FF6666006666336666666666996666CC6666FF6699006699336699666699996699CC6699FF66CC0066CC3366CC6666CC9966CCCC66CCFF66FF0066
310
FF3366FF6666FF9966FFCC66FFFF9900009900339900669900999900CC9900FF9933009933339933669933999933CC9933FF9966009966339966669966999966CC9966FF9999009999339999669999999999CC9999FF99CC0099CC3399CC6699CC9999CCCC99CCFF99FF0099FF3399FF6699FF9999FFCC99FFFFCC0000CC00
310
33CC0066CC0099CC00CCCC00FFCC3300CC3333CC3366CC3399CC33CCCC33FFCC6600CC6633CC6666CC6699CC66CCCC66FFCC9900CC9933CC9966CC9999CC99CCCC99FFCCCC00CCCC33CCCC66CCCC99CCCCCCCCCCFFCCFF00CCFF33CCFF66CCFF99CCFFCCCCFFFFFF0000FF0033FF0066FF0099FF00CCFF00FFFF3300FF3333
310
FF3366FF3399FF33CCFF33FFFF6600FF6633FF6666FF6699FF66CCFF66FFFF9900FF9933FF9966FF9999FF99CCFF99FFFFCC00FFCC33FFCC66FFCC99FFCCCCFFCCFFFFFF00FFFF33FFFF66FFFF99FFFFCCFFFFFF0000000D0D0D1A1A1A2828283535354343435050505D5D5D6B6B6B787878868686939393A1A1A1AEAEAEBB
310
BBBBC9C9C9D6D6D6E4E4E4F1F1F1FFFFFF000000000000000000000000000000000000000000000000000000000000B21171F6000000464944415478DAEDC13101000000C2A0F54F6D085FA00000000000000000000000000000000000000000000000000000000000000000000000000000000000000000000000E036BFBF
310
000103F617CF0000000049454E44AE426082
  0
ACDSRECORD
 90
        1
  2
AcDbDs::ID
280
    10
320
169
  2
Thumbnail_Data
280
    15
 94
     1332
310
89504E470D0A1A0A0000000D4948445200000100000000770803000000DBFC6E9900000300504C5445212830FFFFFF2128300000000000000000000000000000000000000000000000000000330000660000990000CC0000FF0033000033330033660033990033CC0033FF0066000066330066660066990066CC0066FF0099
310
000099330099660099990099CC0099FF00CC0000CC3300CC6600CC9900CCCC00CCFF00FF0000FF3300FF6600FF9900FFCC00FFFF3300003300333300663300993300CC3300FF3333003333333333663333993333CC3333FF3366003366333366663366993366CC3366FF3399003399333399663399993399CC3399FF33CC00
310
33CC3333CC6633CC9933CCCC33CCFF33FF0033FF3333FF6633FF9933FFCC33FFFF6600006600336600666600996600CC6600FF6633006633336633666633996633CC6633FF6666006666336666666666996666CC6666FF6699006699336699666699996699CC6699FF66CC0066CC3366CC6666CC9966CCCC66CCFF66FF0066
310
FF3366FF6666FF9966FFCC66FFFF9900009900339900669900999900CC9900FF9933009933339933669933999933CC9933FF9966009966339966669966999966CC9966FF9999009999339999669999999999CC9999FF99CC0099CC3399CC6699CC9999CCCC99CCFF99FF0099FF3399FF6699FF9999FFCC99FFFFCC0000CC00
310
33CC0066CC0099CC00CCCC00FFCC3300CC3333CC3366CC3399CC33CCCC33FFCC6600CC6633CC6666CC6699CC66CCCC66FFCC9900CC9933CC9966CC9999CC99CCCC99FFCCCC00CCCC33CCCC66CCCC99CCCCCCCCCCFFCCFF00CCFF33CCFF66CCFF99CCFFCCCCFFFFFF0000FF0033FF0066FF0099FF00CCFF00FFFF3300FF3333
310
FF3366FF3399FF33CCFF33FFFF6600FF6633FF6666FF6699FF66CCFF66FFFF9900FF9933FF9966FF9999FF99CCFF99FFFFCC00FFCC33FFCC66FFCC99FFCCCCFFCCFFFFFF00FFFF33FFFF66FFFF99FFFFCCFFFFFF0000000D0D0D1A1A1A2828283535354343435050505D5D5D6B6B6B787878868686939393A1A1A1AEAEAEBB
310
BBBBC9C9C9D6D6D6E4E4E4F1F1F1FFFFFF0000000000000000000000000000000000000000000000000000000000002E4550F1000000354944415478DAEDC13101000000C2A0F54F6D0D0FA00000000000000000000000000000000000000000000000000000000000E0C600777700010497C2850000000049454E44AE4260
310
828208000000000000000000000000000000000000000000000000000000000000000000000000000000000000000000000000000000FC0D206AF4B1FE7004A400D40A00000000000000000000000000000000180DC04F620000000000000000000000000000000000000000000000000080262B1C7DB2742925CE43D4E3A9
310
65F1A7CD28008F851F96AEDB4C80DD86DEDF3FE9CDEDD931CF69A7407CB85D3C2E73F35B00AC5A3DEC75BC7ED323E0B61B35EF2AB07FF1BA1B595781D1FF624392244992244992244992244992244992244952571D0111E7C5CED53675980000000049454E44AE42608286631967407D672966C07D078AE71F77D26C02F3E1
310
7CE5C0FD5480885D42802542791DC06E5FB4454680CB5E03B0DB36406C7B06ECB7FFDDE1B25D80549F04FFFE28901EA0FCD967A52C0051C6738932FD9723FA9DF5BF062F5A79789D7E9C65069CACF144315D3FBC09AC70250588F9ED2F67EF61FDF146FE21FB805F0E680B00B53E19A0FF6FC00C7805C00BBEBEA8CF7D7CCD
310
F5C548820000D838FF9B01CAB6014AFC3780F281852449922449922449922449922449922449926EF70DAF1801257F9AFF7A0000000049454E44AE426082
  0
ENDSEC
  0
EOF
