  0
SECTION
  2
HEADER
  9
$ACADVER
  1
AC1027
  9
$ACADMAINTVER
 70
    20
  9
$DWGCODEPAGE
  3
ANSI_1252
  9
$LASTSAVEDBY
  1
se-milkar
  9
$CUSTOMPROPERTYTAG
  1
AmdtFileType
  9
$CUSTOMPROPERTY
  1
84
  9
$REQUIREDVERSIONS
160
                 0
  9
$INSBASE
 10
0.0
 20
0.0
 30
0.0
  9
$EXTMIN
 10
-0.0338729191091716
 20
-0.0172608967661745
 30
-0.0000000349181948
  9
$EXTMAX
 10
160.0357083649969
 20
187.4196558340583
 30
0.0000000814935746
  9
$LIMMIN
 10
0.0
 20
0.0
  9
$LIMMAX
 10
420.0
 20
297.0
  9
$ORTHOMODE
 70
     0
  9
$REGENMODE
 70
     1
  9
$FILLMODE
 70
     1
  9
$QTEXTMODE
 70
     0
  9
$MIRRTEXT
 70
     0
  9
$LTSCALE
 40
1.0
  9
$ATTMODE
 70
     1
  9
$TEXTSIZE
 40
3.5
  9
$TRACEWID
 40
1.0
  9
$TEXTSTYLE
  7
STANDARD
  9
$CLAYER
  8
AM_0
  9
$CELTYPE
  6
BYLAYER
  9
$CECOLOR
 62
   256
  9
$CELTSCALE
 40
1.0
  9
$DISPSILH
 70
     0
  9
$DIMSCALE
 40
1.0
  9
$DIMASZ
 40
2.5
  9
$DIMEXO
 40
1.0
  9
$DIMDLI
 40
10.0
  9
$DIMRND
 40
0.0
  9
$DIMDLE
 40
0.0
  9
$DIMEXE
 40
1.0
  9
$DIMTP
 40
0.1
  9
$DIMTM
 40
0.1
  9
$DIMTXT
 40
3.5
  9
$DIMCEN
 40
0.0
  9
$DIMTSZ
 40
0.0
  9
$DIMTOL
 70
     0
  9
$DIMLIM
 70
     0
  9
$DIMTIH
 70
     0
  9
$DIMTOH
 70
     0
  9
$DIMSE1
 70
     0
  9
$DIMSE2
 70
     0
  9
$DIMTAD
 70
     1
  9
$DIMZIN
 70
     8
  9
$DIMBLK
  1

  9
$DIMASO
 70
     1
  9
$DIMSHO
 70
     1
  9
$DIMPOST
  1

  9
$DIMAPOST
  1
"
  9
$DIMALT
 70
     0
  9
$DIMALTD
 70
     3
  9
$DIMALTF
 40
0.0393701
  9
$DIMLFAC
 40
1.0
  9
$DIMTOFL
 70
     1
  9
$DIMTVP
 40
0.0
  9
$DIMTIX
 70
     0
  9
$DIMSOXD
 70
     0
  9
$DIMSAH
 70
     0
  9
$DIMBLK1
  1

  9
$DIMBLK2
  1

  9
$DIMSTYLE
  2
AM_ISO
  9
$DIMCLRD
 70
   256
  9
$DIMCLRE
 70
   256
  9
$DIMCLRT
 70
     2
  9
$DIMTFAC
 40
0.71
  9
$DIMGAP
 40
1.5
  9
$DIMJUST
 70
     0
  9
$DIMSD1
 70
     0
  9
$DIMSD2
 70
     0
  9
$DIMTOLJ
 70
     0
  9
$DIMTZIN
 70
     8
  9
$DIMALTZ
 70
     0
  9
$DIMALTTZ
 70
     0
  9
$DIMUPT
 70
     0
  9
$DIMDEC
 70
     2
  9
$DIMTDEC
 70
     2
  9
$DIMALTU
 70
     2
  9
$DIMALTTD
 70
     3
  9
$DIMTXSTY
  7
STANDARD
  9
$DIMAUNIT
 70
     0
  9
$DIMADEC
 70
     0
  9
$DIMALTRND
 40
0.0
  9
$DIMAZIN
 70
     2
  9
$DIMDSEP
 70
    46
  9
$DIMATFIT
 70
     3
  9
$DIMFRAC
 70
     0
  9
$DIMLDRBLK
  1

  9
$DIMLUNIT
 70
     2
  9
$DIMLWD
 70
    -1
  9
$DIMLWE
 70
    -1
  9
$DIMTMOVE
 70
     0
  9
$DIMFXL
 40
1.0
  9
$DIMFXLON
 70
     0
  9
$DIMJOGANG
 40
0.7853981633974483
  9
$DIMTFILL
 70
     0
  9
$DIMTFILLCLR
 70
     0
  9
$DIMARCSYM
 70
     0
  9
$DIMLTYPE
  6

  9
$DIMLTEX1
  6

  9
$DIMLTEX2
  6

  9
$DIMTXTDIRECTION
 70
     0
  9
$LUNITS
 70
     2
  9
$LUPREC
 70
     2
  9
$SKETCHINC
 40
1.0
  9
$FILLETRAD
 40
2.5
  9
$AUNITS
 70
     0
  9
$AUPREC
 70
     0
  9
$MENU
  1
.
  9
$ELEVATION
 40
0.0
  9
$PELEVATION
 40
0.0
  9
$THICKNESS
 40
0.0
  9
$LIMCHECK
 70
     0
  9
$CHAMFERA
 40
2.5
  9
$CHAMFERB
 40
2.5
  9
$CHAMFERC
 40
20.0
  9
$CHAMFERD
 40
0.0
  9
$SKPOLY
 70
     1
  9
$TDCREATE
 40
2457357.459840116
  9
$TDUCREATE
 40
2457357.376506783
  9
$TDUPDATE
 40
2457679.656904213
  9
$TDUUPDATE
 40
2457679.573570880
  9
$TDINDWG
 40
0.0011800579
  9
$TDUSRTIMER
 40
0.0011799190
  9
$USRTIMER
 70
     1
  9
$ANGBASE
 50
0.0
  9
$ANGDIR
 70
     0
  9
$PDMODE
 70
     0
  9
$PDSIZE
 40
0.0
  9
$PLINEWID
 40
0.0
  9
$SPLFRAME
 70
     0
  9
$SPLINETYPE
 70
     6
  9
$SPLINESEGS
 70
     8
  9
$HANDSEED
  5
3AEA
  9
$SURFTAB1
 70
     6
  9
$SURFTAB2
 70
     6
  9
$SURFTYPE
 70
     6
  9
$SURFU
 70
     6
  9
$SURFV
 70
     6
  9
$UCSBASE
  2

  9
$UCSNAME
  2

  9
$UCSORG
 10
0.0
 20
0.0
 30
0.0
  9
$UCSXDIR
 10
1.0
 20
0.0
 30
0.0
  9
$UCSYDIR
 10
0.0
 20
1.0
 30
0.0
  9
$UCSORTHOREF
  2

  9
$UCSORTHOVIEW
 70
     0
  9
$UCSORGTOP
 10
0.0
 20
0.0
 30
0.0
  9
$UCSORGBOTTOM
 10
0.0
 20
0.0
 30
0.0
  9
$UCSORGLEFT
 10
0.0
 20
0.0
 30
0.0
  9
$UCSORGRIGHT
 10
0.0
 20
0.0
 30
0.0
  9
$UCSORGFRONT
 10
0.0
 20
0.0
 30
0.0
  9
$UCSORGBACK
 10
0.0
 20
0.0
 30
0.0
  9
$PUCSBASE
  2

  9
$PUCSNAME
  2

  9
$PUCSORG
 10
0.0
 20
0.0
 30
0.0
  9
$PUCSXDIR
 10
1.0
 20
0.0
 30
0.0
  9
$PUCSYDIR
 10
0.0
 20
1.0
 30
0.0
  9
$PUCSORTHOREF
  2

  9
$PUCSORTHOVIEW
 70
     0
  9
$PUCSORGTOP
 10
0.0
 20
0.0
 30
0.0
  9
$PUCSORGBOTTOM
 10
0.0
 20
0.0
 30
0.0
  9
$PUCSORGLEFT
 10
0.0
 20
0.0
 30
0.0
  9
$PUCSORGRIGHT
 10
0.0
 20
0.0
 30
0.0
  9
$PUCSORGFRONT
 10
0.0
 20
0.0
 30
0.0
  9
$PUCSORGBACK
 10
0.0
 20
0.0
 30
0.0
  9
$USERI1
 70
     0
  9
$USERI2
 70
     0
  9
$USERI3
 70
     0
  9
$USERI4
 70
     0
  9
$USERI5
 70
     0
  9
$USERR1
 40
0.0
  9
$USERR2
 40
0.0
  9
$USERR3
 40
0.0
  9
$USERR4
 40
0.0
  9
$USERR5
 40
0.0
  9
$WORLDVIEW
 70
     1
  9
$SHADEDGE
 70
     3
  9
$SHADEDIF
 70
    70
  9
$TILEMODE
 70
     1
  9
$MAXACTVP
 70
    48
  9
$PINSBASE
 10
0.0
 20
0.0
 30
0.0
  9
$PLIMCHECK
 70
     0
  9
$PEXTMIN
 10
1.000000000000000E+20
 20
1.000000000000000E+20
 30
1.000000000000000E+20
  9
$PEXTMAX
 10
-1.000000000000000E+20
 20
-1.000000000000000E+20
 30
-1.000000000000000E+20
  9
$PLIMMIN
 10
0.0
 20
0.0
  9
$PLIMMAX
 10
12.0
 20
9.0
  9
$UNITMODE
 70
     0
  9
$VISRETAIN
 70
     1
  9
$PLINEGEN
 70
     0
  9
$PSLTSCALE
 70
     1
  9
$TREEDEPTH
 70
  3020
  9
$CMLSTYLE
  2
STANDARD
  9
$CMLJUST
 70
     0
  9
$CMLSCALE
 40
1.0
  9
$PROXYGRAPHICS
 70
     1
  9
$MEASUREMENT
 70
     1
  9
$CELWEIGHT
370
    -1
  9
$ENDCAPS
280
     0
  9
$JOINSTYLE
280
     0
  9
$LWDISPLAY
290
     0
  9
$INSUNITS
 70
     4
  9
$HYPERLINKBASE
  1

  9
$STYLESHEET
  1
@LAYOUT.CTB
  9
$XEDIT
290
     1
  9
$CEPSNTYPE
380
     0
  9
$PSTYLEMODE
290
     1
  9
$FINGERPRINTGUID
  2
{FD5C6D54-3582-48C7-BE7B-3C53CA2AE946}
  9
$VERSIONGUID
  2
{B908D684-45B7-4D33-A1FA-0995E79B0F2A}
  9
$EXTNAMES
290
     1
  9
$PSVPSCALE
 40
0.0
  9
$OLESTARTUP
290
     0
  9
$SORTENTS
280
   127
  9
$INDEXCTL
280
     1
  9
$HIDETEXT
280
     0
  9
$XCLIPFRAME
280
     0
  9
$HALOGAP
280
     0
  9
$OBSCOLOR
 70
   257
  9
$OBSLTYPE
280
     0
  9
$INTERSECTIONDISPLAY
280
     0
  9
$INTERSECTIONCOLOR
 70
   257
  9
$DIMASSOC
280
     2
  9
$PROJECTNAME
  1

  9
$CAMERADISPLAY
290
     0
  9
$LENSLENGTH
 40
50.0
  9
$CAMERAHEIGHT
 40
0.0
  9
$STEPSPERSEC
 40
2.0
  9
$STEPSIZE
 40
6.0
  9
$3DDWFPREC
 40
2.0
  9
$PSOLWIDTH
 40
0.25
  9
$PSOLHEIGHT
 40
4.0
  9
$LOFTANG1
 40
1.570796326794896
  9
$LOFTANG2
 40
1.570796326794896
  9
$LOFTMAG1
 40
0.0
  9
$LOFTMAG2
 40
0.0
  9
$LOFTPARAM
 70
     7
  9
$LOFTNORMALS
280
     1
  9
$LATITUDE
 40
37.795
  9
$LONGITUDE
 40
-122.394
  9
$NORTHDIRECTION
 40
0.0
  9
$TIMEZONE
 70
 -8000
  9
$LIGHTGLYPHDISPLAY
280
     1
  9
$TILEMODELIGHTSYNCH
280
     1
  9
$CMATERIAL
347
A37
  9
$SOLIDHIST
280
     1
  9
$SHOWHIST
280
     1
  9
$DWFFRAME
280
     2
  9
$DGNFRAME
280
     0
  9
$REALWORLDSCALE
290
     1
  9
$INTERFERECOLOR
 62
     1
  9
$INTERFEREOBJVS
345
A59
  9
$INTERFEREVPVS
346
CBF
  9
$CSHADOW
280
     0
  9
$SHADOWPLANELOCATION
 40
0.0
  0
ENDSEC
  0
SECTION
  2
CLASSES
  0
CLASS
  1
DICTIONARYVAR
  2
AcDbDictionaryVar
  3
ObjectDBX Classes
 90
        0
 91
       12
280
     0
281
     0
  0
CLASS
  1
ACMESTATEMGR
  2
AcMeStateMgr
  3
AcMeServices
 90
     1024
 91
        1
280
     0
281
     0
  0
CLASS
  1
ACMESCOPE
  2
AcMeScope
  3
AcMeServices
 90
     1024
 91
        1
280
     0
281
     0
  0
CLASS
  1
ACMECOMMANDHISTORY
  2
AcMeCommandHistory
  3
AcMeServices
 90
     1024
 91
        1
280
     0
281
     0
  0
CLASS
  1
ACRFINSADJUSTERMGR
  2
AcRfInsAdjusterMgr
  3
AcMeServices
 90
     1024
 91
        1
280
     0
281
     0
  0
CLASS
  1
ACMEDRAWINGMAN
  2
AcMeDrawingMan
  3
AcMeServices
 90
     1024
 91
        0
280
     0
281
     0
  0
CLASS
  1
AMATTR
  2
AcMeAttribute
  3
AcMeServices
 90
     1024
 91
        0
280
     0
281
     0
  0
CLASS
  1
ACMEBOMCOLUMN
  2
AcMeBOMColumn
  3
AcMeServices
 90
     1024
 91
        0
280
     0
281
     0
  0
CLASS
  1
ACMEBOMCONF
  2
AcMeBOMConf
  3
AcMeServices
 90
     1024
 91
        0
280
     0
281
     0
  0
CLASS
  1
ACMEBOMTABLE
  2
AcMeBOMTable
  3
AcMeServices
 90
     1024
 91
        0
280
     0
281
     0
  0
CLASS
  1
ACMEBOMENTRY
  2
AcMeBOMEntry
  3
AcMeServices
 90
     1024
 91
        0
280
     0
281
     0
  0
CLASS
  1
ACMEVIEW
  2
AcMeView
  3
AcMeServices
 90
     1024
 91
        0
280
     0
281
     0
  0
CLASS
  1
ACGREFMASTER
  2
AcGrefMaster
  3
AcAttribServices
 90
     1024
 91
        1
280
     0
281
     0
  0
CLASS
  1
AMIMASTER
  2
AmiMaster
  3
AmiServices
 90
     1024
 91
        1
280
     0
281
     0
  0
CLASS
  1
ACASGREFMASTER
  2
AcAsGrefMaster
  3
AutoSurfResolverServices
 90
     1024
 91
        2
280
     0
281
     0
  0
CLASS
  1
ADAPPL
  2
AcAdAppl
  3
DesignerAssemblies
 90
     1024
 91
        0
280
     0
281
     0
  0
CLASS
  1
DEPMGR
  2
AcAdDepMgr
  3
DesignerAssemblies
 90
     1024
 91
        0
280
     0
281
     0
  0
CLASS
  1
PARAMMGR
  2
AcAdParamMgr
  3
DesignerAssemblies
 90
     1024
 91
        0
280
     0
281
     0
  0
CLASS
  1
PARAMSCOPE
  2
AcAdParamScope
  3
DesignerAssemblies
 90
     1024
 91
        0
280
     0
281
     0
  0
CLASS
  1
ACIMSYSVARMAN
  2
AcImSysVarManager
  3
AcMeServices
 90
     1024
 91
        3
280
     0
281
     0
  0
CLASS
  1
ACIMINTSYSVAR
  2
AcImIntSysVar
  3
AcMeServices
 90
     1024
 91
        2
280
     0
281
     0
  0
CLASS
  1
ACIMREALSYSVAR
  2
AcImRealSysVar
  3
AcMeServices
 90
     1024
 91
        0
280
     0
281
     0
  0
CLASS
  1
ACIMSTRSYSVAR
  2
AcImStrSysVar
  3
AcMeServices
 90
     1024
 91
        5
280
     0
281
     0
  0
CLASS
  1
NAMEDAPPL
  2
AcAdNamedAppl
  3
DesignerAssemblies
 90
     1024
 91
        0
280
     0
281
     0
  0
CLASS
  1
ADHNTMPLT
  2
AdHoleNoteTemplateMgr
  3
DesignerServices
 90
     1024
 91
        0
280
     0
281
     0
  0
CLASS
  1
AM_HNTEMPLATE_MGR_NAME
  2
AdHoleNoteTemplateMgrName
  3
DesignerServices
 90
     1024
 91
        0
280
     0
281
     0
  0
CLASS
  1
ACADGREFMODULE
  2
AcAdGrefModule
  3
AdGrefServices
 90
     1024
 91
        2
280
     0
281
     0
  0
CLASS
  1
AM_DRAWING_MGR
  2
AcDmDwgMgr
  3
AcMechDwgViewMgmt
 90
     1024
 91
        0
280
     0
281
     0
  0
CLASS
  1
AM_DWG_DOCUMENT
  2
AcDmDwgDocument
  3
AcMechDwgViewMgmt
 90
     1024
 91
        0
280
     0
281
     0
  0
CLASS
  1
AM_DWG_SHEET
  2
AcDmSheet
  3
AcMechDwgViewMgmt
 90
     1024
 91
        0
280
     0
281
     0
  0
CLASS
  1
AM_VIEWDIMPARMAP
  2
AcDmViewDimParMap
  3
AcMechDwgViewMgmt
 90
     1024
 91
        0
280
     0
281
     0
  0
CLASS
  1
AM_DWGMGR_NAME
  2
AcDmDwgMgrName
  3
AcMechDwgViewMgmt
 90
     1024
 91
        0
280
     0
281
     0
  0
CLASS
  1
ACAMPROJECT
  2
AcAmProject
  3
DesignerAssemblies
 90
     1024
 91
        1
280
     0
281
     0
  0
CLASS
  1
ACAMGRCOMPSET
  2
AcAmGrCompSet
  3
DesignerAssemblies
 90
        0
 91
        0
280
     0
281
     0
  0
CLASS
  1
ACAMGRCOMPDEFSET
  2
AcAmGrCompDefSet
  3
DesignerAssemblies
 90
     1024
 91
        1
280
     0
281
     0
  0
CLASS
  1
ACAMGRCOMPDEF
  2
AcAmGrCompDef
  3
DesignerAssemblies
 90
     1024
 91
        1
280
     0
281
     0
  0
CLASS
  1
ACCMCONTEXT
  2
AcCmContext
  3
DesignerAssemblies
 90
     1024
 91
        0
280
     0
281
     0
  0
CLASS
  1
ACAMCOMPDEF
  2
AcAmCompDef
  3
DesignerAssemblies
 90
     1024
 91
        1
280
     0
281
     0
  0
CLASS
  1
ACAMCOMPDEFMGR
  2
AcAmCompDefMgr
  3
DesignerAssemblies
 90
     1024
 91
        1
280
     0
281
     0
  0
CLASS
  1
AMCONTEXTMGR
  2
AcAmContextMgr
  3
DesignerAssemblies
 90
     1024
 91
        1
280
     0
281
     0
  0
CLASS
  1
ACAMCONTEXTMODELER
  2
AcAmContextModeler
  3
DesignerAssemblies
 90
     1024
 91
        1
280
     0
281
     0
  0
CLASS
  1
ACDMVIEWGEOM
  2
AcDmViewGeometry
  3
AcMechDwgViewMgmt
 90
     1024
 91
        0
280
     0
281
     1
  0
CLASS
  1
CBROWSERAPPOBJECT
  2
CBrowserAppObject
  3
McadcomServices
 90
     1024
 91
        2
280
     0
281
     0
  0
CLASS
  1
IM_STATIC_MAN
  2
AcImStaticVarManager
  3
AcMeServices
 90
     1024
 91
        0
280
     0
281
     0
  0
CLASS
  1
ASAPP
  2
AcAsAppObject
  3
AutoSurfServices
 90
     1024
 91
        2
280
     0
281
     0
  0
CLASS
  1
ACIMDBLSTATICVAR
  2
AcImDblStaticVar
  3
AcMeServices
 90
     1024
 91
        0
280
     0
281
     0
  0
CLASS
  1
ACIMSTRSTATICVAR
  2
AcImStrStaticVar
  3
AcMeServices
 90
     1024
 91
        0
280
     0
281
     0
  0
CLASS
  1
ACIMINTSTATICVAR
  2
AcImIntStaticVar
  3
AcMeServices
 90
     1024
 91
        0
280
     0
281
     0
  0
CLASS
  1
CATALOGSTATE
  2
AcAmCatalogState
  3
DesignerAssemblies
 90
     1024
 91
        0
280
     0
281
     0
  0
CLASS
  1
DM_PLACEHOLDER
  2
AcDmSelsetPlaceholder
  3
McadcomServices
 90
     1024
 91
        1
280
     0
281
     0
  0
CLASS
  1
LAYER_INDEX
  2
AcDbLayerIndex
  3
ObjectDBX Classes
 90
        0
 91
        1
280
     0
281
     0
  0
CLASS
  1
IDBUFFER
  2
AcDbIdBuffer
  3
ObjectDBX Classes
 90
        0
 91
        5
280
     0
281
     0
  0
CLASS
  1
ACMSTANDARDJIS
  2
AcmStandardJIS
  3
"Amdt_StdImp|Product Description: AutoCAD Mechanical|Company: Autodesk, Inc."
 90
     1024
 91
        0
280
     0
281
     0
  0
CLASS
  1
ACMSTANDARDANSI
  2
AcmStandardANSI
  3
"Amdt_StdImp|Product Description: AutoCAD Mechanical|Company: Autodesk, Inc."
 90
     1024
 91
        1
280
     0
281
     0
  0
CLASS
  1
ACMSTANDARDBSI
  2
AcmStandardBSI
  3
"Amdt_StdImp|Product Description: AutoCAD Mechanical|Company: Autodesk, Inc."
 90
     1024
 91
        0
280
     0
281
     0
  0
CLASS
  1
ACMSTANDARDDIN
  2
AcmStandardDIN
  3
"Amdt_StdImp|Product Description: AutoCAD Mechanical|Company: Autodesk, Inc."
 90
     1024
 91
        0
280
     0
281
     0
  0
CLASS
  1
ACMSTANDARDISO
  2
AcmStandardISO
  3
"Amdt_StdImp|Product Description: AutoCAD Mechanical|Company: Autodesk, Inc."
 90
     1024
 91
        1
280
     0
281
     0
  0
CLASS
  1
ACDBDICTIONARYWDFLT
  2
AcDbDictionaryWithDefault
  3
ObjectDBX Classes
 90
        0
 91
        1
280
     0
281
     0
  0
CLASS
  1
ACDBPLACEHOLDER
  2
AcDbPlaceHolder
  3
ObjectDBX Classes
 90
        0
 91
        1
280
     0
281
     0
  0
CLASS
  1
LAYOUT
  2
AcDbLayout
  3
ObjectDBX Classes
 90
        0
 91
        2
280
     0
281
     0
  0
CLASS
  1
ACME_DOCUMENT
  2
AcMeDbDoc
  3
AcMeServices
 90
     1024
 91
        1
280
     0
281
     0
  0
CLASS
  1
AMGSETTINGSOBJ
  2
AmgSettingsObj
  3
"AcadM|Product Description: AutoCAD Mechanical|Company: Autodesk, Inc."
 90
     1024
 91
        2
280
     0
281
     0
  0
CLASS
  1
AMGOBJPROPCFG
  2
AmgObjPropCfg
  3
"AmgLay|Product Description: AutoCAD Mechanical|Company: Autodesk, Inc."
 90
     1024
 91
        2
280
     0
281
     0
  0
CLASS
  1
ACDBENTITYCACHE
  2
AcMeEntityCache
  3
AcMeServices
 90
     1024
 91
        1
280
     0
281
     0
  0
CLASS
  1
GSMANAGER
  2
AcMeGSManager
  3
AcMeServices
 90
     1024
 91
        0
280
     0
281
     0
  0
CLASS
  1
AMDTINTERNALREACTOR
  2
AmdtInternalReactor
  3
AcMeServices
 90
     1024
 91
        0
280
     0
281
     0
  0
CLASS
  1
ACME_DATABASE
  2
AcMeDbDatabase
  3
AcMeServices
 90
     1024
 91
        1
280
     0
281
     0
  0
CLASS
  1
ACGREFACADMASTER
  2
AcGrefacadMaster
  3
AcGrefServices
 90
     1024
 91
        1
280
     0
281
     0
  0
CLASS
  1
AMDTMENUSTATEMGR
  2
AmdtMenuStateMgr
  3
McadcomServices
 90
     1024
 91
        1
280
     0
281
     0
  0
CLASS
  1
AMDTMCOMMENUSTATE
  2
AmdtMcomMenuState
  3
McadcomServices
 90
     1024
 91
        1
280
     0
281
     0
  0
CLASS
  1
MAPIADMODULE
  2
MApiAdModule
  3
MApiAdServices
 90
     1024
 91
        2
280
     0
281
     0
  0
CLASS
  1
AMDTDMMENUSTATE
  2
AmdtDmMenuState
  3
AcMechDwgViewMgmt
 90
     1024
 91
        0
280
     0
281
     0
  0
CLASS
  1
AMDTADMENUSTATE
  2
AmdtAdMenuState
  3
DesignerServices
 90
     1024
 91
        0
280
     0
281
     0
  0
CLASS
  1
AMDTAMMENUSTATE
  2
AmdtAmMenuState
  3
DesignerAssemblies
 90
     1024
 91
        1
280
     0
281
     0
  0
CLASS
  1
ACMDATADICTIONARY
  2
AcmDataDictionary
  3
"AcmSymBB|Product Description: AutoCAD Mechanical|Company: Autodesk, Inc."
 90
     1024
 91
        1
280
     0
281
     0
  0
CLASS
  1
ACMDATAENTRYBLOCK
  2
AcmDataEntryBlock
  3
AcmSymBB|Product Description: AutoCAD Mechanical|Company: Autodesk, Inc.
 90
     1024
 91
        0
280
     0
281
     0
  0
CLASS
  1
ACMSURFSTANDARDJIS
  2
AcmSurfTextStdJIS
  3
"Amdt_StdImp|Product Description: AutoCAD Mechanical|Company: Autodesk, Inc."
 90
     1024
 91
        0
280
     0
281
     0
  0
CLASS
  1
ACMFCFSTANDARDJIS
  2
AcmFCFStdJIS
  3
"Amdt_StdImp|Product Description: AutoCAD Mechanical|Company: Autodesk, Inc."
 90
     1024
 91
        0
280
     0
281
     0
  0
CLASS
  1
ACMWELDSTANDARDJIS
  2
AcmWeldingStdJIS
  3
"Amdt_StdImp|Product Description: AutoCAD Mechanical|Company: Autodesk, Inc."
 90
     1024
 91
        0
280
     0
281
     0
  0
CLASS
  1
ACMIDSTANDARDJIS
  2
AcmIdStdJIS
  3
"Amdt_StdImp|Product Description: AutoCAD Mechanical|Company: Autodesk, Inc."
 90
     1024
 91
        0
280
     0
281
     0
  0
CLASS
  1
ACMDATUMSTANDARDJIS
  2
AcmDatumStdJIS
  3
"Amdt_StdImp|Product Description: AutoCAD Mechanical|Company: Autodesk, Inc."
 90
     1024
 91
        0
280
     0
281
     0
  0
CLASS
  1
ACMBOMSTANDARDJIS
  2
AcmBOMStdJIS
  3
"Amdt_StdImp|Product Description: AutoCAD Mechanical|Company: Autodesk, Inc."
 90
     1024
 91
        0
280
     0
281
     0
  0
CLASS
  1
ACMSURFSTANDARDANSI
  2
AcmSurfTextStdANSI
  3
"Amdt_StdImp|Product Description: AutoCAD Mechanical|Company: Autodesk, Inc."
 90
     1024
 91
        1
280
     0
281
     0
  0
CLASS
  1
ACMFCFSTANDARDANSI
  2
AcmFCFStdANSI
  3
"Amdt_StdImp|Product Description: AutoCAD Mechanical|Company: Autodesk, Inc."
 90
     1024
 91
        1
280
     0
281
     0
  0
CLASS
  1
ACMWELDSTANDARDANSI
  2
AcmWeldingStdANSI
  3
"Amdt_StdImp|Product Description: AutoCAD Mechanical|Company: Autodesk, Inc."
 90
     1024
 91
        1
280
     0
281
     0
  0
CLASS
  1
ACMIDSTANDARDANSI
  2
AcmIdStdANSI
  3
"Amdt_StdImp|Product Description: AutoCAD Mechanical|Company: Autodesk, Inc."
 90
     1024
 91
        1
280
     0
281
     0
  0
CLASS
  1
ACMDATUMSTANDARDANSI
  2
AcmDatumStdANSI
  3
"Amdt_StdImp|Product Description: AutoCAD Mechanical|Company: Autodesk, Inc."
 90
     1024
 91
        1
280
     0
281
     0
  0
CLASS
  1
ACMBOMSTANDARDANSI
  2
AcmBOMStdANSI
  3
"Amdt_StdImp|Product Description: AutoCAD Mechanical|Company: Autodesk, Inc."
 90
     1024
 91
        1
280
     0
281
     0
  0
CLASS
  1
ACMSURFSTANDARDBSI
  2
AcmSurfTextStdBSI
  3
"Amdt_StdImp|Product Description: AutoCAD Mechanical|Company: Autodesk, Inc."
 90
     1024
 91
        0
280
     0
281
     0
  0
CLASS
  1
ACMFCFSTANDARDBSI
  2
AcmFCFStdBSI
  3
"Amdt_StdImp|Product Description: AutoCAD Mechanical|Company: Autodesk, Inc."
 90
     1024
 91
        0
280
     0
281
     0
  0
CLASS
  1
ACMWELDSTANDARDBSI
  2
AcmWeldingStdBSI
  3
"Amdt_StdImp|Product Description: AutoCAD Mechanical|Company: Autodesk, Inc."
 90
     1024
 91
        0
280
     0
281
     0
  0
CLASS
  1
ACMIDSTANDARDBSI
  2
AcmIdStdBSI
  3
"Amdt_StdImp|Product Description: AutoCAD Mechanical|Company: Autodesk, Inc."
 90
     1024
 91
        0
280
     0
281
     0
  0
CLASS
  1
ACMDATUMSTANDARDBSI
  2
AcmDatumStdBSI
  3
"Amdt_StdImp|Product Description: AutoCAD Mechanical|Company: Autodesk, Inc."
 90
     1024
 91
        0
280
     0
281
     0
  0
CLASS
  1
ACMBOMSTANDARDBSI
  2
AcmBOMStdBSI
  3
"Amdt_StdImp|Product Description: AutoCAD Mechanical|Company: Autodesk, Inc."
 90
     1024
 91
        0
280
     0
281
     0
  0
CLASS
  1
AMDTEDGESTANDARDDIN
  2
AmdtEdgeStdDIN
  3
"Amdt_StdImp|Product Description: AutoCAD Mechanical|Company: Autodesk, Inc."
 90
     1024
 91
        0
280
     0
281
     0
  0
CLASS
  1
ACMSURFSTANDARDDIN
  2
AcmSurfTextStdDIN
  3
"Amdt_StdImp|Product Description: AutoCAD Mechanical|Company: Autodesk, Inc."
 90
     1024
 91
        0
280
     0
281
     0
  0
CLASS
  1
ACMFCFSTANDARDDIN
  2
AcmFCFStdDIN
  3
"Amdt_StdImp|Product Description: AutoCAD Mechanical|Company: Autodesk, Inc."
 90
     1024
 91
        0
280
     0
281
     0
  0
CLASS
  1
ACMWELDSTANDARDDIN
  2
AcmWeldingStdDIN
  3
"Amdt_StdImp|Product Description: AutoCAD Mechanical|Company: Autodesk, Inc."
 90
     1024
 91
        0
280
     0
281
     0
  0
CLASS
  1
ACMIDSTANDARDDIN
  2
AcmIdStdDIN
  3
"Amdt_StdImp|Product Description: AutoCAD Mechanical|Company: Autodesk, Inc."
 90
     1024
 91
        0
280
     0
281
     0
  0
CLASS
  1
ACMDATUMSTANDARDDIN
  2
AcmDatumStdDIN
  3
"Amdt_StdImp|Product Description: AutoCAD Mechanical|Company: Autodesk, Inc."
 90
     1024
 91
        0
280
     0
281
     0
  0
CLASS
  1
ACMBOMSTANDARDDIN
  2
AcmBOMStdDIN
  3
"Amdt_StdImp|Product Description: AutoCAD Mechanical|Company: Autodesk, Inc."
 90
     1024
 91
        0
280
     0
281
     0
  0
CLASS
  1
ACMSURFSTANDARDISO
  2
AcmSurfTextStdISO
  3
"Amdt_StdImp|Product Description: AutoCAD Mechanical|Company: Autodesk, Inc."
 90
     1024
 91
        1
280
     0
281
     0
  0
CLASS
  1
ACMFCFSTANDARDISO
  2
AcmFCFStdISO
  3
"Amdt_StdImp|Product Description: AutoCAD Mechanical|Company: Autodesk, Inc."
 90
     1024
 91
        1
280
     0
281
     0
  0
CLASS
  1
ACMWELDSTANDARDISO
  2
AcmWeldingStdISO
  3
"Amdt_StdImp|Product Description: AutoCAD Mechanical|Company: Autodesk, Inc."
 90
     1024
 91
        1
280
     0
281
     0
  0
CLASS
  1
ACMIDSTANDARDISO
  2
AcmIdStdISO
  3
"Amdt_StdImp|Product Description: AutoCAD Mechanical|Company: Autodesk, Inc."
 90
     1024
 91
        1
280
     0
281
     0
  0
CLASS
  1
ACMDATUMSTANDARDISO
  2
AcmDatumStdISO
  3
"Amdt_StdImp|Product Description: AutoCAD Mechanical|Company: Autodesk, Inc."
 90
     1024
 91
        1
280
     0
281
     0
  0
CLASS
  1
ACMBOMSTANDARDISO
  2
AcmBOMStdISO
  3
"Amdt_StdImp|Product Description: AutoCAD Mechanical|Company: Autodesk, Inc."
 90
     1024
 91
        1
280
     0
281
     0
  0
CLASS
  1
AMDTBROWSERDBTAB
  2
AmdtBrowserDbTab
  3
McadcomServices
 90
     1024
 91
        1
280
     0
281
     0
  0
CLASS
  1
ACAMGFILTERDAT
  2
AcAmgFilterDat
  3
"AcadM|Product Description: AutoCAD Mechanical|Company: Autodesk, Inc."
 90
     1024
 91
        0
280
     0
281
     0
  0
CLASS
  1
MAPIAMMOUDLE
  2
MApiAmModule
  3
MApiAmServices
 90
     1024
 91
        1
280
     0
281
     0
  0
CLASS
  1
AMDTMAPISURFMOUDULE
  2
AmdtMApiSurfModule
  3
MApiSurfServices
 90
     1024
 91
        2
280
     0
281
     0
  0
CLASS
  1
ACAMGLAYSTD
  2
AcAmgLayStd
  3
"AmgLay|Product Description: AutoCAD Mechanical|Company: Autodesk, Inc."
 90
     1024
 91
        2
280
     0
281
     0
  0
CLASS
  1
ACAMGDIMSTD
  2
AcAmgDimStd
  3
"AmgDim|Product Description: AutoCAD Mechanical|Company: Autodesk, Inc."
 90
     1024
 91
        2
280
     0
281
     0
  0
CLASS
  1
ACAMGTITLESTD
  2
AcAmgTitleStd
  3
"AmgTitle|Product Description: AutoCAD Mechanical|Company: Autodesk, Inc."
 90
     1024
 91
        2
280
     0
281
     0
  0
CLASS
  1
ACMDETAILSTANDARDJIS
  2
AmdtDetailSymStdJIS
  3
"Amdt_StdImp|Product Description: AutoCAD Mechanical|Company: Autodesk, Inc."
 90
     1024
 91
        0
280
     0
281
     0
  0
CLASS
  1
ACMSECTIONSTANDARDJIS
  2
AmdtSectionSymStdJIS
  3
"Amdt_StdImp|Product Description: AutoCAD Mechanical|Company: Autodesk, Inc."
 90
     1024
 91
        0
280
     0
281
     0
  0
CLASS
  1
ACMCENTERLINESTANDARDJIS
  2
AmdtCenterLineStdJIS
  3
"Amdt_StdImp|Product Description: AutoCAD Mechanical|Company: Autodesk, Inc."
 90
     1024
 91
        0
280
     0
281
     0
  0
CLASS
  1
ACMTHREADLINESTANDARDJIS
  2
AmdtThreadLineStdJIS
  3
"Amdt_StdImp|Product Description: AutoCAD Mechanical|Company: Autodesk, Inc."
 90
     1024
 91
        0
280
     0
281
     0
  0
CLASS
  1
ACMDETAILSTANDARDANSI
  2
AmdtDetailSymStdANSI
  3
"Amdt_StdImp|Product Description: AutoCAD Mechanical|Company: Autodesk, Inc."
 90
     1024
 91
        1
280
     0
281
     0
  0
CLASS
  1
ACMSECTIONSTANDARDANSI
  2
AmdtSectionSymStdANSI
  3
"Amdt_StdImp|Product Description: AutoCAD Mechanical|Company: Autodesk, Inc."
 90
     1024
 91
        1
280
     0
281
     0
  0
CLASS
  1
ACMCENTERLINESTANDARDANSI
  2
AmdtCenterLineStdANSI
  3
"Amdt_StdImp|Product Description: AutoCAD Mechanical|Company: Autodesk, Inc."
 90
     1024
 91
        1
280
     0
281
     0
  0
CLASS
  1
ACMTHREADLINESTANDARDANSI
  2
AmdtThreadLineStdANSI
  3
"Amdt_StdImp|Product Description: AutoCAD Mechanical|Company: Autodesk, Inc."
 90
     1024
 91
        1
280
     0
281
     0
  0
CLASS
  1
ACMDETAILSTANDARDBSI
  2
AmdtDetailSymStdBSI
  3
"Amdt_StdImp|Product Description: AutoCAD Mechanical|Company: Autodesk, Inc."
 90
     1024
 91
        0
280
     0
281
     0
  0
CLASS
  1
ACMSECTIONSTANDARDBSI
  2
AmdtSectionSymStdBSI
  3
"Amdt_StdImp|Product Description: AutoCAD Mechanical|Company: Autodesk, Inc."
 90
     1024
 91
        0
280
     0
281
     0
  0
CLASS
  1
ACMCENTERLINESTANDARDBSI
  2
AmdtCenterLineStdBSI
  3
"Amdt_StdImp|Product Description: AutoCAD Mechanical|Company: Autodesk, Inc."
 90
     1024
 91
        0
280
     0
281
     0
  0
CLASS
  1
ACMTHREADLINESTANDARDBSI
  2
AmdtThreadLineStdBSI
  3
"Amdt_StdImp|Product Description: AutoCAD Mechanical|Company: Autodesk, Inc."
 90
     1024
 91
        0
280
     0
281
     0
  0
CLASS
  1
ACMDETAILSTANDARDDIN
  2
AmdtDetailSymStdDIN
  3
"Amdt_StdImp|Product Description: AutoCAD Mechanical|Company: Autodesk, Inc."
 90
     1024
 91
        0
280
     0
281
     0
  0
CLASS
  1
ACMSECTIONSTANDARDDIN
  2
AmdtSectionSymStdDIN
  3
"Amdt_StdImp|Product Description: AutoCAD Mechanical|Company: Autodesk, Inc."
 90
     1024
 91
        0
280
     0
281
     0
  0
CLASS
  1
ACMCENTERLINESTANDARDDIN
  2
AmdtCenterLineStdDIN
  3
"Amdt_StdImp|Product Description: AutoCAD Mechanical|Company: Autodesk, Inc."
 90
     1024
 91
        0
280
     0
281
     0
  0
CLASS
  1
ACMTHREADLINESTANDARDDIN
  2
AmdtThreadLineStdDIN
  3
"Amdt_StdImp|Product Description: AutoCAD Mechanical|Company: Autodesk, Inc."
 90
     1024
 91
        0
280
     0
281
     0
  0
CLASS
  1
AMDTEDGESTANDARDISO
  2
AmdtEdgeStdISO
  3
"Amdt_StdImp|Product Description: AutoCAD Mechanical|Company: Autodesk, Inc."
 90
     1024
 91
        1
280
     0
281
     0
  0
CLASS
  1
ACMDETAILSTANDARDISO
  2
AmdtDetailSymStdISO
  3
"Amdt_StdImp|Product Description: AutoCAD Mechanical|Company: Autodesk, Inc."
 90
     1024
 91
        1
280
     0
281
     0
  0
CLASS
  1
ACMSECTIONSTANDARDISO
  2
AmdtSectionSymStdISO
  3
"Amdt_StdImp|Product Description: AutoCAD Mechanical|Company: Autodesk, Inc."
 90
     1024
 91
        1
280
     0
281
     0
  0
CLASS
  1
ACMCENTERLINESTANDARDISO
  2
AmdtCenterLineStdISO
  3
"Amdt_StdImp|Product Description: AutoCAD Mechanical|Company: Autodesk, Inc."
 90
     1024
 91
        1
280
     0
281
     0
  0
CLASS
  1
ACMTHREADLINESTANDARDISO
  2
AmdtThreadLineStdISO
  3
"Amdt_StdImp|Product Description: AutoCAD Mechanical|Company: Autodesk, Inc."
 90
     1024
 91
        1
280
     0
281
     0
  0
CLASS
  1
ACMNOTESTANDARDISO
  2
AmdtNoteStdISO
  3
"Amdt_StdImp|Product Description: AutoCAD Mechanical|Company: Autodesk, Inc."
 90
     1024
 91
        1
280
     0
281
     0
  0
CLASS
  1
ACAMGHOLECHARTSTDISO
  2
AcAmgHoleChartStdISO
  3
AmgDim|Product Description: AutoCAD Mechanical|Company: Autodesk, Inc.
 90
     1024
 91
        1
280
     0
281
     0
  0
CLASS
  1
ACMNOTESTANDARDANSI
  2
AmdtNoteStdANSI
  3
"Amdt_StdImp|Product Description: AutoCAD Mechanical|Company: Autodesk, Inc."
 90
     1024
 91
        1
280
     0
281
     0
  0
CLASS
  1
AMDTNOTETEMPLATEDB
  2
AmdtNoteTemplateDB
  3
AcmSymBB|Product Description: AutoCAD Mechanical|Company: Autodesk, Inc.
 90
     1024
 91
        8
280
     0
281
     0
  0
CLASS
  1
ACAMGHOLECHARTSTDANSI
  2
AcAmgHoleChartStdANSI
  3
AmgDim|Product Description: AutoCAD Mechanical|Company: Autodesk, Inc.
 90
     1024
 91
        1
280
     0
281
     0
  0
CLASS
  1
TABLESTYLE
  2
AcDbTableStyle
  3
ObjectDBX Classes
 90
     4095
 91
        1
280
     0
281
     0
  0
CLASS
  1
ACAD_TABLE
  2
AcDbTable
  3
ObjectDBX Classes
 90
     1025
 91
        0
280
     0
281
     1
  0
CLASS
  1
MATERIAL
  2
AcDbMaterial
  3
ObjectDBX Classes
 90
     1153
 91
        3
280
     0
281
     0
  0
CLASS
  1
VISUALSTYLE
  2
AcDbVisualStyle
  3
ObjectDBX Classes
 90
     4095
 91
       26
280
     0
281
     0
  0
CLASS
  1
SCALE
  2
AcDbScale
  3
ObjectDBX Classes
 90
     1153
 91
       17
280
     0
281
     0
  0
CLASS
  1
MLEADERSTYLE
  2
AcDbMLeaderStyle
  3
ACDB_MLEADERSTYLE_CLASS
 90
     4095
 91
        1
280
     0
281
     0
  0
CLASS
  1
ACRFATTGENMGR
  2
AcRfAttGeneralMgr
  3
AcAttribServices
 90
     1024
 91
        0
280
     0
281
     0
  0
CLASS
  1
ACRFOBJATTMGR
  2
AcRfObjAttGroupMgr
  3
AcAttribServices
 90
     1024
 91
        0
280
     0
281
     0
  0
CLASS
  1
ACRFMCADAPIATTHOLDER
  2
AcRfMCADAPIAttHolder
  3
AcAttribServices
 90
     1024
 91
        0
280
     0
281
     0
  0
CLASS
  1
AMDTSYSATTR
  2
AmdtSystemAttribute
  3
AcAttribServices
 90
     1024
 91
        0
280
     0
281
     0
  0
CLASS
  1
ACMTAPERSTANDARDISO
  2
AcmTaperStdISO
  3
"Amdt_StdImp|Product Description: AutoCAD Mechanical|Company: Autodesk, Inc."
 90
     1024
 91
        1
280
     0
281
     0
  0
CLASS
  1
ACMANOOTATIONVIEWSTANDARDISO
  2
AmdtAnViewStdISO
  3
"Amdt_StdImp|Product Description: AutoCAD Mechanical|Company: Autodesk, Inc."
 90
     1024
 91
        1
280
     0
281
     0
  0
CLASS
  1
ACMTAPERSTANDARDANSI
  2
AcmTaperStdANSI
  3
"Amdt_StdImp|Product Description: AutoCAD Mechanical|Company: Autodesk, Inc."
 90
     1024
 91
        1
280
     0
281
     0
  0
CLASS
  1
ACMANOOTATIONVIEWSTANDARDANSI
  2
AmdtAnViewStdANSI
  3
"Amdt_StdImp|Product Description: AutoCAD Mechanical|Company: Autodesk, Inc."
 90
     1024
 91
        1
280
     0
281
     0
  0
CLASS
  1
CELLSTYLEMAP
  2
AcDbCellStyleMap
  3
ObjectDBX Classes
 90
     1152
 91
        2
280
     0
281
     0
  0
CLASS
  1
CAMSSTRUCTBTNSTATE
  2
StructBtnState
  3
DesignerAssemblies
 90
     1024
 91
        0
280
     0
281
     0
  0
CLASS
  1
ACDBSECTIONVIEWSTYLE
  2
AcDbSectionViewStyle
  3
ObjectDBX Classes
 90
     1025
 91
        2
280
     0
281
     0
  0
CLASS
  1
ACDBDETAILVIEWSTYLE
  2
AcDbDetailViewStyle
  3
ObjectDBX Classes
 90
     1025
 91
        2
280
     0
281
     0
  0
CLASS
  1
FIELD
  2
AcDbField
  3
ObjectDBX Classes
 90
     1152
 91
        3
280
     0
281
     0
  0
CLASS
  1
SORTENTSTABLE
  2
AcDbSortentsTable
  3
ObjectDBX Classes
 90
        0
 91
        2
280
     0
281
     0
  0
CLASS
  1
FIELDLIST
  2
AcDbFieldList
  3
ObjectDBX Classes
 90
     1152
 91
        1
280
     0
281
     0
  0
CLASS
  1
ACMSECTIONSTANDARDCUSTOM
  2
AmdtSectionSymStdCustom
  3
"Amdt_StdImp|Product Description: AutoCAD Mechanical|Company: Autodesk, Inc."
 90
     1024
 91
        0
280
     0
281
     0
  0
CLASS
  1
ACMDETAILTANDARDCUSTOM
  2
AmdtDetailSymStdCustom
  3
"Amdt_StdImp|Product Description: AutoCAD Mechanical|Company: Autodesk, Inc."
 90
     1024
 91
        0
280
     0
281
     0
  0
CLASS
  1
EXACXREFPANELOBJECT
  2
ExAcXREFPanelObject
  3
EXAC_ESW
 90
     1025
 91
        0
280
     0
281
     0
  0
CLASS
  1
NPOCOLLECTION
  2
AcDbImpNonPersistentObjectsCollection
  3
ObjectDBX Classes
 90
     1153
 91
        0
280
     0
281
     0
  0
CLASS
  1
ACAD_EVALUATION_GRAPH
  2
AcDbEvalGraph
  3
ObjectDBX Classes
 90
     1153
 91
        1
280
     0
281
     0
  0
CLASS
  1
ACAECUSTOBJ
  2
AcAeEditorObj
  3
AcAeEditorObj
 90
     1024
 91
        1
280
     0
281
     0
  0
CLASS
  1
ACDB_DYNAMICBLOCKPURGEPREVENTER_VERSION
  2
AcDbDynamicBlockPurgePreventer
  3
ObjectDBX Classes
 90
     1153
 91
        1
280
     0
281
     0
  0
CLASS
  1
PLOTSETTINGS
  2
AcDbPlotSettings
  3
ObjectDBX Classes
 90
        0
 91
        1
280
     0
281
     0
  0
CLASS
  1
DIMASSOC
  2
AcDbDimAssoc
  3
"AcDbDimAssoc|Product Desc:     AcDim ARX App For Dimension|Company:          Autodesk, Inc.|WEB Address:      www.autodesk.com"
 90
        0
 91
        0
280
     0
281
     0
  0
CLASS
  1
AMDTEDGESTANDARDISO13715
  2
AmdtEdgeStdISO13715
  3
"Amdt_StdImp|Product Description: AutoCAD Mechanical|Company: Autodesk, Inc."
 90
     1024
 91
        0
280
     0
281
     0
  0
CLASS
  1
ACMSURFSTANDARDISO2002
  2
AcmSurfTextStdISO2002
  3
"Amdt_StdImp|Product Description: AutoCAD Mechanical|Company: Autodesk, Inc."
 90
     1024
 91
        0
280
     0
281
     0
  0
CLASS
  1
ACMFCFSTANDARDISO2004
  2
AcmFCFStdISO2004
  3
"Amdt_StdImp|Product Description: AutoCAD Mechanical|Company: Autodesk, Inc."
 90
     1024
 91
        0
280
     0
281
     0
  0
CLASS
  1
ACMIDSTANDARDISO2004
  2
AcmIdStdISO2004
  3
"Amdt_StdImp|Product Description: AutoCAD Mechanical|Company: Autodesk, Inc."
 90
     1024
 91
        0
280
     0
281
     0
  0
CLASS
  1
ACMSECTIONSTANDARDISO2001
  2
AmdtSectionSymStdISO2001
  3
"Amdt_StdImp|Product Description: AutoCAD Mechanical|Company: Autodesk, Inc."
 90
     1024
 91
        0
280
     0
281
     0
  0
ENDSEC
  0
SECTION
  2
TABLES
  0
TABLE
  2
VPORT
  5
8
330
0
100
AcDbSymbolTable
 70
     1
  0
VPORT
  5
A35
330
8
100
AcDbSymbolTableRecord
100
AcDbViewportTableRecord
  2
*Active
 70
     0
 10
0.0
 20
0.0
 11
1.0
 21
1.0
 12
80.00091772294387
 22
93.70119746864606
 13
0.0
 23
0.0
 14
2.5
 24
2.5
 15
10.0
 25
10.0
 16
0.0
 26
0.0
 36
1.0
 17
0.0
 27
0.0
 37
0.0
 40
188.6219762675841
 41
1.661392405063291
 42
50.0
 43
0.0
 44
0.0
 50
0.0
 51
0.0
 71
     0
 72
   100
 73
     1
 74
     1
 75
     0
 76
     0
 77
     0
 78
     0
281
     0
 65
     0
110
0.0
120
0.0
130
0.0
111
1.0
121
0.0
131
0.0
112
0.0
122
1.0
132
0.0
 79
     0
146
0.0
348
A55
 60
     3
 61
     5
292
     1
282
     1
141
0.0
142
0.0
 63
   250
421
  3355443
1001
ACAD_NAV_VCDISPLAY
1070
     3
  0
ENDTAB
  0
TABLE
  2
LTYPE
  5
5
330
0
100
AcDbSymbolTable
 70
    20
  0
LTYPE
  5
14
330
5
100
AcDbSymbolTableRecord
100
AcDbLinetypeTableRecord
  2
BYBLOCK
 70
     0
  3

 72
    65
 73
     0
 40
0.0
  0
LTYPE
  5
15
330
5
100
AcDbSymbolTableRecord
100
AcDbLinetypeTableRecord
  2
BYLAYER
 70
     0
  3

 72
    65
 73
     0
 40
0.0
  0
LTYPE
  5
16
330
5
100
AcDbSymbolTableRecord
100
AcDbLinetypeTableRecord
  2
CONTINUOUS
 70
     0
  3
Solid line
 72
    65
 73
     0
 40
0.0
  0
LTYPE
  5
15B
330
5
100
AcDbSymbolTableRecord
100
AcDbLinetypeTableRecord
  2
ACISOWELD
 70
     0
  3
_ _ _ _ _
 72
    65
 73
     2
 40
2.0
 49
2.0
 74
     0
 49
-1.0
 74
     0
  0
LTYPE
  5
15C
330
5
100
AcDbSymbolTableRecord
100
AcDbLinetypeTableRecord
  2
ACISOTGB
 70
     0
  3
__ . . __ . .
 72
    65
 73
     6
 40
9.0
 49
4.0
 74
     0
 49
-1.0
 74
     0
 49
1.0
 74
     0
 49
-1.0
 74
     0
 49
1.0
 74
     0
 49
-1.0
 74
     0
  0
LTYPE
  5
15D
330
5
100
AcDbSymbolTableRecord
100
AcDbLinetypeTableRecord
  2
ACISOTGL
 70
     0
  3
_ _ _ _ _
 72
    65
 73
     2
 40
3.0
 49
2.0
 74
     0
 49
-1.0
 74
     0
  0
LTYPE
  5
175
330
5
100
AcDbSymbolTableRecord
100
AcDbLinetypeTableRecord
  2
AM_ISO02W050
 70
     0
  3
__ __ __ __ __ __ __ __ __ __ __ __ __ __ __
 72
    65
 73
     2
 40
7.5
 49
6.0
 74
     0
 49
-1.5
 74
     0
  0
LTYPE
  5
176
330
5
100
AcDbSymbolTableRecord
100
AcDbLinetypeTableRecord
  2
AM_ISO08W050
 70
     0
  3
____ . ____ . ____ . ____ . ____ . ____ . ____
 72
    65
 73
     4
 40
18.0
 49
12.0
 74
     0
 49
-1.5
 74
     0
 49
3.0
 74
     0
 49
-1.5
 74
     0
  0
LTYPE
  5
177
330
5
100
AcDbSymbolTableRecord
100
AcDbLinetypeTableRecord
  2
AM_ISO09W050
 70
     0
  3
_____ . . _____ . . _____ . . ____ .. ____
 72
    65
 73
     6
 40
22.5
 49
12.0
 74
     0
 49
-1.5
 74
     0
 49
3.0
 74
     0
 49
-1.5
 74
     0
 49
3.0
 74
     0
 49
-1.5
 74
     0
  0
LTYPE
  5
178
330
5
100
AcDbSymbolTableRecord
100
AcDbLinetypeTableRecord
  2
AM_ISO02W050x2
 70
     0
  3
 _ _ _ _ _ _ _ _ _ _ _ _
 72
    65
 73
     2
 40
3.75
 49
3.0
 74
     0
 49
-0.75
 74
     0
  0
LTYPE
  5
179
330
5
100
AcDbSymbolTableRecord
100
AcDbLinetypeTableRecord
  2
AM_ISO08W050x2
 70
     0
  3
__ . __ . __ . __ . __ . __
 72
    65
 73
     4
 40
9.0
 49
6.0
 74
     0
 49
-0.75
 74
     0
 49
1.5
 74
     0
 49
-0.75
 74
     0
  0
LTYPE
  5
17C
330
5
100
AcDbSymbolTableRecord
100
AcDbLinetypeTableRecord
  2
Amzigzag
 70
     0
  3
/\/-/\/-/\/-/\/-/\/-/\/
 72
    65
 73
     2
 40
11.0001
 49
0.0001
 74
     4
 75
   135
340
17B
 46
0.04
 50
0.0
 44
0.0
 45
0.0
 49
-11.0
 74
     0
  0
LTYPE
  5
2ED
330
5
100
AcDbSymbolTableRecord
100
AcDbLinetypeTableRecord
  2
Amconstr
 70
     0
  3
_______________________
 72
    65
 73
     2
 40
9999.0
 49
9999.0
 74
     0
 49
0.0
 74
     0
  0
LTYPE
  5
3861
330
5
100
AcDbSymbolTableRecord
100
AcDbLinetypeTableRecord
  2
HIDDEN
 70
     0
  3
__ __ __ __ __ __ __ __ __ __ __ __ __ __ __ __
 72
    65
 73
     2
 40
0.375
 49
0.25
 74
     0
 49
-0.125
 74
     0
  0
LTYPE
  5
3862
330
5
100
AcDbSymbolTableRecord
100
AcDbLinetypeTableRecord
  2
PHANTOM2
 70
     0
  3
___ _ _ ___ _ _ ___ _ _ ___ _ _ ___ _ _ ___ _ _
 72
    65
 73
     6
 40
1.25
 49
0.625
 74
     0
 49
-0.125
 74
     0
 49
0.125
 74
     0
 49
-0.125
 74
     0
 49
0.125
 74
     0
 49
-0.125
 74
     0
  0
LTYPE
  5
3863
330
5
100
AcDbSymbolTableRecord
100
AcDbLinetypeTableRecord
  2
CENTER
 70
     0
  3
____ _ ____ _ ____ _ ____ _ ____ _ ____ _ ____ 
 72
    65
 73
     4
 40
2.0
 49
1.25
 74
     0
 49
-0.25
 74
     0
 49
0.25
 74
     0
 49
-0.25
 74
     0
  0
LTYPE
  5
387B
330
5
100
AcDbSymbolTableRecord
100
AcDbLinetypeTableRecord
  2
ACANSTGB
 70
     0
  3
__ . . __ . .
 72
    65
 73
     6
 40
0.35433070866
 49
0.15748031496
 74
     0
 49
-0.03937007874
 74
     0
 49
0.03937007874
 74
     0
 49
-0.03937007874
 74
     0
 49
0.03937007874
 74
     0
 49
-0.03937007874
 74
     0
  0
LTYPE
  5
387C
330
5
100
AcDbSymbolTableRecord
100
AcDbLinetypeTableRecord
  2
ACANSTGL
 70
     0
  3
_ _ _ _ _
 72
    65
 73
     2
 40
0.11811023622
 49
0.07874015748
 74
     0
 49
-0.03937007874
 74
     0
  0
LTYPE
  5
3893
330
5
100
AcDbSymbolTableRecord
100
AcDbLinetypeTableRecord
  2
CENTER2
 70
     0
  3
Center (.5x) ___ _ ___ _ ___ _ ___ _ ___ _ ___
 72
    65
 73
     4
 40
1.125
 49
0.75
 74
     0
 49
-0.125
 74
     0
 49
0.125
 74
     0
 49
-0.125
 74
     0
  0
LTYPE
  5
3894
330
5
100
AcDbSymbolTableRecord
100
AcDbLinetypeTableRecord
  2
HIDDEN2
 70
     0
  3
Hidden (.5x) _ _ _ _ _ _ _ _ _ _ _ _ _ _ _ _ _
 72
    65
 73
     2
 40
0.1875
 49
0.125
 74
     0
 49
-0.0625
 74
     0
  0
LTYPE
  5
3895
330
5
100
AcDbSymbolTableRecord
100
AcDbLinetypeTableRecord
  2
Amzigzag2
 70
     0
  3
/\/-/\/-/\/-/\/-/\/-/\/
 72
    65
 73
     2
 40
0.4401
 49
0.0001
 74
     4
 75
   135
340
17B
 46
0.0016
 50
0.0
 44
0.0
 45
0.0
 49
-0.4400000000000001
 74
     0
  0
ENDTAB
  0
TABLE
  2
LAYER
  5
2
102
{ACAD_XDICTIONARY
360
592
102
}
330
0
100
AcDbSymbolTable
 70
     5
  0
LAYER
  5
F
102
{ACAD_XDICTIONARY
360
AB7
102
}
330
2
100
AcDbSymbolTableRecord
100
AcDbLayerTableRecord
  2
0
 70
     0
 62
     7
  6
CONTINUOUS
370
    -3
390
166
347
A47
348
0
  0
LAYER
  5
5CF
102
{ACAD_XDICTIONARY
360
AB9
102
}
330
2
100
AcDbSymbolTableRecord
100
AcDbLayerTableRecord
  2
AM_0
 70
     0
 62
     7
  6
CONTINUOUS
370
    50
390
166
347
A47
348
0
  0
LAYER
  5
3363
102
{ACAD_XDICTIONARY
360
3372
102
}
330
2
100
AcDbSymbolTableRecord
100
AcDbLayerTableRecord
  2
Visible Edges(ISO)
 70
     0
 62
     7
  6
CONTINUOUS
370
    18
390
166
347
A47
348
0
  0
LAYER
  5
3364
330
2
100
AcDbSymbolTableRecord
100
AcDbLayerTableRecord
  2
Defpoints
 70
     0
 62
     7
  6
CONTINUOUS
290
     0
370
    -3
390
166
347
A47
348
0
  0
LAYER
  5
3365
102
{ACAD_XDICTIONARY
360
3374
102
}
330
2
100
AcDbSymbolTableRecord
100
AcDbLayerTableRecord
  2
DIM
 70
     0
 62
     3
  6
CONTINUOUS
370
    25
390
166
347
A47
348
0
1001
AcAecLayerStandard
1000

1000

  0
ENDTAB
  0
TABLE
  2
STYLE
  5
3
330
0
100
AcDbSymbolTable
 70
     7
  0
STYLE
  5
10
330
3
100
AcDbSymbolTableRecord
100
AcDbTextStyleTableRecord
  2
STANDARD
 70
     0
 40
0.0
 41
1.0
 50
0.0
 71
     0
 42
3.5
  3
ISOCP.SHX
  4

  0
STYLE
  5
159
330
3
100
AcDbSymbolTableRecord
100
AcDbTextStyleTableRecord
  2
ACISOTS
 70
     0
 40
1.0
 41
1.0
 50
0.0
 71
     0
 42
2.5
  3
isocp.shx
  4

  0
STYLE
  5
15A
330
3
100
AcDbSymbolTableRecord
100
AcDbTextStyleTableRecord
  2
ACISOGDT
 70
     0
 40
0.0
 41
1.0
 50
0.0
 71
     0
 42
2.5
  3
amgdt.shx
  4

  0
STYLE
  5
17B
330
3
100
AcDbSymbolTableRecord
100
AcDbTextStyleTableRecord
  2

 70
     1
 40
0.0
 41
1.0
 50
0.0
 71
     0
 42
3.5
  3
ltypeshp.shx
  4

  0
STYLE
  5
D0A
330
3
100
AcDbSymbolTableRecord
100
AcDbTextStyleTableRecord
  2
ISOCP
 70
     0
 40
0.0
 41
1.0
 50
0.0
 71
     0
 42
3.5
  3
isocp
  4

  0
STYLE
  5
3874
330
3
100
AcDbSymbolTableRecord
100
AcDbTextStyleTableRecord
  2
ACANSTS
 70
     0
 40
1.0
 41
1.0
 50
0.0
 71
     0
 42
3.5
  3
romans.shx
  4

  0
STYLE
  5
3877
330
3
100
AcDbSymbolTableRecord
100
AcDbTextStyleTableRecord
  2
ACANSGDT
 70
     0
 40
0.0
 41
1.0
 50
0.0
 71
     0
 42
3.5
  3
amgdt.shx
  4

  0
ENDTAB
  0
TABLE
  2
VIEW
  5
6
330
0
100
AcDbSymbolTable
 70
     9
  0
VIEW
  5
1C8
330
6
100
AcDbSymbolTableRecord
100
AcDbViewTableRecord
  2
AMDTVIEW1
 70
     0
 40
329.0721649484536
 10
210.0
 20
164.5360824742268
 41
420.0
 11
0.0
 21
0.0
 31
1.0
 12
0.0
 22
0.0
 32
0.0
 42
50.0
 43
0.0
 44
0.0
 50
0.0
 71
     0
281
     0
 72
     0
 73
     0
348
A55
  0
VIEW
  5
1C9
330
6
100
AcDbSymbolTableRecord
100
AcDbViewTableRecord
  2
AMDTVIEW2
 70
     0
 40
329.0721649484536
 10
210.0
 20
164.5360824742268
 41
420.0
 11
0.0
 21
0.0
 31
1.0
 12
0.0
 22
0.0
 32
0.0
 42
50.0
 43
0.0
 44
0.0
 50
0.0
 71
     0
281
     0
 72
     0
 73
     0
348
A55
  0
VIEW
  5
1CA
330
6
100
AcDbSymbolTableRecord
100
AcDbViewTableRecord
  2
AMDTVIEW3
 70
     0
 40
329.0721649484536
 10
210.0
 20
164.5360824742268
 41
420.0
 11
0.0
 21
0.0
 31
1.0
 12
0.0
 22
0.0
 32
0.0
 42
50.0
 43
0.0
 44
0.0
 50
0.0
 71
     0
281
     0
 72
     0
 73
     0
348
A55
  0
VIEW
  5
FA2
330
6
100
AcDbSymbolTableRecord
100
AcDbViewTableRecord
  2
AM_VIEW1
 70
     0
 40
148.5
 10
116.6562170706006
 20
222.75
 41
233.3124341412013
 11
0.0
 21
0.0
 31
1.0
 12
0.0
 22
0.0
 32
0.0
 42
50.0
 43
0.0
 44
0.0
 50
0.0
 71
     0
281
     0
 72
     0
 73
     0
  0
VIEW
  5
FA3
330
6
100
AcDbSymbolTableRecord
100
AcDbViewTableRecord
  2
AM_VIEW2
 70
     0
 40
148.5
 10
303.3437829293994
 20
222.75
 41
233.3124341412013
 11
0.0
 21
0.0
 31
1.0
 12
0.0
 22
0.0
 32
0.0
 42
50.0
 43
0.0
 44
0.0
 50
0.0
 71
     0
281
     0
 72
     0
 73
     0
  0
VIEW
  5
FA4
330
6
100
AcDbSymbolTableRecord
100
AcDbViewTableRecord
  2
AM_VIEW3
 70
     0
 40
148.5
 10
116.6562170706006
 20
74.25
 41
233.3124341412013
 11
0.0
 21
0.0
 31
1.0
 12
0.0
 22
0.0
 32
0.0
 42
50.0
 43
0.0
 44
0.0
 50
0.0
 71
     0
281
     0
 72
     0
 73
     0
  0
VIEW
  5
FA5
330
6
100
AcDbSymbolTableRecord
100
AcDbViewTableRecord
  2
AM_VIEW4
 70
     0
 40
148.5
 10
303.3437829293994
 20
74.25
 41
233.3124341412013
 11
0.0
 21
0.0
 31
1.0
 12
0.0
 22
0.0
 32
0.0
 42
50.0
 43
0.0
 44
0.0
 50
0.0
 71
     0
281
     0
 72
     0
 73
     0
  0
VIEW
  5
FA6
330
6
100
AcDbSymbolTableRecord
100
AcDbViewTableRecord
  2
AM_VIEW5
 70
     0
 40
148.5
 10
210.0
 20
148.5
 41
233.3124341412013
 11
0.0
 21
0.0
 31
1.0
 12
0.0
 22
0.0
 32
0.0
 42
50.0
 43
0.0
 44
0.0
 50
0.0
 71
     0
281
     0
 72
     0
 73
     0
  0
VIEW
  5
FA7
330
6
100
AcDbSymbolTableRecord
100
AcDbViewTableRecord
  2
AM_VIEW6
 70
     0
 40
296.99703
 10
210.0
 20
148.5
 41
466.6202020337196
 11
0.0
 21
0.0
 31
1.0
 12
0.0
 22
0.0
 32
0.0
 42
50.0
 43
0.0
 44
0.0
 50
0.0
 71
     0
281
     0
 72
     0
 73
     0
  0
ENDTAB
  0
TABLE
  2
UCS
  5
7
330
0
100
AcDbSymbolTable
 70
     0
  0
ENDTAB
  0
TABLE
  2
APPID
  5
9
330
0
100
AcDbSymbolTable
 70
    41
  0
APPID
  5
11
330
9
100
AcDbSymbolTableRecord
100
AcDbRegAppTableRecord
  2
ACAD
 70
     0
  0
APPID
  5
CD
330
9
100
AcDbSymbolTableRecord
100
AcDbRegAppTableRecord
  2
AD_DRAW
 70
     0
  0
APPID
  5
E7
330
9
100
AcDbSymbolTableRecord
100
AcDbRegAppTableRecord
  2
DESIGNERASSEMBLIES
 70
     0
  0
APPID
  5
EB
330
9
100
AcDbSymbolTableRecord
100
AcDbRegAppTableRecord
  2
MCAD_NO_VIS
 70
     0
  0
APPID
  5
122
330
9
100
AcDbSymbolTableRecord
100
AcDbRegAppTableRecord
  2
ASURF_PCURVE_APPNAME
 70
     0
  0
APPID
  5
17F
330
9
100
AcDbSymbolTableRecord
100
AcDbRegAppTableRecord
  2
ACAD_TEMP_GRAPHIC
 70
     0
  0
APPID
  5
189
330
9
100
AcDbSymbolTableRecord
100
AcDbRegAppTableRecord
  2
ACATTRIBSERVICES
 70
     0
  0
APPID
  5
1C4
330
9
100
AcDbSymbolTableRecord
100
AcDbRegAppTableRecord
  2
ACADM_DIM_EDIT
 70
     0
  0
APPID
  5
1D5
330
9
100
AcDbSymbolTableRecord
100
AcDbRegAppTableRecord
  2
GENIUS_GENDIM_13
 70
     0
  0
APPID
  5
1D6
330
9
100
AcDbSymbolTableRecord
100
AcDbRegAppTableRecord
  2
GENIUS_GENDTOL_13
 70
     0
  0
APPID
  5
1D7
330
9
100
AcDbSymbolTableRecord
100
AcDbRegAppTableRecord
  2
GENIUS_GE3DTOL_13
 70
     0
  0
APPID
  5
2E9
330
9
100
AcDbSymbolTableRecord
100
AcDbRegAppTableRecord
  2
AMG_3D2D_5.0
 70
     0
  0
APPID
  5
3C0
330
9
100
AcDbSymbolTableRecord
100
AcDbRegAppTableRecord
  2
AMDT_DM_ADJ
 70
     0
  0
APPID
  5
82F
330
9
100
AcDbSymbolTableRecord
100
AcDbRegAppTableRecord
  2
ACAD_PSEXT
 70
     0
  0
APPID
  5
84A
330
9
100
AcDbSymbolTableRecord
100
AcDbRegAppTableRecord
  2
DCO15
 70
     0
  0
APPID
  5
892
330
9
100
AcDbSymbolTableRecord
100
AcDbRegAppTableRecord
  2
ACAD_DSTYLE_DIMTEXT_FILL
 70
     0
  0
APPID
  5
A74
330
9
100
AcDbSymbolTableRecord
100
AcDbRegAppTableRecord
  2
ACAD_MLEADERVER
 70
     0
  0
APPID
  5
AB1
330
9
100
AcDbSymbolTableRecord
100
AcDbRegAppTableRecord
  2
AcAecLayerStandard
 70
     0
  0
APPID
  5
CE6
330
9
100
AcDbSymbolTableRecord
100
AcDbRegAppTableRecord
  2
ACAD_NAV_VCDISPLAY
 70
     0
  0
APPID
  5
D0F
330
9
100
AcDbSymbolTableRecord
100
AcDbRegAppTableRecord
  2
ACAD_DSTYLE_DIMARC_LENGTH_SYMBOL
 70
     0
  0
APPID
  5
D10
330
9
100
AcDbSymbolTableRecord
100
AcDbRegAppTableRecord
  2
ACAD_DSTYLE_DIMJOGGED_JOGANGLE_SYMBOL
 70
     0
  0
APPID
  5
D11
330
9
100
AcDbSymbolTableRecord
100
AcDbRegAppTableRecord
  2
ACAD_EXEMPT_FROM_CAD_STANDARDS
 70
     0
  0
APPID
  5
D91
330
9
100
AcDbSymbolTableRecord
100
AcDbRegAppTableRecord
  2
GENIUS_GENTRA_14
 70
     0
  0
APPID
  5
D92
330
9
100
AcDbSymbolTableRecord
100
AcDbRegAppTableRecord
  2
ACAD_DSTYLE_DIMBREAK
 70
     0
  0
APPID
  5
D93
330
9
100
AcDbSymbolTableRecord
100
AcDbRegAppTableRecord
  2
ACAD_DSTYLE_DIMJAG
 70
     0
  0
APPID
  5
D94
330
9
100
AcDbSymbolTableRecord
100
AcDbRegAppTableRecord
  2
ACAD_DSTYLE_DIMTALN
 70
     0
  0
APPID
  5
F9C
330
9
100
AcDbSymbolTableRecord
100
AcDbRegAppTableRecord
  2
GENIUS_GENOBJ-N-TIT_13
 70
     0
  0
APPID
  5
F9D
330
9
100
AcDbSymbolTableRecord
100
AcDbRegAppTableRecord
  2
GENIUS_GENOLIS_13
 70
     0
  0
APPID
  5
F9E
330
9
100
AcDbSymbolTableRecord
100
AcDbRegAppTableRecord
  2
GENIUS_GENODEF_13
 70
     0
  0
APPID
  5
F9F
330
9
100
AcDbSymbolTableRecord
100
AcDbRegAppTableRecord
  2
GENIUS_GENOENT_13
 70
     0
  0
APPID
  5
FA0
330
9
100
AcDbSymbolTableRecord
100
AcDbRegAppTableRecord
  2
GENIUS_GENTITLE_13
 70
     0
  0
APPID
  5
FA1
330
9
100
AcDbSymbolTableRecord
100
AcDbRegAppTableRecord
  2
GENIUS_GENOREF_13
 70
     0
  0
APPID
  5
FA8
330
9
100
AcDbSymbolTableRecord
100
AcDbRegAppTableRecord
  2
GENIUS_GENSCREG_15
 70
     0
  0
APPID
  5
FA9
330
9
100
AcDbSymbolTableRecord
100
AcDbRegAppTableRecord
  2
GENIUS_GENOBJ-N-SDF_13
 70
     0
  0
APPID
  5
14AF
330
9
100
AcDbSymbolTableRecord
100
AcDbRegAppTableRecord
  2
ACAD_OBJECT_CHANGE_GUID
 70
     0
  0
APPID
  5
16D9
330
9
100
AcDbSymbolTableRecord
100
AcDbRegAppTableRecord
  2
ACAUTHENVIRON
 70
     0
  0
APPID
  5
18D6
330
9
100
AcDbSymbolTableRecord
100
AcDbRegAppTableRecord
  2
AcDbDynamicBlockTrueName
 70
     0
  0
APPID
  5
18D7
330
9
100
AcDbSymbolTableRecord
100
AcDbRegAppTableRecord
  2
AcDbDynamicBlockGUID
 70
     0
  0
APPID
  5
2A26
330
9
100
AcDbSymbolTableRecord
100
AcDbRegAppTableRecord
  2
PE_URL
 70
     0
  0
APPID
  5
3366
330
9
100
AcDbSymbolTableRecord
100
AcDbRegAppTableRecord
  2
ACAD_DSTYLE_DIMINSPECT
 70
     0
  0
APPID
  5
3367
330
9
100
AcDbSymbolTableRecord
100
AcDbRegAppTableRecord
  2
ACAD_DSTYLE_DIMRADIAL_EXTENSION
 70
     0
  0
ENDTAB
  0
TABLE
  2
DIMSTYLE
  5
A
330
0
100
AcDbSymbolTable
 70
    15
100
AcDbDimStyleTable
 71
     1
340
344
  0
DIMSTYLE
105
344
330
A
100
AcDbSymbolTableRecord
100
AcDbDimStyleTableRecord
  2
AM_ISO
 70
     0
  4
"
 41
2.5
 42
1.0
 43
10.0
 44
1.0
 47
0.1
 48
0.1
 73
     0
 74
     0
 77
     1
 78
     8
 79
     2
140
3.5
141
0.0
143
0.0393701
146
0.71
147
1.5
171
     3
172
     1
176
   256
177
   256
178
     2
271
     2
272
     2
274
     3
283
     0
284
     8
340
10
371
    -1
372
    -1
  0
DIMSTYLE
105
345
330
A
100
AcDbSymbolTableRecord
100
AcDbDimStyleTableRecord
  2
AM_ISO$3
 70
     0
  4
"
 41
2.5
 42
1.0
 43
10.0
 44
1.0
 47
0.1
 48
0.1
 73
     0
 77
     1
 78
     8
 79
     2
140
3.5
141
0.0
143
0.0393701
146
0.71
147
1.5
176
   256
177
   256
178
     2
271
     2
272
     3
274
     4
283
     0
284
     8
288
     1
289
     0
340
10
371
    -1
372
    -1
  0
DIMSTYLE
105
346
330
A
100
AcDbSymbolTableRecord
100
AcDbDimStyleTableRecord
  2
AM_ISO$4
 70
     0
  4
"
 41
2.5
 42
1.0
 43
10.0
 44
1.0
 47
0.1
 48
0.1
 73
     0
 77
     1
 78
     8
 79
     2
140
3.5
141
0.0
143
0.0393701
146
0.71
147
1.5
176
   256
177
   256
178
     2
271
     2
272
     3
274
     4
283
     0
284
     8
288
     1
289
     0
340
10
371
    -1
372
    -1
  0
DIMSTYLE
105
347
330
A
100
AcDbSymbolTableRecord
100
AcDbDimStyleTableRecord
  2
AM_ISO$6
 70
     0
  4
"
 41
2.5
 42
1.0
 43
10.0
 44
1.0
 47
0.1
 48
0.1
 73
     0
 74
     0
 78
     8
 79
     2
140
3.5
141
0.0
143
0.0393701
146
0.71
147
1.5
172
     1
176
   256
177
   256
178
     2
271
     2
272
     3
274
     4
283
     0
284
     8
340
10
371
    -1
372
    -1
  0
DIMSTYLE
105
348
330
A
100
AcDbSymbolTableRecord
100
AcDbDimStyleTableRecord
  2
AM_ISO$7
 70
     0
  4
"
 41
2.5
 42
1.0
 43
10.0
 44
1.0
 47
0.1
 48
0.1
 73
     0
 74
     0
 77
     1
 78
     8
 79
     2
140
5.0
141
0.0
143
0.0393701
146
0.71
147
1.5
172
     1
176
   256
177
   256
178
     2
271
     2
272
     3
274
     4
283
     0
284
     8
340
10
371
    -1
372
    -1
  0
DIMSTYLE
105
349
330
A
100
AcDbSymbolTableRecord
100
AcDbDimStyleTableRecord
  2
AM_ISO$SF
 70
     0
  4
"
 41
2.5
 42
1.0
 43
10.0
 44
1.0
 47
0.1
 48
0.1
 73
     0
 74
     0
 75
     1
 76
     1
 77
     1
 78
     8
 79
     2
140
3.5
141
0.0
143
0.0393701
146
0.71
147
1.5
172
     1
176
   256
177
   256
178
     2
271
     2
272
     3
274
     4
283
     0
284
     8
340
10
371
    -1
372
    -1
  0
DIMSTYLE
105
34A
330
A
100
AcDbSymbolTableRecord
100
AcDbDimStyleTableRecord
  2
AM_ISO$SH
 70
     0
  4
"
 41
2.5
 42
1.0
 43
10.0
 44
1.0
 47
0.1
 48
0.1
 73
     0
 74
     0
 75
     1
 76
     1
 77
     1
 78
     8
 79
     2
140
3.5
141
0.0
143
0.0393701
144
2.0
146
0.71
147
1.5
172
     1
173
     1
176
   256
177
   256
178
     2
271
     2
272
     3
274
     4
283
     0
284
     8
340
10
343
2F4
371
    -1
372
    -1
  0
DIMSTYLE
105
D0D
330
A
100
AcDbSymbolTableRecord
100
AcDbDimStyleTableRecord
  2
STANDARD
 70
     0
 41
3.5
 42
2.0
 43
10.0
 44
1.0
 46
2.0
 73
     0
 74
     0
 77
     1
 78
     8
140
3.5
141
0.0
143
25.39999999999999
145
1.0
147
1.0
172
     1
175
     1
176
   256
177
   256
178
     3
271
     2
272
     2
284
     8
340
D0A
  0
DIMSTYLE
105
3897
330
A
100
AcDbSymbolTableRecord
100
AcDbDimStyleTableRecord
  2
AM_ANSI
 70
     0
  4
mm
 41
0.1
 42
0.05
 43
0.5
 44
0.1
 47
0.1
 48
0.1
 78
     7
 79
     2
140
0.12
141
0.0
146
0.71
147
0.06
176
   256
177
   256
178
     2
274
     4
284
     7
340
10
371
    -1
372
    -1
  0
DIMSTYLE
105
3898
330
A
100
AcDbSymbolTableRecord
100
AcDbDimStyleTableRecord
  2
AM_ANSI$3
 70
     0
  4
mm
 41
0.1
 42
0.05
 43
0.5
 44
0.1
 47
0.1
 48
0.1
 78
     7
 79
     2
140
0.12
141
0.0
146
0.71
147
0.06
176
   256
177
   256
178
     2
274
     4
284
     7
288
     1
289
     0
340
10
371
    -1
372
    -1
  0
DIMSTYLE
105
3899
330
A
100
AcDbSymbolTableRecord
100
AcDbDimStyleTableRecord
  2
AM_ANSI$4
 70
     0
  4
mm
 41
0.1
 42
0.05
 43
0.5
 44
0.1
 47
0.1
 48
0.1
 78
     7
 79
     2
140
0.12
141
0.0
146
0.71
147
0.06
176
   256
177
   256
178
     2
274
     4
284
     7
288
     1
289
     0
340
10
371
    -1
372
    -1
  0
DIMSTYLE
105
389A
330
A
100
AcDbSymbolTableRecord
100
AcDbDimStyleTableRecord
  2
AM_ANSI$7
 70
     0
  4
mm
 41
0.1
 42
0.05
 43
0.5
 44
0.1
 47
0.1
 48
0.1
 78
     7
 79
     2
140
0.24
141
0.0
146
0.71
147
0.06
176
   256
177
   256
178
     2
274
     4
284
     7
340
10
371
    -1
372
    -1
  0
DIMSTYLE
105
389B
330
A
100
AcDbSymbolTableRecord
100
AcDbDimStyleTableRecord
  2
AM_ANSI$SF
 70
     0
  4
mm
 41
0.1
 42
0.05
 43
0.5
 44
0.1
 47
0.1
 48
0.1
 75
     1
 76
     1
 78
     7
 79
     2
140
0.12
141
0.0
146
0.71
147
0.06
176
   256
177
   256
178
     2
274
     4
284
     7
340
10
371
    -1
372
    -1
  0
DIMSTYLE
105
389C
330
A
100
AcDbSymbolTableRecord
100
AcDbDimStyleTableRecord
  2
AM_ANSI$SH
 70
     0
  4
mm
 41
0.1
 42
0.05
 43
0.5
 44
0.1
 47
0.1
 48
0.1
 75
     1
 76
     1
 78
     7
 79
     2
140
0.12
141
0.0
146
0.71
147
0.06
173
     1
176
   256
177
   256
178
     2
274
     4
284
     7
340
10
343
2F4
371
    -1
372
    -1
  0
ENDTAB
  0
TABLE
  2
BLOCK_RECORD
  5
1
330
0
100
AcDbSymbolTable
 70
     6
  0
BLOCK_RECORD
  5
1A
102
{ACAD_XDICTIONARY
360
12A
102
}
330
1
100
AcDbSymbolTableRecord
100
AcDbBlockTableRecord
  2
*MODEL_SPACE
340
169
 70
     0
280
     1
281
     0
  0
BLOCK_RECORD
  5
2CA3
330
1
100
AcDbSymbolTableRecord
100
AcDbBlockTableRecord
  2
*Paper_Space
340
2CA4
 70
     0
280
     1
281
     0
  0
BLOCK_RECORD
  5
2F4
330
1
100
AcDbSymbolTableRecord
100
AcDbBlockTableRecord
  2
GENAXEH
340
0
 70
     0
280
     1
281
     0
  0
BLOCK_RECORD
  5
D74
330
1
100
AcDbSymbolTableRecord
100
AcDbBlockTableRecord
  2
_ACMFILLED15
340
0
310
2800000020000000200000000100080000000000000400000000000000000000000000000000000000000000000080000080000000808000800000008000800080800000C0C0C000C0DCC000F0CAA6000020400000206000002080000020A0000020C0000020E00000400000004020000040400000406000004080000040A0
310
000040C0000040E00000600000006020000060400000606000006080000060A0000060C0000060E00000800000008020000080400000806000008080000080A0000080C0000080E00000A0000000A0200000A0400000A0600000A0800000A0A00000A0C00000A0E00000C0000000C0200000C0400000C0600000C0800000C0
310
A00000C0C00000C0E00000E0000000E0200000E0400000E0600000E0800000E0A00000E0C00000E0E00040000000400020004000400040006000400080004000A0004000C0004000E00040200000402020004020400040206000402080004020A0004020C0004020E000404000004040200040404000404060004040800040
310
40A0004040C0004040E00040600000406020004060400040606000406080004060A0004060C0004060E00040800000408020004080400040806000408080004080A0004080C0004080E00040A0000040A0200040A0400040A0600040A0800040A0A00040A0C00040A0E00040C0000040C0200040C0400040C0600040C08000
310
40C0A00040C0C00040C0E00040E0000040E0200040E0400040E0600040E0800040E0A00040E0C00040E0E00080000000800020008000400080006000800080008000A0008000C0008000E00080200000802020008020400080206000802080008020A0008020C0008020E00080400000804020008040400080406000804080
310
008040A0008040C0008040E00080600000806020008060400080606000806080008060A0008060C0008060E00080800000808020008080400080806000808080008080A0008080C0008080E00080A0000080A0200080A0400080A0600080A0800080A0A00080A0C00080A0E00080C0000080C0200080C0400080C0600080C0
310
800080C0A00080C0C00080C0E00080E0000080E0200080E0400080E0600080E0800080E0A00080E0C00080E0E000C0000000C0002000C0004000C0006000C0008000C000A000C000C000C000E000C0200000C0202000C0204000C0206000C0208000C020A000C020C000C020E000C0400000C0402000C0404000C0406000C0
310
408000C040A000C040C000C040E000C0600000C0602000C0604000C0606000C0608000C060A000C060C000C060E000C0800000C0802000C0804000C0806000C0808000C080A000C080C000C080E000C0A00000C0A02000C0A04000C0A06000C0A08000C0A0A000C0A0C000C0A0E000C0C00000C0C02000C0C04000C0C06000
310
C0C08000C0C0A000F0FBFF00A4A0A000808080000000FF0000FF000000FFFF00FF000000FF00FF00FFFF0000FFFFFF0000000000000000000000000000000000000000000000000000000000000000000000000000000000000000000000000000000000000000000000000000000000000000000000000000000000000000
310
00000000000000000000000000000000000000000000000000000000000000000000000000000000000000000000000000000000000000000000000000000000000000000000000000000000000000000000000000000000000000000000000000000000000000000000000000000000000000000000000000000000000000
310
00000000000000000000000000000000000000000000000000000000000000000000000000000000000000000000000000000000000000000000000000000000000000000000000000000000000000000000000000000000000000000000000000000000000000000000000000000000000000000000000000000000000000
310
00000000000000000000000000000000000000000000000000000000000000000000000000000000000000000000000000000000FFFFFFFF00000000000000000000000000000000000000000000000000000000FFFFFFFFFFFFFFFFFFFFFF000000000000000000000000000000000000000000FFFFFFFFFFFFFFFFFFFFFF
310
FFFFFFFFFFFFFFFF00000000000000000000000000FFFFFFFFFFFFFFFFFFFFFFFFFFFFFFFFFFFFFFFFFFFFFFFFFFFF000000000000FFFFFFFFFFFFFFFFFFFFFFFFFFFFFFFFFFFFFFFFFFFFFFFFFFFFFFFFFFFF0000FFFFFFFFFFFFFFFFFFFFFFFFFFFFFFFFFFFFFFFFFFFFFFFFFF00000000000000FFFFFFFFFFFFFFFFFFFF
310
FFFFFFFFFF0000000000000000000000000000000000FFFFFFFFFF00000000000000000000000000000000000000000000000000000000000000000000000000000000000000000000000000000000000000000000000000000000000000000000000000000000000000000000000000000000000000000000000000000000
310
00000000000000000000000000000000000000000000000000000000000000000000000000000000000000000000000000000000000000000000000000000000000000000000000000000000000000000000000000000000000000000000000000000000000000000000000000000000000000000000000000000000000000
310
00000000000000000000000000000000000000000000000000000000000000000000000000000000000000000000000000000000000000000000000000000000000000000000000000000000000000000000000000000000000000000000000000000000000000000000000000000000000000000000000000000000000000
310
0000000000000000000000000000000000000000000000000000000000000000000000000000000000000000000000000000000000000000
 70
     0
280
     1
281
     0
  0
BLOCK_RECORD
  5
D78
330
1
100
AcDbSymbolTableRecord
100
AcDbBlockTableRecord
  2
_ACMFILLED30
340
0
 70
     0
280
     1
281
     0
  0
BLOCK_RECORD
  5
3165
102
{ACAD_XDICTIONARY
360
3AE2
102
}
330
1
100
AcDbSymbolTableRecord
100
AcDbBlockTableRecord
  2
H3150UG
340
0
310
2800000020000000200000000100080000000000000400000000000000000000000000000000000000000000000080000080000000808000800000008000800080800000C0C0C000C0DCC000F0CAA6000020400000206000002080000020A0000020C0000020E00000400000004020000040400000406000004080000040A0
310
000040C0000040E00000600000006020000060400000606000006080000060A0000060C0000060E00000800000008020000080400000806000008080000080A0000080C0000080E00000A0000000A0200000A0400000A0600000A0800000A0A00000A0C00000A0E00000C0000000C0200000C0400000C0600000C0800000C0
310
A00000C0C00000C0E00000E0000000E0200000E0400000E0600000E0800000E0A00000E0C00000E0E00040000000400020004000400040006000400080004000A0004000C0004000E00040200000402020004020400040206000402080004020A0004020C0004020E000404000004040200040404000404060004040800040
310
40A0004040C0004040E00040600000406020004060400040606000406080004060A0004060C0004060E00040800000408020004080400040806000408080004080A0004080C0004080E00040A0000040A0200040A0400040A0600040A0800040A0A00040A0C00040A0E00040C0000040C0200040C0400040C0600040C08000
310
40C0A00040C0C00040C0E00040E0000040E0200040E0400040E0600040E0800040E0A00040E0C00040E0E00080000000800020008000400080006000800080008000A0008000C0008000E00080200000802020008020400080206000802080008020A0008020C0008020E00080400000804020008040400080406000804080
310
008040A0008040C0008040E00080600000806020008060400080606000806080008060A0008060C0008060E00080800000808020008080400080806000808080008080A0008080C0008080E00080A0000080A0200080A0400080A0600080A0800080A0A00080A0C00080A0E00080C0000080C0200080C0400080C0600080C0
310
800080C0A00080C0C00080C0E00080E0000080E0200080E0400080E0600080E0800080E0A00080E0C00080E0E000C0000000C0002000C0004000C0006000C0008000C000A000C000C000C000E000C0200000C0202000C0204000C0206000C0208000C020A000C020C000C020E000C0400000C0402000C0404000C0406000C0
310
408000C040A000C040C000C040E000C0600000C0602000C0604000C0606000C0608000C060A000C060C000C060E000C0800000C0802000C0804000C0806000C0808000C080A000C080C000C080E000C0A00000C0A02000C0A04000C0A06000C0A08000C0A0A000C0A0C000C0A0E000C0C00000C0C02000C0C04000C0C06000
310
C0C08000C0C0A000F0FBFF00A4A0A000808080000000FF0000FF000000FFFF00FF000000FF00FF00FFFF0000FFFFFF004949494949494949494949494949494949494949494949494949494949494949494949FAFA49494949494949494949494949494949494949494949FAFA494949494949FAFAFAFAFAFAFAFAFAFAFAFB
310
FBFBFBFAFAFAFAFAFAFAFAFAFAFA494949494949FA494949494949494949494949494949494949494949494949FA494949494949FA4949494949494949FFFFFFFFFFFFFFFF4949494949494949FA494949494949FA494949494949FFFF4949494949494949FFFF494949494949FA494949494949FA49494949FFFF49494949
310
4949FF4949494949FFFF49494949FA494949494949FA49494949FFFFFFFF4949FFFFFFFF4949FFFFFF49FF494949FA494949494949FA494949FF49FFFFFF4949FFFFFFFF4949FFFFFF49FF494949FA494949494949FA49FFFF49FFFFFFFFFFFF49FFFF49FFFFFFFFFFFF49FFFF49FA494949494949FA49FFFFFFFFFFFFFFFF
310
FFFFFFFFFFFFFFFFFFFFFFFFFFFF49FA494949494949FA49FFFFFFFFFFFFFFFFFFFFFFFFFFFFFFFFFFFFFFFFFF49FFFA494949494949FAFF49FFFFFFFF4949FFFFFFFFFFFFFFFF4949FFFFFFFF49FFFA494949494949FAFF49FFFFFFFF4949FFFFFFFFFFFFFFFF4949FFFFFFFF49FFFA494949494949FAFFFFFFFFFFFFFFFF
310
FFFFFFFFFFFFFFFFFFFFFFFFFFFFFFFFFA494949494949FAFFFFFFFFFFFFFFFFFFFFFFFFFFFFFFFFFFFFFFFFFFFFFF49FF494949494949FF49FFFFFFFFFFFFFFFFFFFFFFFFFFFFFFFFFFFFFFFFFFFF49FF494949494949FF4949494949FFFFFFFF49FFFFFFFF49FFFFFFFF4949494949FF49494949494949FF4949FFFF49FF
310
FFFFFFFFFFFFFFFFFFFFFF49FFFF4949FF4949494949494949FF4949FF49FFFFFFFFFFFFFFFFFFFFFFFFFFFF49FF4949FF494949494949494949FF49FFFFFF49FFFFFFFFFFFFFFFFFFFF49FFFFFF4949FF494949494949494949FF4949FFFF49FFFFFFFF4949FFFFFFFF49FFFF4949FF4949494949494949494949FF494949
310
49FFFFFFFF4949FFFFFFFF4949494949FF4949494949494949494949FF49494949FFFFFFFFFFFFFFFFFFFF49494949FF49494949494949494949494949FF4949FFFFFFFFFFFFFFFFFFFFFFFF4949FF494949494949494949494949494949FF49FFFFFFFFFFFFFFFFFFFFFFFF49FF4949494949494949494949494949494949
310
FF4949494949FFFF4949FAFA49FF49494949494949494949494949494949494949FFFFFFFF49FFFF49FFFFFFFFFAFAFAFAFA49494949494949494949494949494949494949FFFFFFFF4949FA49FBFBFBFBFB4949494949494949494949494949494949494949494949494949FAFBFBFBFBFB49494949494949494949494949
310
4949494949494949494949494949FBFBFBFBFB49494949494949494949494949494949494949494949494949494949494949494949494949
102
{BLKREFS
331
336F
102
}
 70
     4
280
     1
281
     0
1001
AcDbDynamicBlockGUID
1000
{308EC1DB-9C0A-4FB4-8299-12C11554F302}
  0
ENDTAB
  0
ENDSEC
  0
SECTION
  2
BLOCKS
  0
BLOCK
  5
1B
330
1A
100
AcDbEntity
  8
0
100
AcDbBlockBegin
  2
*MODEL_SPACE
 70
     0
 10
0.0
 20
0.0
 30
0.0
  3
*MODEL_SPACE
  1

  0
ENDBLK
  5
1C
330
1A
100
AcDbEntity
  8
0
100
AcDbBlockEnd
  0
BLOCK
  5
2CA5
330
2CA3
100
AcDbEntity
 67
     1
  8
0
100
AcDbBlockBegin
  2
*Paper_Space
 70
     0
 10
0.0
 20
0.0
 30
0.0
  3
*Paper_Space
  1

  0
ENDBLK
  5
2CA6
330
2CA3
100
AcDbEntity
 67
     1
  8
0
100
AcDbBlockEnd
  0
BLOCK
  5
389E
330
2F4
100
AcDbEntity
  8
0
100
AcDbBlockBegin
  2
GENAXEH
 70
     0
 10
0.0
 20
0.0
 30
0.0
  3
GENAXEH
  1

  0
LINE
  5
389F
330
2F4
100
AcDbEntity
  8
0
100
AcDbLine
 10
-1.0
 20
0.0
 30
0.0
 11
1.0
 21
0.0
 31
0.0
  0
ENDBLK
  5
38A0
330
2F4
100
AcDbEntity
  8
0
100
AcDbBlockEnd
  0
BLOCK
  5
D75
330
D74
100
AcDbEntity
  8
0
100
AcDbBlockBegin
  2
_ACMFILLED15
 70
     0
 10
0.0
 20
0.0
 30
0.0
  3
_ACMFILLED15
  1

  0
TRACE
  5
D76
330
D74
100
AcDbEntity
  8
AM_0
 62
     0
100
AcDbTrace
 10
-1.0
 20
-0.131652497
 30
0.0
 11
-1.0
 21
0.131652497
 31
0.0
 12
0.0
 22
0.0
 32
0.0
 13
0.0
 23
0.0
 33
0.0
  0
ENDBLK
  5
D77
330
D74
100
AcDbEntity
  8
0
100
AcDbBlockEnd
  0
BLOCK
  5
D79
330
D78
100
AcDbEntity
  8
0
100
AcDbBlockBegin
  2
_ACMFILLED30
 70
     0
 10
0.0
 20
0.0
 30
0.0
  3
_ACMFILLED30
  1

  0
TRACE
  5
D7A
330
D78
100
AcDbEntity
  8
AM_0
 62
     0
100
AcDbTrace
 10
-1.0
 20
-0.26794919
 30
0.0
 11
-1.0
 21
0.26794919
 31
0.0
 12
0.0
 22
0.0
 32
0.0
 13
0.0
 23
0.0
 33
0.0
  0
ENDBLK
  5
D7B
330
D78
100
AcDbEntity
  8
0
100
AcDbBlockEnd
  0
BLOCK
  5
3166
330
3165
100
AcDbEntity
  8
0
100
AcDbBlockBegin
  2
H3150UG
 70
     0
 10
0.0
 20
0.0
 30
0.0
  3
H3150UG
  1

  0
ARC
  5
38E2
330
3165
100
AcDbEntity
  8
Visible Edges(ISO)
100
AcDbCircle
 10
0.0000000000002558
 20
38.00000000008846
 30
0.0
 40
27.00000000008841
100
AcDbArc
 50
269.370363376558
 51
269.9999999999984
  0
ARC
  5
38E3
330
3165
100
AcDbEntity
  8
Visible Edges(ISO)
100
AcDbCircle
 10
0.000000000000199
 20
37.99999999992226
 30
0.0
 40
27.00000000007753
100
AcDbArc
 50
90.0
 51
90.62963662344044
  0
LINE
  5
38E4
330
3165
100
AcDbEntity
  8
Visible Edges(ISO)
100
AcDbLine
 10
-0.0000000000002558
 20
12.10000000000013
 30
0.0
 11
-0.0000000000002558
 21
11.0
 31
0.0
  0
ARC
  5
38E5
330
3165
100
AcDbEntity
  8
Visible Edges(ISO)
100
AcDbCircle
 10
-0.0000000000002558
 20
37.99999999999978
 30
0.0
 40
25.89999999999986
100
AcDbArc
 50
90.0
 51
270.0
  0
LINE
  5
38E6
330
3165
100
AcDbEntity
  8
Visible Edges(ISO)
100
AcDbLine
 10
-0.0000000000002558
 20
64.99999999999977
 30
0.0
 11
-0.0000000000002558
 21
63.89999999999964
 31
0.0
  0
ARC
  5
38E7
330
3165
100
AcDbEntity
  8
Visible Edges(ISO)
100
AcDbCircle
 10
-32.90896534388301
 20
-19.00000000004343
 30
0.0
 40
27.00000000008574
100
AcDbArc
 50
29.99999999999972
 51
30.62963662344511
  0
ARC
  5
38E8
330
3165
100
AcDbEntity
  8
Visible Edges(ISO)
100
AcDbCircle
 10
-32.90896534374147
 20
-18.9999999999618
 30
0.0
 40
27.00000000007764
100
AcDbArc
 50
209.3703633765527
 51
209.9999999999997
  0
LINE
  5
38E9
330
3165
100
AcDbEntity
  8
Visible Edges(ISO)
100
AcDbLine
 10
-10.47890738579204
 20
-6.050000000000181
 30
0.0
 11
-9.526279441629155
 21
-5.5
 31
0.0
  0
ARC
  5
38EA
330
3165
100
AcDbEntity
  8
Visible Edges(ISO)
100
AcDbCircle
 10
-32.90896534380897
 20
-19.0
 30
0.0
 40
25.89999999999997
100
AcDbArc
 50
29.99999999999972
 51
209.9999999999997
  0
LINE
  5
38EB
330
3165
100
AcDbEntity
  8
Visible Edges(ISO)
100
AcDbLine
 10
-56.29165124598879
 20
-32.5
 30
0.0
 11
-55.3390233018259
 21
-31.94999999999982
 31
0.0
  0
ARC
  5
38EC
330
3165
100
AcDbEntity
  8
Visible Edges(ISO)
100
AcDbCircle
 10
-32.90896534388676
 20
-19.00000000004434
 30
0.0
 40
27.00000000008941
100
AcDbArc
 50
29.37036337655264
 51
29.99999999999972
  0
ARC
  5
38ED
330
3165
100
AcDbEntity
  8
Visible Edges(ISO)
100
AcDbCircle
 10
-32.90896534374193
 20
-18.99999999996088
 30
0.0
 40
27.00000000007753
100
AcDbArc
 50
209.9999999999997
 51
210.6296366234451
  0
LINE
  5
38EE
330
3165
100
AcDbEntity
  8
Visible Edges(ISO)
100
AcDbLine
 10
-10.4789073857921
 20
-6.050000000000181
 30
0.0
 11
-9.526279441629213
 21
-5.5
 31
0.0
  0
ARC
  5
38EF
330
3165
100
AcDbEntity
  8
Visible Edges(ISO)
100
AcDbCircle
 10
-32.90896534380895
 20
-19.0
 30
0.0
 40
25.89999999999986
100
AcDbArc
 50
209.9999999999997
 51
29.99999999999972
  0
LINE
  5
38F0
330
3165
100
AcDbEntity
  8
Visible Edges(ISO)
100
AcDbLine
 10
-56.2916512459887
 20
-32.5
 30
0.0
 11
-55.33902330182582
 21
-31.94999999999982
 31
0.0
  0
ARC
  5
38F1
330
3165
100
AcDbEntity
  8
Visible Edges(ISO)
100
AcDbCircle
 10
32.90896534388318
 20
-19.00000000004274
 30
0.0
 40
27.00000000008614
100
AcDbArc
 50
150.0000000000003
 51
150.6296366234473
  0
ARC
  5
38F2
330
3165
100
AcDbEntity
  8
Visible Edges(ISO)
100
AcDbCircle
 10
32.90896534374127
 20
-18.99999999996088
 30
0.0
 40
27.00000000007765
100
AcDbArc
 50
329.3703633765549
 51
330.0000000000003
  0
LINE
  5
38F3
330
3165
100
AcDbEntity
  8
Visible Edges(ISO)
100
AcDbLine
 10
10.47890738579141
 20
-6.050000000000181
 30
0.0
 11
9.526279441628474
 21
-5.500000000000226
 31
0.0
  0
ARC
  5
38F4
330
3165
100
AcDbEntity
  8
Visible Edges(ISO)
100
AcDbCircle
 10
32.90896534380829
 20
-19.00000000000023
 30
0.0
 40
25.89999999999997
100
AcDbArc
 50
150.0000000000003
 51
330.0000000000003
  0
LINE
  5
38F5
330
3165
100
AcDbEntity
  8
Visible Edges(ISO)
100
AcDbLine
 10
56.29165124598809
 20
-32.50000000000046
 30
0.0
 11
55.33902330182518
 21
-31.95000000000027
 31
0.0
  0
ARC
  5
38F6
330
3165
100
AcDbEntity
  8
Visible Edges(ISO)
100
AcDbCircle
 10
32.90896534388449
 20
-19.00000000004479
 30
0.0
 40
27.00000000008821
100
AcDbArc
 50
149.3703633765548
 51
150.0000000000003
  0
ARC
  5
38F7
330
3165
100
AcDbEntity
  8
Visible Edges(ISO)
100
AcDbCircle
 10
32.9089653437407
 20
-18.9999999999618
 30
0.0
 40
27.00000000007753
100
AcDbArc
 50
330.0000000000003
 51
330.6296366234473
  0
LINE
  5
38F8
330
3165
100
AcDbEntity
  8
Visible Edges(ISO)
100
AcDbLine
 10
10.47890738579141
 20
-6.050000000000181
 30
0.0
 11
9.526279441628588
 21
-5.500000000000226
 31
0.0
  0
ARC
  5
38F9
330
3165
100
AcDbEntity
  8
Visible Edges(ISO)
100
AcDbCircle
 10
32.90896534380829
 20
-19.00000000000023
 30
0.0
 40
25.89999999999986
100
AcDbArc
 50
330.0000000000003
 51
150.0000000000003
  0
LINE
  5
38FA
330
3165
100
AcDbEntity
  8
Visible Edges(ISO)
100
AcDbLine
 10
56.29165124598799
 20
-32.5
 30
0.0
 11
55.33902330182506
 21
-31.95000000000006
 31
0.0
  0
ARC
  5
38FB
330
3165
100
AcDbEntity
  8
Visible Edges(ISO)
100
AcDbCircle
 10
-0.000000000000739
 20
38.00000000008504
 30
0.0
 40
27.00000000008501
100
AcDbArc
 50
270.0
 51
270.629636623442
  0
ARC
  5
38FC
330
3165
100
AcDbEntity
  8
Visible Edges(ISO)
100
AcDbCircle
 10
-0.0000000000007105
 20
37.99999999992226
 30
0.0
 40
27.00000000007765
100
AcDbArc
 50
89.37036337655957
 51
89.99999999999836
  0
LINE
  5
38FD
330
3165
100
AcDbEntity
  8
Visible Edges(ISO)
100
AcDbLine
 10
-0.0000000000002558
 20
12.09999999999991
 30
0.0
 11
-0.0000000000002558
 21
11.0
 31
0.0
  0
ARC
  5
38FE
330
3165
100
AcDbEntity
  8
Visible Edges(ISO)
100
AcDbCircle
 10
-0.000000000000199
 20
37.99999999999978
 30
0.0
 40
25.89999999999997
100
AcDbArc
 50
270.0
 51
90.0
  0
LINE
  5
38FF
330
3165
100
AcDbEntity
  8
Visible Edges(ISO)
100
AcDbLine
 10
-0.0000000000001705
 20
64.99999999999977
 30
0.0
 11
-0.0000000000001705
 21
63.89999999999986
 31
0.0
  0
ARC
  5
3900
330
3165
100
AcDbEntity
  8
Visible Edges(ISO)
100
AcDbCircle
 10
-0.0000000000002558
 20
37.99999999999978
 30
0.0
 40
25.89999999999986
100
AcDbArc
 50
90.0
 51
270.0
  0
LINE
  5
3901
330
3165
100
AcDbEntity
  8
Visible Edges(ISO)
100
AcDbLine
 10
-0.0000000000002558
 20
13.20000000000004
 30
0.0
 11
-0.0000000000002558
 21
12.10000000000013
 31
0.0
  0
ARC
  5
3902
330
3165
100
AcDbEntity
  8
Visible Edges(ISO)
100
AcDbCircle
 10
-0.0000000000002558
 20
37.99999999999978
 30
0.0
 40
24.79999999999986
100
AcDbArc
 50
90.0
 51
270.0
  0
LINE
  5
3903
330
3165
100
AcDbEntity
  8
Visible Edges(ISO)
100
AcDbLine
 10
-0.0000000000002558
 20
63.89999999999964
 30
0.0
 11
-0.0000000000002558
 21
62.79999999999972
 31
0.0
  0
ARC
  5
3904
330
3165
100
AcDbEntity
  8
Visible Edges(ISO)
100
AcDbCircle
 10
-32.90896534380897
 20
-19.0
 30
0.0
 40
25.89999999999997
100
AcDbArc
 50
29.99999999999972
 51
209.9999999999997
  0
LINE
  5
3905
330
3165
100
AcDbEntity
  8
Visible Edges(ISO)
100
AcDbLine
 10
-11.43153532995492
 20
-6.600000000000138
 30
0.0
 11
-10.47890738579204
 21
-6.050000000000181
 31
0.0
  0
ARC
  5
3906
330
3165
100
AcDbEntity
  8
Visible Edges(ISO)
100
AcDbCircle
 10
-32.90896534380897
 20
-19.0
 30
0.0
 40
24.79999999999997
100
AcDbArc
 50
29.99999999999972
 51
209.9999999999997
  0
LINE
  5
3907
330
3165
100
AcDbEntity
  8
Visible Edges(ISO)
100
AcDbLine
 10
-55.3390233018259
 20
-31.94999999999982
 30
0.0
 11
-54.38639535766305
 21
-31.40000000000009
 31
0.0
  0
ARC
  5
3908
330
3165
100
AcDbEntity
  8
Visible Edges(ISO)
100
AcDbCircle
 10
-32.90896534380895
 20
-19.0
 30
0.0
 40
25.89999999999986
100
AcDbArc
 50
209.9999999999997
 51
29.99999999999972
  0
LINE
  5
3909
330
3165
100
AcDbEntity
  8
Visible Edges(ISO)
100
AcDbLine
 10
-11.43153532995498
 20
-6.600000000000138
 30
0.0
 11
-10.4789073857921
 21
-6.050000000000181
 31
0.0
  0
ARC
  5
390A
330
3165
100
AcDbEntity
  8
Visible Edges(ISO)
100
AcDbCircle
 10
-32.90896534380895
 20
-19.0
 30
0.0
 40
24.79999999999986
100
AcDbArc
 50
209.9999999999997
 51
29.99999999999972
  0
LINE
  5
390B
330
3165
100
AcDbEntity
  8
Visible Edges(ISO)
100
AcDbLine
 10
-55.33902330182582
 20
-31.94999999999982
 30
0.0
 11
-54.38639535766292
 21
-31.39999999999965
 31
0.0
  0
ARC
  5
390C
330
3165
100
AcDbEntity
  8
Visible Edges(ISO)
100
AcDbCircle
 10
32.90896534380829
 20
-19.00000000000023
 30
0.0
 40
25.89999999999998
100
AcDbArc
 50
150.0000000000003
 51
330.0000000000003
  0
LINE
  5
390D
330
3165
100
AcDbEntity
  8
Visible Edges(ISO)
100
AcDbLine
 10
11.4315353299543
 20
-6.600000000000138
 30
0.0
 11
10.47890738579141
 21
-6.050000000000181
 31
0.0
  0
ARC
  5
390E
330
3165
100
AcDbEntity
  8
Visible Edges(ISO)
100
AcDbCircle
 10
32.90896534380829
 20
-19.00000000000023
 30
0.0
 40
24.79999999999997
100
AcDbArc
 50
150.0000000000003
 51
330.0000000000003
  0
LINE
  5
390F
330
3165
100
AcDbEntity
  8
Visible Edges(ISO)
100
AcDbLine
 10
55.33902330182518
 20
-31.95000000000027
 30
0.0
 11
54.38639535766231
 21
-31.40000000000032
 31
0.0
  0
ARC
  5
3910
330
3165
100
AcDbEntity
  8
Visible Edges(ISO)
100
AcDbCircle
 10
32.90896534380829
 20
-19.00000000000023
 30
0.0
 40
25.89999999999986
100
AcDbArc
 50
330.0000000000003
 51
150.0000000000003
  0
LINE
  5
3911
330
3165
100
AcDbEntity
  8
Visible Edges(ISO)
100
AcDbLine
 10
11.4315353299543
 20
-6.600000000000138
 30
0.0
 11
10.47890738579141
 21
-6.050000000000181
 31
0.0
  0
ARC
  5
3912
330
3165
100
AcDbEntity
  8
Visible Edges(ISO)
100
AcDbCircle
 10
32.90896534380829
 20
-19.00000000000023
 30
0.0
 40
24.79999999999986
100
AcDbArc
 50
330.0000000000003
 51
150.0000000000003
  0
LINE
  5
3913
330
3165
100
AcDbEntity
  8
Visible Edges(ISO)
100
AcDbLine
 10
55.33902330182506
 20
-31.95000000000006
 30
0.0
 11
54.3863953576622
 21
-31.40000000000009
 31
0.0
  0
ARC
  5
3914
330
3165
100
AcDbEntity
  8
Visible Edges(ISO)
100
AcDbCircle
 10
-0.000000000000199
 20
37.99999999999978
 30
0.0
 40
25.89999999999997
100
AcDbArc
 50
270.0
 51
90.0
  0
LINE
  5
3915
330
3165
100
AcDbEntity
  8
Visible Edges(ISO)
100
AcDbLine
 10
-0.0000000000002558
 20
13.20000000000004
 30
0.0
 11
-0.0000000000002558
 21
12.09999999999991
 31
0.0
  0
ARC
  5
3916
330
3165
100
AcDbEntity
  8
Visible Edges(ISO)
100
AcDbCircle
 10
-0.000000000000199
 20
37.99999999999978
 30
0.0
 40
24.79999999999997
100
AcDbArc
 50
270.0
 51
90.0
  0
LINE
  5
3917
330
3165
100
AcDbEntity
  8
Visible Edges(ISO)
100
AcDbLine
 10
-0.0000000000001705
 20
63.89999999999986
 30
0.0
 11
-0.0000000000001705
 21
62.79999999999972
 31
0.0
  0
ARC
  5
3918
330
3165
100
AcDbEntity
  8
Visible Edges(ISO)
100
AcDbCircle
 10
-0.0000000000002558
 20
37.99999999999978
 30
0.0
 40
24.79999999999986
100
AcDbArc
 50
90.0
 51
270.0
  0
LINE
  5
3919
330
3165
100
AcDbEntity
  8
Visible Edges(ISO)
100
AcDbLine
 10
-0.0000000000002558
 20
14.30000000000018
 30
0.0
 11
-0.0000000000002558
 21
13.20000000000004
 31
0.0
  0
ARC
  5
391A
330
3165
100
AcDbEntity
  8
Visible Edges(ISO)
100
AcDbCircle
 10
-0.0000000000002558
 20
37.99999999999978
 30
0.0
 40
23.69999999999986
100
AcDbArc
 50
90.0
 51
270.0
  0
LINE
  5
391B
330
3165
100
AcDbEntity
  8
Visible Edges(ISO)
100
AcDbLine
 10
-0.0000000000002558
 20
62.79999999999972
 30
0.0
 11
-0.0000000000002558
 21
61.69999999999982
 31
0.0
  0
ARC
  5
391C
330
3165
100
AcDbEntity
  8
Visible Edges(ISO)
100
AcDbCircle
 10
-32.90896534380897
 20
-19.0
 30
0.0
 40
24.79999999999997
100
AcDbArc
 50
29.99999999999972
 51
209.9999999999997
  0
LINE
  5
391D
330
3165
100
AcDbEntity
  8
Visible Edges(ISO)
100
AcDbLine
 10
-12.38416327411775
 20
-7.150000000000089
 30
0.0
 11
-11.43153532995492
 21
-6.600000000000138
 31
0.0
  0
ARC
  5
391E
330
3165
100
AcDbEntity
  8
Visible Edges(ISO)
100
AcDbCircle
 10
-32.90896534380897
 20
-19.0
 30
0.0
 40
23.69999999999996
100
AcDbArc
 50
29.99999999999972
 51
209.9999999999997
  0
LINE
  5
391F
330
3165
100
AcDbEntity
  8
Visible Edges(ISO)
100
AcDbLine
 10
-54.38639535766305
 20
-31.40000000000009
 30
0.0
 11
-53.43376741350017
 21
-30.84999999999991
 31
0.0
  0
ARC
  5
3920
330
3165
100
AcDbEntity
  8
Visible Edges(ISO)
100
AcDbCircle
 10
-32.90896534380895
 20
-19.0
 30
0.0
 40
24.79999999999986
100
AcDbArc
 50
209.9999999999997
 51
29.99999999999972
  0
LINE
  5
3921
330
3165
100
AcDbEntity
  8
Visible Edges(ISO)
100
AcDbLine
 10
-12.38416327411786
 20
-7.150000000000089
 30
0.0
 11
-11.43153532995498
 21
-6.600000000000138
 31
0.0
  0
ARC
  5
3922
330
3165
100
AcDbEntity
  8
Visible Edges(ISO)
100
AcDbCircle
 10
-32.90896534380895
 20
-19.0
 30
0.0
 40
23.69999999999986
100
AcDbArc
 50
209.9999999999997
 51
29.99999999999972
  0
LINE
  5
3923
330
3165
100
AcDbEntity
  8
Visible Edges(ISO)
100
AcDbLine
 10
-54.38639535766292
 20
-31.39999999999965
 30
0.0
 11
-53.43376741350008
 21
-30.84999999999991
 31
0.0
  0
ARC
  5
3924
330
3165
100
AcDbEntity
  8
Visible Edges(ISO)
100
AcDbCircle
 10
32.90896534380829
 20
-19.00000000000023
 30
0.0
 40
24.79999999999997
100
AcDbArc
 50
150.0000000000003
 51
330.0000000000003
  0
LINE
  5
3925
330
3165
100
AcDbEntity
  8
Visible Edges(ISO)
100
AcDbLine
 10
12.38416327411718
 20
-7.150000000000089
 30
0.0
 11
11.4315353299543
 21
-6.600000000000138
 31
0.0
  0
ARC
  5
3926
330
3165
100
AcDbEntity
  8
Visible Edges(ISO)
100
AcDbCircle
 10
32.90896534380829
 20
-19.00000000000023
 30
0.0
 40
23.69999999999996
100
AcDbArc
 50
150.0000000000003
 51
330.0000000000003
  0
LINE
  5
3927
330
3165
100
AcDbEntity
  8
Visible Edges(ISO)
100
AcDbLine
 10
54.38639535766231
 20
-31.40000000000032
 30
0.0
 11
53.43376741349939
 21
-30.85000000000036
 31
0.0
  0
ARC
  5
3928
330
3165
100
AcDbEntity
  8
Visible Edges(ISO)
100
AcDbCircle
 10
32.90896534380829
 20
-19.00000000000023
 30
0.0
 40
24.79999999999986
100
AcDbArc
 50
330.0000000000003
 51
150.0000000000003
  0
LINE
  5
3929
330
3165
100
AcDbEntity
  8
Visible Edges(ISO)
100
AcDbLine
 10
12.38416327411718
 20
-7.150000000000089
 30
0.0
 11
11.4315353299543
 21
-6.600000000000138
 31
0.0
  0
ARC
  5
392A
330
3165
100
AcDbEntity
  8
Visible Edges(ISO)
100
AcDbCircle
 10
32.90896534380829
 20
-19.00000000000023
 30
0.0
 40
23.69999999999986
100
AcDbArc
 50
330.0000000000003
 51
150.0000000000003
  0
LINE
  5
392B
330
3165
100
AcDbEntity
  8
Visible Edges(ISO)
100
AcDbLine
 10
54.3863953576622
 20
-31.40000000000009
 30
0.0
 11
53.43376741349931
 21
-30.84999999999991
 31
0.0
  0
ARC
  5
392C
330
3165
100
AcDbEntity
  8
Visible Edges(ISO)
100
AcDbCircle
 10
-0.000000000000199
 20
37.99999999999978
 30
0.0
 40
24.79999999999997
100
AcDbArc
 50
270.0
 51
90.0
  0
LINE
  5
392D
330
3165
100
AcDbEntity
  8
Visible Edges(ISO)
100
AcDbLine
 10
-0.0000000000002558
 20
14.29999999999973
 30
0.0
 11
-0.0000000000002558
 21
13.20000000000004
 31
0.0
  0
ARC
  5
392E
330
3165
100
AcDbEntity
  8
Visible Edges(ISO)
100
AcDbCircle
 10
-0.000000000000199
 20
37.99999999999978
 30
0.0
 40
23.69999999999996
100
AcDbArc
 50
270.0
 51
90.0
  0
LINE
  5
392F
330
3165
100
AcDbEntity
  8
Visible Edges(ISO)
100
AcDbLine
 10
-0.0000000000001705
 20
62.79999999999972
 30
0.0
 11
-0.0000000000001705
 21
61.69999999999982
 31
0.0
  0
ARC
  5
3930
330
3165
100
AcDbEntity
  8
Visible Edges(ISO)
100
AcDbCircle
 10
-0.0000000000002558
 20
37.99999999999978
 30
0.0
 40
23.69999999999986
100
AcDbArc
 50
90.0
 51
270.0
  0
LINE
  5
3931
330
3165
100
AcDbEntity
  8
Visible Edges(ISO)
100
AcDbLine
 10
-0.0000000000002558
 20
15.40000000000009
 30
0.0
 11
-0.0000000000002558
 21
14.30000000000018
 31
0.0
  0
ARC
  5
3932
330
3165
100
AcDbEntity
  8
Visible Edges(ISO)
100
AcDbCircle
 10
-0.0000000000002558
 20
37.99999999999978
 30
0.0
 40
22.59999999999987
100
AcDbArc
 50
90.0
 51
270.0
  0
LINE
  5
3933
330
3165
100
AcDbEntity
  8
Visible Edges(ISO)
100
AcDbLine
 10
-0.0000000000002558
 20
61.69999999999982
 30
0.0
 11
-0.0000000000002558
 21
60.59999999999967
 31
0.0
  0
ARC
  5
3934
330
3165
100
AcDbEntity
  8
Visible Edges(ISO)
100
AcDbCircle
 10
-32.90896534380897
 20
-19.0
 30
0.0
 40
23.69999999999996
100
AcDbArc
 50
29.99999999999972
 51
209.9999999999997
  0
LINE
  5
3935
330
3165
100
AcDbEntity
  8
Visible Edges(ISO)
100
AcDbLine
 10
-13.33679121828067
 20
-7.700000000000272
 30
0.0
 11
-12.38416327411775
 21
-7.150000000000089
 31
0.0
  0
ARC
  5
3936
330
3165
100
AcDbEntity
  8
Visible Edges(ISO)
100
AcDbCircle
 10
-32.90896534380897
 20
-19.0
 30
0.0
 40
22.59999999999998
100
AcDbArc
 50
29.99999999999972
 51
209.9999999999997
  0
LINE
  5
3937
330
3165
100
AcDbEntity
  8
Visible Edges(ISO)
100
AcDbLine
 10
-53.43376741350017
 20
-30.84999999999991
 30
0.0
 11
-52.48113946933727
 21
-30.30000000000018
 31
0.0
  0
ARC
  5
3938
330
3165
100
AcDbEntity
  8
Visible Edges(ISO)
100
AcDbCircle
 10
-32.90896534380895
 20
-19.0
 30
0.0
 40
23.69999999999986
100
AcDbArc
 50
209.9999999999997
 51
29.99999999999972
  0
LINE
  5
3939
330
3165
100
AcDbEntity
  8
Visible Edges(ISO)
100
AcDbLine
 10
-13.33679121828075
 20
-7.700000000000272
 30
0.0
 11
-12.38416327411786
 21
-7.150000000000089
 31
0.0
  0
ARC
  5
393A
330
3165
100
AcDbEntity
  8
Visible Edges(ISO)
100
AcDbCircle
 10
-32.90896534380895
 20
-19.0
 30
0.0
 40
22.59999999999987
100
AcDbArc
 50
209.9999999999997
 51
29.99999999999972
  0
LINE
  5
393B
330
3165
100
AcDbEntity
  8
Visible Edges(ISO)
100
AcDbLine
 10
-53.43376741350008
 20
-30.84999999999991
 30
0.0
 11
-52.48113946933719
 21
-30.29999999999996
 31
0.0
  0
ARC
  5
393C
330
3165
100
AcDbEntity
  8
Visible Edges(ISO)
100
AcDbCircle
 10
32.90896534380829
 20
-19.00000000000023
 30
0.0
 40
23.69999999999996
100
AcDbArc
 50
150.0000000000003
 51
330.0000000000003
  0
LINE
  5
393D
330
3165
100
AcDbEntity
  8
Visible Edges(ISO)
100
AcDbLine
 10
13.33679121828001
 20
-7.700000000000272
 30
0.0
 11
12.38416327411718
 21
-7.150000000000089
 31
0.0
  0
ARC
  5
393E
330
3165
100
AcDbEntity
  8
Visible Edges(ISO)
100
AcDbCircle
 10
32.90896534380829
 20
-19.00000000000023
 30
0.0
 40
22.59999999999998
100
AcDbArc
 50
150.0000000000003
 51
330.0000000000003
  0
LINE
  5
393F
330
3165
100
AcDbEntity
  8
Visible Edges(ISO)
100
AcDbLine
 10
53.43376741349939
 20
-30.85000000000036
 30
0.0
 11
52.48113946933648
 21
-30.30000000000018
 31
0.0
  0
ARC
  5
3940
330
3165
100
AcDbEntity
  8
Visible Edges(ISO)
100
AcDbCircle
 10
32.90896534380829
 20
-19.00000000000023
 30
0.0
 40
23.69999999999986
100
AcDbArc
 50
330.0000000000003
 51
150.0000000000003
  0
LINE
  5
3941
330
3165
100
AcDbEntity
  8
Visible Edges(ISO)
100
AcDbLine
 10
13.33679121828007
 20
-7.700000000000272
 30
0.0
 11
12.38416327411718
 21
-7.150000000000089
 31
0.0
  0
ARC
  5
3942
330
3165
100
AcDbEntity
  8
Visible Edges(ISO)
100
AcDbCircle
 10
32.90896534380829
 20
-19.00000000000023
 30
0.0
 40
22.59999999999988
100
AcDbArc
 50
330.0000000000003
 51
150.0000000000003
  0
LINE
  5
3943
330
3165
100
AcDbEntity
  8
Visible Edges(ISO)
100
AcDbLine
 10
53.43376741349931
 20
-30.84999999999991
 30
0.0
 11
52.48113946933648
 21
-30.30000000000018
 31
0.0
  0
ARC
  5
3944
330
3165
100
AcDbEntity
  8
Visible Edges(ISO)
100
AcDbCircle
 10
-0.000000000000199
 20
37.99999999999978
 30
0.0
 40
23.69999999999996
100
AcDbArc
 50
270.0
 51
90.0
  0
LINE
  5
3945
330
3165
100
AcDbEntity
  8
Visible Edges(ISO)
100
AcDbLine
 10
-0.0000000000002558
 20
15.39999999999986
 30
0.0
 11
-0.0000000000002558
 21
14.29999999999973
 31
0.0
  0
ARC
  5
3946
330
3165
100
AcDbEntity
  8
Visible Edges(ISO)
100
AcDbCircle
 10
-0.000000000000199
 20
37.99999999999978
 30
0.0
 40
22.59999999999998
100
AcDbArc
 50
270.0
 51
90.0
  0
LINE
  5
3947
330
3165
100
AcDbEntity
  8
Visible Edges(ISO)
100
AcDbLine
 10
-0.0000000000001705
 20
61.69999999999982
 30
0.0
 11
-0.0000000000001705
 21
60.59999999999989
 31
0.0
  0
ARC
  5
3948
330
3165
100
AcDbEntity
  8
Visible Edges(ISO)
100
AcDbCircle
 10
-0.0000000000002558
 20
37.99999999999978
 30
0.0
 40
22.59999999999987
100
AcDbArc
 50
90.0
 51
270.0
  0
LINE
  5
3949
330
3165
100
AcDbEntity
  8
Visible Edges(ISO)
100
AcDbLine
 10
-0.0000000000002558
 20
16.5
 30
0.0
 11
-0.0000000000002558
 21
15.40000000000009
 31
0.0
  0
ARC
  5
394A
330
3165
100
AcDbEntity
  8
Visible Edges(ISO)
100
AcDbCircle
 10
-0.0000000000002558
 20
37.99999999999978
 30
0.0
 40
21.49999999999988
100
AcDbArc
 50
90.0
 51
270.0
  0
LINE
  5
394B
330
3165
100
AcDbEntity
  8
Visible Edges(ISO)
100
AcDbLine
 10
-0.0000000000002558
 20
60.59999999999967
 30
0.0
 11
-0.0000000000002558
 21
59.49999999999977
 31
0.0
  0
ARC
  5
394C
330
3165
100
AcDbEntity
  8
Visible Edges(ISO)
100
AcDbCircle
 10
-32.90896534380897
 20
-19.0
 30
0.0
 40
22.59999999999998
100
AcDbArc
 50
29.99999999999972
 51
209.9999999999997
  0
LINE
  5
394D
330
3165
100
AcDbEntity
  8
Visible Edges(ISO)
100
AcDbLine
 10
-14.28941916244355
 20
-8.25
 30
0.0
 11
-13.33679121828069
 21
-7.700000000000272
 31
0.0
  0
ARC
  5
394E
330
3165
100
AcDbEntity
  8
Visible Edges(ISO)
100
AcDbCircle
 10
-32.90896534380897
 20
-19.0
 30
0.0
 40
21.49999999999997
100
AcDbArc
 50
29.99999999999972
 51
209.9999999999997
  0
LINE
  5
394F
330
3165
100
AcDbEntity
  8
Visible Edges(ISO)
100
AcDbLine
 10
-52.48113946933727
 20
-30.30000000000018
 30
0.0
 11
-51.52851152517438
 21
-29.75
 31
0.0
  0
ARC
  5
3950
330
3165
100
AcDbEntity
  8
Visible Edges(ISO)
100
AcDbCircle
 10
-32.90896534380895
 20
-19.0
 30
0.0
 40
22.59999999999988
100
AcDbArc
 50
209.9999999999997
 51
29.99999999999972
  0
LINE
  5
3951
330
3165
100
AcDbEntity
  8
Visible Edges(ISO)
100
AcDbLine
 10
-14.28941916244363
 20
-8.25
 30
0.0
 11
-13.33679121828075
 21
-7.700000000000272
 31
0.0
  0
ARC
  5
3952
330
3165
100
AcDbEntity
  8
Visible Edges(ISO)
100
AcDbCircle
 10
-32.90896534380895
 20
-19.0
 30
0.0
 40
21.49999999999988
100
AcDbArc
 50
209.9999999999997
 51
29.99999999999972
  0
LINE
  5
3953
330
3165
100
AcDbEntity
  8
Visible Edges(ISO)
100
AcDbLine
 10
-52.48113946933717
 20
-30.29999999999996
 30
0.0
 11
-51.52851152517431
 21
-29.74999999999977
 31
0.0
  0
ARC
  5
3954
330
3165
100
AcDbEntity
  8
Visible Edges(ISO)
100
AcDbCircle
 10
32.90896534380829
 20
-19.00000000000023
 30
0.0
 40
22.59999999999998
100
AcDbArc
 50
150.0000000000003
 51
330.0000000000003
  0
LINE
  5
3955
330
3165
100
AcDbEntity
  8
Visible Edges(ISO)
100
AcDbLine
 10
14.2894191624429
 20
-8.250000000000227
 30
0.0
 11
13.33679121828001
 21
-7.700000000000272
 31
0.0
  0
ARC
  5
3956
330
3165
100
AcDbEntity
  8
Visible Edges(ISO)
100
AcDbCircle
 10
32.90896534380829
 20
-19.00000000000023
 30
0.0
 40
21.49999999999997
100
AcDbArc
 50
150.0000000000003
 51
330.0000000000003
  0
LINE
  5
3957
330
3165
100
AcDbEntity
  8
Visible Edges(ISO)
100
AcDbLine
 10
52.48113946933648
 20
-30.30000000000018
 30
0.0
 11
51.52851152517368
 21
-29.75000000000023
 31
0.0
  0
ARC
  5
3958
330
3165
100
AcDbEntity
  8
Visible Edges(ISO)
100
AcDbCircle
 10
32.90896534380829
 20
-19.00000000000023
 30
0.0
 40
22.59999999999987
100
AcDbArc
 50
330.0000000000003
 51
150.0000000000003
  0
LINE
  5
3959
330
3165
100
AcDbEntity
  8
Visible Edges(ISO)
100
AcDbLine
 10
14.28941916244301
 20
-8.250000000000227
 30
0.0
 11
13.33679121828007
 21
-7.700000000000272
 31
0.0
  0
ARC
  5
395A
330
3165
100
AcDbEntity
  8
Visible Edges(ISO)
100
AcDbCircle
 10
32.90896534380829
 20
-19.00000000000023
 30
0.0
 40
21.49999999999988
100
AcDbArc
 50
330.0000000000003
 51
150.0000000000003
  0
LINE
  5
395B
330
3165
100
AcDbEntity
  8
Visible Edges(ISO)
100
AcDbLine
 10
52.48113946933648
 20
-30.30000000000018
 30
0.0
 11
51.5285115251736
 21
-29.75
 31
0.0
  0
ARC
  5
395C
330
3165
100
AcDbEntity
  8
Visible Edges(ISO)
100
AcDbCircle
 10
-0.000000000000199
 20
37.99999999999978
 30
0.0
 40
22.59999999999998
100
AcDbArc
 50
270.0
 51
90.0
  0
LINE
  5
395D
330
3165
100
AcDbEntity
  8
Visible Edges(ISO)
100
AcDbLine
 10
-0.0000000000002558
 20
16.5
 30
0.0
 11
-0.0000000000002558
 21
15.39999999999986
 31
0.0
  0
ARC
  5
395E
330
3165
100
AcDbEntity
  8
Visible Edges(ISO)
100
AcDbCircle
 10
-0.000000000000199
 20
37.99999999999978
 30
0.0
 40
21.49999999999997
100
AcDbArc
 50
270.0
 51
90.0
  0
LINE
  5
395F
330
3165
100
AcDbEntity
  8
Visible Edges(ISO)
100
AcDbLine
 10
-0.0000000000001705
 20
60.59999999999989
 30
0.0
 11
-0.000000000000199
 21
59.49999999999977
 31
0.0
  0
ARC
  5
3960
330
3165
100
AcDbEntity
  8
Visible Edges(ISO)
100
AcDbCircle
 10
-0.0000000000002558
 20
37.99999999999978
 30
0.0
 40
21.49999999999988
100
AcDbArc
 50
90.0
 51
270.0
  0
LINE
  5
3961
330
3165
100
AcDbEntity
  8
Visible Edges(ISO)
100
AcDbLine
 10
-0.0000000000002558
 20
17.59999999999991
 30
0.0
 11
-0.0000000000002558
 21
16.5
 31
0.0
  0
ARC
  5
3962
330
3165
100
AcDbEntity
  8
Visible Edges(ISO)
100
AcDbCircle
 10
-0.0000000000002558
 20
37.99999999999978
 30
0.0
 40
20.39999999999988
100
AcDbArc
 50
90.0
 51
270.0
  0
LINE
  5
3963
330
3165
100
AcDbEntity
  8
Visible Edges(ISO)
100
AcDbLine
 10
-0.0000000000002558
 20
59.49999999999977
 30
0.0
 11
-0.0000000000002558
 21
58.39999999999985
 31
0.0
  0
ARC
  5
3964
330
3165
100
AcDbEntity
  8
Visible Edges(ISO)
100
AcDbCircle
 10
-32.90896534380895
 20
-19.0
 30
0.0
 40
21.49999999999997
100
AcDbArc
 50
29.99999999999972
 51
209.9999999999997
  0
LINE
  5
3965
330
3165
100
AcDbEntity
  8
Visible Edges(ISO)
100
AcDbLine
 10
-15.24204710660646
 20
-8.800000000000181
 30
0.0
 11
-14.28941916244355
 21
-8.25
 31
0.0
  0
ARC
  5
3966
330
3165
100
AcDbEntity
  8
Visible Edges(ISO)
100
AcDbCircle
 10
-32.90896534380897
 20
-19.0
 30
0.0
 40
20.39999999999997
100
AcDbArc
 50
29.99999999999972
 51
209.9999999999997
  0
LINE
  5
3967
330
3165
100
AcDbEntity
  8
Visible Edges(ISO)
100
AcDbLine
 10
-51.52851152517442
 20
-29.75
 30
0.0
 11
-50.57588358101149
 21
-29.20000000000005
 31
0.0
  0
ARC
  5
3968
330
3165
100
AcDbEntity
  8
Visible Edges(ISO)
100
AcDbCircle
 10
-32.90896534380895
 20
-19.0
 30
0.0
 40
21.49999999999988
100
AcDbArc
 50
209.9999999999997
 51
29.99999999999972
  0
LINE
  5
3969
330
3165
100
AcDbEntity
  8
Visible Edges(ISO)
100
AcDbLine
 10
-15.24204710660649
 20
-8.800000000000181
 30
0.0
 11
-14.28941916244363
 21
-8.25
 31
0.0
  0
ARC
  5
396A
330
3165
100
AcDbEntity
  8
Visible Edges(ISO)
100
AcDbCircle
 10
-32.90896534380895
 20
-19.0
 30
0.0
 40
20.39999999999988
100
AcDbArc
 50
209.9999999999997
 51
29.99999999999972
  0
LINE
  5
396B
330
3165
100
AcDbEntity
  8
Visible Edges(ISO)
100
AcDbLine
 10
-51.52851152517431
 20
-29.74999999999977
 30
0.0
 11
-50.57588358101142
 21
-29.19999999999982
 31
0.0
  0
ARC
  5
396C
330
3165
100
AcDbEntity
  8
Visible Edges(ISO)
100
AcDbCircle
 10
32.90896534380829
 20
-19.00000000000023
 30
0.0
 40
21.49999999999997
100
AcDbArc
 50
150.0000000000003
 51
330.0000000000003
  0
LINE
  5
396D
330
3165
100
AcDbEntity
  8
Visible Edges(ISO)
100
AcDbLine
 10
15.24204710660578
 20
-8.800000000000181
 30
0.0
 11
14.2894191624429
 21
-8.250000000000227
 31
0.0
  0
ARC
  5
396E
330
3165
100
AcDbEntity
  8
Visible Edges(ISO)
100
AcDbCircle
 10
32.90896534380829
 20
-19.00000000000023
 30
0.0
 40
20.39999999999998
100
AcDbArc
 50
150.0000000000003
 51
330.0000000000003
  0
LINE
  5
396F
330
3165
100
AcDbEntity
  8
Visible Edges(ISO)
100
AcDbLine
 10
51.52851152517368
 20
-29.75000000000023
 30
0.0
 11
50.5758835810108
 21
-29.20000000000027
 31
0.0
  0
ARC
  5
3970
330
3165
100
AcDbEntity
  8
Visible Edges(ISO)
100
AcDbCircle
 10
32.90896534380829
 20
-19.00000000000023
 30
0.0
 40
21.49999999999988
100
AcDbArc
 50
330.0000000000003
 51
150.0000000000003
  0
LINE
  5
3971
330
3165
100
AcDbEntity
  8
Visible Edges(ISO)
100
AcDbLine
 10
15.24204710660578
 20
-8.800000000000181
 30
0.0
 11
14.28941916244301
 21
-8.250000000000227
 31
0.0
  0
ARC
  5
3972
330
3165
100
AcDbEntity
  8
Visible Edges(ISO)
100
AcDbCircle
 10
32.90896534380829
 20
-19.00000000000023
 30
0.0
 40
20.39999999999988
100
AcDbArc
 50
330.0000000000003
 51
150.0000000000003
  0
LINE
  5
3973
330
3165
100
AcDbEntity
  8
Visible Edges(ISO)
100
AcDbLine
 10
51.5285115251736
 20
-29.75
 30
0.0
 11
50.57588358101067
 21
-29.20000000000027
 31
0.0
  0
ARC
  5
3974
330
3165
100
AcDbEntity
  8
Visible Edges(ISO)
100
AcDbCircle
 10
-0.000000000000199
 20
37.99999999999978
 30
0.0
 40
21.49999999999997
100
AcDbArc
 50
270.0
 51
90.0
  0
LINE
  5
3975
330
3165
100
AcDbEntity
  8
Visible Edges(ISO)
100
AcDbLine
 10
-0.0000000000002558
 20
17.59999999999991
 30
0.0
 11
-0.0000000000002558
 21
16.5
 31
0.0
  0
ARC
  5
3976
330
3165
100
AcDbEntity
  8
Visible Edges(ISO)
100
AcDbCircle
 10
-0.000000000000199
 20
37.99999999999978
 30
0.0
 40
20.39999999999997
100
AcDbArc
 50
270.0
 51
90.0
  0
LINE
  5
3977
330
3165
100
AcDbEntity
  8
Visible Edges(ISO)
100
AcDbLine
 10
-0.000000000000199
 20
59.49999999999977
 30
0.0
 11
-0.000000000000199
 21
58.4000000000001
 31
0.0
  0
ARC
  5
3978
330
3165
100
AcDbEntity
  8
Visible Edges(ISO)
100
AcDbCircle
 10
-0.0000000000002558
 20
37.99999999999978
 30
0.0
 40
20.39999999999988
100
AcDbArc
 50
90.0
 51
270.0
  0
LINE
  5
3979
330
3165
100
AcDbEntity
  8
Visible Edges(ISO)
100
AcDbLine
 10
-0.0000000000002558
 20
18.70000000000004
 30
0.0
 11
-0.0000000000002558
 21
17.59999999999991
 31
0.0
  0
ARC
  5
397A
330
3165
100
AcDbEntity
  8
Visible Edges(ISO)
100
AcDbCircle
 10
-0.0000000000002558
 20
37.99999999999978
 30
0.0
 40
19.29999999999989
100
AcDbArc
 50
90.0
 51
270.0
  0
LINE
  5
397B
330
3165
100
AcDbEntity
  8
Visible Edges(ISO)
100
AcDbLine
 10
-0.0000000000002558
 20
58.39999999999985
 30
0.0
 11
-0.0000000000002558
 21
57.29999999999972
 31
0.0
  0
ARC
  5
397C
330
3165
100
AcDbEntity
  8
Visible Edges(ISO)
100
AcDbCircle
 10
-32.90896534380897
 20
-19.0
 30
0.0
 40
20.39999999999997
100
AcDbArc
 50
29.99999999999972
 51
209.9999999999997
  0
LINE
  5
397D
330
3165
100
AcDbEntity
  8
Visible Edges(ISO)
100
AcDbLine
 10
-16.19467505076932
 20
-9.349999999999909
 30
0.0
 11
-15.24204710660646
 21
-8.800000000000181
 31
0.0
  0
ARC
  5
397E
330
3165
100
AcDbEntity
  8
Visible Edges(ISO)
100
AcDbCircle
 10
-32.90896534380897
 20
-19.0
 30
0.0
 40
19.29999999999997
100
AcDbArc
 50
29.99999999999972
 51
209.9999999999997
  0
LINE
  5
397F
330
3165
100
AcDbEntity
  8
Visible Edges(ISO)
100
AcDbLine
 10
-50.57588358101149
 20
-29.20000000000005
 30
0.0
 11
-49.62325563684863
 21
-28.65000000000009
 31
0.0
  0
ARC
  5
3980
330
3165
100
AcDbEntity
  8
Visible Edges(ISO)
100
AcDbCircle
 10
-32.90896534380895
 20
-19.0
 30
0.0
 40
20.39999999999988
100
AcDbArc
 50
209.9999999999997
 51
29.99999999999972
  0
LINE
  5
3981
330
3165
100
AcDbEntity
  8
Visible Edges(ISO)
100
AcDbLine
 10
-16.19467505076935
 20
-9.349999999999909
 30
0.0
 11
-15.24204710660649
 21
-8.800000000000181
 31
0.0
  0
ARC
  5
3982
330
3165
100
AcDbEntity
  8
Visible Edges(ISO)
100
AcDbCircle
 10
-32.90896534380895
 20
-19.0
 30
0.0
 40
19.29999999999989
100
AcDbArc
 50
209.9999999999997
 51
29.99999999999972
  0
LINE
  5
3983
330
3165
100
AcDbEntity
  8
Visible Edges(ISO)
100
AcDbLine
 10
-50.57588358101142
 20
-29.19999999999982
 30
0.0
 11
-49.62325563684853
 21
-28.65000000000009
 31
0.0
  0
ARC
  5
3984
330
3165
100
AcDbEntity
  8
Visible Edges(ISO)
100
AcDbCircle
 10
32.90896534380829
 20
-19.00000000000023
 30
0.0
 40
20.39999999999998
100
AcDbArc
 50
150.0000000000003
 51
330.0000000000003
  0
LINE
  5
3985
330
3165
100
AcDbEntity
  8
Visible Edges(ISO)
100
AcDbLine
 10
16.19467505076869
 20
-9.350000000000136
 30
0.0
 11
15.24204710660578
 21
-8.800000000000181
 31
0.0
  0
ARC
  5
3986
330
3165
100
AcDbEntity
  8
Visible Edges(ISO)
100
AcDbCircle
 10
32.90896534380829
 20
-19.00000000000023
 30
0.0
 40
19.29999999999998
100
AcDbArc
 50
150.0000000000003
 51
330.0000000000003
  0
LINE
  5
3987
330
3165
100
AcDbEntity
  8
Visible Edges(ISO)
100
AcDbLine
 10
50.5758835810108
 20
-29.20000000000027
 30
0.0
 11
49.62325563684789
 21
-28.65000000000009
 31
0.0
  0
ARC
  5
3988
330
3165
100
AcDbEntity
  8
Visible Edges(ISO)
100
AcDbCircle
 10
32.90896534380829
 20
-19.00000000000023
 30
0.0
 40
20.39999999999988
100
AcDbArc
 50
330.0000000000003
 51
150.0000000000003
  0
LINE
  5
3989
330
3165
100
AcDbEntity
  8
Visible Edges(ISO)
100
AcDbLine
 10
16.19467505076869
 20
-9.350000000000136
 30
0.0
 11
15.24204710660578
 21
-8.800000000000181
 31
0.0
  0
ARC
  5
398A
330
3165
100
AcDbEntity
  8
Visible Edges(ISO)
100
AcDbCircle
 10
32.90896534380829
 20
-19.00000000000023
 30
0.0
 40
19.2999999999999
100
AcDbArc
 50
330.0000000000003
 51
150.0000000000003
  0
LINE
  5
398B
330
3165
100
AcDbEntity
  8
Visible Edges(ISO)
100
AcDbLine
 10
50.57588358101067
 20
-29.20000000000027
 30
0.0
 11
49.6232556368478
 21
-28.65000000000009
 31
0.0
  0
ARC
  5
398C
330
3165
100
AcDbEntity
  8
Visible Edges(ISO)
100
AcDbCircle
 10
-0.000000000000199
 20
37.99999999999978
 30
0.0
 40
20.39999999999997
100
AcDbArc
 50
270.0
 51
90.0
  0
LINE
  5
398D
330
3165
100
AcDbEntity
  8
Visible Edges(ISO)
100
AcDbLine
 10
-0.0000000000002558
 20
18.70000000000004
 30
0.0
 11
-0.0000000000002558
 21
17.59999999999991
 31
0.0
  0
ARC
  5
398E
330
3165
100
AcDbEntity
  8
Visible Edges(ISO)
100
AcDbCircle
 10
-0.000000000000199
 20
37.99999999999978
 30
0.0
 40
19.29999999999997
100
AcDbArc
 50
270.0
 51
90.0
  0
LINE
  5
398F
330
3165
100
AcDbEntity
  8
Visible Edges(ISO)
100
AcDbLine
 10
-0.000000000000199
 20
58.4000000000001
 30
0.0
 11
-0.000000000000199
 21
57.29999999999995
 31
0.0
  0
ARC
  5
3990
330
3165
100
AcDbEntity
  8
Visible Edges(ISO)
100
AcDbCircle
 10
-0.0000000000002558
 20
37.99999999999978
 30
0.0
 40
19.29999999999989
100
AcDbArc
 50
90.0
 51
270.0
  0
LINE
  5
3991
330
3165
100
AcDbEntity
  8
Visible Edges(ISO)
100
AcDbLine
 10
-0.0000000000002558
 20
19.79999999999995
 30
0.0
 11
-0.0000000000002558
 21
18.70000000000004
 31
0.0
  0
ARC
  5
3992
330
3165
100
AcDbEntity
  8
Visible Edges(ISO)
100
AcDbCircle
 10
-0.0000000000002558
 20
37.99999999999978
 30
0.0
 40
18.19999999999989
100
AcDbArc
 50
90.0
 51
270.0
  0
LINE
  5
3993
330
3165
100
AcDbEntity
  8
Visible Edges(ISO)
100
AcDbLine
 10
-0.0000000000002558
 20
57.29999999999972
 30
0.0
 11
-0.0000000000002558
 21
56.19999999999982
 31
0.0
  0
ARC
  5
3994
330
3165
100
AcDbEntity
  8
Visible Edges(ISO)
100
AcDbCircle
 10
-32.90896534380897
 20
-19.0
 30
0.0
 40
19.29999999999997
100
AcDbArc
 50
29.99999999999972
 51
209.9999999999997
  0
LINE
  5
3995
330
3165
100
AcDbEntity
  8
Visible Edges(ISO)
100
AcDbLine
 10
-17.14730299493217
 20
-9.900000000000087
 30
0.0
 11
-16.19467505076932
 21
-9.349999999999909
 31
0.0
  0
ARC
  5
3996
330
3165
100
AcDbEntity
  8
Visible Edges(ISO)
100
AcDbCircle
 10
-32.90896534380897
 20
-19.0
 30
0.0
 40
18.19999999999998
100
AcDbArc
 50
29.99999999999972
 51
209.9999999999997
  0
LINE
  5
3997
330
3165
100
AcDbEntity
  8
Visible Edges(ISO)
100
AcDbLine
 10
-49.62325563684863
 20
-28.65000000000009
 30
0.0
 11
-48.67062769268573
 21
-28.09999999999991
 31
0.0
  0
ARC
  5
3998
330
3165
100
AcDbEntity
  8
Visible Edges(ISO)
100
AcDbCircle
 10
-32.90896534380895
 20
-19.0
 30
0.0
 40
19.29999999999989
100
AcDbArc
 50
209.9999999999997
 51
29.99999999999972
  0
LINE
  5
3999
330
3165
100
AcDbEntity
  8
Visible Edges(ISO)
100
AcDbLine
 10
-17.14730299493226
 20
-9.900000000000087
 30
0.0
 11
-16.19467505076935
 21
-9.349999999999909
 31
0.0
  0
ARC
  5
399A
330
3165
100
AcDbEntity
  8
Visible Edges(ISO)
100
AcDbCircle
 10
-32.90896534380895
 20
-19.0
 30
0.0
 40
18.19999999999989
100
AcDbArc
 50
209.9999999999997
 51
29.99999999999972
  0
LINE
  5
399B
330
3165
100
AcDbEntity
  8
Visible Edges(ISO)
100
AcDbLine
 10
-49.62325563684853
 20
-28.65000000000009
 30
0.0
 11
-48.67062769268565
 21
-28.09999999999991
 31
0.0
  0
ARC
  5
399C
330
3165
100
AcDbEntity
  8
Visible Edges(ISO)
100
AcDbCircle
 10
32.90896534380829
 20
-19.00000000000023
 30
0.0
 40
19.29999999999998
100
AcDbArc
 50
150.0000000000003
 51
330.0000000000003
  0
LINE
  5
399D
330
3165
100
AcDbEntity
  8
Visible Edges(ISO)
100
AcDbLine
 10
17.14730299493158
 20
-9.900000000000087
 30
0.0
 11
16.19467505076869
 21
-9.350000000000136
 31
0.0
  0
ARC
  5
399E
330
3165
100
AcDbEntity
  8
Visible Edges(ISO)
100
AcDbCircle
 10
32.90896534380829
 20
-19.00000000000023
 30
0.0
 40
18.19999999999996
100
AcDbArc
 50
150.0000000000003
 51
330.0000000000003
  0
LINE
  5
399F
330
3165
100
AcDbEntity
  8
Visible Edges(ISO)
100
AcDbLine
 10
49.62325563684789
 20
-28.65000000000009
 30
0.0
 11
48.670627692685
 21
-28.10000000000014
 31
0.0
  0
ARC
  5
39A0
330
3165
100
AcDbEntity
  8
Visible Edges(ISO)
100
AcDbCircle
 10
32.90896534380829
 20
-19.00000000000023
 30
0.0
 40
19.2999999999999
100
AcDbArc
 50
330.0000000000003
 51
150.0000000000003
  0
LINE
  5
39A1
330
3165
100
AcDbEntity
  8
Visible Edges(ISO)
100
AcDbLine
 10
17.14730299493158
 20
-9.900000000000087
 30
0.0
 11
16.19467505076869
 21
-9.350000000000136
 31
0.0
  0
ARC
  5
39A2
330
3165
100
AcDbEntity
  8
Visible Edges(ISO)
100
AcDbCircle
 10
32.90896534380829
 20
-19.00000000000023
 30
0.0
 40
18.19999999999989
100
AcDbArc
 50
330.0000000000003
 51
150.0000000000003
  0
LINE
  5
39A3
330
3165
100
AcDbEntity
  8
Visible Edges(ISO)
100
AcDbLine
 10
49.6232556368478
 20
-28.65000000000009
 30
0.0
 11
48.670627692685
 21
-28.09999999999991
 31
0.0
  0
ARC
  5
39A4
330
3165
100
AcDbEntity
  8
Visible Edges(ISO)
100
AcDbCircle
 10
-0.000000000000199
 20
37.99999999999978
 30
0.0
 40
19.29999999999997
100
AcDbArc
 50
270.0
 51
90.0
  0
LINE
  5
39A5
330
3165
100
AcDbEntity
  8
Visible Edges(ISO)
100
AcDbLine
 10
-0.0000000000002558
 20
19.79999999999995
 30
0.0
 11
-0.0000000000002558
 21
18.70000000000004
 31
0.0
  0
ARC
  5
39A6
330
3165
100
AcDbEntity
  8
Visible Edges(ISO)
100
AcDbCircle
 10
-0.000000000000199
 20
37.99999999999978
 30
0.0
 40
18.19999999999996
100
AcDbArc
 50
270.0
 51
90.0
  0
LINE
  5
39A7
330
3165
100
AcDbEntity
  8
Visible Edges(ISO)
100
AcDbLine
 10
-0.000000000000199
 20
57.29999999999995
 30
0.0
 11
-0.000000000000199
 21
56.20000000000004
 31
0.0
  0
ARC
  5
39A8
330
3165
100
AcDbEntity
  8
Visible Edges(ISO)
100
AcDbCircle
 10
-0.0000000000002558
 20
37.99999999999978
 30
0.0
 40
18.19999999999989
100
AcDbArc
 50
90.0
 51
270.0
  0
LINE
  5
39A9
330
3165
100
AcDbEntity
  8
Visible Edges(ISO)
100
AcDbLine
 10
-0.0000000000002558
 20
20.90000000000009
 30
0.0
 11
-0.0000000000002558
 21
19.79999999999995
 31
0.0
  0
ARC
  5
39AA
330
3165
100
AcDbEntity
  8
Visible Edges(ISO)
100
AcDbCircle
 10
-0.0000000000002558
 20
37.99999999999978
 30
0.0
 40
17.0999999999999
100
AcDbArc
 50
90.0
 51
270.0
  0
LINE
  5
39AB
330
3165
100
AcDbEntity
  8
Visible Edges(ISO)
100
AcDbLine
 10
-0.0000000000002558
 20
56.19999999999982
 30
0.0
 11
-0.0000000000002558
 21
55.0999999999999
 31
0.0
  0
ARC
  5
39AC
330
3165
100
AcDbEntity
  8
Visible Edges(ISO)
100
AcDbCircle
 10
-32.90896534380897
 20
-19.0
 30
0.0
 40
18.19999999999996
100
AcDbArc
 50
29.99999999999972
 51
209.9999999999997
  0
LINE
  5
39AD
330
3165
100
AcDbEntity
  8
Visible Edges(ISO)
100
AcDbLine
 10
-18.09993093909506
 20
-10.45000000000027
 30
0.0
 11
-17.14730299493217
 21
-9.900000000000087
 31
0.0
  0
ARC
  5
39AE
330
3165
100
AcDbEntity
  8
Visible Edges(ISO)
100
AcDbCircle
 10
-32.90896534380897
 20
-19.0
 30
0.0
 40
17.09999999999998
100
AcDbArc
 50
29.99999999999972
 51
209.9999999999997
  0
LINE
  5
39AF
330
3165
100
AcDbEntity
  8
Visible Edges(ISO)
100
AcDbLine
 10
-48.67062769268573
 20
-28.09999999999991
 30
0.0
 11
-47.71799974852288
 21
-27.55000000000018
 31
0.0
  0
ARC
  5
39B0
330
3165
100
AcDbEntity
  8
Visible Edges(ISO)
100
AcDbCircle
 10
-32.90896534380895
 20
-19.0
 30
0.0
 40
18.19999999999989
100
AcDbArc
 50
209.9999999999997
 51
29.99999999999972
  0
LINE
  5
39B1
330
3165
100
AcDbEntity
  8
Visible Edges(ISO)
100
AcDbLine
 10
-18.09993093909511
 20
-10.45000000000027
 30
0.0
 11
-17.14730299493226
 21
-9.900000000000087
 31
0.0
  0
ARC
  5
39B2
330
3165
100
AcDbEntity
  8
Visible Edges(ISO)
100
AcDbCircle
 10
-32.90896534380895
 20
-19.0
 30
0.0
 40
17.0999999999999
100
AcDbArc
 50
209.9999999999997
 51
29.99999999999972
  0
LINE
  5
39B3
330
3165
100
AcDbEntity
  8
Visible Edges(ISO)
100
AcDbLine
 10
-48.67062769268565
 20
-28.09999999999991
 30
0.0
 11
-47.71799974852277
 21
-27.54999999999973
 31
0.0
  0
ARC
  5
39B4
330
3165
100
AcDbEntity
  8
Visible Edges(ISO)
100
AcDbCircle
 10
32.90896534380829
 20
-19.00000000000023
 30
0.0
 40
18.19999999999996
100
AcDbArc
 50
150.0000000000003
 51
330.0000000000003
  0
LINE
  5
39B5
330
3165
100
AcDbEntity
  8
Visible Edges(ISO)
100
AcDbLine
 10
18.09993093909438
 20
-10.45000000000027
 30
0.0
 11
17.14730299493158
 21
-9.900000000000087
 31
0.0
  0
ARC
  5
39B6
330
3165
100
AcDbEntity
  8
Visible Edges(ISO)
100
AcDbCircle
 10
32.90896534380829
 20
-19.00000000000023
 30
0.0
 40
17.09999999999998
100
AcDbArc
 50
150.0000000000003
 51
330.0000000000003
  0
LINE
  5
39B7
330
3165
100
AcDbEntity
  8
Visible Edges(ISO)
100
AcDbLine
 10
48.670627692685
 20
-28.10000000000014
 30
0.0
 11
47.71799974852217
 21
-27.55000000000018
 31
0.0
  0
ARC
  5
39B8
330
3165
100
AcDbEntity
  8
Visible Edges(ISO)
100
AcDbCircle
 10
32.90896534380829
 20
-19.00000000000023
 30
0.0
 40
18.19999999999989
100
AcDbArc
 50
330.0000000000003
 51
150.0000000000003
  0
LINE
  5
39B9
330
3165
100
AcDbEntity
  8
Visible Edges(ISO)
100
AcDbLine
 10
18.09993093909449
 20
-10.45000000000027
 30
0.0
 11
17.14730299493158
 21
-9.900000000000087
 31
0.0
  0
ARC
  5
39BA
330
3165
100
AcDbEntity
  8
Visible Edges(ISO)
100
AcDbCircle
 10
32.90896534380829
 20
-19.00000000000023
 30
0.0
 40
17.0999999999999
100
AcDbArc
 50
330.0000000000003
 51
150.0000000000003
  0
LINE
  5
39BB
330
3165
100
AcDbEntity
  8
Visible Edges(ISO)
100
AcDbLine
 10
48.670627692685
 20
-28.09999999999991
 30
0.0
 11
47.71799974852209
 21
-27.55000000000018
 31
0.0
  0
ARC
  5
39BC
330
3165
100
AcDbEntity
  8
Visible Edges(ISO)
100
AcDbCircle
 10
-0.000000000000199
 20
37.99999999999978
 30
0.0
 40
18.19999999999996
100
AcDbArc
 50
270.0
 51
90.0
  0
LINE
  5
39BD
330
3165
100
AcDbEntity
  8
Visible Edges(ISO)
100
AcDbLine
 10
-0.0000000000002558
 20
20.90000000000009
 30
0.0
 11
-0.0000000000002558
 21
19.79999999999995
 31
0.0
  0
ARC
  5
39BE
330
3165
100
AcDbEntity
  8
Visible Edges(ISO)
100
AcDbCircle
 10
-0.000000000000199
 20
37.99999999999978
 30
0.0
 40
17.09999999999998
100
AcDbArc
 50
270.0
 51
90.0
  0
LINE
  5
39BF
330
3165
100
AcDbEntity
  8
Visible Edges(ISO)
100
AcDbLine
 10
-0.000000000000199
 20
56.20000000000004
 30
0.0
 11
-0.000000000000199
 21
55.0999999999999
 31
0.0
  0
ARC
  5
39C0
330
3165
100
AcDbEntity
  8
Visible Edges(ISO)
100
AcDbCircle
 10
-0.0000000000002558
 20
37.99999999999978
 30
0.0
 40
17.0999999999999
100
AcDbArc
 50
90.0
 51
270.0
  0
LINE
  5
39C1
330
3165
100
AcDbEntity
  8
Visible Edges(ISO)
100
AcDbLine
 10
-0.0000000000002558
 20
22.0
 30
0.0
 11
-0.0000000000002558
 21
20.90000000000009
 31
0.0
  0
ARC
  5
39C2
330
3165
100
AcDbEntity
  8
Visible Edges(ISO)
100
AcDbCircle
 10
-0.0000000000002558
 20
37.99999999999978
 30
0.0
 40
15.99999999999991
100
AcDbArc
 50
90.0
 51
270.0
  0
LINE
  5
39C3
330
3165
100
AcDbEntity
  8
Visible Edges(ISO)
100
AcDbLine
 10
-0.0000000000002558
 20
55.0999999999999
 30
0.0
 11
-0.0000000000002558
 21
53.99999999999977
 31
0.0
  0
ARC
  5
39C4
330
3165
100
AcDbEntity
  8
Visible Edges(ISO)
100
AcDbCircle
 10
-32.90896534380897
 20
-19.0
 30
0.0
 40
17.09999999999998
100
AcDbArc
 50
29.99999999999972
 51
209.9999999999997
  0
LINE
  5
39C5
330
3165
100
AcDbEntity
  8
Visible Edges(ISO)
100
AcDbLine
 10
-19.05255888325794
 20
-11.0
 30
0.0
 11
-18.09993093909509
 21
-10.45000000000027
 31
0.0
  0
ARC
  5
39C6
330
3165
100
AcDbEntity
  8
Visible Edges(ISO)
100
AcDbCircle
 10
-32.90896534380897
 20
-19.0
 30
0.0
 40
15.99999999999998
100
AcDbArc
 50
29.99999999999972
 51
209.9999999999997
  0
LINE
  5
39C7
330
3165
100
AcDbEntity
  8
Visible Edges(ISO)
100
AcDbLine
 10
-47.71799974852288
 20
-27.55000000000018
 30
0.0
 11
-46.76537180435997
 21
-27.0
 31
0.0
  0
ARC
  5
39C8
330
3165
100
AcDbEntity
  8
Visible Edges(ISO)
100
AcDbCircle
 10
-32.90896534380895
 20
-19.0
 30
0.0
 40
17.0999999999999
100
AcDbArc
 50
209.9999999999997
 51
29.99999999999972
  0
LINE
  5
39C9
330
3165
100
AcDbEntity
  8
Visible Edges(ISO)
100
AcDbLine
 10
-19.052558883258
 20
-11.0
 30
0.0
 11
-18.09993093909511
 21
-10.45000000000027
 31
0.0
  0
ARC
  5
39CA
330
3165
100
AcDbEntity
  8
Visible Edges(ISO)
100
AcDbCircle
 10
-32.90896534380895
 20
-19.0
 30
0.0
 40
15.9999999999999
100
AcDbArc
 50
209.9999999999997
 51
29.99999999999972
  0
LINE
  5
39CB
330
3165
100
AcDbEntity
  8
Visible Edges(ISO)
100
AcDbLine
 10
-47.71799974852277
 20
-27.54999999999973
 30
0.0
 11
-46.76537180435992
 21
-27.0
 31
0.0
  0
ARC
  5
39CC
330
3165
100
AcDbEntity
  8
Visible Edges(ISO)
100
AcDbCircle
 10
32.90896534380829
 20
-19.00000000000023
 30
0.0
 40
17.09999999999998
100
AcDbArc
 50
150.0000000000003
 51
330.0000000000003
  0
LINE
  5
39CD
330
3165
100
AcDbEntity
  8
Visible Edges(ISO)
100
AcDbLine
 10
19.05255888325729
 20
-11.00000000000022
 30
0.0
 11
18.09993093909438
 21
-10.45000000000027
 31
0.0
  0
ARC
  5
39CE
330
3165
100
AcDbEntity
  8
Visible Edges(ISO)
100
AcDbCircle
 10
32.90896534380829
 20
-19.00000000000023
 30
0.0
 40
15.99999999999998
100
AcDbArc
 50
150.0000000000003
 51
330.0000000000003
  0
LINE
  5
39CF
330
3165
100
AcDbEntity
  8
Visible Edges(ISO)
100
AcDbLine
 10
47.71799974852217
 20
-27.55000000000018
 30
0.0
 11
46.76537180435929
 21
-27.00000000000023
 31
0.0
  0
ARC
  5
39D0
330
3165
100
AcDbEntity
  8
Visible Edges(ISO)
100
AcDbCircle
 10
32.90896534380829
 20
-19.00000000000023
 30
0.0
 40
17.0999999999999
100
AcDbArc
 50
330.0000000000003
 51
150.0000000000003
  0
LINE
  5
39D1
330
3165
100
AcDbEntity
  8
Visible Edges(ISO)
100
AcDbLine
 10
19.05255888325729
 20
-11.00000000000022
 30
0.0
 11
18.09993093909449
 21
-10.45000000000027
 31
0.0
  0
ARC
  5
39D2
330
3165
100
AcDbEntity
  8
Visible Edges(ISO)
100
AcDbCircle
 10
32.90896534380829
 20
-19.00000000000023
 30
0.0
 40
15.99999999999991
100
AcDbArc
 50
330.0000000000003
 51
150.0000000000003
  0
LINE
  5
39D3
330
3165
100
AcDbEntity
  8
Visible Edges(ISO)
100
AcDbLine
 10
47.71799974852209
 20
-27.55000000000018
 30
0.0
 11
46.76537180435917
 21
-27.0
 31
0.0
  0
ARC
  5
39D4
330
3165
100
AcDbEntity
  8
Visible Edges(ISO)
100
AcDbCircle
 10
-0.000000000000199
 20
37.99999999999978
 30
0.0
 40
17.09999999999998
100
AcDbArc
 50
270.0
 51
90.0
  0
LINE
  5
39D5
330
3165
100
AcDbEntity
  8
Visible Edges(ISO)
100
AcDbLine
 10
-0.0000000000002558
 20
21.99999999999977
 30
0.0
 11
-0.0000000000002558
 21
20.90000000000009
 31
0.0
  0
ARC
  5
39D6
330
3165
100
AcDbEntity
  8
Visible Edges(ISO)
100
AcDbCircle
 10
-0.000000000000199
 20
37.99999999999978
 30
0.0
 40
15.99999999999998
100
AcDbArc
 50
270.0
 51
90.0
  0
LINE
  5
39D7
330
3165
100
AcDbEntity
  8
Visible Edges(ISO)
100
AcDbLine
 10
-0.000000000000199
 20
55.0999999999999
 30
0.0
 11
-0.000000000000199
 21
53.99999999999977
 31
0.0
  0
ARC
  5
39D8
330
3165
100
AcDbEntity
  8
Visible Edges(ISO)
100
AcDbCircle
 10
-0.0000000000002558
 20
37.99999999999978
 30
0.0
 40
15.99999999999991
100
AcDbArc
 50
90.0
 51
270.0
  0
LINE
  5
39D9
330
3165
100
AcDbEntity
  8
Visible Edges(ISO)
100
AcDbLine
 10
-0.0000000000002558
 20
23.09999999999991
 30
0.0
 11
-0.0000000000002558
 21
22.0
 31
0.0
  0
ARC
  5
39DA
330
3165
100
AcDbEntity
  8
Visible Edges(ISO)
100
AcDbCircle
 10
-0.0000000000002558
 20
37.99999999999978
 30
0.0
 40
14.89999999999991
100
AcDbArc
 50
90.0
 51
270.0
  0
LINE
  5
39DB
330
3165
100
AcDbEntity
  8
Visible Edges(ISO)
100
AcDbLine
 10
-0.0000000000002558
 20
53.99999999999977
 30
0.0
 11
-0.0000000000002558
 21
52.89999999999984
 31
0.0
  0
ARC
  5
39DC
330
3165
100
AcDbEntity
  8
Visible Edges(ISO)
100
AcDbCircle
 10
-32.90896534380897
 20
-19.0
 30
0.0
 40
15.99999999999998
100
AcDbArc
 50
29.99999999999972
 51
209.9999999999997
  0
LINE
  5
39DD
330
3165
100
AcDbEntity
  8
Visible Edges(ISO)
100
AcDbLine
 10
-20.00518682742086
 20
-11.55000000000018
 30
0.0
 11
-19.05255888325794
 21
-11.0
 31
0.0
  0
ARC
  5
39DE
330
3165
100
AcDbEntity
  8
Visible Edges(ISO)
100
AcDbCircle
 10
-32.90896534380897
 20
-19.0
 30
0.0
 40
14.89999999999998
100
AcDbArc
 50
29.99999999999972
 51
209.9999999999997
  0
LINE
  5
39DF
330
3165
100
AcDbEntity
  8
Visible Edges(ISO)
100
AcDbLine
 10
-46.76537180436
 20
-27.0
 30
0.0
 11
-45.8127438601971
 21
-26.45000000000005
 31
0.0
  0
ARC
  5
39E0
330
3165
100
AcDbEntity
  8
Visible Edges(ISO)
100
AcDbCircle
 10
-32.90896534380895
 20
-19.0
 30
0.0
 40
15.99999999999991
100
AcDbArc
 50
209.9999999999997
 51
29.99999999999972
  0
LINE
  5
39E1
330
3165
100
AcDbEntity
  8
Visible Edges(ISO)
100
AcDbLine
 10
-20.00518682742089
 20
-11.55000000000018
 30
0.0
 11
-19.052558883258
 21
-11.0
 31
0.0
  0
ARC
  5
39E2
330
3165
100
AcDbEntity
  8
Visible Edges(ISO)
100
AcDbCircle
 10
-32.90896534380895
 20
-19.0
 30
0.0
 40
14.89999999999991
100
AcDbArc
 50
209.9999999999997
 51
29.99999999999972
  0
LINE
  5
39E3
330
3165
100
AcDbEntity
  8
Visible Edges(ISO)
100
AcDbLine
 10
-46.76537180435992
 20
-27.0
 30
0.0
 11
-45.81274386019702
 21
-26.44999999999982
 31
0.0
  0
ARC
  5
39E4
330
3165
100
AcDbEntity
  8
Visible Edges(ISO)
100
AcDbCircle
 10
32.90896534380829
 20
-19.00000000000023
 30
0.0
 40
15.99999999999998
100
AcDbArc
 50
150.0000000000003
 51
330.0000000000003
  0
LINE
  5
39E5
330
3165
100
AcDbEntity
  8
Visible Edges(ISO)
100
AcDbLine
 10
20.0051868274202
 20
-11.55000000000018
 30
0.0
 11
19.05255888325729
 21
-11.00000000000022
 31
0.0
  0
ARC
  5
39E6
330
3165
100
AcDbEntity
  8
Visible Edges(ISO)
100
AcDbCircle
 10
32.90896534380829
 20
-19.00000000000023
 30
0.0
 40
14.89999999999998
100
AcDbArc
 50
150.0000000000003
 51
330.0000000000003
  0
LINE
  5
39E7
330
3165
100
AcDbEntity
  8
Visible Edges(ISO)
100
AcDbLine
 10
46.76537180435929
 20
-27.00000000000023
 30
0.0
 11
45.81274386019638
 21
-26.45000000000027
 31
0.0
  0
ARC
  5
39E8
330
3165
100
AcDbEntity
  8
Visible Edges(ISO)
100
AcDbCircle
 10
32.90896534380829
 20
-19.00000000000023
 30
0.0
 40
15.99999999999991
100
AcDbArc
 50
330.0000000000003
 51
150.0000000000003
  0
LINE
  5
39E9
330
3165
100
AcDbEntity
  8
Visible Edges(ISO)
100
AcDbLine
 10
20.0051868274202
 20
-11.55000000000018
 30
0.0
 11
19.05255888325729
 21
-11.00000000000022
 31
0.0
  0
ARC
  5
39EA
330
3165
100
AcDbEntity
  8
Visible Edges(ISO)
100
AcDbCircle
 10
32.90896534380829
 20
-19.00000000000023
 30
0.0
 40
14.89999999999992
100
AcDbArc
 50
330.0000000000003
 51
150.0000000000003
  0
LINE
  5
39EB
330
3165
100
AcDbEntity
  8
Visible Edges(ISO)
100
AcDbLine
 10
46.76537180435917
 20
-27.0
 30
0.0
 11
45.81274386019628
 21
-26.45000000000027
 31
0.0
  0
ARC
  5
39EC
330
3165
100
AcDbEntity
  8
Visible Edges(ISO)
100
AcDbCircle
 10
-0.000000000000199
 20
37.99999999999978
 30
0.0
 40
15.99999999999998
100
AcDbArc
 50
270.0
 51
90.0
  0
LINE
  5
39ED
330
3165
100
AcDbEntity
  8
Visible Edges(ISO)
100
AcDbLine
 10
-0.0000000000002558
 20
23.09999999999991
 30
0.0
 11
-0.0000000000002558
 21
21.99999999999977
 31
0.0
  0
ARC
  5
39EE
330
3165
100
AcDbEntity
  8
Visible Edges(ISO)
100
AcDbCircle
 10
-0.000000000000199
 20
37.99999999999978
 30
0.0
 40
14.89999999999998
100
AcDbArc
 50
270.0
 51
90.0
  0
LINE
  5
39EF
330
3165
100
AcDbEntity
  8
Visible Edges(ISO)
100
AcDbLine
 10
-0.000000000000199
 20
53.99999999999977
 30
0.0
 11
-0.000000000000199
 21
52.89999999999984
 31
0.0
  0
ARC
  5
39F0
330
3165
100
AcDbEntity
  8
Visible Edges(ISO)
100
AcDbCircle
 10
-0.0000000000002558
 20
37.99999999999978
 30
0.0
 40
14.89999999999991
100
AcDbArc
 50
90.0
 51
270.0
  0
LINE
  5
39F1
330
3165
100
AcDbEntity
  8
Visible Edges(ISO)
100
AcDbLine
 10
-0.0000000000002558
 20
24.20000000000005
 30
0.0
 11
-0.0000000000002558
 21
23.09999999999991
 31
0.0
  0
ARC
  5
39F2
330
3165
100
AcDbEntity
  8
Visible Edges(ISO)
100
AcDbCircle
 10
-0.0000000000002558
 20
37.99999999999978
 30
0.0
 40
13.79999999999992
100
AcDbArc
 50
90.0
 51
270.0
  0
LINE
  5
39F3
330
3165
100
AcDbEntity
  8
Visible Edges(ISO)
100
AcDbLine
 10
-0.0000000000002558
 20
52.89999999999984
 30
0.0
 11
-0.0000000000002558
 21
51.79999999999972
 31
0.0
  0
ARC
  5
39F4
330
3165
100
AcDbEntity
  8
Visible Edges(ISO)
100
AcDbCircle
 10
-32.90896534380897
 20
-19.0
 30
0.0
 40
14.89999999999998
100
AcDbArc
 50
29.99999999999972
 51
209.9999999999997
  0
LINE
  5
39F5
330
3165
100
AcDbEntity
  8
Visible Edges(ISO)
100
AcDbLine
 10
-20.95781477158372
 20
-12.09999999999991
 30
0.0
 11
-20.00518682742086
 21
-11.55000000000018
 31
0.0
  0
ARC
  5
39F6
330
3165
100
AcDbEntity
  8
Visible Edges(ISO)
100
AcDbCircle
 10
-32.90896534380897
 20
-19.0
 30
0.0
 40
13.79999999999998
100
AcDbArc
 50
29.99999999999972
 51
209.9999999999997
  0
LINE
  5
39F7
330
3165
100
AcDbEntity
  8
Visible Edges(ISO)
100
AcDbLine
 10
-45.8127438601971
 20
-26.45000000000005
 30
0.0
 11
-44.8601159160342
 21
-25.90000000000009
 31
0.0
  0
ARC
  5
39F8
330
3165
100
AcDbEntity
  8
Visible Edges(ISO)
100
AcDbCircle
 10
-32.90896534380895
 20
-19.0
 30
0.0
 40
14.89999999999991
100
AcDbArc
 50
209.9999999999997
 51
29.99999999999972
  0
LINE
  5
39F9
330
3165
100
AcDbEntity
  8
Visible Edges(ISO)
100
AcDbLine
 10
-20.95781477158377
 20
-12.09999999999991
 30
0.0
 11
-20.00518682742089
 21
-11.55000000000018
 31
0.0
  0
ARC
  5
39FA
330
3165
100
AcDbEntity
  8
Visible Edges(ISO)
100
AcDbCircle
 10
-32.90896534380895
 20
-19.0
 30
0.0
 40
13.79999999999992
100
AcDbArc
 50
209.9999999999997
 51
29.99999999999972
  0
LINE
  5
39FB
330
3165
100
AcDbEntity
  8
Visible Edges(ISO)
100
AcDbLine
 10
-45.81274386019706
 20
-26.44999999999982
 30
0.0
 11
-44.86011591603417
 21
-25.89999999999986
 31
0.0
  0
ARC
  5
39FC
330
3165
100
AcDbEntity
  8
Visible Edges(ISO)
100
AcDbCircle
 10
32.90896534380829
 20
-19.00000000000023
 30
0.0
 40
14.89999999999998
100
AcDbArc
 50
150.0000000000003
 51
330.0000000000003
  0
LINE
  5
39FD
330
3165
100
AcDbEntity
  8
Visible Edges(ISO)
100
AcDbLine
 10
20.95781477158309
 20
-12.10000000000013
 30
0.0
 11
20.0051868274202
 21
-11.55000000000018
 31
0.0
  0
ARC
  5
39FE
330
3165
100
AcDbEntity
  8
Visible Edges(ISO)
100
AcDbCircle
 10
32.90896534380829
 20
-19.00000000000023
 30
0.0
 40
13.79999999999998
100
AcDbArc
 50
150.0000000000003
 51
330.0000000000003
  0
LINE
  5
39FF
330
3165
100
AcDbEntity
  8
Visible Edges(ISO)
100
AcDbLine
 10
45.81274386019638
 20
-26.45000000000027
 30
0.0
 11
44.86011591603349
 21
-25.90000000000009
 31
0.0
  0
ARC
  5
3A00
330
3165
100
AcDbEntity
  8
Visible Edges(ISO)
100
AcDbCircle
 10
32.90896534380829
 20
-19.00000000000023
 30
0.0
 40
14.89999999999992
100
AcDbArc
 50
330.0000000000003
 51
150.0000000000003
  0
LINE
  5
3A01
330
3165
100
AcDbEntity
  8
Visible Edges(ISO)
100
AcDbLine
 10
20.95781477158309
 20
-12.10000000000013
 30
0.0
 11
20.0051868274202
 21
-11.55000000000018
 31
0.0
  0
ARC
  5
3A02
330
3165
100
AcDbEntity
  8
Visible Edges(ISO)
100
AcDbCircle
 10
32.90896534380829
 20
-19.00000000000023
 30
0.0
 40
13.79999999999992
100
AcDbArc
 50
330.0000000000003
 51
150.0000000000003
  0
LINE
  5
3A03
330
3165
100
AcDbEntity
  8
Visible Edges(ISO)
100
AcDbLine
 10
45.81274386019628
 20
-26.45000000000027
 30
0.0
 11
44.86011591603349
 21
-25.90000000000009
 31
0.0
  0
ARC
  5
3A04
330
3165
100
AcDbEntity
  8
Visible Edges(ISO)
100
AcDbCircle
 10
-0.000000000000199
 20
37.99999999999978
 30
0.0
 40
14.89999999999998
100
AcDbArc
 50
270.0
 51
90.0
  0
LINE
  5
3A05
330
3165
100
AcDbEntity
  8
Visible Edges(ISO)
100
AcDbLine
 10
-0.0000000000002558
 20
24.20000000000005
 30
0.0
 11
-0.0000000000002558
 21
23.09999999999991
 31
0.0
  0
ARC
  5
3A06
330
3165
100
AcDbEntity
  8
Visible Edges(ISO)
100
AcDbCircle
 10
-0.000000000000199
 20
37.99999999999978
 30
0.0
 40
13.79999999999998
100
AcDbArc
 50
270.0
 51
90.0
  0
LINE
  5
3A07
330
3165
100
AcDbEntity
  8
Visible Edges(ISO)
100
AcDbLine
 10
-0.000000000000199
 20
52.89999999999984
 30
0.0
 11
-0.000000000000199
 21
51.79999999999972
 31
0.0
  0
ARC
  5
3A08
330
3165
100
AcDbEntity
  8
Visible Edges(ISO)
100
AcDbCircle
 10
-0.0000000000002558
 20
37.99999999999978
 30
0.0
 40
13.79999999999992
100
AcDbArc
 50
90.0
 51
270.0
  0
LINE
  5
3A09
330
3165
100
AcDbEntity
  8
Visible Edges(ISO)
100
AcDbLine
 10
-0.0000000000002558
 20
25.29999999999996
 30
0.0
 11
-0.0000000000002558
 21
24.20000000000005
 31
0.0
  0
ARC
  5
3A0A
330
3165
100
AcDbEntity
  8
Visible Edges(ISO)
100
AcDbCircle
 10
-0.0000000000002558
 20
37.99999999999978
 30
0.0
 40
12.69999999999992
100
AcDbArc
 50
90.0
 51
270.0
  0
LINE
  5
3A0B
330
3165
100
AcDbEntity
  8
Visible Edges(ISO)
100
AcDbLine
 10
-0.0000000000002558
 20
51.79999999999972
 30
0.0
 11
-0.0000000000002558
 21
50.69999999999982
 31
0.0
  0
ARC
  5
3A0C
330
3165
100
AcDbEntity
  8
Visible Edges(ISO)
100
AcDbCircle
 10
-32.90896534380897
 20
-19.0
 30
0.0
 40
13.79999999999998
100
AcDbArc
 50
29.99999999999972
 51
209.9999999999997
  0
LINE
  5
3A0D
330
3165
100
AcDbEntity
  8
Visible Edges(ISO)
100
AcDbLine
 10
-21.9104427157466
 20
-12.65000000000009
 30
0.0
 11
-20.95781477158372
 21
-12.09999999999991
 31
0.0
  0
ARC
  5
3A0E
330
3165
100
AcDbEntity
  8
Visible Edges(ISO)
100
AcDbCircle
 10
-32.90896534380897
 20
-19.0
 30
0.0
 40
12.69999999999998
100
AcDbArc
 50
29.99999999999972
 51
209.9999999999997
  0
LINE
  5
3A0F
330
3165
100
AcDbEntity
  8
Visible Edges(ISO)
100
AcDbLine
 10
-44.86011591603423
 20
-25.90000000000009
 30
0.0
 11
-43.90748797187135
 21
-25.35000000000014
 31
0.0
  0
ARC
  5
3A10
330
3165
100
AcDbEntity
  8
Visible Edges(ISO)
100
AcDbCircle
 10
-32.90896534380895
 20
-19.0
 30
0.0
 40
13.79999999999992
100
AcDbArc
 50
209.9999999999997
 51
29.99999999999972
  0
LINE
  5
3A11
330
3165
100
AcDbEntity
  8
Visible Edges(ISO)
100
AcDbLine
 10
-21.91044271574662
 20
-12.65000000000009
 30
0.0
 11
-20.95781477158377
 21
-12.09999999999991
 31
0.0
  0
ARC
  5
3A12
330
3165
100
AcDbEntity
  8
Visible Edges(ISO)
100
AcDbCircle
 10
-32.90896534380895
 20
-19.0
 30
0.0
 40
12.69999999999992
100
AcDbArc
 50
209.9999999999997
 51
29.99999999999972
  0
LINE
  5
3A13
330
3165
100
AcDbEntity
  8
Visible Edges(ISO)
100
AcDbLine
 10
-44.86011591603417
 20
-25.89999999999986
 30
0.0
 11
-43.90748797187129
 21
-25.34999999999991
 31
0.0
  0
ARC
  5
3A14
330
3165
100
AcDbEntity
  8
Visible Edges(ISO)
100
AcDbCircle
 10
32.90896534380829
 20
-19.00000000000023
 30
0.0
 40
13.79999999999998
100
AcDbArc
 50
150.0000000000003
 51
330.0000000000003
  0
LINE
  5
3A15
330
3165
100
AcDbEntity
  8
Visible Edges(ISO)
100
AcDbLine
 10
21.91044271574597
 20
-12.65000000000032
 30
0.0
 11
20.95781477158309
 21
-12.10000000000013
 31
0.0
  0
ARC
  5
3A16
330
3165
100
AcDbEntity
  8
Visible Edges(ISO)
100
AcDbCircle
 10
32.90896534380829
 20
-19.00000000000023
 30
0.0
 40
12.69999999999998
100
AcDbArc
 50
150.0000000000003
 51
330.0000000000003
  0
LINE
  5
3A17
330
3165
100
AcDbEntity
  8
Visible Edges(ISO)
100
AcDbLine
 10
44.86011591603349
 20
-25.90000000000009
 30
0.0
 11
43.9074879718706
 21
-25.35000000000037
 31
0.0
  0
ARC
  5
3A18
330
3165
100
AcDbEntity
  8
Visible Edges(ISO)
100
AcDbCircle
 10
32.90896534380829
 20
-19.00000000000023
 30
0.0
 40
13.79999999999992
100
AcDbArc
 50
330.0000000000003
 51
150.0000000000003
  0
LINE
  5
3A19
330
3165
100
AcDbEntity
  8
Visible Edges(ISO)
100
AcDbLine
 10
21.91044271574597
 20
-12.65000000000009
 30
0.0
 11
20.95781477158309
 21
-12.10000000000013
 31
0.0
  0
ARC
  5
3A1A
330
3165
100
AcDbEntity
  8
Visible Edges(ISO)
100
AcDbCircle
 10
32.90896534380829
 20
-19.00000000000023
 30
0.0
 40
12.69999999999992
100
AcDbArc
 50
330.0000000000003
 51
150.0000000000003
  0
LINE
  5
3A1B
330
3165
100
AcDbEntity
  8
Visible Edges(ISO)
100
AcDbLine
 10
44.86011591603349
 20
-25.90000000000009
 30
0.0
 11
43.9074879718706
 21
-25.35000000000014
 31
0.0
  0
ARC
  5
3A1C
330
3165
100
AcDbEntity
  8
Visible Edges(ISO)
100
AcDbCircle
 10
-0.000000000000199
 20
37.99999999999978
 30
0.0
 40
13.79999999999998
100
AcDbArc
 50
270.0
 51
90.0
  0
LINE
  5
3A1D
330
3165
100
AcDbEntity
  8
Visible Edges(ISO)
100
AcDbLine
 10
-0.0000000000002274
 20
25.29999999999996
 30
0.0
 11
-0.0000000000002558
 21
24.20000000000005
 31
0.0
  0
ARC
  5
3A1E
330
3165
100
AcDbEntity
  8
Visible Edges(ISO)
100
AcDbCircle
 10
-0.000000000000199
 20
37.99999999999978
 30
0.0
 40
12.69999999999998
100
AcDbArc
 50
270.0
 51
90.0
  0
LINE
  5
3A1F
330
3165
100
AcDbEntity
  8
Visible Edges(ISO)
100
AcDbLine
 10
-0.000000000000199
 20
51.79999999999972
 30
0.0
 11
-0.000000000000199
 21
50.69999999999982
 31
0.0
  0
ARC
  5
3A20
330
3165
100
AcDbEntity
  8
Visible Edges(ISO)
100
AcDbCircle
 10
-0.0000000000002558
 20
37.99999999999978
 30
0.0
 40
12.69999999999992
100
AcDbArc
 50
90.0
 51
270.0
  0
LINE
  5
3A21
330
3165
100
AcDbEntity
  8
Visible Edges(ISO)
100
AcDbLine
 10
-0.0000000000002558
 20
25.99999999999977
 30
0.0
 11
-0.0000000000002558
 21
25.29999999999996
 31
0.0
  0
ARC
  5
3A22
330
3165
100
AcDbEntity
  8
Visible Edges(ISO)
100
AcDbCircle
 10
-0.0000000000002558
 20
37.99999999999978
 30
0.0
 40
12.0
100
AcDbArc
 50
90.0
 51
270.0
  0
LINE
  5
3A23
330
3165
100
AcDbEntity
  8
Visible Edges(ISO)
100
AcDbLine
 10
-0.0000000000002558
 20
50.69999999999982
 30
0.0
 11
-0.0000000000002558
 21
49.99999999999977
 31
0.0
  0
ARC
  5
3A24
330
3165
100
AcDbEntity
  8
Visible Edges(ISO)
100
AcDbCircle
 10
-32.90896534380897
 20
-19.0
 30
0.0
 40
12.69999999999998
100
AcDbArc
 50
29.99999999999972
 51
209.9999999999997
  0
LINE
  5
3A25
330
3165
100
AcDbEntity
  8
Visible Edges(ISO)
100
AcDbLine
 10
-22.51666049839568
 20
-13.0
 30
0.0
 11
-21.9104427157466
 21
-12.65000000000009
 31
0.0
  0
ARC
  5
3A26
330
3165
100
AcDbEntity
  8
Visible Edges(ISO)
100
AcDbCircle
 10
-32.90896534380897
 20
-19.0
 30
0.0
 40
12.0
100
AcDbArc
 50
29.99999999999972
 51
209.9999999999997
  0
LINE
  5
3A27
330
3165
100
AcDbEntity
  8
Visible Edges(ISO)
100
AcDbLine
 10
-43.90748797187135
 20
-25.35000000000014
 30
0.0
 11
-43.30127018922214
 21
-25.00000000000023
 31
0.0
  0
ARC
  5
3A28
330
3165
100
AcDbEntity
  8
Visible Edges(ISO)
100
AcDbCircle
 10
-32.90896534380895
 20
-19.0
 30
0.0
 40
12.69999999999992
100
AcDbArc
 50
209.9999999999997
 51
29.99999999999972
  0
LINE
  5
3A29
330
3165
100
AcDbEntity
  8
Visible Edges(ISO)
100
AcDbLine
 10
-22.51666049839574
 20
-13.0
 30
0.0
 11
-21.91044271574662
 21
-12.65000000000009
 31
0.0
  0
ARC
  5
3A2A
330
3165
100
AcDbEntity
  8
Visible Edges(ISO)
100
AcDbCircle
 10
-32.90896534380895
 20
-19.0
 30
0.0
 40
12.0
100
AcDbArc
 50
209.9999999999997
 51
29.99999999999972
  0
LINE
  5
3A2B
330
3165
100
AcDbEntity
  8
Visible Edges(ISO)
100
AcDbLine
 10
-43.90748797187129
 20
-25.34999999999991
 30
0.0
 11
-43.30127018922229
 21
-25.0
 31
0.0
  0
ARC
  5
3A2C
330
3165
100
AcDbEntity
  8
Visible Edges(ISO)
100
AcDbCircle
 10
32.90896534380829
 20
-19.00000000000023
 30
0.0
 40
12.69999999999998
100
AcDbArc
 50
150.0000000000003
 51
330.0000000000003
  0
LINE
  5
3A2D
330
3165
100
AcDbEntity
  8
Visible Edges(ISO)
100
AcDbLine
 10
22.51666049839497
 20
-13.00000000000023
 30
0.0
 11
21.91044271574597
 21
-12.65000000000032
 31
0.0
  0
ARC
  5
3A2E
330
3165
100
AcDbEntity
  8
Visible Edges(ISO)
100
AcDbCircle
 10
32.90896534380829
 20
-19.00000000000023
 30
0.0
 40
12.0
100
AcDbArc
 50
150.0000000000003
 51
330.0000000000003
  0
LINE
  5
3A2F
330
3165
100
AcDbEntity
  8
Visible Edges(ISO)
100
AcDbLine
 10
43.9074879718706
 20
-25.35000000000037
 30
0.0
 11
43.30127018922161
 21
-25.00000000000023
 31
0.0
  0
ARC
  5
3A30
330
3165
100
AcDbEntity
  8
Visible Edges(ISO)
100
AcDbCircle
 10
32.90896534380829
 20
-19.00000000000023
 30
0.0
 40
12.69999999999992
100
AcDbArc
 50
330.0000000000003
 51
150.0000000000003
  0
LINE
  5
3A31
330
3165
100
AcDbEntity
  8
Visible Edges(ISO)
100
AcDbLine
 10
22.51666049839506
 20
-13.00000000000023
 30
0.0
 11
21.91044271574597
 21
-12.65000000000009
 31
0.0
  0
ARC
  5
3A32
330
3165
100
AcDbEntity
  8
Visible Edges(ISO)
100
AcDbCircle
 10
32.90896534380829
 20
-19.00000000000023
 30
0.0
 40
12.0
100
AcDbArc
 50
330.0000000000003
 51
150.0000000000003
  0
LINE
  5
3A33
330
3165
100
AcDbEntity
  8
Visible Edges(ISO)
100
AcDbLine
 10
43.9074879718706
 20
-25.35000000000014
 30
0.0
 11
43.30127018922152
 21
-25.00000000000023
 31
0.0
  0
ARC
  5
3A34
330
3165
100
AcDbEntity
  8
Visible Edges(ISO)
100
AcDbCircle
 10
-0.000000000000199
 20
37.99999999999978
 30
0.0
 40
12.69999999999998
100
AcDbArc
 50
270.0
 51
90.0
  0
LINE
  5
3A35
330
3165
100
AcDbEntity
  8
Visible Edges(ISO)
100
AcDbLine
 10
-0.0000000000002274
 20
25.99999999999977
 30
0.0
 11
-0.0000000000002274
 21
25.29999999999996
 31
0.0
  0
ARC
  5
3A36
330
3165
100
AcDbEntity
  8
Visible Edges(ISO)
100
AcDbCircle
 10
-0.000000000000199
 20
37.99999999999978
 30
0.0
 40
12.0
100
AcDbArc
 50
270.0
 51
90.0
  0
LINE
  5
3A37
330
3165
100
AcDbEntity
  8
Visible Edges(ISO)
100
AcDbLine
 10
-0.000000000000199
 20
50.69999999999982
 30
0.0
 11
-0.000000000000199
 21
49.99999999999977
 31
0.0
  0
ARC
  5
3A38
330
3165
100
AcDbEntity
  8
Visible Edges(ISO)
100
AcDbCircle
 10
0.0000000000073044
 20
-0.0000000009526957
 30
0.0
 40
75.00000000095241
100
AcDbArc
 50
90.23010415073514
 51
90.7639663640178
  0
ARC
  5
3A39
330
3165
100
AcDbEntity
  8
Visible Edges(ISO)
100
AcDbCircle
 10
0.0000000001386411
 20
0.0000000000777618
 30
0.0
 40
75.00000000015916
100
AcDbArc
 50
209.2360336359784
 51
209.7698958492678
  0
LINE
  5
3A3A
330
3165
100
AcDbEntity
  8
Visible Edges(ISO)
100
AcDbLine
 10
-0.0000000000002558
 20
65.29835159858544
 30
0.0
 11
-0.0000000000002558
 21
74.69939758793225
 31
0.0
  0
ARC
  5
3A3B
330
3165
100
AcDbEntity
  8
Visible Edges(ISO)
100
AcDbCircle
 10
-0.3000000000002672
 20
74.69939758793225
 30
0.0
 40
0.2999999999999968
100
AcDbArc
 50
0.0
 51
90.23010415073356
  0
ARC
  5
3A3C
330
3165
100
AcDbEntity
  8
Visible Edges(ISO)
100
AcDbCircle
 10
-0.0000000000002558
 20
37.99999999999978
 30
0.0
 40
26.99999999999997
100
AcDbArc
 50
90.62963662344207
 51
269.370363376558
  0
ARC
  5
3A3D
330
3165
100
AcDbEntity
  8
Visible Edges(ISO)
100
AcDbCircle
 10
-0.3000000000002672
 20
65.29835159858544
 30
0.0
 40
0.3000000000000005
100
AcDbArc
 50
270.6296366234404
 51
0.0
  0
LINE
  5
3A3E
330
3165
100
AcDbEntity
  8
Visible Edges(ISO)
100
AcDbLine
 10
-0.0000000000003126
 20
0.1732050807570431
 30
0.0
 11
-0.0000000000002558
 21
10.70164840141433
 31
0.0
  0
ARC
  5
3A3F
330
3165
100
AcDbEntity
  8
Visible Edges(ISO)
100
AcDbCircle
 10
-0.3000000000002672
 20
10.70164840141433
 30
0.0
 40
0.3000000000000014
100
AcDbArc
 50
0.0
 51
89.37036337655957
  0
LINE
  5
3A40
330
3165
100
AcDbEntity
  8
Visible Edges(ISO)
100
AcDbLine
 10
-9.267899377994323
 20
-5.350824200707393
 30
0.0
 11
-0.1500000000002899
 21
-0.0866025403784079
 31
0.0
  0
ARC
  5
3A41
330
3165
100
AcDbEntity
  8
Visible Edges(ISO)
100
AcDbCircle
 10
-0.3000000000002672
 20
0.1732050807570431
 30
0.0
 40
0.2999999999999997
100
AcDbArc
 50
299.9999999999959
 51
0.0
  0
ARC
  5
3A42
330
3165
100
AcDbEntity
  8
Visible Edges(ISO)
100
AcDbCircle
 10
-32.90896534380895
 20
-19.0
 30
0.0
 40
26.99999999999998
100
AcDbArc
 50
30.62963662344511
 51
209.3703633765527
  0
ARC
  5
3A43
330
3165
100
AcDbEntity
  8
Visible Edges(ISO)
100
AcDbCircle
 10
-9.417899377994332
 20
-5.091016579571941
 30
0.0
 40
0.2999999999999991
100
AcDbArc
 50
210.6296366234451
 51
299.9999999999945
  0
LINE
  5
3A44
330
3165
100
AcDbEntity
  8
Visible Edges(ISO)
100
AcDbLine
 10
-64.69157595854375
 20
-37.34969879396635
 30
0.0
 11
-56.55003130962361
 21
-32.64917579929284
 31
0.0
  0
ARC
  5
3A45
330
3165
100
AcDbEntity
  8
Visible Edges(ISO)
100
AcDbCircle
 10
-56.70003130962363
 20
-32.38936817815738
 30
0.0
 40
0.300000000000003
100
AcDbArc
 50
299.9999999999945
 51
29.37036337656719
  0
ARC
  5
3A46
330
3165
100
AcDbEntity
  8
Visible Edges(ISO)
100
AcDbCircle
 10
-64.84157595854376
 20
-37.08989117283091
 30
0.0
 40
0.2999999999999856
100
AcDbArc
 50
209.7698958492678
 51
300.0000000000109
  0
ARC
  5
3A47
330
3165
100
AcDbEntity
  8
Visible Edges(ISO)
100
AcDbCircle
 10
0.0000000004912124
 20
0.0000000002896741
 30
0.0
 40
75.00000000057045
100
AcDbArc
 50
210.2301041507315
 51
210.7639663640242
  0
ARC
  5
3A48
330
3165
100
AcDbEntity
  8
Visible Edges(ISO)
100
AcDbCircle
 10
-0.0000000005861409
 20
0.0000000003453806
 30
0.0
 40
75.00000000068009
100
AcDbArc
 50
329.236033635975
 51
329.7698958492677
  0
LINE
  5
3A49
330
3165
100
AcDbEntity
  8
Visible Edges(ISO)
100
AcDbLine
 10
-56.55003130962361
 20
-32.64917579929284
 30
0.0
 11
-64.69157595854375
 21
-37.34969879396635
 31
0.0
  0
ARC
  5
3A4A
330
3165
100
AcDbEntity
  8
Visible Edges(ISO)
100
AcDbCircle
 10
-64.54157595854377
 20
-37.60950641510135
 30
0.0
 40
0.2999999999999967
100
AcDbArc
 50
119.999999999993
 51
210.2301041507469
  0
ARC
  5
3A4B
330
3165
100
AcDbEntity
  8
Visible Edges(ISO)
100
AcDbCircle
 10
-32.90896534380895
 20
-19.0
 30
0.0
 40
26.99999999999998
100
AcDbArc
 50
210.6296366234451
 51
29.37036337655264
  0
ARC
  5
3A4C
330
3165
100
AcDbEntity
  8
Visible Edges(ISO)
100
AcDbCircle
 10
-56.40003130962361
 20
-32.90898342042806
 30
0.0
 40
0.3000000000000005
100
AcDbArc
 50
30.62963662344511
 51
119.9999999999944
  0
LINE
  5
3A4D
330
3165
100
AcDbEntity
  8
Visible Edges(ISO)
100
AcDbLine
 10
-0.1500000000002615
 20
-0.0866025403784079
 30
0.0
 11
-9.267899377994323
 21
-5.350824200707393
 31
0.0
  0
ARC
  5
3A4E
330
3165
100
AcDbEntity
  8
Visible Edges(ISO)
100
AcDbCircle
 10
-9.117899377994293
 20
-5.610631821842616
 30
0.0
 40
0.3000000000000014
100
AcDbArc
 50
119.9999999999958
 51
209.3703633765672
  0
LINE
  5
3A4F
330
3165
100
AcDbEntity
  8
Visible Edges(ISO)
100
AcDbLine
 10
9.267899377993694
 20
-5.350824200707393
 30
0.0
 11
0.1499999999997215
 21
-0.0866025403784079
 31
0.0
  0
ARC
  5
3A50
330
3165
100
AcDbEntity
  8
Visible Edges(ISO)
100
AcDbCircle
 10
-0.0000000000002558
 20
-0.3464101615138588
 30
0.0
 40
0.2999999999999997
100
AcDbArc
 50
60.00000000000413
 51
119.9999999999944
  0
ARC
  5
3A51
330
3165
100
AcDbEntity
  8
Visible Edges(ISO)
100
AcDbCircle
 10
32.90896534380829
 20
-19.00000000000023
 30
0.0
 40
26.99999999999999
100
AcDbArc
 50
150.6296366234473
 51
329.3703633765549
  0
ARC
  5
3A52
330
3165
100
AcDbEntity
  8
Visible Edges(ISO)
100
AcDbCircle
 10
9.117899377993692
 20
-5.610631821842616
 30
0.0
 40
0.2999999999999991
100
AcDbArc
 50
330.6296366234328
 51
59.99999999999055
  0
LINE
  5
3A53
330
3165
100
AcDbEntity
  8
Visible Edges(ISO)
100
AcDbLine
 10
64.69157595854297
 20
-37.34969879396658
 30
0.0
 11
56.55003130962291
 21
-32.64917579929306
 31
0.0
  0
ARC
  5
3A54
330
3165
100
AcDbEntity
  8
Visible Edges(ISO)
100
AcDbCircle
 10
56.4000313096229
 20
-32.90898342042829
 30
0.0
 40
0.300000000000003
100
AcDbArc
 50
60.00000000000413
 51
149.3703633765548
  0
ARC
  5
3A55
330
3165
100
AcDbEntity
  8
Visible Edges(ISO)
100
AcDbCircle
 10
64.54157595854301
 20
-37.60950641510181
 30
0.0
 40
0.2999999999999856
100
AcDbArc
 50
329.7698958492685
 51
60.00000000000691
  0
ARC
  5
3A56
330
3165
100
AcDbEntity
  8
Visible Edges(ISO)
100
AcDbCircle
 10
-0.000000000184599
 20
0.0000000001032276
 30
0.0
 40
75.00000000021116
100
AcDbArc
 50
330.2301041507321
 51
330.7639663640216
  0
ARC
  5
3A57
330
3165
100
AcDbEntity
  8
Visible Edges(ISO)
100
AcDbCircle
 10
-0.0000000000006821
 20
0.0000000000031832
 30
0.0
 40
74.99999999999665
100
AcDbArc
 50
89.23603363597894
 51
89.76989584926483
  0
LINE
  5
3A58
330
3165
100
AcDbEntity
  8
Visible Edges(ISO)
100
AcDbLine
 10
56.55003130962291
 20
-32.64917579929306
 30
0.0
 11
64.69157595854297
 21
-37.34969879396635
 31
0.0
  0
ARC
  5
3A59
330
3165
100
AcDbEntity
  8
Visible Edges(ISO)
100
AcDbCircle
 10
64.84157595854296
 20
-37.08989117283091
 30
0.0
 40
0.2999999999999968
100
AcDbArc
 50
240.0000000000041
 51
330.2301041507321
  0
ARC
  5
3A5A
330
3165
100
AcDbEntity
  8
Visible Edges(ISO)
100
AcDbCircle
 10
32.90896534380829
 20
-19.00000000000023
 30
0.0
 40
26.99999999999997
100
AcDbArc
 50
330.6296366234473
 51
149.3703633765548
  0
ARC
  5
3A5B
330
3165
100
AcDbEntity
  8
Visible Edges(ISO)
100
AcDbCircle
 10
56.70003130962289
 20
-32.38936817815738
 30
0.0
 40
0.3000000000000005
100
AcDbArc
 50
150.6296366234328
 51
239.9999999999906
  0
LINE
  5
3A5C
330
3165
100
AcDbEntity
  8
Visible Edges(ISO)
100
AcDbLine
 10
0.149999999999693
 20
-0.0866025403784079
 30
0.0
 11
9.267899377993694
 21
-5.350824200707393
 31
0.0
  0
ARC
  5
3A5D
330
3165
100
AcDbEntity
  8
Visible Edges(ISO)
100
AcDbCircle
 10
9.417899377993702
 20
-5.091016579571941
 30
0.0
 40
0.3000000000000014
100
AcDbArc
 50
240.0000000000041
 51
329.3703633765549
  0
LINE
  5
3A5E
330
3165
100
AcDbEntity
  8
Visible Edges(ISO)
100
AcDbLine
 10
-0.0000000000002558
 20
10.70164840141433
 30
0.0
 11
-0.0000000000003126
 21
0.1732050807570431
 31
0.0
  0
ARC
  5
3A5F
330
3165
100
AcDbEntity
  8
Visible Edges(ISO)
100
AcDbCircle
 10
0.2999999999996987
 20
0.1732050807570431
 30
0.0
 40
0.2999999999999997
100
AcDbArc
 50
180.0
 51
240.0000000000041
  0
ARC
  5
3A60
330
3165
100
AcDbEntity
  8
Visible Edges(ISO)
100
AcDbCircle
 10
-0.0000000000002274
 20
37.99999999999978
 30
0.0
 40
26.99999999999999
100
AcDbArc
 50
270.629636623442
 51
89.37036337655795
  0
ARC
  5
3A61
330
3165
100
AcDbEntity
  8
Visible Edges(ISO)
100
AcDbCircle
 10
0.2999999999997556
 20
10.70164840141433
 30
0.0
 40
0.2999999999999991
100
AcDbArc
 50
90.62963662344044
 51
180.0
  0
LINE
  5
3A62
330
3165
100
AcDbEntity
  8
Visible Edges(ISO)
100
AcDbLine
 10
-0.0000000000001421
 20
74.69939758793225
 30
0.0
 11
-0.0000000000001705
 21
65.29835159858544
 31
0.0
  0
ARC
  5
3A63
330
3165
100
AcDbEntity
  8
Visible Edges(ISO)
100
AcDbCircle
 10
0.2999999999998124
 20
65.29835159858544
 30
0.0
 40
0.3000000000000031
100
AcDbArc
 50
180.0
 51
269.3703633765596
  0
ARC
  5
3A64
330
3165
100
AcDbEntity
  8
Visible Edges(ISO)
100
AcDbCircle
 10
0.2999999999998692
 20
74.69939758793225
 30
0.0
 40
0.2999999999999857
100
AcDbArc
 50
89.76989584926645
 51
180.0
  0
ELLIPSE
  5
3A65
330
3165
100
AcDbEntity
  8
Visible Edges(ISO)
100
AcDbEllipse
 10
-0.0000000000002558
 20
-55.0
 30
0.0
 11
10.99999999999998
 21
0.0000000000000024
 31
0.0
210
0.0
220
0.0
230
1.0
 40
0.5454545454545458
 41
0.0
 42
6.283185307179584
  0
ARC
  5
3A66
330
3165
100
AcDbEntity
  8
Visible Edges(ISO)
100
AcDbCircle
 10
-66.00000000000017
 20
-41.56921938165305
 30
0.0
 40
1.999999999999999
100
AcDbArc
 50
119.9999999999958
 51
212.2042275039725
  0
ARC
  5
3A67
330
3165
100
AcDbEntity
  8
Visible Edges(ISO)
100
AcDbCircle
 10
-57.25949725322998
 20
-36.52288776795263
 30
0.0
 40
1.99999999999998
100
AcDbArc
 50
35.73917047727125
 51
119.9999999999958
  0
ARC
  5
3A68
330
3165
100
AcDbEntity
  8
Visible Edges(ISO)
100
AcDbCircle
 10
-5.558433434387865
 20
-6.673264654753892
 30
0.0
 40
1.999999999999995
100
AcDbArc
 50
119.9999999999944
 51
204.2608295227277
  0
ARC
  5
3A69
330
3165
100
AcDbEntity
  8
Visible Edges(ISO)
100
AcDbCircle
 10
-0.0000000000003126
 20
-3.464101615137678
 30
0.0
 40
1.999999999999995
100
AcDbArc
 50
60.00000000000413
 51
119.9999999999958
  0
ARC
  5
3A6A
330
3165
100
AcDbEntity
  8
Visible Edges(ISO)
100
AcDbCircle
 10
5.558433434387183
 20
-6.673264654753892
 30
0.0
 40
1.999999999999999
100
AcDbArc
 50
335.7391704772723
 51
60.00000000000413
  0
ARC
  5
3A6B
330
3165
100
AcDbEntity
  8
Visible Edges(ISO)
100
AcDbCircle
 10
57.2594972532294
 20
-36.5228877679524
 30
0.0
 40
2.000000000000003
100
AcDbArc
 50
60.00000000000413
 51
144.2608295227288
  0
ARC
  5
3A6C
330
3165
100
AcDbEntity
  8
Visible Edges(ISO)
100
AcDbCircle
 10
65.9999999999995
 20
-41.56921938165305
 30
0.0
 40
2.0
100
AcDbArc
 50
327.7957724960275
 51
60.00000000000413
  0
LINE
  5
3A6D
330
3165
100
AcDbEntity
  8
Visible Edges(ISO)
100
AcDbLine
 10
-67.0000000000002
 20
-39.83716857408444
 30
0.0
 11
-58.25949725322995
 21
-34.79083696038379
 31
0.0
  0
LINE
  5
3A6E
330
3165
100
AcDbEntity
  8
Visible Edges(ISO)
100
AcDbLine
 10
-6.558433434387807
 20
-4.941213847185281
 30
0.0
 11
-1.000000000000281
 21
-1.732050807569063
 31
0.0
  0
ARC
  5
3A6F
330
3165
100
AcDbEntity
  8
Visible Edges(ISO)
100
AcDbCircle
 10
32.90896534380829
 20
-19.00000000000023
 30
0.0
 40
27.99999999999997
100
AcDbArc
 50
155.7391704772723
 51
324.2608295227288
  0
ARC
  5
3A70
330
3165
100
AcDbEntity
  8
Visible Edges(ISO)
100
AcDbCircle
 10
-0.0000000000003126
 20
0.0
 30
0.0
 40
79.99999999999992
100
AcDbArc
 50
212.2042275039725
 51
327.7957724960275
  0
ARC
  5
3A71
330
3165
100
AcDbEntity
  8
Visible Edges(ISO)
100
AcDbCircle
 10
-32.90896534380895
 20
-19.0
 30
0.0
 40
27.99999999999997
100
AcDbArc
 50
215.7391704772712
 51
24.2608295227277
  0
LINE
  5
3A72
330
3165
100
AcDbEntity
  8
Visible Edges(ISO)
100
AcDbLine
 10
0.9999999999996871
 20
-1.732050807569063
 30
0.0
 11
6.558433434387183
 21
-4.941213847185281
 31
0.0
  0
LINE
  5
3A73
330
3165
100
AcDbEntity
  8
Visible Edges(ISO)
100
AcDbLine
 10
58.25949725322939
 20
-34.79083696038379
 30
0.0
 11
66.99999999999957
 21
-39.83716857408444
 31
0.0
  0
ELLIPSE
  5
3A74
330
3165
100
AcDbEntity
  8
Visible Edges(ISO)
100
AcDbEllipse
 10
-47.63139720814442
 20
27.5
 30
0.0
 11
-5.499999999999992
 21
-9.526279441628821
 31
0.0
210
0.0
220
0.0
230
1.0
 40
0.5454545454545455
 41
0.0
 42
6.283185307179584
  0
ARC
  5
3A75
330
3165
100
AcDbEntity
  8
Visible Edges(ISO)
100
AcDbCircle
 10
-3.000000000000426
 20
77.94228634059914
 30
0.0
 40
1.999999999999998
100
AcDbArc
 50
0.0
 51
92.20422750397242
  0
ARC
  5
3A76
330
3165
100
AcDbEntity
  8
Visible Edges(ISO)
100
AcDbCircle
 10
-3.000000000000426
 20
67.8496231131985
 30
0.0
 40
1.99999999999998
100
AcDbArc
 50
275.7391704772666
 51
0.0
  0
ARC
  5
3A77
330
3165
100
AcDbEntity
  8
Visible Edges(ISO)
100
AcDbCircle
 10
-3.000000000000341
 20
8.150376886801268
 30
0.0
 40
1.999999999999995
100
AcDbArc
 50
0.0
 51
84.26082952273345
  0
ARC
  5
3A78
330
3165
100
AcDbEntity
  8
Visible Edges(ISO)
100
AcDbCircle
 10
-3.000000000000341
 20
1.732050807568839
 30
0.0
 40
1.999999999999995
100
AcDbArc
 50
299.9999999999959
 51
0.0
  0
ARC
  5
3A79
330
3165
100
AcDbEntity
  8
Visible Edges(ISO)
100
AcDbCircle
 10
-8.558433434387865
 20
-1.477112232047375
 30
0.0
 40
1.999999999999999
100
AcDbArc
 50
215.7391704772712
 51
299.9999999999959
  0
ARC
  5
3A7A
330
3165
100
AcDbEntity
  8
Visible Edges(ISO)
100
AcDbCircle
 10
-60.25949725323003
 20
-31.32673534524611
 30
0.0
 40
2.000000000000003
100
AcDbArc
 50
299.9999999999959
 51
24.2608295227277
  0
ARC
  5
3A7B
330
3165
100
AcDbEntity
  8
Visible Edges(ISO)
100
AcDbCircle
 10
-69.00000000000027
 20
-36.37306695894631
 30
0.0
 40
2.0
100
AcDbArc
 50
207.7957724960304
 51
299.9999999999959
  0
LINE
  5
3A7C
330
3165
100
AcDbEntity
  8
Visible Edges(ISO)
100
AcDbLine
 10
-1.000000000000424
 20
77.94228634059914
 30
0.0
 11
-1.000000000000424
 21
67.8496231131985
 31
0.0
  0
LINE
  5
3A7D
330
3165
100
AcDbEntity
  8
Visible Edges(ISO)
100
AcDbLine
 10
-1.000000000000339
 20
8.150376886801268
 30
0.0
 11
-1.000000000000339
 21
1.732050807568839
 31
0.0
  0
ARC
  5
3A7E
330
3165
100
AcDbEntity
  8
Visible Edges(ISO)
100
AcDbCircle
 10
-32.908965343809
 20
-19.0
 30
0.0
 40
27.99999999999997
100
AcDbArc
 50
35.73917047727125
 51
204.2608295227277
  0
ARC
  5
3A7F
330
3165
100
AcDbEntity
  8
Visible Edges(ISO)
100
AcDbCircle
 10
-0.0000000000003126
 20
0.0
 30
0.0
 40
79.99999999999992
100
AcDbArc
 50
92.20422750397242
 51
207.7957724960296
  0
ARC
  5
3A80
330
3165
100
AcDbEntity
  8
Visible Edges(ISO)
100
AcDbCircle
 10
-0.0000000000003126
 20
38.0
 30
0.0
 40
27.99999999999996
100
AcDbArc
 50
95.73917047726821
 51
264.2608295227318
  0
LINE
  5
3A81
330
3165
100
AcDbEntity
  8
Visible Edges(ISO)
100
AcDbLine
 10
-2.000000000000341
 20
0.0
 30
0.0
 11
-7.558433434387865
 21
-3.209163039616214
 31
0.0
  0
LINE
  5
3A82
330
3165
100
AcDbEntity
  8
Visible Edges(ISO)
100
AcDbLine
 10
-59.25949725323003
 20
-33.05878615281495
 30
0.0
 11
-68.0000000000003
 21
-38.10511776651539
 31
0.0
  0
ELLIPSE
  5
3A83
330
3165
100
AcDbEntity
  8
Visible Edges(ISO)
100
AcDbEllipse
 10
47.63139720814399
 20
27.5
 30
0.0
 11
-5.5
 21
9.52627944162881
 31
0.0
210
0.0
220
0.0
230
0.9999999999999998
 40
0.5454545454545455
 41
0.0
 42
6.283185307179584
  0
ARC
  5
3A84
330
3165
100
AcDbEntity
  8
Visible Edges(ISO)
100
AcDbCircle
 10
68.99999999999997
 20
-36.37306695894631
 30
0.0
 40
1.999999999999998
100
AcDbArc
 50
240.0000000000041
 51
332.2042275039704
  0
ARC
  5
3A85
330
3165
100
AcDbEntity
  8
Visible Edges(ISO)
100
AcDbCircle
 10
60.25949725322967
 20
-31.32673534524611
 30
0.0
 40
1.99999999999998
100
AcDbArc
 50
155.7391704772723
 51
240.0000000000041
  0
ARC
  5
3A86
330
3165
100
AcDbEntity
  8
Visible Edges(ISO)
100
AcDbCircle
 10
8.558433434387495
 20
-1.477112232047375
 30
0.0
 40
1.999999999999995
100
AcDbArc
 50
240.0000000000041
 51
324.2608295227288
  0
ARC
  5
3A87
330
3165
100
AcDbEntity
  8
Visible Edges(ISO)
100
AcDbCircle
 10
3.0
 20
1.732050807568611
 30
0.0
 40
1.999999999999995
100
AcDbArc
 50
180.0
 51
240.0000000000041
  0
ARC
  5
3A88
330
3165
100
AcDbEntity
  8
Visible Edges(ISO)
100
AcDbCircle
 10
3.0
 20
8.150376886801268
 30
0.0
 40
1.999999999999999
100
AcDbArc
 50
95.73917047726821
 51
180.0
  0
ARC
  5
3A89
330
3165
100
AcDbEntity
  8
Visible Edges(ISO)
100
AcDbCircle
 10
2.999999999999912
 20
67.8496231131985
 30
0.0
 40
2.000000000000003
100
AcDbArc
 50
180.0
 51
264.2608295227335
  0
ARC
  5
3A8A
330
3165
100
AcDbEntity
  8
Visible Edges(ISO)
100
AcDbCircle
 10
3.0
 20
77.94228634059914
 30
0.0
 40
2.0
100
AcDbArc
 50
87.79577249602757
 51
180.0
  0
LINE
  5
3A8B
330
3165
100
AcDbEntity
  8
Visible Edges(ISO)
100
AcDbLine
 10
67.99999999999997
 20
-38.10511776651539
 30
0.0
 11
59.25949725322968
 21
-33.05878615281472
 31
0.0
  0
LINE
  5
3A8C
330
3165
100
AcDbEntity
  8
Visible Edges(ISO)
100
AcDbLine
 10
7.558433434387495
 20
-3.209163039616214
 30
0.0
 11
2.0
 21
0.0
 31
0.0
  0
ARC
  5
3A8D
330
3165
100
AcDbEntity
  8
Visible Edges(ISO)
100
AcDbCircle
 10
0.0000000000000568
 20
37.99999999999978
 30
0.0
 40
27.99999999999997
100
AcDbArc
 50
275.7391704772666
 51
84.26082952273345
  0
ARC
  5
3A8E
330
3165
100
AcDbEntity
  8
Visible Edges(ISO)
100
AcDbCircle
 10
0.0
 20
0.0
 30
0.0
 40
79.99999999999992
100
AcDbArc
 50
332.2042275039704
 51
87.79577249602757
  0
ARC
  5
3A8F
330
3165
100
AcDbEntity
  8
Visible Edges(ISO)
100
AcDbCircle
 10
32.9089653438086
 20
-19.0
 30
0.0
 40
27.99999999999997
100
AcDbArc
 50
335.7391704772723
 51
144.2608295227288
  0
LINE
  5
3A90
330
3165
100
AcDbEntity
  8
Visible Edges(ISO)
100
AcDbLine
 10
1.0
 20
1.732050807568611
 30
0.0
 11
1.0
 21
8.150376886801268
 31
0.0
  0
LINE
  5
3A91
330
3165
100
AcDbEntity
  8
Visible Edges(ISO)
100
AcDbLine
 10
0.9999999999999149
 20
67.8496231131985
 30
0.0
 11
1.0
 21
77.94228634059914
 31
0.0
  0
CIRCLE
  5
3A92
330
3165
100
AcDbEntity
  8
Visible Edges(ISO)
100
AcDbCircle
 10
28.49412454129002
 20
58.42161300944553
 30
0.0
 40
6.499999999999992
  0
LINE
  5
3A93
330
3165
100
AcDbEntity
  8
Visible Edges(ISO)
100
AcDbLine
 10
26.33624062053238
 20
61.13150913006257
 30
0.0
 11
29.76202146298252
 21
61.64534336354813
 31
0.0
  0
LINE
  5
3A94
330
3165
100
AcDbEntity
  8
Visible Edges(ISO)
100
AcDbLine
 10
29.76202146298252
 20
61.64534336354789
 30
0.0
 11
31.91990538374009
 21
58.93544724293088
 31
0.0
  0
LINE
  5
3A95
330
3165
100
AcDbEntity
  8
Visible Edges(ISO)
100
AcDbLine
 10
31.91990538374009
 20
58.93544724293111
 30
0.0
 11
30.65200846204758
 21
55.71171688882849
 31
0.0
  0
LINE
  5
3A96
330
3165
100
AcDbEntity
  8
Visible Edges(ISO)
100
AcDbLine
 10
30.65200846204758
 20
55.71171688882849
 30
0.0
 11
27.2262276195975
 21
55.19788265534295
 31
0.0
  0
LINE
  5
3A97
330
3165
100
AcDbEntity
  8
Visible Edges(ISO)
100
AcDbLine
 10
27.2262276195975
 20
55.19788265534295
 30
0.0
 11
25.0683436988399
 21
57.90777877596021
 31
0.0
  0
LINE
  5
3A98
330
3165
100
AcDbEntity
  8
Visible Edges(ISO)
100
AcDbLine
 10
25.0683436988399
 20
57.90777877596021
 30
0.0
 11
26.33624062053238
 21
61.13150913006257
 31
0.0
  0
CIRCLE
  5
3A99
330
3165
100
AcDbEntity
  8
Visible Edges(ISO)
100
AcDbCircle
 10
-30.31088913245563
 20
17.5
 30
0.0
 40
6.499999999999992
  0
LINE
  5
3A9A
330
3165
100
AcDbEntity
  8
Visible Edges(ISO)
100
AcDbLine
 10
-31.87710087306536
 20
14.41018110828872
 30
0.0
 11
-33.76985665607558
 21
17.31146970921782
 31
0.0
  0
LINE
  5
3A9B
330
3165
100
AcDbEntity
  8
Visible Edges(ISO)
100
AcDbLine
 10
-33.76985665607558
 20
17.31146970921782
 30
0.0
 11
-32.20364491546582
 21
20.40128860092909
 31
0.0
  0
LINE
  5
3A9C
330
3165
100
AcDbEntity
  8
Visible Edges(ISO)
100
AcDbLine
 10
-32.20364491546582
 20
20.40128860092909
 30
0.0
 11
-28.74467739184584
 21
20.58981889171128
 31
0.0
  0
LINE
  5
3A9D
330
3165
100
AcDbEntity
  8
Visible Edges(ISO)
100
AcDbLine
 10
-28.74467739184587
 20
20.58981889171128
 30
0.0
 11
-26.85192160883565
 21
17.68853029078218
 31
0.0
  0
LINE
  5
3A9E
330
3165
100
AcDbEntity
  8
Visible Edges(ISO)
100
AcDbLine
 10
-26.85192160883565
 20
17.68853029078218
 30
0.0
 11
-28.41813334944541
 21
14.59871139907091
 31
0.0
  0
LINE
  5
3A9F
330
3165
100
AcDbEntity
  8
Visible Edges(ISO)
100
AcDbLine
 10
-28.41813334944541
 20
14.59871139907091
 30
0.0
 11
-31.87710087306536
 21
14.41018110828872
 31
0.0
  0
CIRCLE
  5
3AA0
330
3165
100
AcDbEntity
  8
Visible Edges(ISO)
100
AcDbCircle
 10
-28.49412454129021
 20
58.42161300944574
 30
0.0
 40
6.499999999999992
  0
LINE
  5
3AA1
330
3165
100
AcDbEntity
  8
Visible Edges(ISO)
100
AcDbLine
 10
-25.05027302802137
 20
58.0475986319734
 30
0.0
 11
-27.09610473692729
 21
55.2521429233575
 31
0.0
  0
LINE
  5
3AA2
330
3165
100
AcDbEntity
  8
Visible Edges(ISO)
100
AcDbLine
 10
-27.09610473692729
 20
55.2521429233575
 30
0.0
 11
-30.53995625019613
 21
55.62615730082962
 31
0.0
  0
LINE
  5
3AA3
330
3165
100
AcDbEntity
  8
Visible Edges(ISO)
100
AcDbLine
 10
-30.53995625019613
 20
55.62615730082962
 30
0.0
 11
-31.93797605455904
 21
58.79562738691788
 31
0.0
  0
LINE
  5
3AA4
330
3165
100
AcDbEntity
  8
Visible Edges(ISO)
100
AcDbLine
 10
-31.93797605455908
 20
58.79562738691788
 30
0.0
 11
-29.89214434565312
 21
61.59108309553426
 31
0.0
  0
LINE
  5
3AA5
330
3165
100
AcDbEntity
  8
Visible Edges(ISO)
100
AcDbLine
 10
-29.89214434565312
 20
61.59108309553426
 30
0.0
 11
-26.44829283238428
 21
61.21706871806189
 31
0.0
  0
LINE
  5
3AA6
330
3165
100
AcDbEntity
  8
Visible Edges(ISO)
100
AcDbLine
 10
-26.44829283238428
 20
61.21706871806189
 30
0.0
 11
-25.05027302802137
 21
58.0475986319734
 31
0.0
  0
CIRCLE
  5
3AA7
330
3165
100
AcDbEntity
  8
Visible Edges(ISO)
100
AcDbCircle
 10
-36.3475387255989
 20
-53.88744221607749
 30
0.0
 40
6.499999999999992
  0
LINE
  5
3AA8
330
3165
100
AcDbEntity
  8
Visible Edges(ISO)
100
AcDbLine
 10
-32.94134584869559
 20
-53.2566886308059
 30
0.0
 11
-34.09819365877385
 21
-56.52191498502952
 31
0.0
  0
LINE
  5
3AA9
330
3165
100
AcDbEntity
  8
Visible Edges(ISO)
100
AcDbLine
 10
-34.09819365877385
 20
-56.52191498502952
 30
0.0
 11
-37.50438653567718
 21
-57.15266857030133
 31
0.0
  0
LINE
  5
3AAA
330
3165
100
AcDbEntity
  8
Visible Edges(ISO)
100
AcDbLine
 10
-37.50438653567718
 20
-57.15266857030133
 30
0.0
 11
-39.75373160250223
 21
-54.51819580134905
 31
0.0
  0
LINE
  5
3AAB
330
3165
100
AcDbEntity
  8
Visible Edges(ISO)
100
AcDbLine
 10
-39.75373160250223
 20
-54.51819580134905
 30
0.0
 11
-38.59688379242394
 21
-51.25296944712545
 31
0.0
  0
LINE
  5
3AAC
330
3165
100
AcDbEntity
  8
Visible Edges(ISO)
100
AcDbLine
 10
-38.59688379242394
 20
-51.25296944712545
 30
0.0
 11
-35.19069091552061
 21
-50.62221586185387
 31
0.0
  0
LINE
  5
3AAD
330
3165
100
AcDbEntity
  8
Visible Edges(ISO)
100
AcDbLine
 10
-35.19069091552061
 20
-50.62221586185387
 30
0.0
 11
-32.94134584869559
 21
-53.2566886308059
 31
0.0
  0
CIRCLE
  5
3AAE
330
3165
100
AcDbEntity
  8
Visible Edges(ISO)
100
AcDbCircle
 10
-0.0000000000003411
 20
-35.0
 30
0.0
 40
6.499999999999992
  0
LINE
  5
3AAF
330
3165
100
AcDbEntity
  8
Visible Edges(ISO)
100
AcDbLine
 10
2.109788485657273
 20
-37.74750660523068
 30
0.0
 11
-1.324516274366857
 21
-38.20088372780674
 31
0.0
  0
LINE
  5
3AB0
330
3165
100
AcDbEntity
  8
Visible Edges(ISO)
100
AcDbLine
 10
-1.324516274366857
 20
-38.20088372780674
 30
0.0
 11
-3.434304760024501
 21
-35.45337712257606
 31
0.0
  0
LINE
  5
3AB1
330
3165
100
AcDbEntity
  8
Visible Edges(ISO)
100
AcDbLine
 10
-3.434304760024501
 20
-35.45337712257606
 30
0.0
 11
-2.109788485657958
 21
-32.25249339476932
 31
0.0
  0
LINE
  5
3AB2
330
3165
100
AcDbEntity
  8
Visible Edges(ISO)
100
AcDbLine
 10
-2.109788485657958
 20
-32.25249339476932
 30
0.0
 11
1.324516274366175
 21
-31.79911627219326
 31
0.0
  0
LINE
  5
3AB3
330
3165
100
AcDbEntity
  8
Visible Edges(ISO)
100
AcDbLine
 10
1.324516274366175
 20
-31.79911627219326
 30
0.0
 11
3.434304760023791
 21
-34.54662287742394
 31
0.0
  0
LINE
  5
3AB4
330
3165
100
AcDbEntity
  8
Visible Edges(ISO)
100
AcDbLine
 10
3.434304760023791
 20
-34.54662287742394
 30
0.0
 11
2.109788485657273
 21
-37.74750660523068
 31
0.0
  0
CIRCLE
  5
3AB5
330
3165
100
AcDbEntity
  8
Visible Edges(ISO)
100
AcDbCircle
 10
-64.84166326688878
 20
-4.534170793368048
 30
0.0
 40
6.499999999999992
  0
LINE
  5
3AB6
330
3165
100
AcDbEntity
  8
Visible Edges(ISO)
100
AcDbLine
 10
-64.14636157423713
 20
-1.140565696101248
 30
0.0
 11
-61.55506419591751
 21
-3.439517173865397
 31
0.0
  0
LINE
  5
3AB7
330
3165
100
AcDbEntity
  8
Visible Edges(ISO)
100
AcDbLine
 10
-61.55506419591751
 20
-3.439517173865397
 30
0.0
 11
-62.25036588856911
 21
-6.833122271132197
 31
0.0
  0
LINE
  5
3AB8
330
3165
100
AcDbEntity
  8
Visible Edges(ISO)
100
AcDbLine
 10
-62.25036588856914
 20
-6.833122271132197
 30
0.0
 11
-65.53696495954042
 21
-7.927775890635075
 31
0.0
  0
LINE
  5
3AB9
330
3165
100
AcDbEntity
  8
Visible Edges(ISO)
100
AcDbLine
 10
-65.53696495954042
 20
-7.927775890635075
 30
0.0
 11
-68.12826233786008
 21
-5.628824412870923
 31
0.0
  0
LINE
  5
3ABA
330
3165
100
AcDbEntity
  8
Visible Edges(ISO)
100
AcDbLine
 10
-68.12826233786008
 20
-5.628824412870923
 30
0.0
 11
-67.43296064520845
 21
-2.235219315604124
 31
0.0
  0
LINE
  5
3ABB
330
3165
100
AcDbEntity
  8
Visible Edges(ISO)
100
AcDbLine
 10
-67.43296064520845
 20
-2.235219315604124
 30
0.0
 11
-64.14636157423713
 21
-1.140565696101248
 31
0.0
  0
CIRCLE
  5
3ABC
330
3165
100
AcDbEntity
  8
Visible Edges(ISO)
100
AcDbCircle
 10
30.31088913245529
 20
17.49999999999977
 30
0.0
 40
6.499999999999992
  0
LINE
  5
3ABD
330
3165
100
AcDbEntity
  8
Visible Edges(ISO)
100
AcDbLine
 10
30.7837988036392
 20
20.93166962904343
 30
0.0
 11
33.51925704419449
 21
18.80628302558102
 31
0.0
  0
LINE
  5
3ABE
330
3165
100
AcDbEntity
  8
Visible Edges(ISO)
100
AcDbLine
 10
33.51925704419457
 20
18.80628302558102
 30
0.0
 11
33.04634737301058
 21
15.37461339653737
 31
0.0
  0
LINE
  5
3ABF
330
3165
100
AcDbEntity
  8
Visible Edges(ISO)
100
AcDbLine
 10
33.04634737301058
 20
15.37461339653737
 30
0.0
 11
29.8379794612714
 21
14.06833037095612
 31
0.0
  0
LINE
  5
3AC0
330
3165
100
AcDbEntity
  8
Visible Edges(ISO)
100
AcDbLine
 10
29.8379794612714
 20
14.06833037095612
 30
0.0
 11
27.102521220716
 21
16.19371697441875
 31
0.0
  0
LINE
  5
3AC1
330
3165
100
AcDbEntity
  8
Visible Edges(ISO)
100
AcDbLine
 10
27.10252122071589
 20
16.19371697441875
 30
0.0
 11
27.57543089189991
 21
19.6253866034624
 31
0.0
  0
LINE
  5
3AC2
330
3165
100
AcDbEntity
  8
Visible Edges(ISO)
100
AcDbLine
 10
27.57543089189991
 20
19.6253866034624
 30
0.0
 11
30.7837988036392
 21
20.93166962904343
 31
0.0
  0
CIRCLE
  5
3AC3
330
3165
100
AcDbEntity
  8
Visible Edges(ISO)
100
AcDbCircle
 10
36.3475387255981
 20
-53.88744221607772
 30
0.0
 40
6.499999999999992
  0
LINE
  5
3AC4
330
3165
100
AcDbEntity
  8
Visible Edges(ISO)
100
AcDbLine
 10
38.75758349186558
 20
-51.39913270466514
 30
0.0
 11
39.7075003580936
 21
-54.73044745221681
 31
0.0
  0
LINE
  5
3AC5
330
3165
100
AcDbEntity
  8
Visible Edges(ISO)
100
AcDbLine
 10
39.7075003580936
 20
-54.73044745221681
 30
0.0
 11
37.29745559182609
 21
-57.21875696362939
 31
0.0
  0
LINE
  5
3AC6
330
3165
100
AcDbEntity
  8
Visible Edges(ISO)
100
AcDbLine
 10
37.29745559182609
 20
-57.21875696362939
 30
0.0
 11
33.93749395933051
 21
-56.37575172749031
 31
0.0
  0
LINE
  5
3AC7
330
3165
100
AcDbEntity
  8
Visible Edges(ISO)
100
AcDbLine
 10
33.93749395933051
 20
-56.37575172749031
 30
0.0
 11
32.98757709310249
 21
-53.04443697993884
 31
0.0
  0
LINE
  5
3AC8
330
3165
100
AcDbEntity
  8
Visible Edges(ISO)
100
AcDbLine
 10
32.98757709310249
 20
-53.04443697993884
 30
0.0
 11
35.39762185936999
 21
-50.55612746852602
 31
0.0
  0
LINE
  5
3AC9
330
3165
100
AcDbEntity
  8
Visible Edges(ISO)
100
AcDbLine
 10
35.39762185936999
 20
-50.55612746852602
 30
0.0
 11
38.75758349186558
 21
-51.39913270466514
 31
0.0
  0
CIRCLE
  5
3ACA
330
3165
100
AcDbEntity
  8
Visible Edges(ISO)
100
AcDbCircle
 10
64.84166326688828
 20
-4.534170793368275
 30
0.0
 40
6.499999999999992
  0
LINE
  5
3ACB
330
3165
100
AcDbEntity
  8
Visible Edges(ISO)
100
AcDbLine
 10
64.8520777002469
 20
-7.998256753557141
 30
0.0
 11
61.846884041151
 21
-6.275232937317468
 31
0.0
  0
LINE
  5
3ACC
330
3165
100
AcDbEntity
  8
Visible Edges(ISO)
100
AcDbLine
 10
61.846884041151
 20
-6.275232937317468
 30
0.0
 11
61.83646960779238
 21
-2.811146977128372
 31
0.0
  0
LINE
  5
3ACD
330
3165
100
AcDbEntity
  8
Visible Edges(ISO)
100
AcDbLine
 10
61.83646960779238
 20
-2.811146977128372
 30
0.0
 11
64.83124883352964
 21
-1.070084833179407
 31
0.0
  0
LINE
  5
3ACE
330
3165
100
AcDbEntity
  8
Visible Edges(ISO)
100
AcDbLine
 10
64.83124883352964
 20
-1.070084833179407
 30
0.0
 11
67.83644249262559
 21
-2.793108649419308
 31
0.0
  0
LINE
  5
3ACF
330
3165
100
AcDbEntity
  8
Visible Edges(ISO)
100
AcDbLine
 10
67.83644249262559
 20
-2.793108649419308
 30
0.0
 11
67.84685692598414
 21
-6.257194609608178
 31
0.0
  0
LINE
  5
3AD0
330
3165
100
AcDbEntity
  8
Visible Edges(ISO)
100
AcDbLine
 10
67.84685692598414
 20
-6.257194609608178
 30
0.0
 11
64.8520777002469
 21
-7.998256753557141
 31
0.0
  0
CIRCLE
  5
3AD1
330
3165
100
AcDbEntity
  8
Visible Edges(ISO)
100
AcDbCircle
 10
32.9089653438084
 20
-19.00000000000023
 30
0.0
 40
11.99999999999999
  0
CIRCLE
  5
3AD2
330
3165
100
AcDbEntity
  8
Visible Edges(ISO)
100
AcDbCircle
 10
-32.90896534380895
 20
-19.0
 30
0.0
 40
11.99999999999999
  0
CIRCLE
  5
3AD3
330
3165
100
AcDbEntity
  8
Visible Edges(ISO)
100
AcDbCircle
 10
-0.0000000000002558
 20
37.99999999999978
 30
0.0
 40
11.99999999999999
  0
LINE
  5
3AD4
330
3165
100
AcDbEntity
  8
DIM
100
AcDbLine
 10
10.10766837216471
 20
48.39639553298797
 30
0.0
 11
39.47525477407317
 21
78.60287172924373
 31
0.0
  0
LINE
  5
3AD5
330
3165
100
AcDbEntity
  8
DIM
100
AcDbLine
 10
39.47525477407317
 20
78.60287172924373
 30
0.0
 11
68.98748493080312
 21
78.60287172924373
 31
0.0
  0
SOLID
  5
3AD6
330
3165
100
AcDbEntity
  8
DIM
100
AcDbTrace
 10
9.808921374090335
 20
48.68684577356744
 30
0.0
 11
10.40641537023908
 21
48.10594529240853
 31
0.0
 12
8.364966928688
 22
46.60391354454174
 32
0.0
 13
8.364966928688
 23
46.60391354454174
 33
0.0
  0
MTEXT
  5
3AD7
330
3165
100
AcDbEntity
  8
DIM
 62
     2
100
AcDbMText
 10
54.98136985243814
 20
82.02871760752818
 30
0.0
 40
3.5
 41
0.0
 46
0.0
 71
     5
 72
     1
  1
∅24 [∅0.945"]
 73
     1
 44
1.0
  0
LINE
  5
3AD8
330
3165
100
AcDbEntity
  8
DIM
100
AcDbLine
 10
18.39168355296435
 20
61.06503795981272
 30
0.0
 11
39.25638087405186
 21
87.23148619958347
 31
0.0
  0
LINE
  5
3AD9
330
3165
100
AcDbEntity
  8
DIM
100
AcDbLine
 10
39.25638087405186
 20
87.23148619958347
 30
0.0
 11
67.70638087405186
 21
87.23148619958347
 31
0.0
  0
SOLID
  5
3ADA
330
3165
100
AcDbEntity
  8
DIM
100
AcDbTrace
 10
18.0659061806506
 20
61.32480750152126
 30
0.0
 11
18.71746092527809
 21
60.80526841810418
 31
0.0
 12
16.14727471260256
 22
58.25032146302199
 32
0.0
 13
16.14727471260256
 23
58.25032146302199
 33
0.0
  0
MTEXT
  5
3ADB
330
3165
100
AcDbEntity
  8
DIM
 62
     2
100
AcDbMText
 10
54.23138087405185
 20
90.6564861995835
 30
0.0
 40
3.5
 41
0.0
 46
0.0
 71
     5
 72
     1
  1
∅52 [∅2.047"]
 73
     1
 44
1.0
  0
LINE
  5
3ADC
330
3165
100
AcDbEntity
  8
DIM
100
AcDbLine
 10
-80.00000000000024
 20
-0.9999999999999548
 30
0.0
 11
-80.00000000000024
 21
-94.81789335469349
 31
0.0
  0
LINE
  5
3ADD
330
3165
100
AcDbEntity
  8
DIM
100
AcDbLine
 10
79.99999999999992
 20
-0.9999999999999548
 30
0.0
 11
79.99999999999992
 21
-94.81789335469349
 31
0.0
  0
LINE
  5
3ADE
330
3165
100
AcDbEntity
  8
DIM
100
AcDbLine
 10
-77.50000000000024
 20
-93.81789335469349
 30
0.0
 11
77.49999999999992
 21
-93.81789335469349
 31
0.0
  0
SOLID
  5
3ADF
330
3165
100
AcDbEntity
  8
DIM
100
AcDbTrace
 10
-77.50000000000024
 20
-93.40122668802679
 30
0.0
 11
-77.50000000000024
 21
-94.23456002136015
 31
0.0
 12
-80.00000000000024
 22
-93.81789335469349
 32
0.0
 13
-80.00000000000024
 23
-93.81789335469349
 33
0.0
  0
SOLID
  5
3AE0
330
3165
100
AcDbEntity
  8
DIM
100
AcDbTrace
 10
77.49999999999992
 20
-93.40122668802679
 30
0.0
 11
77.49999999999992
 21
-94.23456002136015
 31
0.0
 12
79.99999999999992
 22
-93.81789335469349
 32
0.0
 13
79.99999999999992
 23
-93.81789335469349
 33
0.0
  0
MTEXT
  5
3AE1
330
3165
100
AcDbEntity
  8
DIM
 62
     2
100
AcDbMText
 10
-0.0000000000001561
 20
-90.39120159812457
 30
0.0
 40
3.5
 41
0.0
 46
0.0
 71
     5
 72
     1
  1
Ø160 [6.299"]
 73
     1
 44
1.0
  0
ENDBLK
  5
3362
330
3165
100
AcDbEntity
  8
0
100
AcDbBlockEnd
  0
ENDSEC
  0
SECTION
  2
ENTITIES
  0
INSERT
  5
336F
330
1A
100
AcDbEntity
  8
AM_0
100
AcDbBlockReference
  2
H3150UG
 10
80.00000447764287
 20
94.81789559346019
 30
0.0
  0
VIEWPORT
  5
2CAA
102
{ACAD_XDICTIONARY
360
2CAB
102
}
330
2CA3
100
AcDbEntity
 67
     1
  8
0
348
A55
100
AcDbViewport
 10
128.5
 20
97.5
 30
0.0
 40
349.2069620253165
 41
222.18
 68
     1
 69
     1
 12
128.5
 22
97.5
 13
0.0
 23
0.0
 14
10.0
 24
10.0
 15
10.0
 25
10.0
 16
0.0
 26
0.0
 36
1.0
 17
0.0
 27
0.0
 37
0.0
 42
50.0
 43
0.0
 44
0.0
 45
222.18
 50
0.0
 51
0.0
 72
   100
 90
   819232
  1

281
     0
 71
     1
 74
     0
110
0.0
120
0.0
130
0.0
111
1.0
121
0.0
131
0.0
112
0.0
122
1.0
132
0.0
 79
     0
146
0.0
170
     0
 61
     5
292
     1
282
     1
141
0.0
142
0.0
 63
   250
421
  3355443
1001
GENIUS_GENODEF_13
1002
{
1000
HIER
1070
     0
1002
}
1002
{
1000
MANEDIT
1070
     0
1002
}
1002
{
1000
NOSEL
1070
     0
1002
}
1002
{
1000
BEHIND
1070
     0
1002
}
1002
{
1000
OTHER
1070
     0
1002
}
1002
{
1000
REACTOR
1002
}
1001
GENIUS_GENOBJ-N-SDF_13
1002
{
1000
OWNER
1000
GEN
1002
}
1001
GENIUS_GENSCREG_15
1000
PF
1040
1.0
1000
DF
1040
1.0
1000
MIN
1011
-46.10348101265822
1021
-13.59
1031
0.0
1000
MAX
1011
303.1034810126582
1021
208.59
1031
0.0
1000
FLAGS
1070
     4
  0
ENDSEC
  0
SECTION
  2
OBJECTS
  0
DICTIONARY
  5
C
330
0
100
AcDbDictionary
281
     1
  3
ACAD_CIP_PREVIOUS_PRODUCT_INFO
350
CD7
  3
ACAD_COLOR
350
3CA
  3
ACAD_DETAILVIEWSTYLE
350
CCB
  3
ACAD_FIELDLIST
350
D6A
  3
ACAD_GROUP
350
D
  3
ACAD_LAYOUT
350
167
  3
ACAD_MATERIAL
350
3C9
  3
ACAD_MLEADERSTYLE
350
A72
  3
ACAD_MLINESTYLE
350
E
  3
ACAD_PLOTSETTINGS
350
168
  3
ACAD_PLOTSTYLENAME
350
165
  3
ACAD_SCALELIST
350
A60
  3
ACAD_SECTIONVIEWSTYLE
350
CC9
  3
ACAD_TABLESTYLE
350
650
  3
ACAD_VISUALSTYLE
350
A4F
  3
ACASAPPOBJECT
350
EE
  3
ACASGREF_MASTER
350
9B
  3
ACDB_RECOMPOSE_DATA
350
3AE9
  3
ACDBVARIABLEDICTIONARY
350
5D
  3
ACMDICTIONARY
350
142
  3
AD_GREF_MODULE
350
AF
  3
AD_MAPI_MODULE
350
18E
  3
AMG
350
171
  3
AMGSNAPSETTINGS
350
1F2
  3
ASE_INDEX_DICTIONARY
350
849
  3
coolorange
350
13F2
  3
MAPISURF_MODULE
350
2E8
  0
DICTIONARY
  5
592
330
2
100
AcDbDictionary
280
     1
281
     1
  3
ACAD_LAYERFILTERS
360
C7C
  3
ACAD_LAYERSTATES
360
822
  3
ACLYDICTIONARY
360
C7B
  3
AMLAYER_GROUPCOLORS
360
593
  0
DICTIONARY
  5
AB7
330
F
100
AcDbDictionary
280
     1
281
     1
  3
ADSK_XREC_LAYER_RECONCILED
360
3370
  0
DICTIONARY
  5
AB9
330
5CF
100
AcDbDictionary
280
     1
281
     1
  3
ADSK_XREC_LAYER_RECONCILED
360
3371
  0
DICTIONARY
  5
3372
330
3363
100
AcDbDictionary
280
     1
281
     1
  3
ADSK_XREC_LAYER_RECONCILED
360
3373
  0
DICTIONARY
  5
3374
330
3365
100
AcDbDictionary
280
     1
281
     1
  3
ADSK_XREC_LAYER_RECONCILED
360
3375
  0
DICTIONARY
  5
12A
330
1A
100
AcDbDictionary
280
     1
281
     1
  3
ACAD_INDEX
360
30C4
  0
DICTIONARY
  5
3AE2
330
3165
100
AcDbDictionary
280
     1
281
     1
  3
ACAD_SORTENTS
360
3AE3
  0
DICTIONARY
  5
2CAB
330
2CAA
100
AcDbDictionary
280
     1
281
     1
  3
ASDK_XREC_ANNOTATION_SCALE_INFO
360
2CAC
  0
XRECORD
  5
CD7
102
{ACAD_REACTORS
330
C
102
}
330
C
100
AcDbXrecord
280
     1
300
AMECH_PP
300
2013
300
85963PDSU_2013_0F
  0
DICTIONARY
  5
3CA
102
{ACAD_REACTORS
330
C
102
}
330
C
100
AcDbDictionary
281
     1
  0
DICTIONARY
  5
CCB
102
{ACAD_REACTORS
330
C
102
}
330
C
100
AcDbDictionary
281
     1
  3
ISO 128-34_2001
350
10B9
  3
Metric50
350
CCC
  0
FIELDLIST
  5
D6A
102
{ACAD_REACTORS
330
C
102
}
330
C
100
AcDbIdSet
 90
        3
330
10BD
330
10BE
330
10BF
100
AcDbFieldList
  0
DICTIONARY
  5
D
102
{ACAD_REACTORS
330
C
102
}
330
C
100
AcDbDictionary
281
     1
  0
DICTIONARY
  5
167
102
{ACAD_REACTORS
330
C
102
}
330
C
100
AcDbDictionary
281
     1
  3
Layout1
350
2CA4
  3
Model
350
169
  0
DICTIONARY
  5
3C9
102
{ACAD_REACTORS
330
C
102
}
330
C
100
AcDbDictionary
281
     1
  3
ByBlock
350
A3F
  3
ByLayer
350
A37
  3
Global
350
A47
  0
DICTIONARY
  5
A72
102
{ACAD_REACTORS
330
C
102
}
330
C
100
AcDbDictionary
281
     1
  3
Standard
350
A73
  0
DICTIONARY
  5
E
102
{ACAD_REACTORS
330
C
102
}
330
C
100
AcDbDictionary
281
     1
  3
STANDARD
350
13
  0
DICTIONARY
  5
168
102
{ACAD_REACTORS
330
C
102
}
330
C
100
AcDbDictionary
281
     1
  3
Setup1
350
2C89
  0
ACDBDICTIONARYWDFLT
  5
165
102
{ACAD_REACTORS
330
C
102
}
330
C
100
AcDbDictionary
281
     1
  3
Normal
350
166
100
AcDbDictionaryWithDefault
340
166
  0
DICTIONARY
  5
A60
102
{ACAD_REACTORS
330
C
102
}
330
C
100
AcDbDictionary
281
     1
  3
A0
350
A61
  3
A1
350
A62
  3
A2
350
A63
  3
A3
350
A64
  3
A4
350
A65
  3
A5
350
A66
  3
A6
350
A67
  3
A7
350
A68
  3
A8
350
A69
  3
A9
350
A6A
  3
B0
350
A6B
  3
B1
350
A6C
  3
B2
350
A6D
  3
B3
350
A6E
  3
B4
350
A6F
  3
B5
350
A70
  3
B6
350
A71
  0
DICTIONARY
  5
CC9
102
{ACAD_REACTORS
330
C
102
}
330
C
100
AcDbDictionary
281
     1
  3
ISO 128_1982
350
10BA
  3
Metric50
350
CCA
  0
DICTIONARY
  5
650
102
{ACAD_REACTORS
330
C
102
}
330
C
100
AcDbDictionary
281
     1
  3
Standard
350
651
  0
DICTIONARY
  5
A4F
102
{ACAD_REACTORS
330
C
102
}
330
C
100
AcDbDictionary
281
     1
  3
2dWireframe
350
A55
  3
3D Hidden
350
A57
  3
3dWireframe
350
A56
  3
Basic
350
A54
  3
Brighten
350
A5B
  3
ColorChange
350
A5F
  3
Conceptual
350
A58
  3
Dim
350
A5A
  3
EdgeColorOff
350
CC8
  3
Facepattern
350
A5E
  3
Flat
350
A50
  3
FlatWithEdges
350
A51
  3
Gouraud
350
A52
  3
GouraudWithEdges
350
A53
  3
Hidden
350
CC0
  3
JitterOff
350
CC6
  3
Linepattern
350
A5D
  3
OverhangOff
350
CC7
  3
Realistic
350
A59
  3
Shaded
350
CC5
  3
Shaded with edges
350
CC4
  3
Shades of Gray
350
CC1
  3
Sketchy
350
CC2
  3
Thicken
350
A5C
  3
Wireframe
350
CBF
  3
X-Ray
350
CC3
  0
ACAD_PROXY_OBJECT
  5
EE
102
{ACAD_REACTORS
330
C
102
}
330
C
100
AcDbProxyObject
 90
      499
 91
      544
 95
  3276827
 70
     0
162
                 0
161
                10
310
404C
 94
        0
  0
ACAD_PROXY_OBJECT
  5
9B
102
{ACAD_REACTORS
330
C
102
}
330
C
100
AcDbProxyObject
 90
      499
 91
      514
 95
  3276827
 70
     0
162
                 0
161
                34
310
010000404C
 94
        0
  0
XRECORD
  5
3AE9
102
{ACAD_REACTORS
330
C
102
}
330
C
100
AcDbXrecord
280
     1
 90
        1
330
651
  0
DICTIONARY
  5
5D
102
{ACAD_REACTORS
330
C
102
}
330
C
100
AcDbDictionary
281
     1
  3
CANNOSCALE
350
AF4
  3
CMLEADERSTYLE
350
AF2
  3
CTABLESTYLE
350
66F
  3
CVIEWDETAILSTYLE
350
FFA
  3
CVIEWSECTIONSTYLE
350
FFB
  3
DIMADEC
350
5E
  3
DIMASSOC
350
3C7
  3
INDEXCTL
350
128
  3
LAYEREVAL
350
AF6
  3
LAYERNOTIFY
350
AF7
  3
LIGHTINGUNITS
350
AF5
  3
MSLTSCALE
350
AF3
  0
DICTIONARY
  5
142
102
{ACAD_REACTORS
330
C
102
}
330
C
100
AcDbDictionary
281
     1
  3
ACMSTDDICTIONARY
350
143
  3
AMDTSECTSYM_ARROWCOLOR
350
47D
  0
ACAD_PROXY_OBJECT
  5
AF
102
{ACAD_REACTORS
330
C
102
}
330
C
100
AcDbProxyObject
 90
      499
 91
      526
 95
  3276827
 70
     0
162
                 0
161
               114
310
00000043800000000000000000000C
 94
        0
  0
ACAD_PROXY_OBJECT
  5
18E
102
{ACAD_REACTORS
330
C
102
}
330
C
100
AcDbProxyObject
 90
      499
 91
      570
 95
  3276827
 70
     0
162
                 0
161
                34
310
05000044CC
 94
        0
  0
DICTIONARY
  5
171
102
{ACAD_REACTORS
330
C
102
}
330
C
100
AcDbDictionary
281
     1
  0
DICTIONARY
  5
1F2
102
{ACAD_REACTORS
330
C
102
}
330
C
100
AcDbDictionary
281
     1
  0
DICTIONARY
  5
849
102
{ACAD_REACTORS
330
C
102
}
330
C
100
AcDbDictionary
281
     1
  3
ASEBlockHierarchyIndexRecord
350
84B
1001
DCO15
1040
1524370329.156
  0
DICTIONARY
  5
13F2
102
{ACAD_REACTORS
330
C
102
}
330
C
100
AcDbDictionary
281
     1
  3
myviewproperty
350
13F3
  0
ACAD_PROXY_OBJECT
  5
2E8
102
{ACAD_REACTORS
330
C
102
}
330
C
100
AcDbProxyObject
 90
      499
 91
      610
 95
  3276827
 70
     0
162
                 0
161
                 8
310
0436
 94
        0
  0
DICTIONARY
  5
C7C
102
{ACAD_REACTORS
330
592
102
}
330
592
100
AcDbDictionary
281
     1
  0
DICTIONARY
  5
822
102
{ACAD_REACTORS
330
592
102
}
330
592
100
AcDbDictionary
281
     1
  0
DICTIONARY
  5
C7B
102
{ACAD_REACTORS
330
592
102
}
330
592
100
AcDbDictionary
281
     1
1001
ACAD
1000
<All
  0
DICTIONARY
  5
593
102
{ACAD_REACTORS
330
592
102
}
330
592
100
AcDbDictionary
280
     1
281
     1
  0
XRECORD
  5
3370
102
{ACAD_REACTORS
330
AB7
102
}
330
AB7
100
AcDbXrecord
280
     1
290
     1
  0
XRECORD
  5
3371
102
{ACAD_REACTORS
330
AB9
102
}
330
AB9
100
AcDbXrecord
280
     1
290
     1
  0
XRECORD
  5
3373
102
{ACAD_REACTORS
330
3372
102
}
330
3372
100
AcDbXrecord
280
     1
290
     1
  0
XRECORD
  5
3375
102
{ACAD_REACTORS
330
3374
102
}
330
3374
100
AcDbXrecord
280
     1
290
     1
  0
DICTIONARY
  5
30C4
102
{ACAD_REACTORS
330
12A
102
}
330
12A
100
AcDbDictionary
281
     1
  3
*A1
350
30C5
  0
SORTENTSTABLE
  5
3AE3
102
{ACAD_REACTORS
330
3AE2
102
}
330
3AE2
100
AcDbSortentsTable
330
3165
331
3AE0
  5
3AD8
331
3AE1
  5
3AD9
331
3AD4
  5
3ADE
331
3AD5
  5
3ADF
331
3AD6
  5
3AE0
331
3AD7
  5
3AE1
331
3AD8
  5
3ADA
331
3AD9
  5
3ADB
331
3ADA
  5
3ADC
331
3ADB
  5
3ADD
331
3ADC
  5
3AD4
331
3ADD
  5
3AD5
331
3ADE
  5
3AD6
331
3ADF
  5
3AD7
  0
XRECORD
  5
2CAC
102
{ACAD_REACTORS
330
2CAB
102
}
330
2CAB
100
AcDbXrecord
280
     1
 90
        1
340
A61
  0
ACDBDETAILVIEWSTYLE
  5
10B9
102
{ACAD_XDICTIONARY
360
13FE
102
}
102
{ACAD_REACTORS
330
CCB
102
}
330
CCB
100
AcDbModelDocViewStyle
 70
     0
  3

290
     0
100
AcDbDetailViewStyle
 70
     0
 71
     0
 90
        3
 71
     1
340
159
 62
     7
 40
5.0
340
D74
 62
   256
 40
5.0
300

 40
0.0
280
     0
 71
     2
340
16
 90
       25
 62
   256
 71
     3
340
159
 62
     7
 40
5.0
 90
        1
 40
15.0
 90
        1
300
%<\AcVar ViewDetailId>% (%<\AcVar ViewScale \f "%sn">%)
 71
     4
340
16
 90
       25
 62
   256
340
16
 90
       25
 62
   256
280
     1
  0
ACDBDETAILVIEWSTYLE
  5
CCC
102
{ACAD_XDICTIONARY
360
13FC
102
}
102
{ACAD_REACTORS
330
CCB
102
}
330
CCB
100
AcDbModelDocViewStyle
 70
     0
  3
Metric50
290
     0
100
AcDbDetailViewStyle
 70
     0
 71
     0
 90
        3
 71
     1
340
10
 62
   256
 40
5.0
340
0
 62
   256
 40
5.0
300

 40
0.0
280
     1
 71
     2
340
16
 90
       25
 62
   256
 71
     3
340
10
 62
   256
 40
5.0
 90
        0
 40
15.0
 90
        1
300
%<\AcVar ViewDetailId>% (%<\AcVar ViewScale \f "%sn">%)
 71
     4
340
16
 90
       25
 62
   256
340
16
 90
       25
 62
   256
280
     0
  0
LAYOUT
  5
2CA4
102
{ACAD_REACTORS
330
167
102
}
330
167
100
AcDbPlotSettings
  1

  2
none_device
  4
ISO_A4_(210.00_x_297.00_MM)
  6

 40
7.5
 41
20.0
 42
7.5
 43
20.0
 44
210.0
 45
297.0
 46
0.0
 47
0.0
 48
0.0
 49
0.0
140
0.0
141
0.0
142
1.0
143
2.0
 70
   688
 72
     1
 73
     1
 74
     5
  7
@Layout.ctb
 75
    17
147
0.5
 76
     0
 77
     2
 78
   300
148
0.0
149
0.0
100
AcDbLayout
  1
Layout1
 70
     1
 71
     1
 10
0.0
 20
0.0
 11
12.0
 21
9.0
 12
0.0
 22
0.0
 32
0.0
 14
1.000000000000000E+20
 24
1.000000000000000E+20
 34
1.000000000000000E+20
 15
-1.000000000000000E+20
 25
-1.000000000000000E+20
 35
-1.000000000000000E+20
146
0.0
 13
0.0
 23
0.0
 33
0.0
 16
1.0
 26
0.0
 36
0.0
 17
0.0
 27
1.0
 37
0.0
 76
     0
330
2CA3
331
2CAA
1001
ACAD_PSEXT
1000
None
1000
None
1000
Not applicable
1000
The layout will not be plotted unless a new plotter configuration name is selected.
1070
     0
  0
LAYOUT
  5
169
102
{ACAD_XDICTIONARY
360
1474
102
}
102
{ACAD_REACTORS
330
167
102
}
330
167
100
AcDbPlotSettings
  1

  2
none_device
  4
Letter_(8.50_x_11.00_Inches)
  6

 40
6.349999904632567
 41
6.349999904632567
 42
6.350006103515625
 43
6.350006103515625
 44
215.8999938964844
 45
279.3999938964844
 46
38.1308720290886
 47
0.0
 48
0.0
 49
0.0
140
0.0
141
0.0
142
1.0
143
24.24127445441686
 70
 11956
 72
     0
 73
     1
 74
     0
  7
@Layout.ctb
 75
     0
147
0.0412519565289521
 76
     0
 77
     2
 78
   300
148
8019.824937415057
149
-189.2331007602539
100
AcDbLayout
  1
Model
 70
     1
 71
     0
 10
0.0
 20
0.0
 11
12.0
 21
9.0
 12
0.0
 22
0.0
 32
0.0
 14
0.0
 24
0.0
 34
0.0
 15
0.0
 25
0.0
 35
0.0
146
0.0
 13
0.0
 23
0.0
 33
0.0
 16
1.0
 26
0.0
 36
0.0
 17
0.0
 27
1.0
 37
0.0
 76
     0
330
1A
331
A35
1001
ACAD_PSEXT
1000
None
1000
None
1000
Not applicable
1000
The layout will not be plotted unless a new plotter configuration name is selected.
1070
     0
  0
MATERIAL
  5
A3F
102
{ACAD_XDICTIONARY
360
A40
102
}
102
{ACAD_REACTORS
330
3C9
102
}
330
3C9
100
AcDbMaterial
  1
ByBlock
 72
     0
 43
0.0008202099737533
 43
0.0
 43
0.0
 43
0.0
 43
0.0
 43
0.0008202099737533
 43
0.0
 43
0.0
 43
0.0
 43
0.0
 43
1.0
 43
0.0
 43
0.0
 43
0.0
 43
0.0
 43
1.0
 77
     0
 47
0.0008202099737533
 47
0.0
 47
0.0
 47
0.0
 47
0.0
 47
0.0008202099737533
 47
0.0
 47
0.0
 47
0.0
 47
0.0
 47
1.0
 47
0.0
 47
0.0
 47
0.0
 47
0.0
 47
1.0
171
     0
 49
0.0008202099737533
 49
0.0
 49
0.0
 49
0.0
 49
0.0
 49
0.0008202099737533
 49
0.0
 49
0.0
 49
0.0
 49
0.0
 49
1.0
 49
0.0
 49
0.0
 49
0.0
 49
0.0
 49
1.0
175
     0
142
0.0008202099737533
142
0.0
142
0.0
142
0.0
142
0.0
142
0.0008202099737533
142
0.0
142
0.0
142
0.0
142
0.0
142
1.0
142
0.0
142
0.0
142
0.0
142
0.0
142
1.0
179
     0
144
0.0008202099737533
144
0.0
144
0.0
144
0.0
144
0.0
144
0.0008202099737533
144
0.0
144
0.0
144
0.0
144
0.0
144
1.0
144
0.0
144
0.0
144
0.0
144
0.0
144
1.0
147
0.0008202099737533
147
0.0
147
0.0
147
0.0
147
0.0
147
0.0008202099737533
147
0.0
147
0.0
147
0.0
147
0.0
147
1.0
147
0.0
147
0.0
147
0.0
147
0.0
147
1.0
  0
MATERIAL
  5
A37
102
{ACAD_XDICTIONARY
360
A38
102
}
102
{ACAD_REACTORS
330
3C9
102
}
330
3C9
100
AcDbMaterial
  1
ByLayer
 72
     0
 43
0.0008202099737533
 43
0.0
 43
0.0
 43
0.0
 43
0.0
 43
0.0008202099737533
 43
0.0
 43
0.0
 43
0.0
 43
0.0
 43
1.0
 43
0.0
 43
0.0
 43
0.0
 43
0.0
 43
1.0
 77
     0
 47
0.0008202099737533
 47
0.0
 47
0.0
 47
0.0
 47
0.0
 47
0.0008202099737533
 47
0.0
 47
0.0
 47
0.0
 47
0.0
 47
1.0
 47
0.0
 47
0.0
 47
0.0
 47
0.0
 47
1.0
171
     0
 49
0.0008202099737533
 49
0.0
 49
0.0
 49
0.0
 49
0.0
 49
0.0008202099737533
 49
0.0
 49
0.0
 49
0.0
 49
0.0
 49
1.0
 49
0.0
 49
0.0
 49
0.0
 49
0.0
 49
1.0
175
     0
142
0.0008202099737533
142
0.0
142
0.0
142
0.0
142
0.0
142
0.0008202099737533
142
0.0
142
0.0
142
0.0
142
0.0
142
1.0
142
0.0
142
0.0
142
0.0
142
0.0
142
1.0
179
     0
144
0.0008202099737533
144
0.0
144
0.0
144
0.0
144
0.0
144
0.0008202099737533
144
0.0
144
0.0
144
0.0
144
0.0
144
1.0
144
0.0
144
0.0
144
0.0
144
0.0
144
1.0
147
0.0008202099737533
147
0.0
147
0.0
147
0.0
147
0.0
147
0.0008202099737533
147
0.0
147
0.0
147
0.0
147
0.0
147
1.0
147
0.0
147
0.0
147
0.0
147
0.0
147
1.0
  0
MATERIAL
  5
A47
102
{ACAD_XDICTIONARY
360
A48
102
}
102
{ACAD_REACTORS
330
3C9
102
}
330
3C9
100
AcDbMaterial
  1
Global
 72
     0
 43
0.0008202099737533
 43
0.0
 43
0.0
 43
0.0
 43
0.0
 43
0.0008202099737533
 43
0.0
 43
0.0
 43
0.0
 43
0.0
 43
1.0
 43
0.0
 43
0.0
 43
0.0
 43
0.0
 43
1.0
 77
     0
 47
0.0008202099737533
 47
0.0
 47
0.0
 47
0.0
 47
0.0
 47
0.0008202099737533
 47
0.0
 47
0.0
 47
0.0
 47
0.0
 47
1.0
 47
0.0
 47
0.0
 47
0.0
 47
0.0
 47
1.0
171
     0
 49
0.0008202099737533
 49
0.0
 49
0.0
 49
0.0
 49
0.0
 49
0.0008202099737533
 49
0.0
 49
0.0
 49
0.0
 49
0.0
 49
1.0
 49
0.0
 49
0.0
 49
0.0
 49
0.0
 49
1.0
175
     0
142
0.0008202099737533
142
0.0
142
0.0
142
0.0
142
0.0
142
0.0008202099737533
142
0.0
142
0.0
142
0.0
142
0.0
142
1.0
142
0.0
142
0.0
142
0.0
142
0.0
142
1.0
179
     0
144
0.0008202099737533
144
0.0
144
0.0
144
0.0
144
0.0
144
0.0008202099737533
144
0.0
144
0.0
144
0.0
144
0.0
144
1.0
144
0.0
144
0.0
144
0.0
144
0.0
144
1.0
147
0.0008202099737533
147
0.0
147
0.0
147
0.0
147
0.0
147
0.0008202099737533
147
0.0
147
0.0
147
0.0
147
0.0
147
1.0
147
0.0
147
0.0
147
0.0
147
0.0
147
1.0
  0
MLEADERSTYLE
  5
A73
102
{ACAD_XDICTIONARY
360
1497
102
}
102
{ACAD_REACTORS
330
A72
102
}
330
A72
100
AcDbMLeaderStyle
179
     2
170
     2
171
     1
172
     0
 90
        2
 40
0.0
 41
0.0
173
     1
 91
-1056964608
340
14
 92
       -2
290
     1
 42
2.0
291
     1
 43
0.36
  3
Standard
 44
4.0
300

342
10
174
     1
178
     6
175
     1
176
     0
 93
-1056964608
 45
4.0
292
     0
297
     0
 46
4.0
 94
-1056964608
 47
1.0
 49
1.0
140
1.0
293
     1
141
0.0
294
     1
177
     0
142
1.0
295
     0
296
     0
143
0.125
271
     0
272
     9
273
     9
298
     1
  0
MLINESTYLE
  5
13
102
{ACAD_REACTORS
330
E
102
}
330
E
100
AcDbMlineStyle
  2
STANDARD
 70
     0
  3

 62
     0
 51
90.0
 52
90.0
 71
     2
 49
0.5
 62
   256
  6
BYLAYER
 49
-0.5
 62
   256
  6
BYLAYER
  0
PLOTSETTINGS
  5
2C89
102
{ACAD_REACTORS
330
168
102
}
330
168
100
AcDbPlotSettings
  1
Setup1
  2
none_device
  4
ISO_A4_(210.00_x_297.00_MM)
  6

 40
7.5
 41
20.0
 42
7.5
 43
20.0
 44
210.0
 45
297.0
 46
0.0
 47
0.0
 48
0.0
 49
0.0
140
0.0
141
0.0
142
1.0
143
2.0
 70
   688
 72
     1
 73
     1
 74
     5
  7
@Layout.ctb
 75
    17
147
0.5
 76
     0
 77
     2
 78
   300
148
0.0
149
0.0
1001
ACAD_PSEXT
1000
None
1000
None
1000
Not applicable
1000
The layout will not be plotted unless a new plotter configuration name is selected.
1070
     0
  0
ACDBPLACEHOLDER
  5
166
102
{ACAD_REACTORS
330
165
102
}
330
165
  0
SCALE
  5
A61
102
{ACAD_REACTORS
330
A60
102
}
330
A60
100
AcDbScale
 70
     0
300
1:1
140
1.0
141
1.0
290
     1
  0
SCALE
  5
A62
102
{ACAD_REACTORS
330
A60
102
}
330
A60
100
AcDbScale
 70
     0
300
1:2
140
1.0
141
2.0
290
     0
  0
SCALE
  5
A63
102
{ACAD_REACTORS
330
A60
102
}
330
A60
100
AcDbScale
 70
     0
300
1:4
140
1.0
141
4.0
290
     0
  0
SCALE
  5
A64
102
{ACAD_REACTORS
330
A60
102
}
330
A60
100
AcDbScale
 70
     0
300
1:5
140
1.0
141
5.0
290
     0
  0
SCALE
  5
A65
102
{ACAD_REACTORS
330
A60
102
}
330
A60
100
AcDbScale
 70
     0
300
1:8
140
1.0
141
8.0
290
     0
  0
SCALE
  5
A66
102
{ACAD_REACTORS
330
A60
102
}
330
A60
100
AcDbScale
 70
     0
300
1:10
140
1.0
141
10.0
290
     0
  0
SCALE
  5
A67
102
{ACAD_REACTORS
330
A60
102
}
330
A60
100
AcDbScale
 70
     0
300
1:16
140
1.0
141
16.0
290
     0
  0
SCALE
  5
A68
102
{ACAD_REACTORS
330
A60
102
}
330
A60
100
AcDbScale
 70
     0
300
1:20
140
1.0
141
20.0
290
     0
  0
SCALE
  5
A69
102
{ACAD_REACTORS
330
A60
102
}
330
A60
100
AcDbScale
 70
     0
300
1:30
140
1.0
141
30.0
290
     0
  0
SCALE
  5
A6A
102
{ACAD_REACTORS
330
A60
102
}
330
A60
100
AcDbScale
 70
     0
300
1:40
140
1.0
141
40.0
290
     0
  0
SCALE
  5
A6B
102
{ACAD_REACTORS
330
A60
102
}
330
A60
100
AcDbScale
 70
     0
300
1:50
140
1.0
141
50.0
290
     0
  0
SCALE
  5
A6C
102
{ACAD_REACTORS
330
A60
102
}
330
A60
100
AcDbScale
 70
     0
300
1:100
140
1.0
141
100.0
290
     0
  0
SCALE
  5
A6D
102
{ACAD_REACTORS
330
A60
102
}
330
A60
100
AcDbScale
 70
     0
300
2:1
140
2.0
141
1.0
290
     0
  0
SCALE
  5
A6E
102
{ACAD_REACTORS
330
A60
102
}
330
A60
100
AcDbScale
 70
     0
300
4:1
140
4.0
141
1.0
290
     0
  0
SCALE
  5
A6F
102
{ACAD_REACTORS
330
A60
102
}
330
A60
100
AcDbScale
 70
     0
300
8:1
140
8.0
141
1.0
290
     0
  0
SCALE
  5
A70
102
{ACAD_REACTORS
330
A60
102
}
330
A60
100
AcDbScale
 70
     0
300
10:1
140
10.0
141
1.0
290
     0
  0
SCALE
  5
A71
102
{ACAD_REACTORS
330
A60
102
}
330
A60
100
AcDbScale
 70
     0
300
100:1
140
100.0
141
1.0
290
     0
  0
ACDBSECTIONVIEWSTYLE
  5
10BA
102
{ACAD_XDICTIONARY
360
10BB
102
}
102
{ACAD_REACTORS
330
CC9
102
}
330
CC9
100
AcDbModelDocViewStyle
 70
     0
  3

290
     0
100
AcDbSectionViewStyle
 70
     0
 71
     0
 90
      110
 71
     1
340
159
 62
     7
 40
5.0
340
D78
340
D78
 62
     0
 40
7.0
300
I,O,Q,S,X,Z
 40
10.0
 90
        4
 40
2.5
 90
        0
 71
     2
340
176
 90
       -1
 62
     1
340
176
 90
       -1
 62
     4
 40
10.0
 40
5.0
 40
10.0
 71
     3
340
159
 62
     7
 40
5.0
 90
        1
 40
5.25
 90
        1
300
%<\AcVar ViewSectionStartId>%-%<\AcVar ViewSectionEndId>%
 71
     4
 62
   256
 62
   257
300
ANSI31
 40
1.0
 90
        0
290
     0
290
     0
 90
        6
 40
0.0
 40
1.570796326794896
 40
0.2617993877991494
 40
1.308996938995747
 40
-0.2617993877991494
 40
1.832595714594044
  0
ACDBSECTIONVIEWSTYLE
  5
CCA
102
{ACAD_XDICTIONARY
360
13FA
102
}
102
{ACAD_REACTORS
330
CC9
102
}
330
CC9
100
AcDbModelDocViewStyle
 70
     0
  3
Metric50
290
     0
100
AcDbSectionViewStyle
 70
     0
 71
     0
 90
      102
 71
     1
340
10
 62
   256
 40
5.0
340
0
340
0
 62
   256
 40
5.0
300
I, O, Q, S, X, Z
 40
10.0
 90
        0
 40
2.5
 90
        0
 71
     2
340
16
 90
       25
 62
   256
340
16
 90
       50
 62
   256
 40
5.0
 40
2.5
 40
5.0
 71
     3
340
10
 62
   256
 40
5.0
 90
        0
 40
15.0
 90
        1
300
%<\AcVar ViewSectionStartId>%-%<\AcVar ViewSectionEndId>% (%<\AcVar ViewScale \f "%sn">%)
 71
     4
 62
   256
 62
   257
300
ANSI31
 40
1.0
 90
        0
290
     0
290
     0
 90
        6
 40
0.0
 40
1.570796326794896
 40
0.2617993877991494
 40
1.308996938995747
 40
-0.2617993877991494
 40
1.832595714594044
  0
TABLESTYLE
  5
651
102
{ACAD_XDICTIONARY
360
AED
102
}
102
{ACAD_REACTORS
330
650
102
}
330
650
100
AcDbTableStyle
280
     0
  3
Standard
 70
     0
 71
     0
 40
1.5
 41
1.5
280
     0
281
     0
  7
STANDARD
140
4.5
170
     2
 62
     0
 63
     7
283
     0
 90
        4
 91
        0
  1

274
    -2
284
     1
 64
     0
275
    -2
285
     1
 65
     0
276
    -2
286
     1
 66
     0
277
    -2
287
     1
 67
     0
278
    -2
288
     1
 68
     0
279
    -2
289
     1
 69
     0
  7
STANDARD
140
6.0
170
     5
 62
     0
 63
     7
283
     0
 90
        4
 91
        0
  1

274
    -2
284
     1
 64
     0
275
    -2
285
     1
 65
     0
276
    -2
286
     1
 66
     0
277
    -2
287
     1
 67
     0
278
    -2
288
     1
 68
     0
279
    -2
289
     1
 69
     0
  7
STANDARD
140
4.5
170
     5
 62
     0
 63
     7
283
     0
 90
        4
 91
        0
  1

274
    -2
284
     1
 64
     0
275
    -2
285
     1
 65
     0
276
    -2
286
     1
 66
     0
277
    -2
287
     1
 67
     0
278
    -2
288
     1
 68
     0
279
    -2
289
     1
 69
     0
  0
VISUALSTYLE
  5
A55
102
{ACAD_REACTORS
330
A4F
102
}
330
A4F
100
AcDbVisualStyle
  2
2dWireframe
 70
     4
177
     3
291
     0
 70
    58
 90
        0
176
     1
 90
        2
176
     1
 90
        0
176
     1
 90
        0
176
     1
 40
0.6
176
     1
 40
30.0
176
     1
 62
     7
420
 16777215
176
     1
 90
        1
176
     1
 90
        4
176
     1
 62
     7
176
     1
 62
   257
176
     1
 90
        1
176
     1
 90
        1
176
     1
 40
1.0
176
     1
 90
        0
176
     1
 62
   257
176
     1
 40
1.0
176
     1
 90
        1
176
     1
 90
        6
176
     1
 90
        2
176
     1
 62
     7
176
     1
 90
        5
176
     1
 90
        0
176
     1
 90
        0
176
     1
290
     0
176
     1
 90
        1
176
     1
 40
0.0
176
     1
 90
        0
176
     1
290
     1
176
     1
290
     1
176
     1
290
     0
176
     1
290
     0
176
     1
290
     0
176
     1
290
     0
176
     1
290
     0
176
     1
290
     0
176
     1
290
     0
176
     1
 90
       50
176
     1
 40
0.0
176
     1
 40
1.0
176
     1
 90
        0
176
     1
 62
    18
176
     1
 90
       50
176
     1
 90
        3
176
     1
 62
     5
420
      255
176
     1
290
     0
176
     1
 90
       50
176
     1
 90
       50
176
     1
 90
       50
176
     1
290
     0
176
     1
 90
       50
176
     1
 62
   256
176
     0
 40
1.0
176
     0
 90
        2
176
     1
  1
strokes_ogs.tif
176
     1
290
     0
176
     1
 40
1.0
176
     1
 40
1.0
176
     1
  0
VISUALSTYLE
  5
A57
102
{ACAD_REACTORS
330
A4F
102
}
330
A4F
100
AcDbVisualStyle
  2
3D Hidden
 70
     6
177
     3
291
     0
 70
    58
 90
        1
176
     1
 90
        2
176
     1
 90
        2
176
     1
 90
        0
176
     1
 40
0.6
176
     1
 40
30.0
176
     1
 62
     7
420
 16777215
176
     1
 90
        2
176
     1
 90
        2
176
     1
 62
     7
176
     1
 62
   257
176
     1
 90
        2
176
     1
 90
        1
176
     1
 40
40.0
176
     1
 90
        0
176
     1
 62
   257
176
     1
 40
1.0
176
     1
 90
        1
176
     1
 90
        6
176
     1
 90
        2
176
     1
 62
     7
176
     1
 90
        3
176
     1
 90
        0
176
     1
 90
        0
176
     1
290
     0
176
     1
 90
        1
176
     1
 40
0.0
176
     1
 90
        0
176
     1
290
     0
176
     1
290
     1
176
     1
290
     1
176
     1
290
     0
176
     1
290
     0
176
     1
290
     0
176
     1
290
     0
176
     1
290
     0
176
     1
290
     0
176
     1
 90
       50
176
     1
 40
0.0
176
     1
 40
1.0
176
     1
 90
        0
176
     1
 62
    18
176
     1
 90
       50
176
     1
 90
        3
176
     1
 62
     5
420
      255
176
     1
290
     0
176
     1
 90
       50
176
     1
 90
       50
176
     1
 90
       50
176
     1
290
     0
176
     1
 90
       50
176
     1
 62
   256
176
     0
 40
1.0
176
     0
 90
        2
176
     1
  1
strokes_ogs.tif
176
     1
290
     0
176
     1
 40
1.0
176
     1
 40
1.0
176
     1
  0
VISUALSTYLE
  5
A56
102
{ACAD_REACTORS
330
A4F
102
}
330
A4F
100
AcDbVisualStyle
  2
3dWireframe
 70
     5
177
     3
291
     0
 70
    58
 90
        0
176
     1
 90
        2
176
     1
 90
        0
176
     1
 90
        0
176
     1
 40
0.6
176
     1
 40
30.0
176
     1
 62
     7
420
 16777215
176
     1
 90
        1
176
     1
 90
        4
176
     1
 62
     7
176
     1
 62
   257
176
     1
 90
        1
176
     1
 90
        1
176
     1
 40
1.0
176
     1
 90
        0
176
     1
 62
   257
176
     1
 40
1.0
176
     1
 90
        1
176
     1
 90
        6
176
     1
 90
        2
176
     1
 62
     7
176
     1
 90
        5
176
     1
 90
        0
176
     1
 90
        0
176
     1
290
     0
176
     1
 90
        1
176
     1
 40
0.0
176
     1
 90
        0
176
     1
290
     0
176
     1
290
     1
176
     1
290
     1
176
     1
290
     0
176
     1
290
     0
176
     1
290
     0
176
     1
290
     0
176
     1
290
     0
176
     1
290
     0
176
     1
 90
       50
176
     1
 40
0.0
176
     1
 40
1.0
176
     1
 90
        0
176
     1
 62
    18
176
     1
 90
       50
176
     1
 90
        3
176
     1
 62
     5
420
      255
176
     1
290
     0
176
     1
 90
       50
176
     1
 90
       50
176
     1
 90
       50
176
     1
290
     0
176
     1
 90
       50
176
     1
 62
   256
176
     0
 40
1.0
176
     0
 90
        2
176
     1
  1
strokes_ogs.tif
176
     1
290
     0
176
     1
 40
1.0
176
     1
 40
1.0
176
     1
  0
VISUALSTYLE
  5
A54
102
{ACAD_REACTORS
330
A4F
102
}
330
A4F
100
AcDbVisualStyle
  2
Basic
 70
     7
177
     3
291
     1
 70
    58
 90
        1
176
     1
 90
        0
176
     1
 90
        1
176
     1
 90
        0
176
     1
 40
0.6
176
     1
 40
30.0
176
     1
 62
     7
420
 16777215
176
     1
 90
        0
176
     1
 90
        4
176
     1
 62
     7
176
     1
 62
   257
176
     1
 90
        1
176
     1
 90
        1
176
     1
 40
1.0
176
     1
 90
        8
176
     1
 62
     7
176
     1
 40
1.0
176
     1
 90
        1
176
     1
 90
        6
176
     1
 90
        2
176
     1
 62
     7
176
     1
 90
        5
176
     1
 90
        0
176
     1
 90
        0
176
     1
290
     0
176
     1
 90
        1
176
     1
 40
0.0
176
     1
 90
        0
176
     1
290
     0
176
     1
290
     1
176
     1
290
     1
176
     1
290
     0
176
     1
290
     0
176
     1
290
     0
176
     1
290
     0
176
     1
290
     0
176
     1
290
     0
176
     1
 90
       50
176
     1
 40
0.0
176
     1
 40
1.0
176
     1
 90
        0
176
     1
 62
    18
176
     1
 90
       50
176
     1
 90
        3
176
     1
 62
     5
420
      255
176
     1
290
     0
176
     1
 90
       50
176
     1
 90
       50
176
     1
 90
       50
176
     1
290
     0
176
     1
 90
       50
176
     1
 62
   256
176
     0
 40
1.0
176
     0
 90
        2
176
     1
  1
strokes_ogs.tif
176
     1
290
     0
176
     1
 40
1.0
176
     1
 40
1.0
176
     1
  0
VISUALSTYLE
  5
A5B
102
{ACAD_REACTORS
330
A4F
102
}
330
A4F
100
AcDbVisualStyle
  2
Brighten
 70
    12
177
     3
291
     1
 70
    58
 90
        2
176
     1
 90
        2
176
     1
 90
        0
176
     1
 90
        0
176
     1
 40
0.6
176
     1
 40
30.0
176
     1
 62
     7
420
 16777215
176
     1
 90
        1
176
     1
 90
        4
176
     1
 62
     7
176
     1
 62
   257
176
     1
 90
        1
176
     1
 90
        1
176
     1
 40
1.0
176
     1
 90
        8
176
     1
 62
     7
176
     1
 40
1.0
176
     1
 90
        1
176
     1
 90
        6
176
     1
 90
        2
176
     1
 62
     7
176
     1
 90
        5
176
     1
 90
        0
176
     1
 90
        0
176
     1
290
     0
176
     1
 90
        1
176
     1
 40
50.0
176
     1
 90
        0
176
     1
290
     0
176
     1
290
     1
176
     1
290
     1
176
     1
290
     0
176
     1
290
     0
176
     1
290
     0
176
     1
290
     0
176
     1
290
     0
176
     1
290
     0
176
     1
 90
       50
176
     1
 40
0.0
176
     1
 40
1.0
176
     1
 90
        0
176
     1
 62
    18
176
     1
 90
       50
176
     1
 90
        3
176
     1
 62
     5
420
      255
176
     1
290
     0
176
     1
 90
       50
176
     1
 90
       50
176
     1
 90
       50
176
     1
290
     0
176
     1
 90
       50
176
     1
 62
   256
176
     0
 40
1.0
176
     0
 90
        2
176
     1
  1
strokes_ogs.tif
176
     1
290
     0
176
     1
 40
1.0
176
     1
 40
1.0
176
     1
  0
VISUALSTYLE
  5
A5F
102
{ACAD_REACTORS
330
A4F
102
}
330
A4F
100
AcDbVisualStyle
  2
ColorChange
 70
    16
177
     3
291
     1
 70
    58
 90
        2
176
     1
 90
        2
176
     1
 90
        3
176
     1
 90
        0
176
     1
 40
0.6
176
     1
 40
30.0
176
     1
 62
     8
420
  8421504
176
     1
 90
        1
176
     1
 90
        4
176
     1
 62
     7
176
     1
 62
   257
176
     1
 90
        1
176
     1
 90
        1
176
     1
 40
1.0
176
     1
 90
        8
176
     1
 62
     8
420
  8421504
176
     1
 40
1.0
176
     1
 90
        1
176
     1
 90
        6
176
     1
 90
        2
176
     1
 62
     7
176
     1
 90
        5
176
     1
 90
        0
176
     1
 90
        0
176
     1
290
     0
176
     1
 90
        1
176
     1
 40
0.0
176
     1
 90
        0
176
     1
290
     0
176
     1
290
     1
176
     1
290
     1
176
     1
290
     0
176
     1
290
     0
176
     1
290
     0
176
     1
290
     0
176
     1
290
     0
176
     1
290
     0
176
     1
 90
       50
176
     1
 40
0.0
176
     1
 40
1.0
176
     1
 90
        0
176
     1
 62
    18
176
     1
 90
       50
176
     1
 90
        3
176
     1
 62
     5
420
      255
176
     1
290
     0
176
     1
 90
       50
176
     1
 90
       50
176
     1
 90
       50
176
     1
290
     0
176
     1
 90
       50
176
     1
 62
   256
176
     0
 40
1.0
176
     0
 90
        2
176
     1
  1
strokes_ogs.tif
176
     1
290
     0
176
     1
 40
1.0
176
     1
 40
1.0
176
     1
  0
VISUALSTYLE
  5
A58
102
{ACAD_REACTORS
330
A4F
102
}
330
A4F
100
AcDbVisualStyle
  2
Conceptual
 70
     9
177
     3
291
     0
 70
    58
 90
        3
176
     1
 90
        2
176
     1
 90
        0
176
     1
 90
        0
176
     1
 40
0.6
176
     1
 40
30.0
176
     1
 62
     7
420
 16777215
176
     1
 90
        2
176
     1
 90
        2
176
     1
 62
     7
176
     1
 62
   257
176
     1
 90
        1
176
     1
 90
        1
176
     1
 40
40.0
176
     1
 90
        8
176
     1
 62
     7
176
     1
 40
1.0
176
     1
 90
        1
176
     1
 90
        6
176
     1
 90
        2
176
     1
 62
     7
176
     1
 90
        3
176
     1
 90
        0
176
     1
 90
        0
176
     1
290
     0
176
     1
 90
        1
176
     1
 40
0.0
176
     1
 90
        0
176
     1
290
     0
176
     1
290
     1
176
     1
290
     1
176
     1
290
     0
176
     1
290
     0
176
     1
290
     0
176
     1
290
     0
176
     1
290
     0
176
     1
290
     0
176
     1
 90
       50
176
     1
 40
0.0
176
     1
 40
1.0
176
     1
 90
        0
176
     1
 62
    18
176
     1
 90
       50
176
     1
 90
        3
176
     1
 62
     5
420
      255
176
     1
290
     0
176
     1
 90
       50
176
     1
 90
       50
176
     1
 90
       50
176
     1
290
     0
176
     1
 90
       50
176
     1
 62
   256
176
     0
 40
1.0
176
     0
 90
        2
176
     1
  1
strokes_ogs.tif
176
     1
290
     0
176
     1
 40
1.0
176
     1
 40
1.0
176
     1
  0
VISUALSTYLE
  5
A5A
102
{ACAD_REACTORS
330
A4F
102
}
330
A4F
100
AcDbVisualStyle
  2
Dim
 70
    11
177
     3
291
     1
 70
    58
 90
        2
176
     1
 90
        2
176
     1
 90
        0
176
     1
 90
        0
176
     1
 40
0.6
176
     1
 40
30.0
176
     1
 62
     7
420
 16777215
176
     1
 90
        1
176
     1
 90
        4
176
     1
 62
     7
176
     1
 62
   257
176
     1
 90
        1
176
     1
 90
        1
176
     1
 40
1.0
176
     1
 90
        8
176
     1
 62
     7
176
     1
 40
1.0
176
     1
 90
        1
176
     1
 90
        6
176
     1
 90
        2
176
     1
 62
     7
176
     1
 90
        5
176
     1
 90
        0
176
     1
 90
        0
176
     1
290
     0
176
     1
 90
        1
176
     1
 40
-50.0
176
     1
 90
        0
176
     1
290
     0
176
     1
290
     1
176
     1
290
     1
176
     1
290
     0
176
     1
290
     0
176
     1
290
     0
176
     1
290
     0
176
     1
290
     0
176
     1
290
     0
176
     1
 90
       50
176
     1
 40
0.0
176
     1
 40
1.0
176
     1
 90
        0
176
     1
 62
    18
176
     1
 90
       50
176
     1
 90
        3
176
     1
 62
     5
420
      255
176
     1
290
     0
176
     1
 90
       50
176
     1
 90
       50
176
     1
 90
       50
176
     1
290
     0
176
     1
 90
       50
176
     1
 62
   256
176
     0
 40
1.0
176
     0
 90
        2
176
     1
  1
strokes_ogs.tif
176
     1
290
     0
176
     1
 40
1.0
176
     1
 40
1.0
176
     1
  0
VISUALSTYLE
  5
CC8
102
{ACAD_REACTORS
330
A4F
102
}
330
A4F
100
AcDbVisualStyle
  2
EdgeColorOff
 70
    22
177
     3
291
     1
 70
    58
 90
        2
176
     0
 90
        2
176
     0
 90
        0
176
     0
 90
        0
176
     0
 40
0.6
176
     0
 40
30.0
176
     0
 62
     7
420
 16777215
176
     0
 90
        1
176
     0
 90
        4
176
     0
 62
     7
176
     0
 62
   257
176
     0
 90
        1
176
     0
 90
        1
176
     0
 40
1.0
176
     0
 90
        8
176
     2
 62
     7
176
     0
 40
1.0
176
     0
 90
        1
176
     0
 90
        6
176
     0
 90
        2
176
     0
 62
     7
176
     0
 90
        5
176
     0
 90
        0
176
     0
 90
        0
176
     0
290
     0
176
     0
 90
        1
176
     0
 40
0.0
176
     0
 90
        0
176
     0
290
     0
176
     0
290
     1
176
     0
290
     1
176
     0
290
     0
176
     0
290
     0
176
     0
290
     0
176
     0
290
     0
176
     0
290
     0
176
     0
290
     0
176
     0
 90
       50
176
     0
 40
0.0
176
     0
 40
1.0
176
     0
 90
        0
176
     0
 62
    18
176
     0
 90
       50
176
     0
 90
        3
176
     0
 62
     5
420
      255
176
     0
290
     0
176
     0
 90
       50
176
     0
 90
       50
176
     0
 90
       50
176
     0
290
     0
176
     0
 90
       50
176
     0
 62
   256
176
     0
 40
1.0
176
     0
 90
        2
176
     0
  1
strokes_ogs.tif
176
     0
290
     0
176
     0
 40
1.0
176
     0
 40
1.0
176
     0
  0
VISUALSTYLE
  5
A5E
102
{ACAD_REACTORS
330
A4F
102
}
330
A4F
100
AcDbVisualStyle
  2
Facepattern
 70
    15
177
     3
291
     1
 70
    58
 90
        2
176
     1
 90
        2
176
     1
 90
        0
176
     1
 90
        0
176
     1
 40
0.6
176
     1
 40
30.0
176
     1
 62
     7
420
 16777215
176
     1
 90
        1
176
     1
 90
        4
176
     1
 62
     7
176
     1
 62
   257
176
     1
 90
        1
176
     1
 90
        1
176
     1
 40
1.0
176
     1
 90
        8
176
     1
 62
     7
176
     1
 40
1.0
176
     1
 90
        1
176
     1
 90
        6
176
     1
 90
        2
176
     1
 62
     7
176
     1
 90
        5
176
     1
 90
        0
176
     1
 90
        0
176
     1
290
     0
176
     1
 90
        1
176
     1
 40
0.0
176
     1
 90
        0
176
     1
290
     0
176
     1
290
     1
176
     1
290
     1
176
     1
290
     0
176
     1
290
     0
176
     1
290
     0
176
     1
290
     0
176
     1
290
     0
176
     1
290
     0
176
     1
 90
       50
176
     1
 40
0.0
176
     1
 40
1.0
176
     1
 90
        0
176
     1
 62
    18
176
     1
 90
       50
176
     1
 90
        3
176
     1
 62
     5
420
      255
176
     1
290
     0
176
     1
 90
       50
176
     1
 90
       50
176
     1
 90
       50
176
     1
290
     0
176
     1
 90
       50
176
     1
 62
   256
176
     0
 40
1.0
176
     0
 90
        2
176
     1
  1
strokes_ogs.tif
176
     1
290
     0
176
     1
 40
1.0
176
     1
 40
1.0
176
     1
  0
VISUALSTYLE
  5
A50
102
{ACAD_REACTORS
330
A4F
102
}
330
A4F
100
AcDbVisualStyle
  2
Flat
 70
     0
177
     3
291
     1
 70
    58
 90
        2
176
     1
 90
        1
176
     1
 90
        1
176
     1
 90
        2
176
     1
 40
0.6
176
     1
 40
30.0
176
     1
 62
     7
420
 16777215
176
     1
 90
        0
176
     1
 90
        4
176
     1
 62
     7
176
     1
 62
   257
176
     1
 90
        1
176
     1
 90
        1
176
     1
 40
1.0
176
     1
 90
        8
176
     1
 62
     7
176
     1
 40
1.0
176
     1
 90
        1
176
     1
 90
        6
176
     1
 90
        2
176
     1
 62
     7
176
     1
 90
        5
176
     1
 90
        0
176
     1
 90
        0
176
     1
290
     0
176
     1
 90
       13
176
     1
 40
0.0
176
     1
 90
        0
176
     1
290
     0
176
     1
290
     1
176
     1
290
     1
176
     1
290
     0
176
     1
290
     0
176
     1
290
     0
176
     1
290
     0
176
     1
290
     0
176
     1
290
     0
176
     1
 90
       50
176
     1
 40
0.0
176
     1
 40
1.0
176
     1
 90
        0
176
     1
 62
    18
176
     1
 90
       50
176
     1
 90
        3
176
     1
 62
     5
420
      255
176
     1
290
     0
176
     1
 90
       50
176
     1
 90
       50
176
     1
 90
       50
176
     1
290
     0
176
     1
 90
       50
176
     1
 62
   256
176
     0
 40
1.0
176
     0
 90
        2
176
     1
  1
strokes_ogs.tif
176
     1
290
     0
176
     1
 40
1.0
176
     1
 40
1.0
176
     1
  0
VISUALSTYLE
  5
A51
102
{ACAD_REACTORS
330
A4F
102
}
330
A4F
100
AcDbVisualStyle
  2
FlatWithEdges
 70
     1
177
     3
291
     1
 70
    58
 90
        2
176
     1
 90
        1
176
     1
 90
        1
176
     1
 90
        2
176
     1
 40
0.6
176
     1
 40
30.0
176
     1
 62
     7
420
 16777215
176
     1
 90
        1
176
     1
 90
        4
176
     1
 62
     7
176
     1
 62
   257
176
     1
 90
        1
176
     1
 90
        1
176
     1
 40
1.0
176
     1
 90
        0
176
     1
 62
   257
176
     1
 40
1.0
176
     1
 90
        1
176
     1
 90
        6
176
     1
 90
        2
176
     1
 62
     7
176
     1
 90
        5
176
     1
 90
        0
176
     1
 90
        0
176
     1
290
     0
176
     1
 90
       13
176
     1
 40
0.0
176
     1
 90
        0
176
     1
290
     0
176
     1
290
     1
176
     1
290
     1
176
     1
290
     0
176
     1
290
     0
176
     1
290
     0
176
     1
290
     0
176
     1
290
     0
176
     1
290
     0
176
     1
 90
       50
176
     1
 40
0.0
176
     1
 40
1.0
176
     1
 90
        0
176
     1
 62
    18
176
     1
 90
       50
176
     1
 90
        3
176
     1
 62
     5
420
      255
176
     1
290
     0
176
     1
 90
       50
176
     1
 90
       50
176
     1
 90
       50
176
     1
290
     0
176
     1
 90
       50
176
     1
 62
   256
176
     0
 40
1.0
176
     0
 90
        2
176
     1
  1
strokes_ogs.tif
176
     1
290
     0
176
     1
 40
1.0
176
     1
 40
1.0
176
     1
  0
VISUALSTYLE
  5
A52
102
{ACAD_REACTORS
330
A4F
102
}
330
A4F
100
AcDbVisualStyle
  2
Gouraud
 70
     2
177
     3
291
     1
 70
    58
 90
        2
176
     1
 90
        2
176
     1
 90
        1
176
     1
 90
        2
176
     1
 40
0.6
176
     1
 40
30.0
176
     1
 62
     7
420
 16777215
176
     1
 90
        0
176
     1
 90
        4
176
     1
 62
     7
176
     1
 62
   257
176
     1
 90
        1
176
     1
 90
        1
176
     1
 40
1.0
176
     1
 90
        0
176
     1
 62
     7
176
     1
 40
1.0
176
     1
 90
        1
176
     1
 90
        6
176
     1
 90
        2
176
     1
 62
     7
176
     1
 90
        5
176
     1
 90
        0
176
     1
 90
        0
176
     1
290
     0
176
     1
 90
       13
176
     1
 40
0.0
176
     1
 90
        0
176
     1
290
     0
176
     1
290
     1
176
     1
290
     1
176
     1
290
     0
176
     1
290
     0
176
     1
290
     0
176
     1
290
     0
176
     1
290
     0
176
     1
290
     0
176
     1
 90
       50
176
     1
 40
0.0
176
     1
 40
1.0
176
     1
 90
        0
176
     1
 62
    18
176
     1
 90
       50
176
     1
 90
        3
176
     1
 62
     5
420
      255
176
     1
290
     0
176
     1
 90
       50
176
     1
 90
       50
176
     1
 90
       50
176
     1
290
     0
176
     1
 90
       50
176
     1
 62
   256
176
     0
 40
1.0
176
     0
 90
        2
176
     1
  1
strokes_ogs.tif
176
     1
290
     0
176
     1
 40
1.0
176
     1
 40
1.0
176
     1
  0
VISUALSTYLE
  5
A53
102
{ACAD_REACTORS
330
A4F
102
}
330
A4F
100
AcDbVisualStyle
  2
GouraudWithEdges
 70
     3
177
     3
291
     1
 70
    58
 90
        2
176
     1
 90
        2
176
     1
 90
        1
176
     1
 90
        2
176
     1
 40
0.6
176
     1
 40
30.0
176
     1
 62
     7
420
 16777215
176
     1
 90
        1
176
     1
 90
        4
176
     1
 62
     7
176
     1
 62
   257
176
     1
 90
        1
176
     1
 90
        1
176
     1
 40
1.0
176
     1
 90
        0
176
     1
 62
   257
176
     1
 40
1.0
176
     1
 90
        1
176
     1
 90
        6
176
     1
 90
        2
176
     1
 62
     7
176
     1
 90
        5
176
     1
 90
        0
176
     1
 90
        0
176
     1
290
     0
176
     1
 90
       13
176
     1
 40
0.0
176
     1
 90
        0
176
     1
290
     0
176
     1
290
     1
176
     1
290
     1
176
     1
290
     0
176
     1
290
     0
176
     1
290
     0
176
     1
290
     0
176
     1
290
     0
176
     1
290
     0
176
     1
 90
       50
176
     1
 40
0.0
176
     1
 40
1.0
176
     1
 90
        0
176
     1
 62
    18
176
     1
 90
       50
176
     1
 90
        3
176
     1
 62
     5
420
      255
176
     1
290
     0
176
     1
 90
       50
176
     1
 90
       50
176
     1
 90
       50
176
     1
290
     0
176
     1
 90
       50
176
     1
 62
   256
176
     0
 40
1.0
176
     0
 90
        2
176
     1
  1
strokes_ogs.tif
176
     1
290
     0
176
     1
 40
1.0
176
     1
 40
1.0
176
     1
  0
VISUALSTYLE
  5
CC0
102
{ACAD_REACTORS
330
A4F
102
}
330
A4F
100
AcDbVisualStyle
  2
Hidden
 70
     6
177
     3
291
     0
 70
    58
 90
        1
176
     1
 90
        2
176
     1
 90
        2
176
     1
 90
        0
176
     1
 40
0.6
176
     1
 40
30.0
176
     1
 62
     7
420
 16777215
176
     1
 90
        2
176
     1
 90
        2
176
     1
 62
     7
176
     1
 62
   257
176
     1
 90
        2
176
     1
 90
        1
176
     1
 40
40.0
176
     1
 90
        0
176
     1
 62
   257
176
     1
 40
1.0
176
     1
 90
        1
176
     1
 90
        6
176
     1
 90
        2
176
     1
 62
     7
176
     1
 90
        3
176
     1
 90
        0
176
     1
 90
        0
176
     1
290
     0
176
     1
 90
        1
176
     1
 40
0.0
176
     1
 90
        0
176
     1
290
     0
176
     1
290
     1
176
     1
290
     1
176
     1
290
     0
176
     1
290
     0
176
     1
290
     0
176
     1
290
     0
176
     1
290
     0
176
     1
290
     0
176
     1
 90
       50
176
     1
 40
0.0
176
     1
 40
1.0
176
     1
 90
        0
176
     1
 62
    18
176
     1
 90
       50
176
     1
 90
        3
176
     1
 62
     5
420
      255
176
     1
290
     0
176
     1
 90
       50
176
     1
 90
       50
176
     1
 90
       50
176
     1
290
     0
176
     1
 90
       50
176
     1
 62
   256
176
     0
 40
1.0
176
     0
 90
        2
176
     1
  1
strokes_ogs.tif
176
     1
290
     0
176
     1
 40
1.0
176
     1
 40
1.0
176
     1
  0
VISUALSTYLE
  5
CC6
102
{ACAD_REACTORS
330
A4F
102
}
330
A4F
100
AcDbVisualStyle
  2
JitterOff
 70
    20
177
     3
291
     1
 70
    58
 90
        2
176
     0
 90
        2
176
     0
 90
        0
176
     0
 90
        0
176
     0
 40
0.6
176
     0
 40
30.0
176
     0
 62
     7
420
 16777215
176
     0
 90
        1
176
     0
 90
        4
176
     0
 62
     7
176
     0
 62
   257
176
     0
 90
        1
176
     0
 90
        1
176
     0
 40
1.0
176
     0
 90
       10
176
     2
 62
     7
176
     0
 40
1.0
176
     0
 90
        1
176
     0
 90
        6
176
     0
 90
        2
176
     0
 62
     7
176
     0
 90
        5
176
     0
 90
        0
176
     0
 90
        0
176
     0
290
     0
176
     0
 90
        1
176
     0
 40
0.0
176
     0
 90
        0
176
     0
290
     0
176
     0
290
     1
176
     0
290
     1
176
     0
290
     0
176
     0
290
     0
176
     0
290
     0
176
     0
290
     0
176
     0
290
     0
176
     0
290
     0
176
     0
 90
       50
176
     0
 40
0.0
176
     0
 40
1.0
176
     0
 90
        0
176
     0
 62
    18
176
     0
 90
       50
176
     0
 90
        3
176
     0
 62
     5
420
      255
176
     0
290
     0
176
     0
 90
       50
176
     0
 90
       50
176
     0
 90
       50
176
     0
290
     0
176
     0
 90
       50
176
     0
 62
   256
176
     0
 40
1.0
176
     0
 90
        2
176
     0
  1
strokes_ogs.tif
176
     0
290
     0
176
     0
 40
1.0
176
     0
 40
1.0
176
     0
  0
VISUALSTYLE
  5
A5D
102
{ACAD_REACTORS
330
A4F
102
}
330
A4F
100
AcDbVisualStyle
  2
Linepattern
 70
    14
177
     3
291
     1
 70
    58
 90
        2
176
     1
 90
        2
176
     1
 90
        0
176
     1
 90
        0
176
     1
 40
0.6
176
     1
 40
30.0
176
     1
 62
     7
420
 16777215
176
     1
 90
        1
176
     1
 90
        4
176
     1
 62
     7
176
     1
 62
   257
176
     1
 90
        7
176
     1
 90
        7
176
     1
 40
1.0
176
     1
 90
        8
176
     1
 62
     7
176
     1
 40
1.0
176
     1
 90
        1
176
     1
 90
        6
176
     1
 90
        2
176
     1
 62
     7
176
     1
 90
        5
176
     1
 90
        0
176
     1
 90
        0
176
     1
290
     0
176
     1
 90
        1
176
     1
 40
0.0
176
     1
 90
        0
176
     1
290
     0
176
     1
290
     1
176
     1
290
     1
176
     1
290
     0
176
     1
290
     0
176
     1
290
     0
176
     1
290
     0
176
     1
290
     0
176
     1
290
     0
176
     1
 90
       50
176
     1
 40
0.0
176
     1
 40
1.0
176
     1
 90
        0
176
     1
 62
    18
176
     1
 90
       50
176
     1
 90
        3
176
     1
 62
     5
420
      255
176
     1
290
     0
176
     1
 90
       50
176
     1
 90
       50
176
     1
 90
       50
176
     1
290
     0
176
     1
 90
       50
176
     1
 62
   256
176
     0
 40
1.0
176
     0
 90
        2
176
     1
  1
strokes_ogs.tif
176
     1
290
     0
176
     1
 40
1.0
176
     1
 40
1.0
176
     1
  0
VISUALSTYLE
  5
CC7
102
{ACAD_REACTORS
330
A4F
102
}
330
A4F
100
AcDbVisualStyle
  2
OverhangOff
 70
    21
177
     3
291
     1
 70
    58
 90
        2
176
     0
 90
        2
176
     0
 90
        0
176
     0
 90
        0
176
     0
 40
0.6
176
     0
 40
30.0
176
     0
 62
     7
420
 16777215
176
     0
 90
        1
176
     0
 90
        4
176
     0
 62
     7
176
     0
 62
   257
176
     0
 90
        1
176
     0
 90
        1
176
     0
 40
1.0
176
     0
 90
        9
176
     2
 62
     7
176
     0
 40
1.0
176
     0
 90
        1
176
     0
 90
        6
176
     0
 90
        2
176
     0
 62
     7
176
     0
 90
        5
176
     0
 90
        0
176
     0
 90
        0
176
     0
290
     0
176
     0
 90
        1
176
     0
 40
0.0
176
     0
 90
        0
176
     0
290
     0
176
     0
290
     1
176
     0
290
     1
176
     0
290
     0
176
     0
290
     0
176
     0
290
     0
176
     0
290
     0
176
     0
290
     0
176
     0
290
     0
176
     0
 90
       50
176
     0
 40
0.0
176
     0
 40
1.0
176
     0
 90
        0
176
     0
 62
    18
176
     0
 90
       50
176
     0
 90
        3
176
     0
 62
     5
420
      255
176
     0
290
     0
176
     0
 90
       50
176
     0
 90
       50
176
     0
 90
       50
176
     0
290
     0
176
     0
 90
       50
176
     0
 62
   256
176
     0
 40
1.0
176
     0
 90
        2
176
     0
  1
strokes_ogs.tif
176
     0
290
     0
176
     0
 40
1.0
176
     0
 40
1.0
176
     0
  0
VISUALSTYLE
  5
A59
102
{ACAD_REACTORS
330
A4F
102
}
330
A4F
100
AcDbVisualStyle
  2
Realistic
 70
     8
177
     3
291
     0
 70
    58
 90
        2
176
     1
 90
        2
176
     1
 90
        0
176
     1
 90
        0
176
     1
 40
0.6
176
     1
 40
30.0
176
     1
 62
     7
420
 16777215
176
     1
 90
        1
176
     1
 90
        0
176
     1
 62
     7
176
     1
 62
   257
176
     1
 90
        1
176
     1
 90
        1
176
     1
 40
1.0
176
     1
 90
        8
176
     1
 62
     8
420
  7895160
176
     1
 40
1.0
176
     1
 90
        1
176
     1
 90
        6
176
     1
 90
        2
176
     1
 62
     7
176
     1
 90
        5
176
     1
 90
        0
176
     1
 90
        0
176
     1
290
     0
176
     1
 90
       13
176
     1
 40
0.0
176
     1
 90
        0
176
     1
290
     0
176
     1
290
     1
176
     1
290
     1
176
     1
290
     0
176
     1
290
     0
176
     1
290
     0
176
     1
290
     0
176
     1
290
     0
176
     1
290
     0
176
     1
 90
       50
176
     1
 40
0.0
176
     1
 40
1.0
176
     1
 90
        0
176
     1
 62
    18
176
     1
 90
       50
176
     1
 90
        3
176
     1
 62
     5
420
      255
176
     1
290
     0
176
     1
 90
       50
176
     1
 90
       50
176
     1
 90
       50
176
     1
290
     0
176
     1
 90
       50
176
     1
 62
   256
176
     0
 40
1.0
176
     0
 90
        2
176
     1
  1
strokes_ogs.tif
176
     1
290
     0
176
     1
 40
1.0
176
     1
 40
1.0
176
     1
  0
VISUALSTYLE
  5
CC5
102
{ACAD_REACTORS
330
A4F
102
}
330
A4F
100
AcDbVisualStyle
  2
Shaded
 70
    27
177
     3
291
     0
 70
    58
 90
        2
176
     1
 90
        2
176
     1
 90
        1
176
     1
 90
        2
176
     1
 40
0.6
176
     1
 40
30.0
176
     1
 62
     7
420
 16777215
176
     1
 90
        0
176
     1
 90
        4
176
     1
 62
     7
176
     1
 62
   257
176
     1
 90
        1
176
     1
 90
        1
176
     1
 40
1.0
176
     1
 90
        8
176
     1
 62
   257
176
     1
 40
1.0
176
     1
 90
        1
176
     1
 90
        6
176
     1
 90
        2
176
     1
 62
     8
420
  7895160
176
     1
 90
        3
176
     1
 90
        0
176
     1
 90
        0
176
     1
290
     0
176
     1
 90
        5
176
     1
 40
0.0
176
     1
 90
        0
176
     1
290
     0
176
     1
290
     1
176
     1
290
     1
176
     1
290
     0
176
     1
290
     0
176
     1
290
     0
176
     1
290
     0
176
     1
290
     0
176
     1
290
     0
176
     1
 90
       50
176
     1
 40
0.0
176
     1
 40
1.0
176
     1
 90
        0
176
     1
 62
    18
176
     1
 90
       50
176
     1
 90
        3
176
     1
 62
     5
420
      255
176
     1
290
     0
176
     1
 90
       50
176
     1
 90
       50
176
     1
 90
       50
176
     1
290
     0
176
     1
 90
       50
176
     1
 62
   256
176
     0
 40
1.0
176
     0
 90
        2
176
     1
  1
strokes_ogs.tif
176
     1
290
     0
176
     1
 40
1.0
176
     1
 40
1.0
176
     1
  0
VISUALSTYLE
  5
CC4
102
{ACAD_REACTORS
330
A4F
102
}
330
A4F
100
AcDbVisualStyle
  2
Shaded with edges
 70
    26
177
     3
291
     0
 70
    58
 90
        2
176
     1
 90
        2
176
     1
 90
        1
176
     1
 90
        2
176
     1
 40
0.6
176
     1
 40
30.0
176
     1
 62
     7
420
 16777215
176
     1
 90
        1
176
     1
 90
       10
176
     1
 62
     7
176
     1
 62
   257
176
     1
 90
        2
176
     1
 90
        1
176
     1
 40
1.0
176
     1
 90
        8
176
     1
 62
   257
176
     1
 40
1.0
176
     1
 90
        1
176
     1
 90
        6
176
     1
 90
        2
176
     1
 62
     7
176
     1
 90
        3
176
     1
 90
        0
176
     1
 90
        0
176
     1
290
     0
176
     1
 90
        5
176
     1
 40
0.0
176
     1
 90
        0
176
     1
290
     0
176
     1
290
     1
176
     1
290
     1
176
     1
290
     0
176
     1
290
     0
176
     1
290
     0
176
     1
290
     0
176
     1
290
     0
176
     1
290
     0
176
     1
 90
       50
176
     1
 40
0.0
176
     1
 40
1.0
176
     1
 90
        0
176
     1
 62
    18
176
     1
 90
       50
176
     1
 90
        3
176
     1
 62
     5
420
      255
176
     1
290
     0
176
     1
 90
       50
176
     1
 90
       50
176
     1
 90
       50
176
     1
290
     0
176
     1
 90
       50
176
     1
 62
   256
176
     0
 40
1.0
176
     0
 90
        2
176
     1
  1
strokes_ogs.tif
176
     1
290
     0
176
     1
 40
1.0
176
     1
 40
1.0
176
     1
  0
VISUALSTYLE
  5
CC1
102
{ACAD_REACTORS
330
A4F
102
}
330
A4F
100
AcDbVisualStyle
  2
Shades of Gray
 70
    23
177
     3
291
     0
 70
    58
 90
        2
176
     1
 90
        2
176
     1
 90
        3
176
     1
 90
        0
176
     1
 40
0.6
176
     1
 40
30.0
176
     1
 62
     7
420
 16777215
176
     1
 90
        2
176
     1
 90
        2
176
     1
 62
     7
176
     1
 62
     7
176
     1
 90
        1
176
     1
 90
        1
176
     1
 40
40.0
176
     1
 90
        8
176
     1
 62
     7
176
     1
 40
1.0
176
     1
 90
        1
176
     1
 90
        6
176
     1
 90
        2
176
     1
 62
     7
176
     1
 90
        3
176
     1
 90
        0
176
     1
 90
        0
176
     1
290
     0
176
     1
 90
        1
176
     1
 40
0.0
176
     1
 90
        0
176
     1
290
     0
176
     1
290
     1
176
     1
290
     1
176
     1
290
     0
176
     1
290
     0
176
     1
290
     0
176
     1
290
     0
176
     1
290
     0
176
     1
290
     0
176
     1
 90
       50
176
     1
 40
0.0
176
     1
 40
1.0
176
     1
 90
        0
176
     1
 62
    18
176
     1
 90
       50
176
     1
 90
        3
176
     1
 62
     5
420
      255
176
     1
290
     0
176
     1
 90
       50
176
     1
 90
       50
176
     1
 90
       50
176
     1
290
     0
176
     1
 90
       50
176
     1
 62
   256
176
     0
 40
1.0
176
     0
 90
        2
176
     1
  1
strokes_ogs.tif
176
     1
290
     0
176
     1
 40
1.0
176
     1
 40
1.0
176
     1
  0
VISUALSTYLE
  5
CC2
102
{ACAD_REACTORS
330
A4F
102
}
330
A4F
100
AcDbVisualStyle
  2
Sketchy
 70
    24
177
     3
291
     0
 70
    58
 90
        1
176
     1
 90
        2
176
     1
 90
        2
176
     1
 90
        0
176
     1
 40
0.6
176
     1
 40
30.0
176
     1
 62
     7
420
 16777215
176
     1
 90
        2
176
     1
 90
        2
176
     1
 62
     7
176
     1
 62
     7
176
     1
 90
        1
176
     1
 90
        1
176
     1
 40
40.0
176
     1
 90
       11
176
     1
 62
     7
176
     1
 40
1.0
176
     1
 90
        1
176
     1
 90
        6
176
     1
 90
        2
176
     1
 62
     7
176
     1
 90
        6
176
     1
 90
        0
176
     1
 90
        0
176
     1
290
     0
176
     1
 90
        1
176
     1
 40
0.0
176
     1
 90
        0
176
     1
290
     0
176
     1
290
     1
176
     1
290
     1
176
     1
290
     0
176
     1
290
     0
176
     1
290
     0
176
     1
290
     0
176
     1
290
     0
176
     1
290
     0
176
     1
 90
       50
176
     1
 40
0.0
176
     1
 40
1.0
176
     1
 90
        0
176
     1
 62
    18
176
     1
 90
       50
176
     1
 90
        3
176
     1
 62
     5
420
      255
176
     1
290
     0
176
     1
 90
       50
176
     1
 90
       50
176
     1
 90
       50
176
     1
290
     0
176
     1
 90
       50
176
     1
 62
   256
176
     0
 40
1.0
176
     0
 90
        2
176
     1
  1
strokes_ogs.tif
176
     1
290
     0
176
     1
 40
1.0
176
     1
 40
1.0
176
     1
  0
VISUALSTYLE
  5
A5C
102
{ACAD_REACTORS
330
A4F
102
}
330
A4F
100
AcDbVisualStyle
  2
Thicken
 70
    13
177
     3
291
     1
 70
    58
 90
        2
176
     1
 90
        2
176
     1
 90
        0
176
     1
 90
        0
176
     1
 40
0.6
176
     1
 40
30.0
176
     1
 62
     7
420
 16777215
176
     1
 90
        1
176
     1
 90
        4
176
     1
 62
     7
176
     1
 62
   257
176
     1
 90
        1
176
     1
 90
        1
176
     1
 40
1.0
176
     1
 90
       12
176
     1
 62
     7
176
     1
 40
1.0
176
     1
 90
        1
176
     1
 90
        6
176
     1
 90
        2
176
     1
 62
     7
176
     1
 90
        5
176
     1
 90
        0
176
     1
 90
        0
176
     1
290
     0
176
     1
 90
        1
176
     1
 40
0.0
176
     1
 90
        0
176
     1
290
     0
176
     1
290
     1
176
     1
290
     1
176
     1
290
     0
176
     1
290
     0
176
     1
290
     0
176
     1
290
     0
176
     1
290
     0
176
     1
290
     0
176
     1
 90
       50
176
     1
 40
0.0
176
     1
 40
1.0
176
     1
 90
        0
176
     1
 62
    18
176
     1
 90
       50
176
     1
 90
        3
176
     1
 62
     5
420
      255
176
     1
290
     0
176
     1
 90
       50
176
     1
 90
       50
176
     1
 90
       50
176
     1
290
     0
176
     1
 90
       50
176
     1
 62
   256
176
     0
 40
1.0
176
     0
 90
        2
176
     1
  1
strokes_ogs.tif
176
     1
290
     0
176
     1
 40
1.0
176
     1
 40
1.0
176
     1
  0
VISUALSTYLE
  5
CBF
102
{ACAD_REACTORS
330
A4F
102
}
330
A4F
100
AcDbVisualStyle
  2
Wireframe
 70
     5
177
     3
291
     0
 70
    58
 90
        0
176
     1
 90
        2
176
     1
 90
        0
176
     1
 90
        0
176
     1
 40
0.6
176
     1
 40
30.0
176
     1
 62
     7
420
 16777215
176
     1
 90
        1
176
     1
 90
        4
176
     1
 62
     7
176
     1
 62
   257
176
     1
 90
        1
176
     1
 90
        1
176
     1
 40
1.0
176
     1
 90
        0
176
     1
 62
   257
176
     1
 40
1.0
176
     1
 90
        1
176
     1
 90
        6
176
     1
 90
        2
176
     1
 62
     7
176
     1
 90
        3
176
     1
 90
        0
176
     1
 90
        0
176
     1
290
     0
176
     1
 90
        1
176
     1
 40
0.0
176
     1
 90
        0
176
     1
290
     0
176
     1
290
     1
176
     1
290
     1
176
     1
290
     0
176
     1
290
     0
176
     1
290
     0
176
     1
290
     0
176
     1
290
     0
176
     1
290
     0
176
     1
 90
       50
176
     1
 40
0.0
176
     1
 40
1.0
176
     1
 90
        0
176
     1
 62
    18
176
     1
 90
       50
176
     1
 90
        3
176
     1
 62
     5
420
      255
176
     1
290
     0
176
     1
 90
       50
176
     1
 90
       50
176
     1
 90
       50
176
     1
290
     0
176
     1
 90
       50
176
     1
 62
   256
176
     0
 40
1.0
176
     0
 90
        2
176
     1
  1
strokes_ogs.tif
176
     1
290
     0
176
     1
 40
1.0
176
     1
 40
1.0
176
     1
  0
VISUALSTYLE
  5
CC3
102
{ACAD_REACTORS
330
A4F
102
}
330
A4F
100
AcDbVisualStyle
  2
X-Ray
 70
    25
177
     3
291
     0
 70
    58
 90
        2
176
     1
 90
        2
176
     1
 90
        1
176
     1
 90
        1
176
     1
 40
0.5
176
     1
 40
30.0
176
     1
 62
     7
420
 16777215
176
     1
 90
        1
176
     1
 90
        0
176
     1
 62
     7
176
     1
 62
   257
176
     1
 90
        1
176
     1
 90
        1
176
     1
 40
1.0
176
     1
 90
        8
176
     1
 62
     7
176
     1
 40
1.0
176
     1
 90
        1
176
     1
 90
        6
176
     1
 90
        2
176
     1
 62
     7
176
     1
 90
        3
176
     1
 90
        0
176
     1
 90
        0
176
     1
290
     0
176
     1
 90
       13
176
     1
 40
0.0
176
     1
 90
        0
176
     1
290
     0
176
     1
290
     1
176
     1
290
     1
176
     1
290
     0
176
     1
290
     0
176
     1
290
     0
176
     1
290
     0
176
     1
290
     0
176
     1
290
     0
176
     1
 90
       50
176
     1
 40
0.0
176
     1
 40
1.0
176
     1
 90
        0
176
     1
 62
    18
176
     1
 90
       50
176
     1
 90
        3
176
     1
 62
     5
420
      255
176
     1
290
     0
176
     1
 90
       50
176
     1
 90
       50
176
     1
 90
       50
176
     1
290
     0
176
     1
 90
       50
176
     1
 62
   256
176
     0
 40
1.0
176
     0
 90
        2
176
     1
  1
strokes_ogs.tif
176
     1
290
     0
176
     1
 40
1.0
176
     1
 40
1.0
176
     1
  0
DICTIONARYVAR
  5
AF4
102
{ACAD_REACTORS
330
5D
102
}
330
5D
100
DictionaryVariables
280
     0
  1
1:1
  0
DICTIONARYVAR
  5
AF2
102
{ACAD_REACTORS
330
5D
102
}
330
5D
100
DictionaryVariables
280
     0
  1
STANDARD
  0
DICTIONARYVAR
  5
66F
102
{ACAD_REACTORS
330
5D
102
}
330
5D
100
DictionaryVariables
280
     0
  1
STANDARD
  0
DICTIONARYVAR
  5
FFA
102
{ACAD_REACTORS
330
5D
102
}
330
5D
100
DictionaryVariables
280
     0
  1
ISO 128-34_2001
  0
DICTIONARYVAR
  5
FFB
102
{ACAD_REACTORS
330
5D
102
}
330
5D
100
DictionaryVariables
280
     0
  1
ISO 128_1982
  0
DICTIONARYVAR
  5
5E
102
{ACAD_REACTORS
330
5D
102
}
330
5D
100
DictionaryVariables
280
     0
  1
0
  0
DICTIONARYVAR
  5
3C7
102
{ACAD_REACTORS
330
5D
102
}
330
5D
100
DictionaryVariables
280
     0
  1
1
  0
DICTIONARYVAR
  5
128
102
{ACAD_REACTORS
330
5D
102
}
330
5D
100
DictionaryVariables
280
     0
  1
1
  0
DICTIONARYVAR
  5
AF6
102
{ACAD_REACTORS
330
5D
102
}
330
5D
100
DictionaryVariables
280
     0
  1
1
  0
DICTIONARYVAR
  5
AF7
102
{ACAD_REACTORS
330
5D
102
}
330
5D
100
DictionaryVariables
280
     0
  1
15
  0
DICTIONARYVAR
  5
AF5
102
{ACAD_REACTORS
330
5D
102
}
330
5D
100
DictionaryVariables
280
     0
  1
0
  0
DICTIONARYVAR
  5
AF3
102
{ACAD_REACTORS
330
5D
102
}
330
5D
100
DictionaryVariables
280
     0
  1
0
  0
DICTIONARY
  5
143
102
{ACAD_REACTORS
330
142
102
}
330
142
100
AcDbDictionary
281
     1
  0
XRECORD
  5
47D
102
{ACAD_REACTORS
330
142
102
}
330
142
100
AcDbXrecord
280
     1
 90
-1056964608
  0
XRECORD
  5
84B
102
{ACAD_REACTORS
330
849
102
}
330
849
100
AcDbXrecord
280
     1
  0
DICTIONARY
  5
13F3
102
{ACAD_REACTORS
330
13F2
102
}
330
13F2
100
AcDbDictionary
281
     1
  3
_HasBOM
350
13F9
  3
Comment
350
13F8
  3
Folder
350
13F7
  3
GEN-TITLE-DES1
350
13F5
  3
GEN-TITLE-DES2
350
13F6
  3
GEN-TITLE-NR
350
13F4
  0
LAYER_INDEX
  5
30C5
102
{ACAD_REACTORS
330
30C4
102
}
330
30C4
100
AcDbIndex
 40
2457679.656904213
100
AcDbLayerIndex
  8
0
360
30C6
 90
        0
  8
AM_0
360
30C7
 90
        1
  8
Visible Edges(ISO)
360
30C8
 90
        0
  8
Defpoints
360
30C9
 90
        0
  8
DIM
360
30CA
 90
        0
  0
DICTIONARY
  5
13FE
330
10B9
100
AcDbDictionary
280
     1
281
     1
  3
ACAD_XREC_ROUNDTRIP
360
14B0
  0
DICTIONARY
  5
13FC
330
CCC
100
AcDbDictionary
280
     1
281
     1
  3
ACAD_XREC_ROUNDTRIP
360
14AE
  0
DICTIONARY
  5
1474
330
169
100
AcDbDictionary
280
     1
281
     1
  0
DICTIONARY
  5
A40
330
A3F
100
AcDbDictionary
280
     1
281
     1
  3
BUMPTILE
360
A42
  3
DIFFUSETILE
360
A41
  3
OPACITYTILE
360
A45
  3
REFLECTIONTILE
360
A44
  3
REFRACTIONTILE
360
A46
  3
SPECULARTILE
360
A43
  0
DICTIONARY
  5
A38
330
A37
100
AcDbDictionary
280
     1
281
     1
  3
BUMPTILE
360
A3A
  3
DIFFUSETILE
360
A39
  3
OPACITYTILE
360
A3D
  3
REFLECTIONTILE
360
A3C
  3
REFRACTIONTILE
360
A3E
  3
SPECULARTILE
360
A3B
  0
DICTIONARY
  5
A48
330
A47
100
AcDbDictionary
280
     1
281
     1
  3
BUMPTILE
360
A4A
  3
DIFFUSETILE
360
A49
  3
OPACITYTILE
360
A4D
  3
REFLECTIONTILE
360
A4C
  3
REFRACTIONTILE
360
A4E
  3
SPECULARTILE
360
A4B
  0
DICTIONARY
  5
1497
330
A73
100
AcDbDictionary
280
     1
281
     1
  3
ACAD_XREC_ROUNDTRIP
360
1498
  0
DICTIONARY
  5
10BB
330
10BA
100
AcDbDictionary
280
     1
281
     1
  3
ACAD_FIELD
360
10BC
  3
ACAD_XREC_ROUNDTRIP
360
14B1
  0
DICTIONARY
  5
13FA
330
CCA
100
AcDbDictionary
280
     1
281
     1
  3
ACAD_XREC_ROUNDTRIP
360
14AD
  0
DICTIONARY
  5
AED
330
651
100
AcDbDictionary
280
     1
281
     1
  3
ACAD_ROUNDTRIP_2008_TABLESTYLE_CELLSTYLEMAP
360
3AE8
  0
XRECORD
  5
13F9
102
{ACAD_REACTORS
330
13F3
102
}
330
13F3
100
AcDbXrecord
280
     1
  1
_HasBOM
  1
False
  0
XRECORD
  5
13F8
102
{ACAD_REACTORS
330
13F3
102
}
330
13F3
100
AcDbXrecord
280
     1
  1
Comment
  1

  0
XRECORD
  5
13F7
102
{ACAD_REACTORS
330
13F3
102
}
330
13F3
100
AcDbXrecord
280
     1
  1
Folder
  1

  0
XRECORD
  5
13F5
102
{ACAD_REACTORS
330
13F3
102
}
330
13F3
100
AcDbXrecord
280
     1
  1
GEN-TITLE-DES1
  1

  0
XRECORD
  5
13F6
102
{ACAD_REACTORS
330
13F3
102
}
330
13F3
100
AcDbXrecord
280
     1
  1
GEN-TITLE-DES2
  1

  0
XRECORD
  5
13F4
102
{ACAD_REACTORS
330
13F3
102
}
330
13F3
100
AcDbXrecord
280
     1
  1
GEN-TITLE-NR
  1

  0
IDBUFFER
  5
30C6
330
0
100
AcDbIdBuffer
  0
IDBUFFER
  5
30C7
330
0
100
AcDbIdBuffer
330
336F
  0
IDBUFFER
  5
30C8
330
0
100
AcDbIdBuffer
  0
IDBUFFER
  5
30C9
330
0
100
AcDbIdBuffer
  0
IDBUFFER
  5
30CA
330
0
100
AcDbIdBuffer
  0
XRECORD
  5
14B0
102
{ACAD_REACTORS
330
13FE
102
}
330
13FE
100
AcDbXrecord
280
     1
102
DISPLAYNAME
  1
ISO 128-34:2001
102
FLAGS
 90
        1
  0
XRECORD
  5
14AE
102
{ACAD_REACTORS
330
13FC
102
}
330
13FC
100
AcDbXrecord
280
     1
102
DISPLAYNAME
  1
Metric50
102
FLAGS
 90
        0
  0
XRECORD
  5
A42
102
{ACAD_REACTORS
330
A40
102
}
330
A40
100
AcDbXrecord
280
     1
270
     1
271
     1
  0
XRECORD
  5
A41
102
{ACAD_REACTORS
330
A40
102
}
330
A40
100
AcDbXrecord
280
     1
270
     1
271
     1
  0
XRECORD
  5
A45
102
{ACAD_REACTORS
330
A40
102
}
330
A40
100
AcDbXrecord
280
     1
270
     1
271
     1
  0
XRECORD
  5
A44
102
{ACAD_REACTORS
330
A40
102
}
330
A40
100
AcDbXrecord
280
     1
270
     1
271
     1
  0
XRECORD
  5
A46
102
{ACAD_REACTORS
330
A40
102
}
330
A40
100
AcDbXrecord
280
     1
270
     1
271
     1
  0
XRECORD
  5
A43
102
{ACAD_REACTORS
330
A40
102
}
330
A40
100
AcDbXrecord
280
     1
270
     1
271
     1
  0
XRECORD
  5
A3A
102
{ACAD_REACTORS
330
A38
102
}
330
A38
100
AcDbXrecord
280
     1
270
     1
271
     1
  0
XRECORD
  5
A39
102
{ACAD_REACTORS
330
A38
102
}
330
A38
100
AcDbXrecord
280
     1
270
     1
271
     1
  0
XRECORD
  5
A3D
102
{ACAD_REACTORS
330
A38
102
}
330
A38
100
AcDbXrecord
280
     1
270
     1
271
     1
  0
XRECORD
  5
A3C
102
{ACAD_REACTORS
330
A38
102
}
330
A38
100
AcDbXrecord
280
     1
270
     1
271
     1
  0
XRECORD
  5
A3E
102
{ACAD_REACTORS
330
A38
102
}
330
A38
100
AcDbXrecord
280
     1
270
     1
271
     1
  0
XRECORD
  5
A3B
102
{ACAD_REACTORS
330
A38
102
}
330
A38
100
AcDbXrecord
280
     1
270
     1
271
     1
  0
XRECORD
  5
A4A
102
{ACAD_REACTORS
330
A48
102
}
330
A48
100
AcDbXrecord
280
     1
270
     1
271
     1
  0
XRECORD
  5
A49
102
{ACAD_REACTORS
330
A48
102
}
330
A48
100
AcDbXrecord
280
     1
270
     1
271
     1
  0
XRECORD
  5
A4D
102
{ACAD_REACTORS
330
A48
102
}
330
A48
100
AcDbXrecord
280
     1
270
     1
271
     1
  0
XRECORD
  5
A4C
102
{ACAD_REACTORS
330
A48
102
}
330
A48
100
AcDbXrecord
280
     1
270
     1
271
     1
  0
XRECORD
  5
A4E
102
{ACAD_REACTORS
330
A48
102
}
330
A48
100
AcDbXrecord
280
     1
270
     1
271
     1
  0
XRECORD
  5
A4B
102
{ACAD_REACTORS
330
A48
102
}
330
A48
100
AcDbXrecord
280
     1
270
     1
271
     1
  0
XRECORD
  5
1498
102
{ACAD_REACTORS
330
1497
102
}
330
1497
100
AcDbXrecord
280
     1
102
ACAD_ROUNDTRIP_2012_MLEADER_STYLE
298
     1
  0
DICTIONARY
  5
10BC
102
{ACAD_REACTORS
330
10BB
102
}
330
10BB
100
AcDbDictionary
280
     1
281
     1
  3
TEXT
360
10BD
  0
XRECORD
  5
14B1
102
{ACAD_REACTORS
330
10BB
102
}
330
10BB
100
AcDbXrecord
280
     1
102
DISPLAYNAME
  1
ISO 128:1982
102
FLAGS
 90
        1
  0
XRECORD
  5
14AD
102
{ACAD_REACTORS
330
13FA
102
}
330
13FA
100
AcDbXrecord
280
     1
102
DISPLAYNAME
  1
Metric50
102
FLAGS
 90
        0
  0
CELLSTYLEMAP
  5
3AE8
102
{ACAD_REACTORS
330
AED
102
}
330
AED
100
AcDbCellStyleMap
 90
        3
300
CELLSTYLE
  1
TABLEFORMAT_BEGIN
 90
        5
170
     1
 91
        0
 92
    32768
 62
   257
 93
        1
300
CONTENTFORMAT
  1
CONTENTFORMAT_BEGIN
 90
        0
 91
        0
 92
        4
 93
        0
300

 40
0.0
140
1.0
 94
        5
 62
     0
340
10
144
6.0
309
CONTENTFORMAT_END
171
     1
301
MARGIN
  1
CELLMARGIN_BEGIN
 40
1.5
 40
1.5
 40
1.5
 40
1.5
 40
0.18
 40
0.18
309
CELLMARGIN_END
 94
        6
 95
        1
302
GRIDFORMAT
  1
GRIDFORMAT_BEGIN
 90
        0
 91
        1
 62
     0
 92
       -2
340
0
 93
        0
 40
0.045
309
GRIDFORMAT_END
 95
        2
302
GRIDFORMAT
  1
GRIDFORMAT_BEGIN
 90
        0
 91
        1
 62
     0
 92
       -2
340
0
 93
        0
 40
0.045
309
GRIDFORMAT_END
 95
        4
302
GRIDFORMAT
  1
GRIDFORMAT_BEGIN
 90
        0
 91
        1
 62
     0
 92
       -2
340
0
 93
        0
 40
0.045
309
GRIDFORMAT_END
 95
        8
302
GRIDFORMAT
  1
GRIDFORMAT_BEGIN
 90
        0
 91
        1
 62
     0
 92
       -2
340
0
 93
        0
 40
0.045
309
GRIDFORMAT_END
 95
       16
302
GRIDFORMAT
  1
GRIDFORMAT_BEGIN
 90
        0
 91
        1
 62
     0
 92
       -2
340
0
 93
        0
 40
0.045
309
GRIDFORMAT_END
 95
       32
302
GRIDFORMAT
  1
GRIDFORMAT_BEGIN
 90
        0
 91
        1
 62
     0
 92
       -2
340
0
 93
        0
 40
0.045
309
GRIDFORMAT_END
309
TABLEFORMAT_END
  1
CELLSTYLE_BEGIN
 90
        1
 91
        1
300
_TITLE
309
CELLSTYLE_END
300
CELLSTYLE
  1
TABLEFORMAT_BEGIN
 90
        5
170
     1
 91
        0
 92
        0
 62
   257
 93
        1
300
CONTENTFORMAT
  1
CONTENTFORMAT_BEGIN
 90
        0
 91
        0
 92
        4
 93
        0
300

 40
0.0
140
1.0
 94
        5
 62
     0
340
10
144
4.5
309
CONTENTFORMAT_END
171
     1
301
MARGIN
  1
CELLMARGIN_BEGIN
 40
1.5
 40
1.5
 40
1.5
 40
1.5
 40
0.18
 40
0.18
309
CELLMARGIN_END
 94
        6
 95
        1
302
GRIDFORMAT
  1
GRIDFORMAT_BEGIN
 90
        0
 91
        1
 62
     0
 92
       -2
340
0
 93
        0
 40
0.045
309
GRIDFORMAT_END
 95
        2
302
GRIDFORMAT
  1
GRIDFORMAT_BEGIN
 90
        0
 91
        1
 62
     0
 92
       -2
340
0
 93
        0
 40
0.045
309
GRIDFORMAT_END
 95
        4
302
GRIDFORMAT
  1
GRIDFORMAT_BEGIN
 90
        0
 91
        1
 62
     0
 92
       -2
340
0
 93
        0
 40
0.045
309
GRIDFORMAT_END
 95
        8
302
GRIDFORMAT
  1
GRIDFORMAT_BEGIN
 90
        0
 91
        1
 62
     0
 92
       -2
340
0
 93
        0
 40
0.045
309
GRIDFORMAT_END
 95
       16
302
GRIDFORMAT
  1
GRIDFORMAT_BEGIN
 90
        0
 91
        1
 62
     0
 92
       -2
340
0
 93
        0
 40
0.045
309
GRIDFORMAT_END
 95
       32
302
GRIDFORMAT
  1
GRIDFORMAT_BEGIN
 90
        0
 91
        1
 62
     0
 92
       -2
340
0
 93
        0
 40
0.045
309
GRIDFORMAT_END
309
TABLEFORMAT_END
  1
CELLSTYLE_BEGIN
 90
        2
 91
        1
300
_HEADER
309
CELLSTYLE_END
300
CELLSTYLE
  1
TABLEFORMAT_BEGIN
 90
        5
170
     1
 91
        0
 92
        0
 62
   257
 93
        1
300
CONTENTFORMAT
  1
CONTENTFORMAT_BEGIN
 90
        0
 91
        0
 92
        4
 93
        0
300

 40
0.0
140
1.0
 94
        2
 62
     0
340
10
144
4.5
309
CONTENTFORMAT_END
171
     1
301
MARGIN
  1
CELLMARGIN_BEGIN
 40
1.5
 40
1.5
 40
1.5
 40
1.5
 40
0.18
 40
0.18
309
CELLMARGIN_END
 94
        6
 95
        1
302
GRIDFORMAT
  1
GRIDFORMAT_BEGIN
 90
        0
 91
        1
 62
     0
 92
       -2
340
0
 93
        0
 40
0.045
309
GRIDFORMAT_END
 95
        2
302
GRIDFORMAT
  1
GRIDFORMAT_BEGIN
 90
        0
 91
        1
 62
     0
 92
       -2
340
0
 93
        0
 40
0.045
309
GRIDFORMAT_END
 95
        4
302
GRIDFORMAT
  1
GRIDFORMAT_BEGIN
 90
        0
 91
        1
 62
     0
 92
       -2
340
0
 93
        0
 40
0.045
309
GRIDFORMAT_END
 95
        8
302
GRIDFORMAT
  1
GRIDFORMAT_BEGIN
 90
        0
 91
        1
 62
     0
 92
       -2
340
0
 93
        0
 40
0.045
309
GRIDFORMAT_END
 95
       16
302
GRIDFORMAT
  1
GRIDFORMAT_BEGIN
 90
        0
 91
        1
 62
     0
 92
       -2
340
0
 93
        0
 40
0.045
309
GRIDFORMAT_END
 95
       32
302
GRIDFORMAT
  1
GRIDFORMAT_BEGIN
 90
        0
 91
        1
 62
     0
 92
       -2
340
0
 93
        0
 40
0.045
309
GRIDFORMAT_END
309
TABLEFORMAT_END
  1
CELLSTYLE_BEGIN
 90
        3
 91
        2
300
_DATA
309
CELLSTYLE_END
  0
FIELD
  5
10BD
102
{ACAD_REACTORS
330
10BC
102
}
330
10BC
100
AcDbField
  1
_text
  2
%<\_FldIdx 0>%-%<\_FldIdx 1>%
 90
        2
360
10BE
360
10BF
 97
        0
 91
       63
 92
        0
 94
        9
 95
        2
 96
        0
300

 93
        0
  7
ACFD_FIELD_VALUE
 93
        3
 90
        0
 94
        0
300

302

304
ACVALUE_END
301

 98
        0
  0
FIELD
  5
10BE
330
10BD
100
AcDbField
  1
AcVar
  2
\AcVar ViewSectionStartId
 90
        0
 97
        0
 91
       63
 92
        0
 94
       43
 95
        2
 96
        0
300

 93
        1
  6
Variable
 93
        2
 90
        4
  1
ViewSectionStartId
 94
        0
300

302

304
ACVALUE_END
  7
ACFD_FIELD_VALUE
 93
        1
 90
        0
 94
        0
300

302

304
ACVALUE_END
301
----
 98
        4
  0
FIELD
  5
10BF
330
10BD
100
AcDbField
  1
AcVar
  2
\AcVar ViewSectionEndId
 90
        0
 97
        0
 91
       63
 92
        0
 94
       43
 95
        2
 96
        0
300

 93
        1
  6
Variable
 93
        2
 90
        4
  1
ViewSectionEndId
 94
        0
300

302

304
ACVALUE_END
  7
ACFD_FIELD_VALUE
 93
        1
 90
        0
 94
        0
300

302

304
ACVALUE_END
301
----
 98
        4
  0
ENDSEC
  0
SECTION
  2
ACDSDATA
 70
     2
 71
     7
  0
ACDSSCHEMA
 90
        0
  1
AcDb_Thumbnail_Schema
  2
AcDbDs::ID
280
    10
 91
        8
  2
Thumbnail_Data
280
    15
 91
        0
101
ACDSRECORD
 95
        0
 90
        1
  2
AcDbDs::TreatedAsObjectData
280
     1
291
     1
101
ACDSRECORD
 95
        0
 90
        2
  2
AcDbDs::Legacy
280
     1
291
     1
101
ACDSRECORD
  1
AcDbDs::ID
 90
        3
  2
AcDs:Indexable
280
     1
291
     1
101
ACDSRECORD
  1
AcDbDs::ID
 90
        4
  2
AcDbDs::HandleAttribute
280
     7
282
     1
  0
ACDSSCHEMA
 90
        1
  1
AcDbDs::TreatedAsObjectDataSchema
  2
AcDbDs::TreatedAsObjectData
280
     1
 91
        0
  0
ACDSSCHEMA
 90
        2
  1
AcDbDs::LegacySchema
  2
AcDbDs::Legacy
280
     1
 91
        0
  0
ACDSSCHEMA
 90
        3
  1
AcDbDs::IndexedPropertySchema
  2
AcDs:Indexable
280
     1
 91
        0
  0
ACDSSCHEMA
 90
        4
  1
AcDbDs::HandleAttributeSchema
  2
AcDbDs::HandleAttribute
280
     7
 91
        1
284
     1
  0
ACDSRECORD
 90
        0
  2
AcDbDs::ID
280
    10
320
2CA4
  2
Thumbnail_Data
280
    15
 94
      907
310
89504E470D0A1A0A0000000D4948445200000100000000BF08030000002647F24000000300504C5445212830000000C8C8C80000000000000000000000000000000000000000000000000000330000660000990000CC0000FF0033000033330033660033990033CC0033FF0066000066330066660066990066CC0066FF0099
310
000099330099660099990099CC0099FF00CC0000CC3300CC6600CC9900CCCC00CCFF00FF0000FF3300FF6600FF9900FFCC00FFFF3300003300333300663300993300CC3300FF3333003333333333663333993333CC3333FF3366003366333366663366993366CC3366FF3399003399333399663399993399CC3399FF33CC00
310
33CC3333CC6633CC9933CCCC33CCFF33FF0033FF3333FF6633FF9933FFCC33FFFF6600006600336600666600996600CC6600FF6633006633336633666633996633CC6633FF6666006666336666666666996666CC6666FF6699006699336699666699996699CC6699FF66CC0066CC3366CC6666CC9966CCCC66CCFF66FF0066
310
FF3366FF6666FF9966FFCC66FFFF9900009900339900669900999900CC9900FF9933009933339933669933999933CC9933FF9966009966339966669966999966CC9966FF9999009999339999669999999999CC9999FF99CC0099CC3399CC6699CC9999CCCC99CCFF99FF0099FF3399FF6699FF9999FFCC99FFFFCC0000CC00
310
33CC0066CC0099CC00CCCC00FFCC3300CC3333CC3366CC3399CC33CCCC33FFCC6600CC6633CC6666CC6699CC66CCCC66FFCC9900CC9933CC9966CC9999CC99CCCC99FFCCCC00CCCC33CCCC66CCCC99CCCCCCCCCCFFCCFF00CCFF33CCFF66CCFF99CCFFCCCCFFFFFF0000FF0033FF0066FF0099FF00CCFF00FFFF3300FF3333
310
FF3366FF3399FF33CCFF33FFFF6600FF6633FF6666FF6699FF66CCFF66FFFF9900FF9933FF9966FF9999FF99CCFF99FFFFCC00FFCC33FFCC66FFCC99FFCCCCFFCCFFFFFF00FFFF33FFFF66FFFF99FFFFCCFFFFFF0000000D0D0D1A1A1A2828283535354343435050505D5D5D6B6B6B787878868686939393A1A1A1AEAEAEBB
310
BBBBC9C9C9D6D6D6E4E4E4F1F1F1FFFFFF000000000000000000000000000000000000000000000000000000000000B21171F6000000464944415478DAEDC13101000000C2A0F54F6D085FA00000000000000000000000000000000000000000000000000000000000000000000000000000000000000000000000E036BFBF
310
000103F617CF0000000049454E44AE426082
  0
ACDSRECORD
 90
        0
  2
AcDbDs::ID
280
    10
320
169
  2
Thumbnail_Data
280
    15
 94
     1332
310
89504E470D0A1A0A0000000D4948445200000100000000A20803000000990FE30500000300504C5445212830000000C8C8C80000000000000000000000000000000000000000000000000000330000660000990000CC0000FF0033000033330033660033990033CC0033FF0066000066330066660066990066CC0066FF0099
310
000099330099660099990099CC0099FF00CC0000CC3300CC6600CC9900CCCC00CCFF00FF0000FF3300FF6600FF9900FFCC00FFFF3300003300333300663300993300CC3300FF3333003333333333663333993333CC3333FF3366003366333366663366993366CC3366FF3399003399333399663399993399CC3399FF33CC00
310
33CC3333CC6633CC9933CCCC33CCFF33FF0033FF3333FF6633FF9933FFCC33FFFF6600006600336600666600996600CC6600FF6633006633336633666633996633CC6633FF6666006666336666666666996666CC6666FF6699006699336699666699996699CC6699FF66CC0066CC3366CC6666CC9966CCCC66CCFF66FF0066
310
FF3366FF6666FF9966FFCC66FFFF9900009900339900669900999900CC9900FF9933009933339933669933999933CC9933FF9966009966339966669966999966CC9966FF9999009999339999669999999999CC9999FF99CC0099CC3399CC6699CC9999CCCC99CCFF99FF0099FF3399FF6699FF9999FFCC99FFFFCC0000CC00
310
33CC0066CC0099CC00CCCC00FFCC3300CC3333CC3366CC3399CC33CCCC33FFCC6600CC6633CC6666CC6699CC66CCCC66FFCC9900CC9933CC9966CC9999CC99CCCC99FFCCCC00CCCC33CCCC66CCCC99CCCCCCCCCCFFCCFF00CCFF33CCFF66CCFF99CCFFCCCCFFFFFF0000FF0033FF0066FF0099FF00CCFF00FFFF3300FF3333
310
FF3366FF3399FF33CCFF33FFFF6600FF6633FF6666FF6699FF66CCFF66FFFF9900FF9933FF9966FF9999FF99CCFF99FFFFCC00FFCC33FFCC66FFCC99FFCCCCFFCCFFFFFF00FFFF33FFFF66FFFF99FFFFCCFFFFFF0000000D0D0D1A1A1A2828283535354343435050505D5D5D6B6B6B787878868686939393A1A1A1AEAEAEBB
310
BBBBC9C9C9D6D6D6E4E4E4F1F1F1FFFFFF000000000000000000000000000000000000000000000000000000000000B21171F60000011D4944415478DAEDDD4B0AC2301440D16E28FBDFCC5B42270E32B7FE8B1F106BFA023977D28A8AE6D05290F29C26499224E9A74A5765006C7FC9F27C7CF7A6B2FDCBB400A8DD9405D0
310
CBE908000000000000000000000000000000000000000000000000000000000000000000000000000000000000000000000000000000FC0D206AF4B1FE7004A400D40A00000000000000000000000000000000180DC04F620000000000000000000000000000000000000000000000000080262B1C7DB2742925CE43D4E3A9
310
65F1A7CD28008F851F96AEDB4C80DD86DEDF3FE9CDEDD931CF69A7407CB85D3C2E73F35B00AC5A3DEC75BC7ED323E0B61B35EF2AB07FF1BA1B595781D1FF624392244992244992244992244992244992244952571D0111E7C5CED53675980000000049454E44AE42608286631967407D672966C07D078AE71F77D26C02F3E1
310
7CE5C0FD5480885D42802542791DC06E5FB4454680CB5E03B0DB36406C7B06ECB7FFDDE1B25D80549F04FFFE28901EA0FCD967A52C0051C6738932FD9723FA9DF5BF062F5A79789D7E9C65069CACF144315D3FBC09AC70250588F9ED2F67EF61FDF146FE21FB805F0E680B00B53E19A0FF6FC00C7805C00BBEBEA8CF7D7CCD
310
F5C548820000D838FF9B01CAB6014AFC3780F281852449922449922449922449922449922449926EF70DAF1801257F9AFF7A0000000049454E44AE426082
  0
ENDSEC
  0
EOF
