  0
SECTION
  2
HEADER
  9
$ACADVER
  1
AC1027
  9
$ACADMAINTVER
 70
    20
  9
$DWGCODEPAGE
  3
ANSI_1252
  9
$LASTSAVEDBY
  1
se-milkar
  9
$CUSTOMPROPERTYTAG
  1
AmdtFileType
  9
$CUSTOMPROPERTY
  1
84
  9
$REQUIREDVERSIONS
160
                 0
  9
$INSBASE
 10
0.0
 20
0.0
 30
0.0
  9
$EXTMIN
 10
-0.0000014347013604
 20
4.557169452859511
 30
0.0
  9
$EXTMAX
 10
144.9999985652989
 20
169.1693173865249
 30
0.0
  9
$LIMMIN
 10
0.0
 20
0.0
  9
$LIMMAX
 10
420.0
 20
297.0
  9
$ORTHOMODE
 70
     0
  9
$REGENMODE
 70
     1
  9
$FILLMODE
 70
     1
  9
$QTEXTMODE
 70
     0
  9
$MIRRTEXT
 70
     0
  9
$LTSCALE
 40
1.0
  9
$ATTMODE
 70
     1
  9
$TEXTSIZE
 40
3.5
  9
$TRACEWID
 40
1.0
  9
$TEXTSTYLE
  7
STANDARD
  9
$CLAYER
  8
AM_0
  9
$CELTYPE
  6
BYLAYER
  9
$CECOLOR
 62
   256
  9
$CELTSCALE
 40
1.0
  9
$DISPSILH
 70
     0
  9
$DIMSCALE
 40
1.0
  9
$DIMASZ
 40
2.5
  9
$DIMEXO
 40
1.0
  9
$DIMDLI
 40
10.0
  9
$DIMRND
 40
0.0
  9
$DIMDLE
 40
0.0
  9
$DIMEXE
 40
1.0
  9
$DIMTP
 40
0.1
  9
$DIMTM
 40
0.1
  9
$DIMTXT
 40
3.5
  9
$DIMCEN
 40
0.0
  9
$DIMTSZ
 40
0.0
  9
$DIMTOL
 70
     0
  9
$DIMLIM
 70
     0
  9
$DIMTIH
 70
     0
  9
$DIMTOH
 70
     0
  9
$DIMSE1
 70
     0
  9
$DIMSE2
 70
     0
  9
$DIMTAD
 70
     1
  9
$DIMZIN
 70
     8
  9
$DIMBLK
  1

  9
$DIMASO
 70
     1
  9
$DIMSHO
 70
     1
  9
$DIMPOST
  1

  9
$DIMAPOST
  1
"
  9
$DIMALT
 70
     0
  9
$DIMALTD
 70
     3
  9
$DIMALTF
 40
0.0393701
  9
$DIMLFAC
 40
1.0
  9
$DIMTOFL
 70
     1
  9
$DIMTVP
 40
0.0
  9
$DIMTIX
 70
     0
  9
$DIMSOXD
 70
     0
  9
$DIMSAH
 70
     0
  9
$DIMBLK1
  1

  9
$DIMBLK2
  1

  9
$DIMSTYLE
  2
AM_ISO
  9
$DIMCLRD
 70
   256
  9
$DIMCLRE
 70
   256
  9
$DIMCLRT
 70
     2
  9
$DIMTFAC
 40
0.71
  9
$DIMGAP
 40
1.5
  9
$DIMJUST
 70
     0
  9
$DIMSD1
 70
     0
  9
$DIMSD2
 70
     0
  9
$DIMTOLJ
 70
     0
  9
$DIMTZIN
 70
     8
  9
$DIMALTZ
 70
     0
  9
$DIMALTTZ
 70
     0
  9
$DIMUPT
 70
     0
  9
$DIMDEC
 70
     2
  9
$DIMTDEC
 70
     2
  9
$DIMALTU
 70
     2
  9
$DIMALTTD
 70
     3
  9
$DIMTXSTY
  7
STANDARD
  9
$DIMAUNIT
 70
     0
  9
$DIMADEC
 70
     0
  9
$DIMALTRND
 40
0.0
  9
$DIMAZIN
 70
     2
  9
$DIMDSEP
 70
    46
  9
$DIMATFIT
 70
     3
  9
$DIMFRAC
 70
     0
  9
$DIMLDRBLK
  1

  9
$DIMLUNIT
 70
     2
  9
$DIMLWD
 70
    -1
  9
$DIMLWE
 70
    -1
  9
$DIMTMOVE
 70
     0
  9
$DIMFXL
 40
1.0
  9
$DIMFXLON
 70
     0
  9
$DIMJOGANG
 40
0.7853981633974483
  9
$DIMTFILL
 70
     0
  9
$DIMTFILLCLR
 70
     0
  9
$DIMARCSYM
 70
     0
  9
$DIMLTYPE
  6

  9
$DIMLTEX1
  6

  9
$DIMLTEX2
  6

  9
$DIMTXTDIRECTION
 70
     0
  9
$LUNITS
 70
     2
  9
$LUPREC
 70
     2
  9
$SKETCHINC
 40
1.0
  9
$FILLETRAD
 40
2.5
  9
$AUNITS
 70
     0
  9
$AUPREC
 70
     0
  9
$MENU
  1
.
  9
$ELEVATION
 40
0.0
  9
$PELEVATION
 40
0.0
  9
$THICKNESS
 40
0.0
  9
$LIMCHECK
 70
     0
  9
$CHAMFERA
 40
2.5
  9
$CHAMFERB
 40
2.5
  9
$CHAMFERC
 40
20.0
  9
$CHAMFERD
 40
0.0
  9
$SKPOLY
 70
     1
  9
$TDCREATE
 40
2457357.417837766
  9
$TDUCREATE
 40
2457357.376171100
  9
$TDUPDATE
 40
2457357.710688842
  9
$TDUUPDATE
 40
2457357.669022176
  9
$TDINDWG
 40
0.0006871412
  9
$TDUSRTIMER
 40
0.0006870833
  9
$USRTIMER
 70
     1
  9
$ANGBASE
 50
0.0
  9
$ANGDIR
 70
     0
  9
$PDMODE
 70
     0
  9
$PDSIZE
 40
0.0
  9
$PLINEWID
 40
0.0
  9
$SPLFRAME
 70
     0
  9
$SPLINETYPE
 70
     6
  9
$SPLINESEGS
 70
     8
  9
$HANDSEED
  5
3560
  9
$SURFTAB1
 70
     6
  9
$SURFTAB2
 70
     6
  9
$SURFTYPE
 70
     6
  9
$SURFU
 70
     6
  9
$SURFV
 70
     6
  9
$UCSBASE
  2

  9
$UCSNAME
  2

  9
$UCSORG
 10
0.0
 20
0.0
 30
0.0
  9
$UCSXDIR
 10
1.0
 20
0.0
 30
0.0
  9
$UCSYDIR
 10
0.0
 20
1.0
 30
0.0
  9
$UCSORTHOREF
  2

  9
$UCSORTHOVIEW
 70
     0
  9
$UCSORGTOP
 10
0.0
 20
0.0
 30
0.0
  9
$UCSORGBOTTOM
 10
0.0
 20
0.0
 30
0.0
  9
$UCSORGLEFT
 10
0.0
 20
0.0
 30
0.0
  9
$UCSORGRIGHT
 10
0.0
 20
0.0
 30
0.0
  9
$UCSORGFRONT
 10
0.0
 20
0.0
 30
0.0
  9
$UCSORGBACK
 10
0.0
 20
0.0
 30
0.0
  9
$PUCSBASE
  2

  9
$PUCSNAME
  2

  9
$PUCSORG
 10
0.0
 20
0.0
 30
0.0
  9
$PUCSXDIR
 10
1.0
 20
0.0
 30
0.0
  9
$PUCSYDIR
 10
0.0
 20
1.0
 30
0.0
  9
$PUCSORTHOREF
  2

  9
$PUCSORTHOVIEW
 70
     0
  9
$PUCSORGTOP
 10
0.0
 20
0.0
 30
0.0
  9
$PUCSORGBOTTOM
 10
0.0
 20
0.0
 30
0.0
  9
$PUCSORGLEFT
 10
0.0
 20
0.0
 30
0.0
  9
$PUCSORGRIGHT
 10
0.0
 20
0.0
 30
0.0
  9
$PUCSORGFRONT
 10
0.0
 20
0.0
 30
0.0
  9
$PUCSORGBACK
 10
0.0
 20
0.0
 30
0.0
  9
$USERI1
 70
     0
  9
$USERI2
 70
     0
  9
$USERI3
 70
     0
  9
$USERI4
 70
     0
  9
$USERI5
 70
     0
  9
$USERR1
 40
0.0
  9
$USERR2
 40
0.0
  9
$USERR3
 40
0.0
  9
$USERR4
 40
0.0
  9
$USERR5
 40
0.0
  9
$WORLDVIEW
 70
     1
  9
$SHADEDGE
 70
     3
  9
$SHADEDIF
 70
    70
  9
$TILEMODE
 70
     1
  9
$MAXACTVP
 70
    48
  9
$PINSBASE
 10
0.0
 20
0.0
 30
0.0
  9
$PLIMCHECK
 70
     0
  9
$PEXTMIN
 10
1.000000000000000E+20
 20
1.000000000000000E+20
 30
1.000000000000000E+20
  9
$PEXTMAX
 10
-1.000000000000000E+20
 20
-1.000000000000000E+20
 30
-1.000000000000000E+20
  9
$PLIMMIN
 10
0.0
 20
0.0
  9
$PLIMMAX
 10
12.0
 20
9.0
  9
$UNITMODE
 70
     0
  9
$VISRETAIN
 70
     1
  9
$PLINEGEN
 70
     0
  9
$PSLTSCALE
 70
     1
  9
$TREEDEPTH
 70
  3020
  9
$CMLSTYLE
  2
STANDARD
  9
$CMLJUST
 70
     0
  9
$CMLSCALE
 40
1.0
  9
$PROXYGRAPHICS
 70
     1
  9
$MEASUREMENT
 70
     1
  9
$CELWEIGHT
370
    -1
  9
$ENDCAPS
280
     0
  9
$JOINSTYLE
280
     0
  9
$LWDISPLAY
290
     0
  9
$INSUNITS
 70
     4
  9
$HYPERLINKBASE
  1

  9
$STYLESHEET
  1
@LAYOUT.CTB
  9
$XEDIT
290
     1
  9
$CEPSNTYPE
380
     0
  9
$PSTYLEMODE
290
     1
  9
$FINGERPRINTGUID
  2
{83E4072C-905C-4A99-9838-6741F3329BA4}
  9
$VERSIONGUID
  2
{893AC6B9-B730-4369-93F9-C376D60FFCFF}
  9
$EXTNAMES
290
     1
  9
$PSVPSCALE
 40
0.0
  9
$OLESTARTUP
290
     0
  9
$SORTENTS
280
   127
  9
$INDEXCTL
280
     1
  9
$HIDETEXT
280
     0
  9
$XCLIPFRAME
280
     0
  9
$HALOGAP
280
     0
  9
$OBSCOLOR
 70
   257
  9
$OBSLTYPE
280
     0
  9
$INTERSECTIONDISPLAY
280
     0
  9
$INTERSECTIONCOLOR
 70
   257
  9
$DIMASSOC
280
     2
  9
$PROJECTNAME
  1

  9
$CAMERADISPLAY
290
     0
  9
$LENSLENGTH
 40
50.0
  9
$CAMERAHEIGHT
 40
0.0
  9
$STEPSPERSEC
 40
2.0
  9
$STEPSIZE
 40
6.0
  9
$3DDWFPREC
 40
2.0
  9
$PSOLWIDTH
 40
0.25
  9
$PSOLHEIGHT
 40
4.0
  9
$LOFTANG1
 40
1.570796326794896
  9
$LOFTANG2
 40
1.570796326794896
  9
$LOFTMAG1
 40
0.0
  9
$LOFTMAG2
 40
0.0
  9
$LOFTPARAM
 70
     7
  9
$LOFTNORMALS
280
     1
  9
$LATITUDE
 40
37.795
  9
$LONGITUDE
 40
-122.394
  9
$NORTHDIRECTION
 40
0.0
  9
$TIMEZONE
 70
 -8000
  9
$LIGHTGLYPHDISPLAY
280
     1
  9
$TILEMODELIGHTSYNCH
280
     1
  9
$CMATERIAL
347
A37
  9
$SOLIDHIST
280
     1
  9
$SHOWHIST
280
     1
  9
$DWFFRAME
280
     2
  9
$DGNFRAME
280
     0
  9
$REALWORLDSCALE
290
     1
  9
$INTERFERECOLOR
 62
     1
  9
$INTERFEREOBJVS
345
A59
  9
$INTERFEREVPVS
346
CBF
  9
$CSHADOW
280
     0
  9
$SHADOWPLANELOCATION
 40
0.0
  0
ENDSEC
  0
SECTION
  2
CLASSES
  0
CLASS
  1
DICTIONARYVAR
  2
AcDbDictionaryVar
  3
ObjectDBX Classes
 90
        0
 91
       12
280
     0
281
     0
  0
CLASS
  1
ACMESTATEMGR
  2
AcMeStateMgr
  3
AcMeServices
 90
     1024
 91
        1
280
     0
281
     0
  0
CLASS
  1
ACMESCOPE
  2
AcMeScope
  3
AcMeServices
 90
     1024
 91
        1
280
     0
281
     0
  0
CLASS
  1
ACMECOMMANDHISTORY
  2
AcMeCommandHistory
  3
AcMeServices
 90
     1024
 91
        1
280
     0
281
     0
  0
CLASS
  1
ACRFINSADJUSTERMGR
  2
AcRfInsAdjusterMgr
  3
AcMeServices
 90
     1024
 91
        1
280
     0
281
     0
  0
CLASS
  1
ACMEDRAWINGMAN
  2
AcMeDrawingMan
  3
AcMeServices
 90
     1024
 91
        0
280
     0
281
     0
  0
CLASS
  1
AMATTR
  2
AcMeAttribute
  3
AcMeServices
 90
     1024
 91
        0
280
     0
281
     0
  0
CLASS
  1
ACMEBOMCOLUMN
  2
AcMeBOMColumn
  3
AcMeServices
 90
     1024
 91
        0
280
     0
281
     0
  0
CLASS
  1
ACMEBOMCONF
  2
AcMeBOMConf
  3
AcMeServices
 90
     1024
 91
        0
280
     0
281
     0
  0
CLASS
  1
ACMEBOMTABLE
  2
AcMeBOMTable
  3
AcMeServices
 90
     1024
 91
        0
280
     0
281
     0
  0
CLASS
  1
ACMEBOMENTRY
  2
AcMeBOMEntry
  3
AcMeServices
 90
     1024
 91
        0
280
     0
281
     0
  0
CLASS
  1
ACMEVIEW
  2
AcMeView
  3
AcMeServices
 90
     1024
 91
        0
280
     0
281
     0
  0
CLASS
  1
ACGREFMASTER
  2
AcGrefMaster
  3
AcAttribServices
 90
     1024
 91
        1
280
     0
281
     0
  0
CLASS
  1
AMIMASTER
  2
AmiMaster
  3
AmiServices
 90
     1024
 91
        1
280
     0
281
     0
  0
CLASS
  1
ACASGREFMASTER
  2
AcAsGrefMaster
  3
AutoSurfResolverServices
 90
     1024
 91
        2
280
     0
281
     0
  0
CLASS
  1
ADAPPL
  2
AcAdAppl
  3
DesignerAssemblies
 90
     1024
 91
        0
280
     0
281
     0
  0
CLASS
  1
DEPMGR
  2
AcAdDepMgr
  3
DesignerAssemblies
 90
     1024
 91
        0
280
     0
281
     0
  0
CLASS
  1
PARAMMGR
  2
AcAdParamMgr
  3
DesignerAssemblies
 90
     1024
 91
        0
280
     0
281
     0
  0
CLASS
  1
PARAMSCOPE
  2
AcAdParamScope
  3
DesignerAssemblies
 90
     1024
 91
        0
280
     0
281
     0
  0
CLASS
  1
ACIMSYSVARMAN
  2
AcImSysVarManager
  3
AcMeServices
 90
     1024
 91
        3
280
     0
281
     0
  0
CLASS
  1
ACIMINTSYSVAR
  2
AcImIntSysVar
  3
AcMeServices
 90
     1024
 91
        2
280
     0
281
     0
  0
CLASS
  1
ACIMREALSYSVAR
  2
AcImRealSysVar
  3
AcMeServices
 90
     1024
 91
        0
280
     0
281
     0
  0
CLASS
  1
ACIMSTRSYSVAR
  2
AcImStrSysVar
  3
AcMeServices
 90
     1024
 91
        5
280
     0
281
     0
  0
CLASS
  1
NAMEDAPPL
  2
AcAdNamedAppl
  3
DesignerAssemblies
 90
     1024
 91
        0
280
     0
281
     0
  0
CLASS
  1
ADHNTMPLT
  2
AdHoleNoteTemplateMgr
  3
DesignerServices
 90
     1024
 91
        0
280
     0
281
     0
  0
CLASS
  1
AM_HNTEMPLATE_MGR_NAME
  2
AdHoleNoteTemplateMgrName
  3
DesignerServices
 90
     1024
 91
        0
280
     0
281
     0
  0
CLASS
  1
ACADGREFMODULE
  2
AcAdGrefModule
  3
AdGrefServices
 90
     1024
 91
        2
280
     0
281
     0
  0
CLASS
  1
AM_DRAWING_MGR
  2
AcDmDwgMgr
  3
AcMechDwgViewMgmt
 90
     1024
 91
        0
280
     0
281
     0
  0
CLASS
  1
AM_DWG_DOCUMENT
  2
AcDmDwgDocument
  3
AcMechDwgViewMgmt
 90
     1024
 91
        0
280
     0
281
     0
  0
CLASS
  1
AM_DWG_SHEET
  2
AcDmSheet
  3
AcMechDwgViewMgmt
 90
     1024
 91
        0
280
     0
281
     0
  0
CLASS
  1
AM_VIEWDIMPARMAP
  2
AcDmViewDimParMap
  3
AcMechDwgViewMgmt
 90
     1024
 91
        0
280
     0
281
     0
  0
CLASS
  1
AM_DWGMGR_NAME
  2
AcDmDwgMgrName
  3
AcMechDwgViewMgmt
 90
     1024
 91
        0
280
     0
281
     0
  0
CLASS
  1
ACAMPROJECT
  2
AcAmProject
  3
DesignerAssemblies
 90
     1024
 91
        1
280
     0
281
     0
  0
CLASS
  1
ACAMGRCOMPSET
  2
AcAmGrCompSet
  3
DesignerAssemblies
 90
        0
 91
        0
280
     0
281
     0
  0
CLASS
  1
ACAMGRCOMPDEFSET
  2
AcAmGrCompDefSet
  3
DesignerAssemblies
 90
     1024
 91
        1
280
     0
281
     0
  0
CLASS
  1
ACAMGRCOMPDEF
  2
AcAmGrCompDef
  3
DesignerAssemblies
 90
     1024
 91
        1
280
     0
281
     0
  0
CLASS
  1
ACCMCONTEXT
  2
AcCmContext
  3
DesignerAssemblies
 90
     1024
 91
        0
280
     0
281
     0
  0
CLASS
  1
ACAMCOMPDEF
  2
AcAmCompDef
  3
DesignerAssemblies
 90
     1024
 91
        1
280
     0
281
     0
  0
CLASS
  1
ACAMCOMPDEFMGR
  2
AcAmCompDefMgr
  3
DesignerAssemblies
 90
     1024
 91
        1
280
     0
281
     0
  0
CLASS
  1
AMCONTEXTMGR
  2
AcAmContextMgr
  3
DesignerAssemblies
 90
     1024
 91
        1
280
     0
281
     0
  0
CLASS
  1
ACAMCONTEXTMODELER
  2
AcAmContextModeler
  3
DesignerAssemblies
 90
     1024
 91
        1
280
     0
281
     0
  0
CLASS
  1
ACDMVIEWGEOM
  2
AcDmViewGeometry
  3
AcMechDwgViewMgmt
 90
     1024
 91
        0
280
     0
281
     1
  0
CLASS
  1
CBROWSERAPPOBJECT
  2
CBrowserAppObject
  3
McadcomServices
 90
     1024
 91
        2
280
     0
281
     0
  0
CLASS
  1
IM_STATIC_MAN
  2
AcImStaticVarManager
  3
AcMeServices
 90
     1024
 91
        0
280
     0
281
     0
  0
CLASS
  1
ASAPP
  2
AcAsAppObject
  3
AutoSurfServices
 90
     1024
 91
        2
280
     0
281
     0
  0
CLASS
  1
ACIMDBLSTATICVAR
  2
AcImDblStaticVar
  3
AcMeServices
 90
     1024
 91
        0
280
     0
281
     0
  0
CLASS
  1
ACIMSTRSTATICVAR
  2
AcImStrStaticVar
  3
AcMeServices
 90
     1024
 91
        0
280
     0
281
     0
  0
CLASS
  1
ACIMINTSTATICVAR
  2
AcImIntStaticVar
  3
AcMeServices
 90
     1024
 91
        0
280
     0
281
     0
  0
CLASS
  1
CATALOGSTATE
  2
AcAmCatalogState
  3
DesignerAssemblies
 90
     1024
 91
        0
280
     0
281
     0
  0
CLASS
  1
DM_PLACEHOLDER
  2
AcDmSelsetPlaceholder
  3
McadcomServices
 90
     1024
 91
        1
280
     0
281
     0
  0
CLASS
  1
LAYER_INDEX
  2
AcDbLayerIndex
  3
ObjectDBX Classes
 90
        0
 91
        1
280
     0
281
     0
  0
CLASS
  1
IDBUFFER
  2
AcDbIdBuffer
  3
ObjectDBX Classes
 90
        0
 91
        5
280
     0
281
     0
  0
CLASS
  1
ACMSTANDARDJIS
  2
AcmStandardJIS
  3
"Amdt_StdImp|Product Description: AutoCAD Mechanical|Company: Autodesk, Inc."
 90
     1024
 91
        0
280
     0
281
     0
  0
CLASS
  1
ACMSTANDARDANSI
  2
AcmStandardANSI
  3
"Amdt_StdImp|Product Description: AutoCAD Mechanical|Company: Autodesk, Inc."
 90
     1024
 91
        0
280
     0
281
     0
  0
CLASS
  1
ACMSTANDARDBSI
  2
AcmStandardBSI
  3
"Amdt_StdImp|Product Description: AutoCAD Mechanical|Company: Autodesk, Inc."
 90
     1024
 91
        0
280
     0
281
     0
  0
CLASS
  1
ACMSTANDARDDIN
  2
AcmStandardDIN
  3
"Amdt_StdImp|Product Description: AutoCAD Mechanical|Company: Autodesk, Inc."
 90
     1024
 91
        0
280
     0
281
     0
  0
CLASS
  1
ACMSTANDARDISO
  2
AcmStandardISO
  3
"Amdt_StdImp|Product Description: AutoCAD Mechanical|Company: Autodesk, Inc."
 90
     1024
 91
        1
280
     0
281
     0
  0
CLASS
  1
ACDBDICTIONARYWDFLT
  2
AcDbDictionaryWithDefault
  3
ObjectDBX Classes
 90
        0
 91
        1
280
     0
281
     0
  0
CLASS
  1
ACDBPLACEHOLDER
  2
AcDbPlaceHolder
  3
ObjectDBX Classes
 90
        0
 91
        1
280
     0
281
     0
  0
CLASS
  1
LAYOUT
  2
AcDbLayout
  3
ObjectDBX Classes
 90
        0
 91
        2
280
     0
281
     0
  0
CLASS
  1
ACME_DOCUMENT
  2
AcMeDbDoc
  3
AcMeServices
 90
     1024
 91
        1
280
     0
281
     0
  0
CLASS
  1
AMGSETTINGSOBJ
  2
AmgSettingsObj
  3
"AcadM|Product Description: AutoCAD Mechanical|Company: Autodesk, Inc."
 90
     1024
 91
        2
280
     0
281
     0
  0
CLASS
  1
AMGOBJPROPCFG
  2
AmgObjPropCfg
  3
"AmgLay|Product Description: AutoCAD Mechanical|Company: Autodesk, Inc."
 90
     1024
 91
        1
280
     0
281
     0
  0
CLASS
  1
ACDBENTITYCACHE
  2
AcMeEntityCache
  3
AcMeServices
 90
     1024
 91
        1
280
     0
281
     0
  0
CLASS
  1
GSMANAGER
  2
AcMeGSManager
  3
AcMeServices
 90
     1024
 91
        0
280
     0
281
     0
  0
CLASS
  1
AMDTINTERNALREACTOR
  2
AmdtInternalReactor
  3
AcMeServices
 90
     1024
 91
        0
280
     0
281
     0
  0
CLASS
  1
ACME_DATABASE
  2
AcMeDbDatabase
  3
AcMeServices
 90
     1024
 91
        1
280
     0
281
     0
  0
CLASS
  1
ACGREFACADMASTER
  2
AcGrefacadMaster
  3
AcGrefServices
 90
     1024
 91
        1
280
     0
281
     0
  0
CLASS
  1
AMDTMENUSTATEMGR
  2
AmdtMenuStateMgr
  3
McadcomServices
 90
     1024
 91
        1
280
     0
281
     0
  0
CLASS
  1
AMDTMCOMMENUSTATE
  2
AmdtMcomMenuState
  3
McadcomServices
 90
     1024
 91
        1
280
     0
281
     0
  0
CLASS
  1
MAPIADMODULE
  2
MApiAdModule
  3
MApiAdServices
 90
     1024
 91
        2
280
     0
281
     0
  0
CLASS
  1
AMDTDMMENUSTATE
  2
AmdtDmMenuState
  3
AcMechDwgViewMgmt
 90
     1024
 91
        0
280
     0
281
     0
  0
CLASS
  1
AMDTADMENUSTATE
  2
AmdtAdMenuState
  3
DesignerServices
 90
     1024
 91
        0
280
     0
281
     0
  0
CLASS
  1
AMDTAMMENUSTATE
  2
AmdtAmMenuState
  3
DesignerAssemblies
 90
     1024
 91
        1
280
     0
281
     0
  0
CLASS
  1
ACMDATADICTIONARY
  2
AcmDataDictionary
  3
"AcmSymBB|Product Description: AutoCAD Mechanical|Company: Autodesk, Inc."
 90
     1024
 91
        1
280
     0
281
     0
  0
CLASS
  1
ACMDATAENTRYBLOCK
  2
AcmDataEntryBlock
  3
AcmSymBB|Product Description: AutoCAD Mechanical|Company: Autodesk, Inc.
 90
     1024
 91
        0
280
     0
281
     0
  0
CLASS
  1
ACMSURFSTANDARDJIS
  2
AcmSurfTextStdJIS
  3
"Amdt_StdImp|Product Description: AutoCAD Mechanical|Company: Autodesk, Inc."
 90
     1024
 91
        0
280
     0
281
     0
  0
CLASS
  1
ACMFCFSTANDARDJIS
  2
AcmFCFStdJIS
  3
"Amdt_StdImp|Product Description: AutoCAD Mechanical|Company: Autodesk, Inc."
 90
     1024
 91
        0
280
     0
281
     0
  0
CLASS
  1
ACMWELDSTANDARDJIS
  2
AcmWeldingStdJIS
  3
"Amdt_StdImp|Product Description: AutoCAD Mechanical|Company: Autodesk, Inc."
 90
     1024
 91
        0
280
     0
281
     0
  0
CLASS
  1
ACMIDSTANDARDJIS
  2
AcmIdStdJIS
  3
"Amdt_StdImp|Product Description: AutoCAD Mechanical|Company: Autodesk, Inc."
 90
     1024
 91
        0
280
     0
281
     0
  0
CLASS
  1
ACMDATUMSTANDARDJIS
  2
AcmDatumStdJIS
  3
"Amdt_StdImp|Product Description: AutoCAD Mechanical|Company: Autodesk, Inc."
 90
     1024
 91
        0
280
     0
281
     0
  0
CLASS
  1
ACMBOMSTANDARDJIS
  2
AcmBOMStdJIS
  3
"Amdt_StdImp|Product Description: AutoCAD Mechanical|Company: Autodesk, Inc."
 90
     1024
 91
        0
280
     0
281
     0
  0
CLASS
  1
ACMSURFSTANDARDANSI
  2
AcmSurfTextStdANSI
  3
"Amdt_StdImp|Product Description: AutoCAD Mechanical|Company: Autodesk, Inc."
 90
     1024
 91
        0
280
     0
281
     0
  0
CLASS
  1
ACMFCFSTANDARDANSI
  2
AcmFCFStdANSI
  3
"Amdt_StdImp|Product Description: AutoCAD Mechanical|Company: Autodesk, Inc."
 90
     1024
 91
        0
280
     0
281
     0
  0
CLASS
  1
ACMWELDSTANDARDANSI
  2
AcmWeldingStdANSI
  3
"Amdt_StdImp|Product Description: AutoCAD Mechanical|Company: Autodesk, Inc."
 90
     1024
 91
        0
280
     0
281
     0
  0
CLASS
  1
ACMIDSTANDARDANSI
  2
AcmIdStdANSI
  3
"Amdt_StdImp|Product Description: AutoCAD Mechanical|Company: Autodesk, Inc."
 90
     1024
 91
        0
280
     0
281
     0
  0
CLASS
  1
ACMDATUMSTANDARDANSI
  2
AcmDatumStdANSI
  3
"Amdt_StdImp|Product Description: AutoCAD Mechanical|Company: Autodesk, Inc."
 90
     1024
 91
        0
280
     0
281
     0
  0
CLASS
  1
ACMBOMSTANDARDANSI
  2
AcmBOMStdANSI
  3
"Amdt_StdImp|Product Description: AutoCAD Mechanical|Company: Autodesk, Inc."
 90
     1024
 91
        0
280
     0
281
     0
  0
CLASS
  1
ACMSURFSTANDARDBSI
  2
AcmSurfTextStdBSI
  3
"Amdt_StdImp|Product Description: AutoCAD Mechanical|Company: Autodesk, Inc."
 90
     1024
 91
        0
280
     0
281
     0
  0
CLASS
  1
ACMFCFSTANDARDBSI
  2
AcmFCFStdBSI
  3
"Amdt_StdImp|Product Description: AutoCAD Mechanical|Company: Autodesk, Inc."
 90
     1024
 91
        0
280
     0
281
     0
  0
CLASS
  1
ACMWELDSTANDARDBSI
  2
AcmWeldingStdBSI
  3
"Amdt_StdImp|Product Description: AutoCAD Mechanical|Company: Autodesk, Inc."
 90
     1024
 91
        0
280
     0
281
     0
  0
CLASS
  1
ACMIDSTANDARDBSI
  2
AcmIdStdBSI
  3
"Amdt_StdImp|Product Description: AutoCAD Mechanical|Company: Autodesk, Inc."
 90
     1024
 91
        0
280
     0
281
     0
  0
CLASS
  1
ACMDATUMSTANDARDBSI
  2
AcmDatumStdBSI
  3
"Amdt_StdImp|Product Description: AutoCAD Mechanical|Company: Autodesk, Inc."
 90
     1024
 91
        0
280
     0
281
     0
  0
CLASS
  1
ACMBOMSTANDARDBSI
  2
AcmBOMStdBSI
  3
"Amdt_StdImp|Product Description: AutoCAD Mechanical|Company: Autodesk, Inc."
 90
     1024
 91
        0
280
     0
281
     0
  0
CLASS
  1
AMDTEDGESTANDARDDIN
  2
AmdtEdgeStdDIN
  3
"Amdt_StdImp|Product Description: AutoCAD Mechanical|Company: Autodesk, Inc."
 90
     1024
 91
        0
280
     0
281
     0
  0
CLASS
  1
ACMSURFSTANDARDDIN
  2
AcmSurfTextStdDIN
  3
"Amdt_StdImp|Product Description: AutoCAD Mechanical|Company: Autodesk, Inc."
 90
     1024
 91
        0
280
     0
281
     0
  0
CLASS
  1
ACMFCFSTANDARDDIN
  2
AcmFCFStdDIN
  3
"Amdt_StdImp|Product Description: AutoCAD Mechanical|Company: Autodesk, Inc."
 90
     1024
 91
        0
280
     0
281
     0
  0
CLASS
  1
ACMWELDSTANDARDDIN
  2
AcmWeldingStdDIN
  3
"Amdt_StdImp|Product Description: AutoCAD Mechanical|Company: Autodesk, Inc."
 90
     1024
 91
        0
280
     0
281
     0
  0
CLASS
  1
ACMIDSTANDARDDIN
  2
AcmIdStdDIN
  3
"Amdt_StdImp|Product Description: AutoCAD Mechanical|Company: Autodesk, Inc."
 90
     1024
 91
        0
280
     0
281
     0
  0
CLASS
  1
ACMDATUMSTANDARDDIN
  2
AcmDatumStdDIN
  3
"Amdt_StdImp|Product Description: AutoCAD Mechanical|Company: Autodesk, Inc."
 90
     1024
 91
        0
280
     0
281
     0
  0
CLASS
  1
ACMBOMSTANDARDDIN
  2
AcmBOMStdDIN
  3
"Amdt_StdImp|Product Description: AutoCAD Mechanical|Company: Autodesk, Inc."
 90
     1024
 91
        0
280
     0
281
     0
  0
CLASS
  1
ACMSURFSTANDARDISO
  2
AcmSurfTextStdISO
  3
"Amdt_StdImp|Product Description: AutoCAD Mechanical|Company: Autodesk, Inc."
 90
     1024
 91
        0
280
     0
281
     0
  0
CLASS
  1
ACMFCFSTANDARDISO
  2
AcmFCFStdISO
  3
"Amdt_StdImp|Product Description: AutoCAD Mechanical|Company: Autodesk, Inc."
 90
     1024
 91
        0
280
     0
281
     0
  0
CLASS
  1
ACMWELDSTANDARDISO
  2
AcmWeldingStdISO
  3
"Amdt_StdImp|Product Description: AutoCAD Mechanical|Company: Autodesk, Inc."
 90
     1024
 91
        1
280
     0
281
     0
  0
CLASS
  1
ACMIDSTANDARDISO
  2
AcmIdStdISO
  3
"Amdt_StdImp|Product Description: AutoCAD Mechanical|Company: Autodesk, Inc."
 90
     1024
 91
        0
280
     0
281
     0
  0
CLASS
  1
ACMDATUMSTANDARDISO
  2
AcmDatumStdISO
  3
"Amdt_StdImp|Product Description: AutoCAD Mechanical|Company: Autodesk, Inc."
 90
     1024
 91
        1
280
     0
281
     0
  0
CLASS
  1
ACMBOMSTANDARDISO
  2
AcmBOMStdISO
  3
"Amdt_StdImp|Product Description: AutoCAD Mechanical|Company: Autodesk, Inc."
 90
     1024
 91
        1
280
     0
281
     0
  0
CLASS
  1
AMDTBROWSERDBTAB
  2
AmdtBrowserDbTab
  3
McadcomServices
 90
     1024
 91
        1
280
     0
281
     0
  0
CLASS
  1
ACAMGFILTERDAT
  2
AcAmgFilterDat
  3
"AcadM|Product Description: AutoCAD Mechanical|Company: Autodesk, Inc."
 90
     1024
 91
        0
280
     0
281
     0
  0
CLASS
  1
MAPIAMMOUDLE
  2
MApiAmModule
  3
MApiAmServices
 90
     1024
 91
        1
280
     0
281
     0
  0
CLASS
  1
AMDTMAPISURFMOUDULE
  2
AmdtMApiSurfModule
  3
MApiSurfServices
 90
     1024
 91
        2
280
     0
281
     0
  0
CLASS
  1
ACAMGLAYSTD
  2
AcAmgLayStd
  3
"AmgLay|Product Description: AutoCAD Mechanical|Company: Autodesk, Inc."
 90
     1024
 91
        1
280
     0
281
     0
  0
CLASS
  1
ACAMGDIMSTD
  2
AcAmgDimStd
  3
"AmgDim|Product Description: AutoCAD Mechanical|Company: Autodesk, Inc."
 90
     1024
 91
        1
280
     0
281
     0
  0
CLASS
  1
ACAMGTITLESTD
  2
AcAmgTitleStd
  3
"AmgTitle|Product Description: AutoCAD Mechanical|Company: Autodesk, Inc."
 90
     1024
 91
        1
280
     0
281
     0
  0
CLASS
  1
ACMDETAILSTANDARDJIS
  2
AmdtDetailSymStdJIS
  3
"Amdt_StdImp|Product Description: AutoCAD Mechanical|Company: Autodesk, Inc."
 90
     1024
 91
        0
280
     0
281
     0
  0
CLASS
  1
ACMSECTIONSTANDARDJIS
  2
AmdtSectionSymStdJIS
  3
"Amdt_StdImp|Product Description: AutoCAD Mechanical|Company: Autodesk, Inc."
 90
     1024
 91
        0
280
     0
281
     0
  0
CLASS
  1
ACMCENTERLINESTANDARDJIS
  2
AmdtCenterLineStdJIS
  3
"Amdt_StdImp|Product Description: AutoCAD Mechanical|Company: Autodesk, Inc."
 90
     1024
 91
        0
280
     0
281
     0
  0
CLASS
  1
ACMTHREADLINESTANDARDJIS
  2
AmdtThreadLineStdJIS
  3
"Amdt_StdImp|Product Description: AutoCAD Mechanical|Company: Autodesk, Inc."
 90
     1024
 91
        0
280
     0
281
     0
  0
CLASS
  1
ACMDETAILSTANDARDANSI
  2
AmdtDetailSymStdANSI
  3
"Amdt_StdImp|Product Description: AutoCAD Mechanical|Company: Autodesk, Inc."
 90
     1024
 91
        0
280
     0
281
     0
  0
CLASS
  1
ACMSECTIONSTANDARDANSI
  2
AmdtSectionSymStdANSI
  3
"Amdt_StdImp|Product Description: AutoCAD Mechanical|Company: Autodesk, Inc."
 90
     1024
 91
        0
280
     0
281
     0
  0
CLASS
  1
ACMCENTERLINESTANDARDANSI
  2
AmdtCenterLineStdANSI
  3
"Amdt_StdImp|Product Description: AutoCAD Mechanical|Company: Autodesk, Inc."
 90
     1024
 91
        0
280
     0
281
     0
  0
CLASS
  1
ACMTHREADLINESTANDARDANSI
  2
AmdtThreadLineStdANSI
  3
"Amdt_StdImp|Product Description: AutoCAD Mechanical|Company: Autodesk, Inc."
 90
     1024
 91
        0
280
     0
281
     0
  0
CLASS
  1
ACMDETAILSTANDARDBSI
  2
AmdtDetailSymStdBSI
  3
"Amdt_StdImp|Product Description: AutoCAD Mechanical|Company: Autodesk, Inc."
 90
     1024
 91
        0
280
     0
281
     0
  0
CLASS
  1
ACMSECTIONSTANDARDBSI
  2
AmdtSectionSymStdBSI
  3
"Amdt_StdImp|Product Description: AutoCAD Mechanical|Company: Autodesk, Inc."
 90
     1024
 91
        0
280
     0
281
     0
  0
CLASS
  1
ACMCENTERLINESTANDARDBSI
  2
AmdtCenterLineStdBSI
  3
"Amdt_StdImp|Product Description: AutoCAD Mechanical|Company: Autodesk, Inc."
 90
     1024
 91
        0
280
     0
281
     0
  0
CLASS
  1
ACMTHREADLINESTANDARDBSI
  2
AmdtThreadLineStdBSI
  3
"Amdt_StdImp|Product Description: AutoCAD Mechanical|Company: Autodesk, Inc."
 90
     1024
 91
        0
280
     0
281
     0
  0
CLASS
  1
ACMDETAILSTANDARDDIN
  2
AmdtDetailSymStdDIN
  3
"Amdt_StdImp|Product Description: AutoCAD Mechanical|Company: Autodesk, Inc."
 90
     1024
 91
        0
280
     0
281
     0
  0
CLASS
  1
ACMSECTIONSTANDARDDIN
  2
AmdtSectionSymStdDIN
  3
"Amdt_StdImp|Product Description: AutoCAD Mechanical|Company: Autodesk, Inc."
 90
     1024
 91
        0
280
     0
281
     0
  0
CLASS
  1
ACMCENTERLINESTANDARDDIN
  2
AmdtCenterLineStdDIN
  3
"Amdt_StdImp|Product Description: AutoCAD Mechanical|Company: Autodesk, Inc."
 90
     1024
 91
        0
280
     0
281
     0
  0
CLASS
  1
ACMTHREADLINESTANDARDDIN
  2
AmdtThreadLineStdDIN
  3
"Amdt_StdImp|Product Description: AutoCAD Mechanical|Company: Autodesk, Inc."
 90
     1024
 91
        0
280
     0
281
     0
  0
CLASS
  1
AMDTEDGESTANDARDISO
  2
AmdtEdgeStdISO
  3
"Amdt_StdImp|Product Description: AutoCAD Mechanical|Company: Autodesk, Inc."
 90
     1024
 91
        0
280
     0
281
     0
  0
CLASS
  1
ACMDETAILSTANDARDISO
  2
AmdtDetailSymStdISO
  3
"Amdt_StdImp|Product Description: AutoCAD Mechanical|Company: Autodesk, Inc."
 90
     1024
 91
        1
280
     0
281
     0
  0
CLASS
  1
ACMSECTIONSTANDARDISO
  2
AmdtSectionSymStdISO
  3
"Amdt_StdImp|Product Description: AutoCAD Mechanical|Company: Autodesk, Inc."
 90
     1024
 91
        0
280
     0
281
     0
  0
CLASS
  1
ACMCENTERLINESTANDARDISO
  2
AmdtCenterLineStdISO
  3
"Amdt_StdImp|Product Description: AutoCAD Mechanical|Company: Autodesk, Inc."
 90
     1024
 91
        1
280
     0
281
     0
  0
CLASS
  1
ACMTHREADLINESTANDARDISO
  2
AmdtThreadLineStdISO
  3
"Amdt_StdImp|Product Description: AutoCAD Mechanical|Company: Autodesk, Inc."
 90
     1024
 91
        1
280
     0
281
     0
  0
CLASS
  1
ACMNOTESTANDARDISO
  2
AmdtNoteStdISO
  3
"Amdt_StdImp|Product Description: AutoCAD Mechanical|Company: Autodesk, Inc."
 90
     1024
 91
        1
280
     0
281
     0
  0
CLASS
  1
ACAMGHOLECHARTSTDISO
  2
AcAmgHoleChartStdISO
  3
AmgDim|Product Description: AutoCAD Mechanical|Company: Autodesk, Inc.
 90
     1024
 91
        1
280
     0
281
     0
  0
CLASS
  1
ACMNOTESTANDARDANSI
  2
AmdtNoteStdANSI
  3
"Amdt_StdImp|Product Description: AutoCAD Mechanical|Company: Autodesk, Inc."
 90
     1024
 91
        0
280
     0
281
     0
  0
CLASS
  1
AMDTNOTETEMPLATEDB
  2
AmdtNoteTemplateDB
  3
AcmSymBB|Product Description: AutoCAD Mechanical|Company: Autodesk, Inc.
 90
     1024
 91
        7
280
     0
281
     0
  0
CLASS
  1
ACAMGHOLECHARTSTDANSI
  2
AcAmgHoleChartStdANSI
  3
AmgDim|Product Description: AutoCAD Mechanical|Company: Autodesk, Inc.
 90
     1024
 91
        0
280
     0
281
     0
  0
CLASS
  1
TABLESTYLE
  2
AcDbTableStyle
  3
ObjectDBX Classes
 90
     4095
 91
        1
280
     0
281
     0
  0
CLASS
  1
ACAD_TABLE
  2
AcDbTable
  3
ObjectDBX Classes
 90
     1025
 91
        0
280
     0
281
     1
  0
CLASS
  1
MATERIAL
  2
AcDbMaterial
  3
ObjectDBX Classes
 90
     1153
 91
        3
280
     0
281
     0
  0
CLASS
  1
VISUALSTYLE
  2
AcDbVisualStyle
  3
ObjectDBX Classes
 90
     4095
 91
       26
280
     0
281
     0
  0
CLASS
  1
SCALE
  2
AcDbScale
  3
ObjectDBX Classes
 90
     1153
 91
       17
280
     0
281
     0
  0
CLASS
  1
MLEADERSTYLE
  2
AcDbMLeaderStyle
  3
ACDB_MLEADERSTYLE_CLASS
 90
     4095
 91
        1
280
     0
281
     0
  0
CLASS
  1
ACRFATTGENMGR
  2
AcRfAttGeneralMgr
  3
AcAttribServices
 90
     1024
 91
        0
280
     0
281
     0
  0
CLASS
  1
ACRFOBJATTMGR
  2
AcRfObjAttGroupMgr
  3
AcAttribServices
 90
     1024
 91
        0
280
     0
281
     0
  0
CLASS
  1
ACRFMCADAPIATTHOLDER
  2
AcRfMCADAPIAttHolder
  3
AcAttribServices
 90
     1024
 91
        0
280
     0
281
     0
  0
CLASS
  1
AMDTSYSATTR
  2
AmdtSystemAttribute
  3
AcAttribServices
 90
     1024
 91
        0
280
     0
281
     0
  0
CLASS
  1
ACMTAPERSTANDARDISO
  2
AcmTaperStdISO
  3
"Amdt_StdImp|Product Description: AutoCAD Mechanical|Company: Autodesk, Inc."
 90
     1024
 91
        1
280
     0
281
     0
  0
CLASS
  1
ACMANOOTATIONVIEWSTANDARDISO
  2
AmdtAnViewStdISO
  3
"Amdt_StdImp|Product Description: AutoCAD Mechanical|Company: Autodesk, Inc."
 90
     1024
 91
        1
280
     0
281
     0
  0
CLASS
  1
ACMTAPERSTANDARDANSI
  2
AcmTaperStdANSI
  3
"Amdt_StdImp|Product Description: AutoCAD Mechanical|Company: Autodesk, Inc."
 90
     1024
 91
        0
280
     0
281
     0
  0
CLASS
  1
ACMANOOTATIONVIEWSTANDARDANSI
  2
AmdtAnViewStdANSI
  3
"Amdt_StdImp|Product Description: AutoCAD Mechanical|Company: Autodesk, Inc."
 90
     1024
 91
        0
280
     0
281
     0
  0
CLASS
  1
CELLSTYLEMAP
  2
AcDbCellStyleMap
  3
ObjectDBX Classes
 90
     1152
 91
        2
280
     0
281
     0
  0
CLASS
  1
CAMSSTRUCTBTNSTATE
  2
StructBtnState
  3
DesignerAssemblies
 90
     1024
 91
        0
280
     0
281
     0
  0
CLASS
  1
ACDBSECTIONVIEWSTYLE
  2
AcDbSectionViewStyle
  3
ObjectDBX Classes
 90
     1025
 91
        2
280
     0
281
     0
  0
CLASS
  1
ACDBDETAILVIEWSTYLE
  2
AcDbDetailViewStyle
  3
ObjectDBX Classes
 90
     1025
 91
        2
280
     0
281
     0
  0
CLASS
  1
FIELD
  2
AcDbField
  3
ObjectDBX Classes
 90
     1152
 91
        3
280
     0
281
     0
  0
CLASS
  1
SORTENTSTABLE
  2
AcDbSortentsTable
  3
ObjectDBX Classes
 90
        0
 91
        1
280
     0
281
     0
  0
CLASS
  1
FIELDLIST
  2
AcDbFieldList
  3
ObjectDBX Classes
 90
     1152
 91
        1
280
     0
281
     0
  0
CLASS
  1
ACMSECTIONSTANDARDCUSTOM
  2
AmdtSectionSymStdCustom
  3
"Amdt_StdImp|Product Description: AutoCAD Mechanical|Company: Autodesk, Inc."
 90
     1024
 91
        0
280
     0
281
     0
  0
CLASS
  1
ACMDETAILTANDARDCUSTOM
  2
AmdtDetailSymStdCustom
  3
"Amdt_StdImp|Product Description: AutoCAD Mechanical|Company: Autodesk, Inc."
 90
     1024
 91
        0
280
     0
281
     0
  0
CLASS
  1
EXACXREFPANELOBJECT
  2
ExAcXREFPanelObject
  3
EXAC_ESW
 90
     1025
 91
        0
280
     0
281
     0
  0
CLASS
  1
NPOCOLLECTION
  2
AcDbImpNonPersistentObjectsCollection
  3
ObjectDBX Classes
 90
     1153
 91
        0
280
     0
281
     0
  0
CLASS
  1
ACAD_EVALUATION_GRAPH
  2
AcDbEvalGraph
  3
ObjectDBX Classes
 90
     1153
 91
        1
280
     0
281
     0
  0
CLASS
  1
ACAECUSTOBJ
  2
AcAeEditorObj
  3
AcAeEditorObj
 90
     1024
 91
        1
280
     0
281
     0
  0
CLASS
  1
ACDB_DYNAMICBLOCKPURGEPREVENTER_VERSION
  2
AcDbDynamicBlockPurgePreventer
  3
ObjectDBX Classes
 90
     1153
 91
        1
280
     0
281
     0
  0
CLASS
  1
PLOTSETTINGS
  2
AcDbPlotSettings
  3
ObjectDBX Classes
 90
        0
 91
        1
280
     0
281
     0
  0
CLASS
  1
DIMASSOC
  2
AcDbDimAssoc
  3
"AcDbDimAssoc|Product Desc:     AcDim ARX App For Dimension|Company:          Autodesk, Inc.|WEB Address:      www.autodesk.com"
 90
        0
 91
        6
280
     0
281
     0
  0
CLASS
  1
AMDTEDGESTANDARDISO13715
  2
AmdtEdgeStdISO13715
  3
"Amdt_StdImp|Product Description: AutoCAD Mechanical|Company: Autodesk, Inc."
 90
     1024
 91
        1
280
     0
281
     0
  0
CLASS
  1
ACMSURFSTANDARDISO2002
  2
AcmSurfTextStdISO2002
  3
"Amdt_StdImp|Product Description: AutoCAD Mechanical|Company: Autodesk, Inc."
 90
     1024
 91
        1
280
     0
281
     0
  0
CLASS
  1
ACMFCFSTANDARDISO2004
  2
AcmFCFStdISO2004
  3
"Amdt_StdImp|Product Description: AutoCAD Mechanical|Company: Autodesk, Inc."
 90
     1024
 91
        1
280
     0
281
     0
  0
CLASS
  1
ACMIDSTANDARDISO2004
  2
AcmIdStdISO2004
  3
"Amdt_StdImp|Product Description: AutoCAD Mechanical|Company: Autodesk, Inc."
 90
     1024
 91
        1
280
     0
281
     0
  0
CLASS
  1
ACMSECTIONSTANDARDISO2001
  2
AmdtSectionSymStdISO2001
  3
"Amdt_StdImp|Product Description: AutoCAD Mechanical|Company: Autodesk, Inc."
 90
     1024
 91
        1
280
     0
281
     0
  0
ENDSEC
  0
SECTION
  2
TABLES
  0
TABLE
  2
VPORT
  5
8
330
0
100
AcDbSymbolTable
 70
     1
  0
VPORT
  5
A35
330
8
100
AcDbSymbolTableRecord
100
AcDbViewportTableRecord
  2
*Active
 70
     0
 10
0.0
 20
0.0
 11
1.0
 21
1.0
 12
157.2258627644842
 22
130.7129818102874
 13
0.0
 23
0.0
 14
2.5
 24
2.5
 15
10.0
 25
10.0
 16
0.0
 26
0.0
 36
1.0
 17
0.0
 27
0.0
 37
0.0
 40
427.6047031352799
 41
1.356540084388185
 42
50.0
 43
0.0
 44
0.0
 50
0.0
 51
0.0
 71
     0
 72
   100
 73
     1
 74
     1
 75
     0
 76
     0
 77
     0
 78
     0
281
     0
 65
     0
110
0.0
120
0.0
130
0.0
111
1.0
121
0.0
131
0.0
112
0.0
122
1.0
132
0.0
 79
     0
146
0.0
348
A55
 60
     3
 61
     5
292
     1
282
     1
141
0.0
142
0.0
 63
   250
421
  3355443
1001
ACAD_NAV_VCDISPLAY
1070
     3
  0
ENDTAB
  0
TABLE
  2
LTYPE
  5
5
330
0
100
AcDbSymbolTable
 70
    19
  0
LTYPE
  5
14
330
5
100
AcDbSymbolTableRecord
100
AcDbLinetypeTableRecord
  2
BYBLOCK
 70
     0
  3

 72
    65
 73
     0
 40
0.0
  0
LTYPE
  5
15
330
5
100
AcDbSymbolTableRecord
100
AcDbLinetypeTableRecord
  2
BYLAYER
 70
     0
  3

 72
    65
 73
     0
 40
0.0
  0
LTYPE
  5
16
330
5
100
AcDbSymbolTableRecord
100
AcDbLinetypeTableRecord
  2
CONTINUOUS
 70
     0
  3
Solid line
 72
    65
 73
     0
 40
0.0
  0
LTYPE
  5
15B
330
5
100
AcDbSymbolTableRecord
100
AcDbLinetypeTableRecord
  2
ACISOWELD
 70
     0
  3
_ _ _ _ _
 72
    65
 73
     2
 40
2.0
 49
2.0
 74
     0
 49
-1.0
 74
     0
  0
LTYPE
  5
15C
330
5
100
AcDbSymbolTableRecord
100
AcDbLinetypeTableRecord
  2
ACISOTGB
 70
     0
  3
__ . . __ . .
 72
    65
 73
     6
 40
9.0
 49
4.0
 74
     0
 49
-1.0
 74
     0
 49
1.0
 74
     0
 49
-1.0
 74
     0
 49
1.0
 74
     0
 49
-1.0
 74
     0
  0
LTYPE
  5
15D
330
5
100
AcDbSymbolTableRecord
100
AcDbLinetypeTableRecord
  2
ACISOTGL
 70
     0
  3
_ _ _ _ _
 72
    65
 73
     2
 40
3.0
 49
2.0
 74
     0
 49
-1.0
 74
     0
  0
LTYPE
  5
175
330
5
100
AcDbSymbolTableRecord
100
AcDbLinetypeTableRecord
  2
AM_ISO02W050
 70
     0
  3
__ __ __ __ __ __ __ __ __ __ __ __ __ __ __
 72
    65
 73
     2
 40
7.5
 49
6.0
 74
     0
 49
-1.5
 74
     0
  0
LTYPE
  5
176
330
5
100
AcDbSymbolTableRecord
100
AcDbLinetypeTableRecord
  2
AM_ISO08W050
 70
     0
  3
____ . ____ . ____ . ____ . ____ . ____ . ____
 72
    65
 73
     4
 40
18.0
 49
12.0
 74
     0
 49
-1.5
 74
     0
 49
3.0
 74
     0
 49
-1.5
 74
     0
  0
LTYPE
  5
177
330
5
100
AcDbSymbolTableRecord
100
AcDbLinetypeTableRecord
  2
AM_ISO09W050
 70
     0
  3
_____ . . _____ . . _____ . . ____ .. ____
 72
    65
 73
     6
 40
22.5
 49
12.0
 74
     0
 49
-1.5
 74
     0
 49
3.0
 74
     0
 49
-1.5
 74
     0
 49
3.0
 74
     0
 49
-1.5
 74
     0
  0
LTYPE
  5
178
330
5
100
AcDbSymbolTableRecord
100
AcDbLinetypeTableRecord
  2
AM_ISO02W050x2
 70
     0
  3
 _ _ _ _ _ _ _ _ _ _ _ _
 72
    65
 73
     2
 40
3.75
 49
3.0
 74
     0
 49
-0.75
 74
     0
  0
LTYPE
  5
179
330
5
100
AcDbSymbolTableRecord
100
AcDbLinetypeTableRecord
  2
AM_ISO08W050x2
 70
     0
  3
__ . __ . __ . __ . __ . __
 72
    65
 73
     4
 40
9.0
 49
6.0
 74
     0
 49
-0.75
 74
     0
 49
1.5
 74
     0
 49
-0.75
 74
     0
  0
LTYPE
  5
17C
330
5
100
AcDbSymbolTableRecord
100
AcDbLinetypeTableRecord
  2
Amzigzag
 70
     0
  3
/\/-/\/-/\/-/\/-/\/-/\/
 72
    65
 73
     2
 40
11.0001
 49
0.0001
 74
     4
 75
   135
340
17B
 46
0.04
 50
0.0
 44
0.0
 45
0.0
 49
-11.0
 74
     0
  0
LTYPE
  5
2ED
330
5
100
AcDbSymbolTableRecord
100
AcDbLinetypeTableRecord
  2
Amconstr
 70
     0
  3
_______________________
 72
    65
 73
     2
 40
9999.0
 49
9999.0
 74
     0
 49
0.0
 74
     0
  0
ENDTAB
  0
TABLE
  2
LAYER
  5
2
102
{ACAD_XDICTIONARY
360
592
102
}
330
0
100
AcDbSymbolTable
 70
     5
  0
LAYER
  5
F
102
{ACAD_XDICTIONARY
360
AB7
102
}
330
2
100
AcDbSymbolTableRecord
100
AcDbLayerTableRecord
  2
0
 70
     0
 62
     7
  6
CONTINUOUS
370
    -3
390
166
347
A47
348
0
  0
LAYER
  5
5CF
102
{ACAD_XDICTIONARY
360
AB9
102
}
330
2
100
AcDbSymbolTableRecord
100
AcDbLayerTableRecord
  2
AM_0
 70
     0
 62
     7
  6
CONTINUOUS
370
    50
390
166
347
A47
348
0
  0
LAYER
  5
3300
102
{ACAD_XDICTIONARY
360
330F
102
}
330
2
100
AcDbSymbolTableRecord
100
AcDbLayerTableRecord
  2
Visible Edges(ISO)
 70
     0
 62
     7
  6
CONTINUOUS
370
    18
390
166
347
A47
348
0
  0
LAYER
  5
3301
330
2
100
AcDbSymbolTableRecord
100
AcDbLayerTableRecord
  2
Defpoints
 70
     0
 62
     7
  6
CONTINUOUS
290
     0
370
    -3
390
166
347
A47
348
0
  0
LAYER
  5
3302
102
{ACAD_XDICTIONARY
360
3311
102
}
330
2
100
AcDbSymbolTableRecord
100
AcDbLayerTableRecord
  2
DIM
 70
     0
 62
     3
  6
CONTINUOUS
370
    25
390
166
347
A47
348
0
1001
AcAecLayerStandard
1000

1000

  0
ENDTAB
  0
TABLE
  2
STYLE
  5
3
330
0
100
AcDbSymbolTable
 70
     7
  0
STYLE
  5
10
330
3
100
AcDbSymbolTableRecord
100
AcDbTextStyleTableRecord
  2
STANDARD
 70
     0
 40
0.0
 41
1.0
 50
0.0
 71
     0
 42
3.5
  3
ISOCP.SHX
  4

  0
STYLE
  5
159
330
3
100
AcDbSymbolTableRecord
100
AcDbTextStyleTableRecord
  2
ACISOTS
 70
     0
 40
1.0
 41
1.0
 50
0.0
 71
     0
 42
2.5
  3
isocp.shx
  4

  0
STYLE
  5
15A
330
3
100
AcDbSymbolTableRecord
100
AcDbTextStyleTableRecord
  2
ACISOGDT
 70
     0
 40
0.0
 41
1.0
 50
0.0
 71
     0
 42
2.5
  3
amgdt.shx
  4

  0
STYLE
  5
17B
330
3
100
AcDbSymbolTableRecord
100
AcDbTextStyleTableRecord
  2

 70
     1
 40
0.0
 41
1.0
 50
0.0
 71
     0
 42
3.5
  3
ltypeshp.shx
  4

  0
STYLE
  5
D0A
330
3
100
AcDbSymbolTableRecord
100
AcDbTextStyleTableRecord
  2
ISOCP
 70
     0
 40
0.0
 41
1.0
 50
0.0
 71
     0
 42
3.5
  3
isocp
  4

  0
ENDTAB
  0
TABLE
  2
VIEW
  5
6
330
0
100
AcDbSymbolTable
 70
     9
  0
VIEW
  5
1C8
330
6
100
AcDbSymbolTableRecord
100
AcDbViewTableRecord
  2
AMDTVIEW1
 70
     0
 40
329.0721649484536
 10
210.0
 20
164.5360824742268
 41
420.0
 11
0.0
 21
0.0
 31
1.0
 12
0.0
 22
0.0
 32
0.0
 42
50.0
 43
0.0
 44
0.0
 50
0.0
 71
     0
281
     0
 72
     0
 73
     0
348
A55
  0
VIEW
  5
1C9
330
6
100
AcDbSymbolTableRecord
100
AcDbViewTableRecord
  2
AMDTVIEW2
 70
     0
 40
329.0721649484536
 10
210.0
 20
164.5360824742268
 41
420.0
 11
0.0
 21
0.0
 31
1.0
 12
0.0
 22
0.0
 32
0.0
 42
50.0
 43
0.0
 44
0.0
 50
0.0
 71
     0
281
     0
 72
     0
 73
     0
348
A55
  0
VIEW
  5
1CA
330
6
100
AcDbSymbolTableRecord
100
AcDbViewTableRecord
  2
AMDTVIEW3
 70
     0
 40
329.0721649484536
 10
210.0
 20
164.5360824742268
 41
420.0
 11
0.0
 21
0.0
 31
1.0
 12
0.0
 22
0.0
 32
0.0
 42
50.0
 43
0.0
 44
0.0
 50
0.0
 71
     0
281
     0
 72
     0
 73
     0
348
A55
  0
VIEW
  5
FA2
330
6
100
AcDbSymbolTableRecord
100
AcDbViewTableRecord
  2
AM_VIEW1
 70
     0
 40
148.5
 10
116.6562170706006
 20
222.75
 41
233.3124341412013
 11
0.0
 21
0.0
 31
1.0
 12
0.0
 22
0.0
 32
0.0
 42
50.0
 43
0.0
 44
0.0
 50
0.0
 71
     0
281
     0
 72
     0
 73
     0
  0
VIEW
  5
FA3
330
6
100
AcDbSymbolTableRecord
100
AcDbViewTableRecord
  2
AM_VIEW2
 70
     0
 40
148.5
 10
303.3437829293994
 20
222.75
 41
233.3124341412013
 11
0.0
 21
0.0
 31
1.0
 12
0.0
 22
0.0
 32
0.0
 42
50.0
 43
0.0
 44
0.0
 50
0.0
 71
     0
281
     0
 72
     0
 73
     0
  0
VIEW
  5
FA4
330
6
100
AcDbSymbolTableRecord
100
AcDbViewTableRecord
  2
AM_VIEW3
 70
     0
 40
148.5
 10
116.6562170706006
 20
74.25
 41
233.3124341412013
 11
0.0
 21
0.0
 31
1.0
 12
0.0
 22
0.0
 32
0.0
 42
50.0
 43
0.0
 44
0.0
 50
0.0
 71
     0
281
     0
 72
     0
 73
     0
  0
VIEW
  5
FA5
330
6
100
AcDbSymbolTableRecord
100
AcDbViewTableRecord
  2
AM_VIEW4
 70
     0
 40
148.5
 10
303.3437829293994
 20
74.25
 41
233.3124341412013
 11
0.0
 21
0.0
 31
1.0
 12
0.0
 22
0.0
 32
0.0
 42
50.0
 43
0.0
 44
0.0
 50
0.0
 71
     0
281
     0
 72
     0
 73
     0
  0
VIEW
  5
FA6
330
6
100
AcDbSymbolTableRecord
100
AcDbViewTableRecord
  2
AM_VIEW5
 70
     0
 40
148.5
 10
210.0
 20
148.5
 41
233.3124341412013
 11
0.0
 21
0.0
 31
1.0
 12
0.0
 22
0.0
 32
0.0
 42
50.0
 43
0.0
 44
0.0
 50
0.0
 71
     0
281
     0
 72
     0
 73
     0
  0
VIEW
  5
FA7
330
6
100
AcDbSymbolTableRecord
100
AcDbViewTableRecord
  2
AM_VIEW6
 70
     0
 40
296.99703
 10
210.0
 20
148.5
 41
466.6202020337196
 11
0.0
 21
0.0
 31
1.0
 12
0.0
 22
0.0
 32
0.0
 42
50.0
 43
0.0
 44
0.0
 50
0.0
 71
     0
281
     0
 72
     0
 73
     0
  0
ENDTAB
  0
TABLE
  2
UCS
  5
7
330
0
100
AcDbSymbolTable
 70
     0
  0
ENDTAB
  0
TABLE
  2
APPID
  5
9
330
0
100
AcDbSymbolTable
 70
    41
  0
APPID
  5
11
330
9
100
AcDbSymbolTableRecord
100
AcDbRegAppTableRecord
  2
ACAD
 70
     0
  0
APPID
  5
CD
330
9
100
AcDbSymbolTableRecord
100
AcDbRegAppTableRecord
  2
AD_DRAW
 70
     0
  0
APPID
  5
E7
330
9
100
AcDbSymbolTableRecord
100
AcDbRegAppTableRecord
  2
DESIGNERASSEMBLIES
 70
     0
  0
APPID
  5
EB
330
9
100
AcDbSymbolTableRecord
100
AcDbRegAppTableRecord
  2
MCAD_NO_VIS
 70
     0
  0
APPID
  5
122
330
9
100
AcDbSymbolTableRecord
100
AcDbRegAppTableRecord
  2
ASURF_PCURVE_APPNAME
 70
     0
  0
APPID
  5
17F
330
9
100
AcDbSymbolTableRecord
100
AcDbRegAppTableRecord
  2
ACAD_TEMP_GRAPHIC
 70
     0
  0
APPID
  5
189
330
9
100
AcDbSymbolTableRecord
100
AcDbRegAppTableRecord
  2
ACATTRIBSERVICES
 70
     0
  0
APPID
  5
1C4
330
9
100
AcDbSymbolTableRecord
100
AcDbRegAppTableRecord
  2
ACADM_DIM_EDIT
 70
     0
  0
APPID
  5
1D5
330
9
100
AcDbSymbolTableRecord
100
AcDbRegAppTableRecord
  2
GENIUS_GENDIM_13
 70
     0
  0
APPID
  5
1D6
330
9
100
AcDbSymbolTableRecord
100
AcDbRegAppTableRecord
  2
GENIUS_GENDTOL_13
 70
     0
  0
APPID
  5
1D7
330
9
100
AcDbSymbolTableRecord
100
AcDbRegAppTableRecord
  2
GENIUS_GE3DTOL_13
 70
     0
  0
APPID
  5
2E9
330
9
100
AcDbSymbolTableRecord
100
AcDbRegAppTableRecord
  2
AMG_3D2D_5.0
 70
     0
  0
APPID
  5
3C0
330
9
100
AcDbSymbolTableRecord
100
AcDbRegAppTableRecord
  2
AMDT_DM_ADJ
 70
     0
  0
APPID
  5
82F
330
9
100
AcDbSymbolTableRecord
100
AcDbRegAppTableRecord
  2
ACAD_PSEXT
 70
     0
  0
APPID
  5
84A
330
9
100
AcDbSymbolTableRecord
100
AcDbRegAppTableRecord
  2
DCO15
 70
     0
  0
APPID
  5
892
330
9
100
AcDbSymbolTableRecord
100
AcDbRegAppTableRecord
  2
ACAD_DSTYLE_DIMTEXT_FILL
 70
     0
  0
APPID
  5
A74
330
9
100
AcDbSymbolTableRecord
100
AcDbRegAppTableRecord
  2
ACAD_MLEADERVER
 70
     0
  0
APPID
  5
AB1
330
9
100
AcDbSymbolTableRecord
100
AcDbRegAppTableRecord
  2
AcAecLayerStandard
 70
     0
  0
APPID
  5
CE6
330
9
100
AcDbSymbolTableRecord
100
AcDbRegAppTableRecord
  2
ACAD_NAV_VCDISPLAY
 70
     0
  0
APPID
  5
D0F
330
9
100
AcDbSymbolTableRecord
100
AcDbRegAppTableRecord
  2
ACAD_DSTYLE_DIMARC_LENGTH_SYMBOL
 70
     0
  0
APPID
  5
D10
330
9
100
AcDbSymbolTableRecord
100
AcDbRegAppTableRecord
  2
ACAD_DSTYLE_DIMJOGGED_JOGANGLE_SYMBOL
 70
     0
  0
APPID
  5
D11
330
9
100
AcDbSymbolTableRecord
100
AcDbRegAppTableRecord
  2
ACAD_EXEMPT_FROM_CAD_STANDARDS
 70
     0
  0
APPID
  5
D91
330
9
100
AcDbSymbolTableRecord
100
AcDbRegAppTableRecord
  2
GENIUS_GENTRA_14
 70
     0
  0
APPID
  5
D92
330
9
100
AcDbSymbolTableRecord
100
AcDbRegAppTableRecord
  2
ACAD_DSTYLE_DIMBREAK
 70
     0
  0
APPID
  5
D93
330
9
100
AcDbSymbolTableRecord
100
AcDbRegAppTableRecord
  2
ACAD_DSTYLE_DIMJAG
 70
     0
  0
APPID
  5
D94
330
9
100
AcDbSymbolTableRecord
100
AcDbRegAppTableRecord
  2
ACAD_DSTYLE_DIMTALN
 70
     0
  0
APPID
  5
F9C
330
9
100
AcDbSymbolTableRecord
100
AcDbRegAppTableRecord
  2
GENIUS_GENOBJ-N-TIT_13
 70
     0
  0
APPID
  5
F9D
330
9
100
AcDbSymbolTableRecord
100
AcDbRegAppTableRecord
  2
GENIUS_GENOLIS_13
 70
     0
  0
APPID
  5
F9E
330
9
100
AcDbSymbolTableRecord
100
AcDbRegAppTableRecord
  2
GENIUS_GENODEF_13
 70
     0
  0
APPID
  5
F9F
330
9
100
AcDbSymbolTableRecord
100
AcDbRegAppTableRecord
  2
GENIUS_GENOENT_13
 70
     0
  0
APPID
  5
FA0
330
9
100
AcDbSymbolTableRecord
100
AcDbRegAppTableRecord
  2
GENIUS_GENTITLE_13
 70
     0
  0
APPID
  5
FA1
330
9
100
AcDbSymbolTableRecord
100
AcDbRegAppTableRecord
  2
GENIUS_GENOREF_13
 70
     0
  0
APPID
  5
FA8
330
9
100
AcDbSymbolTableRecord
100
AcDbRegAppTableRecord
  2
GENIUS_GENSCREG_15
 70
     0
  0
APPID
  5
FA9
330
9
100
AcDbSymbolTableRecord
100
AcDbRegAppTableRecord
  2
GENIUS_GENOBJ-N-SDF_13
 70
     0
  0
APPID
  5
14AF
330
9
100
AcDbSymbolTableRecord
100
AcDbRegAppTableRecord
  2
ACAD_OBJECT_CHANGE_GUID
 70
     0
  0
APPID
  5
16D9
330
9
100
AcDbSymbolTableRecord
100
AcDbRegAppTableRecord
  2
ACAUTHENVIRON
 70
     0
  0
APPID
  5
18D6
330
9
100
AcDbSymbolTableRecord
100
AcDbRegAppTableRecord
  2
AcDbDynamicBlockTrueName
 70
     0
  0
APPID
  5
18D7
330
9
100
AcDbSymbolTableRecord
100
AcDbRegAppTableRecord
  2
AcDbDynamicBlockGUID
 70
     0
  0
APPID
  5
2A26
330
9
100
AcDbSymbolTableRecord
100
AcDbRegAppTableRecord
  2
PE_URL
 70
     0
  0
APPID
  5
3303
330
9
100
AcDbSymbolTableRecord
100
AcDbRegAppTableRecord
  2
ACAD_DSTYLE_DIMINSPECT
 70
     0
  0
APPID
  5
3304
330
9
100
AcDbSymbolTableRecord
100
AcDbRegAppTableRecord
  2
ACAD_DSTYLE_DIMRADIAL_EXTENSION
 70
     0
  0
ENDTAB
  0
TABLE
  2
DIMSTYLE
  5
A
330
0
100
AcDbSymbolTable
 70
    15
100
AcDbDimStyleTable
 71
     1
340
344
  0
DIMSTYLE
105
344
102
{ACAD_REACTORS
330
3348
102
}
330
A
100
AcDbSymbolTableRecord
100
AcDbDimStyleTableRecord
  2
AM_ISO
 70
     0
  4
"
 41
2.5
 42
1.0
 43
10.0
 44
1.0
 47
0.1
 48
0.1
 73
     0
 74
     0
 77
     1
 78
     8
 79
     2
140
3.5
141
0.0
143
0.0393701
146
0.71
147
1.5
171
     3
172
     1
176
   256
177
   256
178
     2
271
     2
272
     2
274
     3
283
     0
284
     8
340
10
371
    -1
372
    -1
  0
DIMSTYLE
105
345
102
{ACAD_REACTORS
330
32F9
330
32FC
102
}
330
A
100
AcDbSymbolTableRecord
100
AcDbDimStyleTableRecord
  2
AM_ISO$3
 70
     0
  4
"
 41
2.5
 42
1.0
 43
10.0
 44
1.0
 47
0.1
 48
0.1
 73
     0
 77
     1
 78
     8
 79
     2
140
3.5
141
0.0
143
0.0393701
146
0.71
147
1.5
176
   256
177
   256
178
     2
271
     2
272
     3
274
     4
283
     0
284
     8
288
     1
289
     0
340
10
371
    -1
372
    -1
  0
DIMSTYLE
105
346
330
A
100
AcDbSymbolTableRecord
100
AcDbDimStyleTableRecord
  2
AM_ISO$4
 70
     0
  4
"
 41
2.5
 42
1.0
 43
10.0
 44
1.0
 47
0.1
 48
0.1
 73
     0
 77
     1
 78
     8
 79
     2
140
3.5
141
0.0
143
0.0393701
146
0.71
147
1.5
176
   256
177
   256
178
     2
271
     2
272
     3
274
     4
283
     0
284
     8
288
     1
289
     0
340
10
371
    -1
372
    -1
  0
DIMSTYLE
105
347
330
A
100
AcDbSymbolTableRecord
100
AcDbDimStyleTableRecord
  2
AM_ISO$6
 70
     0
  4
"
 41
2.5
 42
1.0
 43
10.0
 44
1.0
 47
0.1
 48
0.1
 73
     0
 74
     0
 78
     8
 79
     2
140
3.5
141
0.0
143
0.0393701
146
0.71
147
1.5
172
     1
176
   256
177
   256
178
     2
271
     2
272
     3
274
     4
283
     0
284
     8
340
10
371
    -1
372
    -1
  0
DIMSTYLE
105
348
330
A
100
AcDbSymbolTableRecord
100
AcDbDimStyleTableRecord
  2
AM_ISO$7
 70
     0
  4
"
 41
2.5
 42
1.0
 43
10.0
 44
1.0
 47
0.1
 48
0.1
 73
     0
 74
     0
 77
     1
 78
     8
 79
     2
140
5.0
141
0.0
143
0.0393701
146
0.71
147
1.5
172
     1
176
   256
177
   256
178
     2
271
     2
272
     3
274
     4
283
     0
284
     8
340
10
371
    -1
372
    -1
  0
DIMSTYLE
105
349
330
A
100
AcDbSymbolTableRecord
100
AcDbDimStyleTableRecord
  2
AM_ISO$SF
 70
     0
  4
"
 41
2.5
 42
1.0
 43
10.0
 44
1.0
 47
0.1
 48
0.1
 73
     0
 74
     0
 75
     1
 76
     1
 77
     1
 78
     8
 79
     2
140
3.5
141
0.0
143
0.0393701
146
0.71
147
1.5
172
     1
176
   256
177
   256
178
     2
271
     2
272
     3
274
     4
283
     0
284
     8
340
10
371
    -1
372
    -1
  0
DIMSTYLE
105
34A
330
A
100
AcDbSymbolTableRecord
100
AcDbDimStyleTableRecord
  2
AM_ISO$SH
 70
     0
  4
"
 41
2.5
 42
1.0
 43
10.0
 44
1.0
 47
0.1
 48
0.1
 73
     0
 74
     0
 75
     1
 76
     1
 77
     1
 78
     8
 79
     2
140
3.5
141
0.0
143
0.0393701
144
2.0
146
0.71
147
1.5
172
     1
173
     1
176
   256
177
   256
178
     2
271
     2
272
     3
274
     4
283
     0
284
     8
340
10
343
2F4
371
    -1
372
    -1
  0
DIMSTYLE
105
D0D
330
A
100
AcDbSymbolTableRecord
100
AcDbDimStyleTableRecord
  2
STANDARD
 70
     0
 41
3.5
 42
2.0
 43
10.0
 44
1.0
 46
2.0
 73
     0
 74
     0
 77
     1
 78
     8
140
3.5
141
0.0
143
25.39999999999999
145
1.0
147
1.0
172
     1
175
     1
176
   256
177
   256
178
     3
271
     2
272
     2
284
     8
340
D0A
  0
DIMSTYLE
105
D0E
102
{ACAD_REACTORS
330
32F6
102
}
330
A
100
AcDbSymbolTableRecord
100
AcDbDimStyleTableRecord
  2
AM_ISO$0
 70
     0
  4
"
 41
2.5
 42
1.0
 43
10.0
 44
1.0
 47
0.1
 48
0.1
 73
     0
 74
     0
 77
     1
 78
     8
 79
     2
140
3.5
141
0.0
143
0.0393701
146
0.71
147
1.5
172
     1
176
   256
177
   256
178
     2
271
     2
272
     3
274
     4
283
     0
284
     8
340
10
371
    -1
372
    -1
  0
ENDTAB
  0
TABLE
  2
BLOCK_RECORD
  5
1
330
0
100
AcDbSymbolTable
 70
    12
  0
BLOCK_RECORD
  5
1A
102
{ACAD_XDICTIONARY
360
12A
102
}
330
1
100
AcDbSymbolTableRecord
100
AcDbBlockTableRecord
  2
*MODEL_SPACE
340
169
 70
     0
280
     1
281
     0
  0
BLOCK_RECORD
  5
2CA3
330
1
100
AcDbSymbolTableRecord
100
AcDbBlockTableRecord
  2
*Paper_Space
340
2CA4
 70
     0
280
     1
281
     0
  0
BLOCK_RECORD
  5
2F4
330
1
100
AcDbSymbolTableRecord
100
AcDbBlockTableRecord
  2
GENAXEH
340
0
 70
     0
280
     1
281
     0
  0
BLOCK_RECORD
  5
D74
330
1
100
AcDbSymbolTableRecord
100
AcDbBlockTableRecord
  2
_ACMFILLED15
340
0
310
2800000020000000200000000100080000000000000400000000000000000000000000000000000000000000000080000080000000808000800000008000800080800000C0C0C000C0DCC000F0CAA6000020400000206000002080000020A0000020C0000020E00000400000004020000040400000406000004080000040A0
310
000040C0000040E00000600000006020000060400000606000006080000060A0000060C0000060E00000800000008020000080400000806000008080000080A0000080C0000080E00000A0000000A0200000A0400000A0600000A0800000A0A00000A0C00000A0E00000C0000000C0200000C0400000C0600000C0800000C0
310
A00000C0C00000C0E00000E0000000E0200000E0400000E0600000E0800000E0A00000E0C00000E0E00040000000400020004000400040006000400080004000A0004000C0004000E00040200000402020004020400040206000402080004020A0004020C0004020E000404000004040200040404000404060004040800040
310
40A0004040C0004040E00040600000406020004060400040606000406080004060A0004060C0004060E00040800000408020004080400040806000408080004080A0004080C0004080E00040A0000040A0200040A0400040A0600040A0800040A0A00040A0C00040A0E00040C0000040C0200040C0400040C0600040C08000
310
40C0A00040C0C00040C0E00040E0000040E0200040E0400040E0600040E0800040E0A00040E0C00040E0E00080000000800020008000400080006000800080008000A0008000C0008000E00080200000802020008020400080206000802080008020A0008020C0008020E00080400000804020008040400080406000804080
310
008040A0008040C0008040E00080600000806020008060400080606000806080008060A0008060C0008060E00080800000808020008080400080806000808080008080A0008080C0008080E00080A0000080A0200080A0400080A0600080A0800080A0A00080A0C00080A0E00080C0000080C0200080C0400080C0600080C0
310
800080C0A00080C0C00080C0E00080E0000080E0200080E0400080E0600080E0800080E0A00080E0C00080E0E000C0000000C0002000C0004000C0006000C0008000C000A000C000C000C000E000C0200000C0202000C0204000C0206000C0208000C020A000C020C000C020E000C0400000C0402000C0404000C0406000C0
310
408000C040A000C040C000C040E000C0600000C0602000C0604000C0606000C0608000C060A000C060C000C060E000C0800000C0802000C0804000C0806000C0808000C080A000C080C000C080E000C0A00000C0A02000C0A04000C0A06000C0A08000C0A0A000C0A0C000C0A0E000C0C00000C0C02000C0C04000C0C06000
310
C0C08000C0C0A000F0FBFF00A4A0A000808080000000FF0000FF000000FFFF00FF000000FF00FF00FFFF0000FFFFFF0000000000000000000000000000000000000000000000000000000000000000000000000000000000000000000000000000000000000000000000000000000000000000000000000000000000000000
310
00000000000000000000000000000000000000000000000000000000000000000000000000000000000000000000000000000000000000000000000000000000000000000000000000000000000000000000000000000000000000000000000000000000000000000000000000000000000000000000000000000000000000
310
00000000000000000000000000000000000000000000000000000000000000000000000000000000000000000000000000000000000000000000000000000000000000000000000000000000000000000000000000000000000000000000000000000000000000000000000000000000000000000000000000000000000000
310
00000000000000000000000000000000000000000000000000000000000000000000000000000000000000000000000000000000FFFFFFFF00000000000000000000000000000000000000000000000000000000FFFFFFFFFFFFFFFFFFFFFF000000000000000000000000000000000000000000FFFFFFFFFFFFFFFFFFFFFF
310
FFFFFFFFFFFFFFFF00000000000000000000000000FFFFFFFFFFFFFFFFFFFFFFFFFFFFFFFFFFFFFFFFFFFFFFFFFFFF000000000000FFFFFFFFFFFFFFFFFFFFFFFFFFFFFFFFFFFFFFFFFFFFFFFFFFFFFFFFFFFF0000FFFFFFFFFFFFFFFFFFFFFFFFFFFFFFFFFFFFFFFFFFFFFFFFFF00000000000000FFFFFFFFFFFFFFFFFFFF
310
FFFFFFFFFF0000000000000000000000000000000000FFFFFFFFFF00000000000000000000000000000000000000000000000000000000000000000000000000000000000000000000000000000000000000000000000000000000000000000000000000000000000000000000000000000000000000000000000000000000
310
00000000000000000000000000000000000000000000000000000000000000000000000000000000000000000000000000000000000000000000000000000000000000000000000000000000000000000000000000000000000000000000000000000000000000000000000000000000000000000000000000000000000000
310
00000000000000000000000000000000000000000000000000000000000000000000000000000000000000000000000000000000000000000000000000000000000000000000000000000000000000000000000000000000000000000000000000000000000000000000000000000000000000000000000000000000000000
310
0000000000000000000000000000000000000000000000000000000000000000000000000000000000000000000000000000000000000000
 70
     0
280
     1
281
     0
  0
BLOCK_RECORD
  5
D78
330
1
100
AcDbSymbolTableRecord
100
AcDbBlockTableRecord
  2
_ACMFILLED30
340
0
 70
     0
280
     1
281
     0
  0
BLOCK_RECORD
  5
3165
102
{ACAD_XDICTIONARY
360
34FE
102
}
330
1
100
AcDbSymbolTableRecord
100
AcDbBlockTableRecord
  2
H3135UGWOC
340
0
310
2800000020000000200000000100080000000000000400000000000000000000000000000000000000000000000080000080000000808000800000008000800080800000C0C0C000C0DCC000F0CAA6000020400000206000002080000020A0000020C0000020E00000400000004020000040400000406000004080000040A0
310
000040C0000040E00000600000006020000060400000606000006080000060A0000060C0000060E00000800000008020000080400000806000008080000080A0000080C0000080E00000A0000000A0200000A0400000A0600000A0800000A0A00000A0C00000A0E00000C0000000C0200000C0400000C0600000C0800000C0
310
A00000C0C00000C0E00000E0000000E0200000E0400000E0600000E0800000E0A00000E0C00000E0E00040000000400020004000400040006000400080004000A0004000C0004000E00040200000402020004020400040206000402080004020A0004020C0004020E000404000004040200040404000404060004040800040
310
40A0004040C0004040E00040600000406020004060400040606000406080004060A0004060C0004060E00040800000408020004080400040806000408080004080A0004080C0004080E00040A0000040A0200040A0400040A0600040A0800040A0A00040A0C00040A0E00040C0000040C0200040C0400040C0600040C08000
310
40C0A00040C0C00040C0E00040E0000040E0200040E0400040E0600040E0800040E0A00040E0C00040E0E00080000000800020008000400080006000800080008000A0008000C0008000E00080200000802020008020400080206000802080008020A0008020C0008020E00080400000804020008040400080406000804080
310
008040A0008040C0008040E00080600000806020008060400080606000806080008060A0008060C0008060E00080800000808020008080400080806000808080008080A0008080C0008080E00080A0000080A0200080A0400080A0600080A0800080A0A00080A0C00080A0E00080C0000080C0200080C0400080C0600080C0
310
800080C0A00080C0C00080C0E00080E0000080E0200080E0400080E0600080E0800080E0A00080E0C00080E0E000C0000000C0002000C0004000C0006000C0008000C000A000C000C000C000E000C0200000C0202000C0204000C0206000C0208000C020A000C020C000C020E000C0400000C0402000C0404000C0406000C0
310
408000C040A000C040C000C040E000C0600000C0602000C0604000C0606000C0608000C060A000C060C000C060E000C0800000C0802000C0804000C0806000C0808000C080A000C080C000C080E000C0A00000C0A02000C0A04000C0A06000C0A08000C0A0A000C0A0C000C0A0E000C0C00000C0C02000C0C04000C0C06000
310
C0C08000C0C0A000F0FBFF00A4A0A000808080000000FF0000FF000000FFFF00FF000000FF00FF00FFFF0000FFFFFF004949494949494949494949494949494949494949494949494949494949494949494949FA494949494949494949494949494949494949494949494949FA494949494949FAFAFAFAFAFAFAFAFAFAFBFB
310
FBFBFBFBFAFAFAFAFAFAFAFAFAFA494949494949FA494949494949494949494949494949494949494949494949FA494949494949FA49494949494949494949FFFFFFFF49494949494949494949FA494949494949FA494949494949FFFFFFFF49494949FFFFFFFF494949494949FA494949494949FA4949494949FF49494949
310
4949494949494949FF4949494949FA494949494949FA49494949FFFFFFFF4949FFFFFFFF4949FFFF49FF49494949FA494949494949FA494949FF49FFFFFF4949FF4949FF4949FFFFFF49FF494949FA494949494949FA4949FF4949FFFFFF4949FFFFFFFF4949FFFFFF4949FF4949FA494949494949FA49FFFF49FFFFFFFFFF
310
FF49494949FFFFFFFFFFFF49FFFF49FA494949494949FA49FFFFFFFFFFFFFFFFFFFFFFFFFFFFFFFFFFFFFFFFFFFF49FA494949494949FA49FF49FFFFFFFFFFFFFFFFFFFFFFFFFFFFFFFFFFFF4949FFFA494949494949FAFF4949FFFFFF4949FFFFFFFFFFFFFFFF4949FFFFFF4949FFFA494949494949FAFF49FFFFFFFF4949
310
FFFFFF4949FFFFFF4949FFFFFFFF49FFFA494949494949FAFFFFFFFFFFFFFFFFFFFFFF4949FFFFFFFFFFFFFFFFFFFFFFFA494949494949FAFFFFFFFFFFFFFFFFFFFFFFFFFFFFFFFFFFFFFFFFFFFFFF49FF494949494949FF49FFFF49FFFFFFFFFFFF49FFFF49FFFFFFFFFFFF49FFFF49FF49494949494949FF4949494949FF
310
FFFFFFFFFFFFFFFFFFFFFF494949494949FF49494949494949FF4949FFFFFFFFFFFFFFFFFFFFFFFFFFFFFFFFFFFF4949FF494949494949494949FF49FF49FF49FFFFFFFFFFFFFFFFFFFF49FF49FF4949FF494949494949494949FF49FFFF49FF49FFFFFF4949FFFFFF49FF49FFFF49FF4949494949494949494949FF49FFFF
310
FF49FFFFFF4949FFFFFF49FFFFFF4949FF4949494949494949494949FF4949494949FFFFFF4949FFFFFF4949494949FF49494949494949494949494949FF4949FFFFFFFFFFFFFFFFFFFFFFFF494949FF49494949494949494949494949FF4949FFFFFFFFFFFFFFFFFFFFFFFF4949FF494949494949494949494949494949FF
310
FFFFFFFF49FFFFFFFF49FFFF49FFFF494949494949494949494949494949494949FFFF494949FFFF4949FAFFFF49494949494949494949494949494949494949494949FFFFFFFFFFFFFFFFFAFBFBFBFBFB4949494949494949494949494949494949494949494949494949FBFBFBFBFBFB4949494949494949494949494949
310
49494949494949494949494949FBFBFBFBFB4949494949494949494949494949494949494949494949494949494949494949494949494949
102
{BLKREFS
331
330C
102
}
 70
     4
280
     1
281
     0
1001
AcDbDynamicBlockGUID
1000
{ADA2E0A4-45BC-4415-86A2-6A4244E252D2}
  0
ENDTAB
  0
ENDSEC
  0
SECTION
  2
BLOCKS
  0
BLOCK
  5
1B
330
1A
100
AcDbEntity
  8
0
100
AcDbBlockBegin
  2
*MODEL_SPACE
 70
     0
 10
0.0
 20
0.0
 30
0.0
  3
*MODEL_SPACE
  1

  0
ENDBLK
  5
1C
330
1A
100
AcDbEntity
  8
0
100
AcDbBlockEnd
  0
BLOCK
  5
2CA5
330
2CA3
100
AcDbEntity
 67
     1
  8
0
100
AcDbBlockBegin
  2
*Paper_Space
 70
     0
 10
0.0
 20
0.0
 30
0.0
  3
*Paper_Space
  1

  0
ENDBLK
  5
2CA6
330
2CA3
100
AcDbEntity
 67
     1
  8
0
100
AcDbBlockEnd
  0
BLOCK
  5
C49
330
2F4
100
AcDbEntity
  8
0
100
AcDbBlockBegin
  2
GENAXEH
 70
     0
 10
0.0
 20
0.0
 30
0.0
  3
GENAXEH
  1

  0
LINE
  5
C4A
330
2F4
100
AcDbEntity
  8
0
100
AcDbLine
 10
-1.0
 20
0.0
 30
0.0
 11
1.0
 21
0.0
 31
0.0
  0
ENDBLK
  5
C4B
330
2F4
100
AcDbEntity
  8
0
100
AcDbBlockEnd
  0
BLOCK
  5
D75
330
D74
100
AcDbEntity
  8
0
100
AcDbBlockBegin
  2
_ACMFILLED15
 70
     0
 10
0.0
 20
0.0
 30
0.0
  3
_ACMFILLED15
  1

  0
TRACE
  5
D76
330
D74
100
AcDbEntity
  8
AM_0
 62
     0
100
AcDbTrace
 10
-1.0
 20
-0.131652497
 30
0.0
 11
-1.0
 21
0.131652497
 31
0.0
 12
0.0
 22
0.0
 32
0.0
 13
0.0
 23
0.0
 33
0.0
  0
ENDBLK
  5
D77
330
D74
100
AcDbEntity
  8
0
100
AcDbBlockEnd
  0
BLOCK
  5
D79
330
D78
100
AcDbEntity
  8
0
100
AcDbBlockBegin
  2
_ACMFILLED30
 70
     0
 10
0.0
 20
0.0
 30
0.0
  3
_ACMFILLED30
  1

  0
TRACE
  5
D7A
330
D78
100
AcDbEntity
  8
AM_0
 62
     0
100
AcDbTrace
 10
-1.0
 20
-0.26794919
 30
0.0
 11
-1.0
 21
0.26794919
 31
0.0
 12
0.0
 22
0.0
 32
0.0
 13
0.0
 23
0.0
 33
0.0
  0
ENDBLK
  5
D7B
330
D78
100
AcDbEntity
  8
0
100
AcDbBlockEnd
  0
BLOCK
  5
3166
330
3165
100
AcDbEntity
  8
0
100
AcDbBlockBegin
  2
H3135UGWOC
 70
     0
 10
0.0
 20
0.0
 30
0.0
  3
H3135UGWOC
  1

  0
ELLIPSE
  5
3366
330
3165
100
AcDbEntity
  8
Visible Edges(ISO)
100
AcDbEllipse
 10
-43.30127018922225
 20
25.00000000000182
 30
0.0
 11
-5.749999999999971
 21
-9.959292143521061
 31
0.0
210
0.0
220
0.0
230
1.0
 40
0.5652173913043469
 41
0.0
 42
6.283185307179584
  0
ARC
  5
3367
330
3165
100
AcDbEntity
  8
Visible Edges(ISO)
100
AcDbCircle
 10
-62.49948770276707
 20
-32.61999443426657
 30
0.0
 40
1.999999999999988
100
AcDbArc
 50
207.5611453090535
 51
299.9999999999959
  0
ARC
  5
3368
330
3165
100
AcDbEntity
  8
Visible Edges(ISO)
100
AcDbCircle
 10
-52.65864465354525
 20
-26.93838105074542
 30
0.0
 40
2.000000000000015
100
AcDbArc
 50
299.9999999999959
 51
23.24367296941586
  0
ARC
  5
3369
330
3165
100
AcDbEntity
  8
Visible Edges(ISO)
100
AcDbCircle
 10
-8.798070101904899
 20
-1.615466526544196
 30
0.0
 40
1.999999999999999
100
AcDbArc
 50
216.7563270305926
 51
299.9999999999959
  0
ARC
  5
336A
330
3165
100
AcDbEntity
  8
Visible Edges(ISO)
100
AcDbCircle
 10
-3.000000000000283
 20
1.732050807570658
 30
0.0
 40
2.0
100
AcDbArc
 50
299.9999999999959
 51
0.0
  0
ARC
  5
336B
330
3165
100
AcDbEntity
  8
Visible Edges(ISO)
100
AcDbCircle
 10
-3.000000000000283
 20
8.42708547580082
 30
0.0
 40
1.999999999999998
100
AcDbArc
 50
0.0
 51
83.24367296941122
  0
ARC
  5
336C
330
3165
100
AcDbEntity
  8
Visible Edges(ISO)
100
AcDbCircle
 10
-3.000000000000254
 20
59.07291452420304
 30
0.0
 40
1.999999999999984
100
AcDbArc
 50
276.7563270305888
 51
0.0
  0
ARC
  5
336D
330
3165
100
AcDbEntity
  8
Visible Edges(ISO)
100
AcDbCircle
 10
-3.000000000000254
 20
70.43614129124534
 30
0.0
 40
1.999999999999995
100
AcDbArc
 50
0.0
 51
92.43885469095129
  0
LINE
  5
336E
330
3165
100
AcDbEntity
  8
Visible Edges(ISO)
100
AcDbLine
 10
-61.49948770276707
 20
-34.35204524183542
 30
0.0
 11
-51.65864465354522
 21
-28.67043185831427
 31
0.0
  0
ARC
  5
336F
330
3165
100
AcDbEntity
  8
Visible Edges(ISO)
100
AcDbCircle
 10
-29.22835737772505
 20
-16.87499999999795
 30
0.0
 40
23.5
100
AcDbArc
 50
36.75632703059263
 51
203.2436729694159
  0
LINE
  5
3370
330
3165
100
AcDbEntity
  8
Visible Edges(ISO)
100
AcDbLine
 10
-7.798070101904897
 20
-3.347517334113035
 30
0.0
 11
-2.000000000000284
 21
0.0000000000020464
 31
0.0
  0
LINE
  5
3371
330
3165
100
AcDbEntity
  8
Visible Edges(ISO)
100
AcDbLine
 10
-1.000000000000283
 20
1.732050807570658
 30
0.0
 11
-1.000000000000283
 21
8.42708547580082
 31
0.0
  0
ARC
  5
3372
330
3165
100
AcDbEntity
  8
Visible Edges(ISO)
100
AcDbCircle
 10
-0.0000000000002842
 20
33.75000000000206
 30
0.0
 40
23.5
100
AcDbArc
 50
96.75632703058877
 51
263.2436729694112
  0
LINE
  5
3373
330
3165
100
AcDbEntity
  8
Visible Edges(ISO)
100
AcDbLine
 10
-1.000000000000283
 20
59.07291452420327
 30
0.0
 11
-1.000000000000283
 21
70.43614129124534
 31
0.0
  0
ARC
  5
3374
330
3165
100
AcDbEntity
  8
Visible Edges(ISO)
100
AcDbCircle
 10
-0.0000000000002842
 20
0.0000000000020464
 30
0.0
 40
72.50000000000001
100
AcDbArc
 50
92.43885469094967
 51
207.5611453090535
  0
ELLIPSE
  5
3375
330
3165
100
AcDbEntity
  8
Visible Edges(ISO)
100
AcDbEllipse
 10
43.30127018922192
 20
25.00000000000023
 30
0.0
 11
-5.750000000000007
 21
9.959292143521036
 31
0.0
210
0.0
220
0.0
230
0.9999999999999998
 40
0.5652173913043474
 41
0.0
 42
6.283185307179584
  0
ARC
  5
3376
330
3165
100
AcDbEntity
  8
Visible Edges(ISO)
100
AcDbCircle
 10
3.000000000000055
 20
70.43614129124353
 30
0.0
 40
1.999999999999988
100
AcDbArc
 50
87.56114530905033
 51
180.0
  0
ARC
  5
3377
330
3165
100
AcDbEntity
  8
Visible Edges(ISO)
100
AcDbCircle
 10
3.000000000000113
 20
59.07291452420122
 30
0.0
 40
2.000000000000015
100
AcDbArc
 50
180.0
 51
263.2436729694112
  0
ARC
  5
3378
330
3165
100
AcDbEntity
  8
Visible Edges(ISO)
100
AcDbCircle
 10
3.0
 20
8.427085475799001
 30
0.0
 40
1.999999999999999
100
AcDbArc
 50
96.75632703058877
 51
180.0
  0
ARC
  5
3379
330
3165
100
AcDbEntity
  8
Visible Edges(ISO)
100
AcDbCircle
 10
3.0
 20
1.732050807568839
 30
0.0
 40
2.0
100
AcDbArc
 50
180.0
 51
240.0000000000041
  0
ARC
  5
337A
330
3165
100
AcDbEntity
  8
Visible Edges(ISO)
100
AcDbCircle
 10
8.798070101904611
 20
-1.615466526546014
 30
0.0
 40
1.999999999999999
100
AcDbArc
 50
240.0000000000041
 51
323.2436729694074
  0
ARC
  5
337B
330
3165
100
AcDbEntity
  8
Visible Edges(ISO)
100
AcDbCircle
 10
52.6586446535449
 20
-26.93838105074723
 30
0.0
 40
1.999999999999984
100
AcDbArc
 50
156.7563270305841
 51
240.0000000000041
  0
ARC
  5
337C
330
3165
100
AcDbEntity
  8
Visible Edges(ISO)
100
AcDbCircle
 10
62.49948770276674
 20
-32.6199944342684
 30
0.0
 40
1.999999999999993
100
AcDbArc
 50
240.0000000000041
 51
332.4388546909465
  0
LINE
  5
337D
330
3165
100
AcDbEntity
  8
Visible Edges(ISO)
100
AcDbLine
 10
1.000000000000113
 20
70.43614129124353
 30
0.0
 11
1.000000000000113
 21
59.07291452420122
 31
0.0
  0
ARC
  5
337E
330
3165
100
AcDbEntity
  8
Visible Edges(ISO)
100
AcDbCircle
 10
0.0000000000000284
 20
33.75
 30
0.0
 40
23.5
100
AcDbArc
 50
276.7563270305888
 51
83.24367296941122
  0
LINE
  5
337F
330
3165
100
AcDbEntity
  8
Visible Edges(ISO)
100
AcDbLine
 10
1.0
 20
8.427085475799001
 30
0.0
 11
0.9999999999999715
 21
1.732050807568839
 31
0.0
  0
LINE
  5
3380
330
3165
100
AcDbEntity
  8
Visible Edges(ISO)
100
AcDbLine
 10
2.0
 20
0.0
 30
0.0
 11
7.798070101904643
 21
-3.347517334115082
 31
0.0
  0
ARC
  5
3381
330
3165
100
AcDbEntity
  8
Visible Edges(ISO)
100
AcDbCircle
 10
29.22835737772473
 20
-16.875
 30
0.0
 40
23.5
100
AcDbArc
 50
336.7563270305841
 51
143.2436729694074
  0
LINE
  5
3382
330
3165
100
AcDbEntity
  8
Visible Edges(ISO)
100
AcDbLine
 10
51.6586446535449
 20
-28.67043185831608
 30
0.0
 11
61.49948770276674
 21
-34.35204524183723
 31
0.0
  0
ARC
  5
3383
330
3165
100
AcDbEntity
  8
Visible Edges(ISO)
100
AcDbCircle
 10
0.0
 20
0.0
 30
0.0
 40
72.5
100
AcDbArc
 50
332.4388546909465
 51
87.56114530905033
  0
ELLIPSE
  5
3384
330
3165
100
AcDbEntity
  8
Visible Edges(ISO)
100
AcDbEllipse
 10
-0.0000000000017621
 20
-49.99999999999909
 30
0.0
 11
11.49999999999999
 21
-0.0000000000004022
 31
0.0
210
0.0
220
0.0
230
1.0
 40
0.5652173913043474
 41
0.0
 42
6.283185307179584
  0
ARC
  5
3385
330
3165
100
AcDbEntity
  8
Visible Edges(ISO)
100
AcDbCircle
 10
59.49948770276543
 20
-37.81614685697628
 30
0.0
 40
1.999999999999988
100
AcDbArc
 50
327.5611453090485
 51
59.99999999999055
  0
ARC
  5
3386
330
3165
100
AcDbEntity
  8
Visible Edges(ISO)
100
AcDbCircle
 10
49.65864465354375
 20
-32.1345334734549
 30
0.0
 40
2.000000000000015
100
AcDbArc
 50
60.00000000000413
 51
143.2436729694064
  0
ARC
  5
3387
330
3165
100
AcDbEntity
  8
Visible Edges(ISO)
100
AcDbCircle
 10
5.798070101904329
 20
-6.811618949252077
 30
0.0
 40
1.999999999999999
100
AcDbArc
 50
336.7563270305841
 51
59.99999999999197
  0
ARC
  5
3388
330
3165
100
AcDbEntity
  8
Visible Edges(ISO)
100
AcDbCircle
 10
-0.0000000000001705
 20
-3.464101615136995
 30
0.0
 40
2.0
100
AcDbArc
 50
60.00000000000413
 51
119.9999999999944
  0
ARC
  5
3389
330
3165
100
AcDbEntity
  8
Visible Edges(ISO)
100
AcDbCircle
 10
-5.798070101904926
 20
-6.811618949251624
 30
0.0
 40
1.999999999999998
100
AcDbArc
 50
119.9999999999944
 51
203.2436729694159
  0
ARC
  5
338A
330
3165
100
AcDbEntity
  8
Visible Edges(ISO)
100
AcDbCircle
 10
-49.65864465354622
 20
-32.13453347345104
 30
0.0
 40
1.999999999999984
100
AcDbArc
 50
36.75632703057829
 51
119.9999999999944
  0
ARC
  5
338B
330
3165
100
AcDbEntity
  8
Visible Edges(ISO)
100
AcDbCircle
 10
-59.49948770276828
 20
-37.81614685697196
 30
0.0
 40
1.999999999999995
100
AcDbArc
 50
119.9999999999944
 51
212.4388546909506
  0
LINE
  5
338C
330
3165
100
AcDbEntity
  8
Visible Edges(ISO)
100
AcDbLine
 10
60.49948770276543
 20
-36.08409604940766
 30
0.0
 11
50.65864465354382
 21
-30.40248266588605
 31
0.0
  0
ARC
  5
338D
330
3165
100
AcDbEntity
  8
Visible Edges(ISO)
100
AcDbCircle
 10
29.22835737772414
 20
-16.87500000000023
 30
0.0
 40
23.5
100
AcDbArc
 50
156.7563270305841
 51
323.2436729694064
  0
LINE
  5
338E
330
3165
100
AcDbEntity
  8
Visible Edges(ISO)
100
AcDbLine
 10
6.798070101904413
 20
-5.079568141683238
 30
0.0
 11
0.9999999999999149
 21
-1.732050807567929
 31
0.0
  0
LINE
  5
338F
330
3165
100
AcDbEntity
  8
Visible Edges(ISO)
100
AcDbLine
 10
-1.000000000000113
 20
-1.732050807567929
 30
0.0
 11
-6.798070101904869
 21
-5.079568141682783
 31
0.0
  0
ARC
  5
3390
330
3165
100
AcDbEntity
  8
Visible Edges(ISO)
100
AcDbCircle
 10
-29.22835737772548
 20
-16.87499999999795
 30
0.0
 40
23.5
100
AcDbArc
 50
216.7563270305926
 51
23.24367296941586
  0
LINE
  5
3391
330
3165
100
AcDbEntity
  8
Visible Edges(ISO)
100
AcDbLine
 10
-50.65864465354615
 20
-30.4024826658822
 30
0.0
 11
-60.49948770276818
 21
-36.08409604940289
 31
0.0
  0
ARC
  5
3392
330
3165
100
AcDbEntity
  8
Visible Edges(ISO)
100
AcDbCircle
 10
-0.0000000000000568
 20
0.0000000000009095
 30
0.0
 40
72.5
100
AcDbArc
 50
212.4388546909506
 51
327.5611453090494
  0
LINE
  5
3393
330
3165
100
AcDbEntity
  8
Visible Edges(ISO)
100
AcDbLine
 10
9.484687506092427
 20
-5.475986884821168
 30
0.0
 11
0.1500000000001478
 21
-0.086602540377271
 31
0.0
  0
ARC
  5
3394
330
3165
100
AcDbEntity
  8
Visible Edges(ISO)
100
AcDbCircle
 10
0.0000000000001137
 20
-0.3464101615124946
 30
0.0
 40
0.2999999999999997
100
AcDbArc
 50
60.00000000000413
 51
119.9999999999944
  0
LINE
  5
3395
330
3165
100
AcDbEntity
  8
Visible Edges(ISO)
100
AcDbLine
 10
-0.1499999999998351
 20
-0.086602540377271
 30
0.0
 11
-9.484687506092567
 21
-5.475986884820486
 31
0.0
  0
ARC
  5
3396
330
3165
100
AcDbEntity
  8
Visible Edges(ISO)
100
AcDbCircle
 10
-9.33468750609259
 20
-5.735794505955709
 30
0.0
 40
0.3000000000000011
100
AcDbArc
 50
119.9999999999944
 51
209.2460864090337
  0
ARC
  5
3397
330
3165
100
AcDbEntity
  8
Visible Edges(ISO)
100
AcDbCircle
 10
-29.22835737772528
 20
-16.87499999999772
 30
0.0
 40
22.5
100
AcDbArc
 50
210.7539135909587
 51
29.24608640903374
  0
ARC
  5
3398
330
3165
100
AcDbEntity
  8
Visible Edges(ISO)
100
AcDbCircle
 10
-48.82202724935804
 20
-28.53382073631042
 30
0.0
 40
0.2999999999999982
100
AcDbArc
 50
30.75391359095788
 51
119.999999999993
  0
LINE
  5
3399
330
3165
100
AcDbEntity
  8
Visible Edges(ISO)
100
AcDbLine
 10
-48.97202724935801
 20
-28.27401311517497
 30
0.0
 11
-58.19632720370012
 21
-33.59966517689985
 31
0.0
  0
ARC
  5
339A
330
3165
100
AcDbEntity
  8
Visible Edges(ISO)
100
AcDbCircle
 10
-0.0000000000784439
 20
-0.0000000000457021
 30
0.0
 40
67.49999999990858
100
AcDbArc
 50
210.2557855796042
 51
210.8488574161065
  0
ARC
  5
339B
330
3165
100
AcDbEntity
  8
Visible Edges(ISO)
100
AcDbCircle
 10
0.0000000004231993
 20
-0.0000000002487468
 30
0.0
 40
67.49999999950865
100
AcDbArc
 50
329.151142583879
 51
329.7442144203957
  0
ARC
  5
339C
330
3165
100
AcDbEntity
  8
Visible Edges(ISO)
100
AcDbCircle
 10
-58.04632720370014
 20
-33.85947279803509
 30
0.0
 40
0.3000000000000001
100
AcDbArc
 50
119.999999999993
 51
210.2557855795897
  0
ARC
  5
339D
330
3165
100
AcDbEntity
  8
Visible Edges(ISO)
100
AcDbCircle
 10
29.22835737772431
 20
-16.87499999999977
 30
0.0
 40
22.5
100
AcDbArc
 50
150.7539135909662
 51
329.2460864090267
  0
ARC
  5
339E
330
3165
100
AcDbEntity
  8
Visible Edges(ISO)
100
AcDbCircle
 10
9.334687506092391
 20
-5.73579450595639
 30
0.0
 40
0.3000000000000007
100
AcDbArc
 50
330.7539135909655
 51
59.99999999998916
  0
LINE
  5
339F
330
3165
100
AcDbEntity
  8
Visible Edges(ISO)
100
AcDbLine
 10
58.19632720369792
 20
-33.59966517690418
 30
0.0
 11
48.9720272493561
 21
-28.2740131151786
 31
0.0
  0
ARC
  5
33A0
330
3165
100
AcDbEntity
  8
Visible Edges(ISO)
100
AcDbCircle
 10
48.82202724935614
 20
-28.53382073631406
 30
0.0
 40
0.3000000000000039
100
AcDbArc
 50
60.00000000000413
 51
149.2460864090267
  0
ARC
  5
33A1
330
3165
100
AcDbEntity
  8
Visible Edges(ISO)
100
AcDbCircle
 10
58.04632720369792
 20
-33.85947279803942
 30
0.0
 40
0.2999999999999956
100
AcDbArc
 50
329.7442144203949
 51
59.99999999999055
  0
LINE
  5
33A2
330
3165
100
AcDbEntity
  8
Visible Edges(ISO)
100
AcDbLine
 10
-9.484687506092567
 20
-5.475986884820486
 30
0.0
 11
-0.1499999999998351
 21
-0.086602540377271
 31
0.0
  0
ARC
  5
33A3
330
3165
100
AcDbEntity
  8
Visible Edges(ISO)
100
AcDbCircle
 10
-0.2999999999998408
 20
0.1732050807579526
 30
0.0
 40
0.2999999999999997
100
AcDbArc
 50
299.9999999999945
 51
0.0
  0
LINE
  5
33A4
330
3165
100
AcDbEntity
  8
Visible Edges(ISO)
100
AcDbLine
 10
0.0000000000001705
 20
0.1732050807579526
 30
0.0
 11
0.0000000000005684
 21
10.95197376964506
 31
0.0
  0
ARC
  5
33A5
330
3165
100
AcDbEntity
  8
Visible Edges(ISO)
100
AcDbCircle
 10
-0.2999999999993861
 20
10.95197376964506
 30
0.0
 40
0.3000000000000011
100
AcDbArc
 50
0.0
 51
89.24608640903295
  0
ARC
  5
33A6
330
3165
100
AcDbEntity
  8
Visible Edges(ISO)
100
AcDbCircle
 10
0.0000000000015348
 20
33.75000000000114
 30
0.0
 40
22.5
100
AcDbArc
 50
90.75391359096377
 51
269.2460864090313
  0
ARC
  5
33A7
330
3165
100
AcDbEntity
  8
Visible Edges(ISO)
100
AcDbCircle
 10
-0.2999999999976239
 20
56.5480262303572
 30
0.0
 40
0.2999999999999983
100
AcDbArc
 50
270.7539135909638
 51
0.0
  0
LINE
  5
33A8
330
3165
100
AcDbEntity
  8
Visible Edges(ISO)
100
AcDbLine
 10
0.000000000002359
 20
56.5480262303572
 30
0.0
 11
0.0000000000027853
 21
67.19933035380768
 31
0.0
  0
ARC
  5
33A9
330
3165
100
AcDbEntity
  8
Visible Edges(ISO)
100
AcDbCircle
 10
-0.0000000000004832
 20
0.000000000026148
 30
0.0
 40
67.49999999997503
100
AcDbArc
 50
90.25578557959809
 51
90.84885741611271
  0
ARC
  5
33AA
330
3165
100
AcDbEntity
  8
Visible Edges(ISO)
100
AcDbCircle
 10
-0.0000000004850449
 20
-0.0000000002730758
 30
0.0
 40
67.49999999944262
100
AcDbArc
 50
209.1511425838806
 51
209.7442144203994
  0
ARC
  5
33AB
330
3165
100
AcDbEntity
  8
Visible Edges(ISO)
100
AcDbCircle
 10
-0.2999999999971976
 20
67.19933035380768
 30
0.0
 40
0.3
100
AcDbArc
 50
0.0
 51
90.25578557959647
  0
ARC
  5
33AC
330
3165
100
AcDbEntity
  8
Visible Edges(ISO)
100
AcDbCircle
 10
-29.22835737772528
 20
-16.87499999999772
 30
0.0
 40
22.5
100
AcDbArc
 50
30.75391359095873
 51
209.2460864090337
  0
ARC
  5
33AD
330
3165
100
AcDbEntity
  8
Visible Edges(ISO)
100
AcDbCircle
 10
-9.634687506092575
 20
-5.216179263685035
 30
0.0
 40
0.3000000000000007
100
AcDbArc
 50
210.7539135909579
 51
299.9999999999945
  0
LINE
  5
33AE
330
3165
100
AcDbEntity
  8
Visible Edges(ISO)
100
AcDbLine
 10
-58.19632720370018
 20
-33.59966517689985
 30
0.0
 11
-48.97202724935803
 21
-28.27401311517497
 31
0.0
  0
ARC
  5
33AF
330
3165
100
AcDbEntity
  8
Visible Edges(ISO)
100
AcDbCircle
 10
-49.122027249358
 20
-28.01420549403952
 30
0.0
 40
0.3000000000000039
100
AcDbArc
 50
299.9999999999945
 51
29.24608640903374
  0
ARC
  5
33B0
330
3165
100
AcDbEntity
  8
Visible Edges(ISO)
100
AcDbCircle
 10
-58.34632720370017
 20
-33.33985755576441
 30
0.0
 40
0.2999999999999956
100
AcDbArc
 50
209.7442144203848
 51
299.9999999999916
  0
LINE
  5
33B1
330
3165
100
AcDbEntity
  8
Visible Edges(ISO)
100
AcDbLine
 10
-0.0000000000005684
 20
10.95197376964393
 30
0.0
 11
-0.0000000000005684
 21
0.1732050807570431
 31
0.0
  0
ARC
  5
33B2
330
3165
100
AcDbEntity
  8
Visible Edges(ISO)
100
AcDbCircle
 10
0.2999999999994429
 20
0.1732050807570431
 30
0.0
 40
0.2999999999999997
100
AcDbArc
 50
180.0
 51
240.0000000000041
  0
LINE
  5
33B3
330
3165
100
AcDbEntity
  8
Visible Edges(ISO)
100
AcDbLine
 10
0.1499999999994372
 20
-0.0866025403784079
 30
0.0
 11
9.484687506091916
 21
-5.47598688482185
 31
0.0
  0
ARC
  5
33B4
330
3165
100
AcDbEntity
  8
Visible Edges(ISO)
100
AcDbCircle
 10
9.634687506091919
 20
-5.216179263686625
 30
0.0
 40
0.3000000000000011
100
AcDbArc
 50
240.0000000000041
 51
329.2460864090413
  0
ARC
  5
33B5
330
3165
100
AcDbEntity
  8
Visible Edges(ISO)
100
AcDbCircle
 10
29.22835737772422
 20
-16.875
 30
0.0
 40
22.5
100
AcDbArc
 50
330.7539135909662
 51
149.2460864090276
  0
ARC
  5
33B6
330
3165
100
AcDbEntity
  8
Visible Edges(ISO)
100
AcDbCircle
 10
49.12202724935653
 20
-28.0142054940427
 30
0.0
 40
0.2999999999999983
100
AcDbArc
 50
150.7539135909662
 51
240.0000000000055
  0
LINE
  5
33B7
330
3165
100
AcDbEntity
  8
Visible Edges(ISO)
100
AcDbLine
 10
48.97202724935652
 20
-28.27401311517792
 30
0.0
 11
58.19632720369842
 21
-33.59966517690305
 31
0.0
  0
ARC
  5
33B8
330
3165
100
AcDbEntity
  8
Visible Edges(ISO)
100
AcDbCircle
 10
0.0000000000224532
 20
-0.0000000000125056
 30
0.0
 40
67.49999999997386
100
AcDbArc
 50
330.2557855796006
 51
330.8488574161194
  0
ARC
  5
33B9
330
3165
100
AcDbEntity
  8
Visible Edges(ISO)
100
AcDbCircle
 10
0.0000000000000284
 20
0.0000000000984528
 30
0.0
 40
67.49999999990158
100
AcDbArc
 50
89.15114258388568
 51
89.74421442039867
  0
ARC
  5
33BA
330
3165
100
AcDbEntity
  8
Visible Edges(ISO)
100
AcDbCircle
 10
58.34632720369842
 20
-33.33985755576782
 30
0.0
 40
0.3000000000000001
100
AcDbArc
 50
240.0000000000041
 51
330.2557855796006
  0
ARC
  5
33BB
330
3165
100
AcDbEntity
  8
Visible Edges(ISO)
100
AcDbCircle
 10
-0.0000000000005684
 20
33.75
 30
0.0
 40
22.5
100
AcDbArc
 50
270.753913590967
 51
89.24608640903295
  0
ARC
  5
33BC
330
3165
100
AcDbEntity
  8
Visible Edges(ISO)
100
AcDbCircle
 10
0.2999999999994429
 20
10.95197376964393
 30
0.0
 40
0.3000000000000007
100
AcDbArc
 50
90.75391359096704
 51
180.0
  0
LINE
  5
33BD
330
3165
100
AcDbEntity
  8
Visible Edges(ISO)
100
AcDbLine
 10
-0.0000000000005684
 20
67.19933035380631
 30
0.0
 11
-0.0000000000005684
 21
56.54802623035607
 31
0.0
  0
ARC
  5
33BE
330
3165
100
AcDbEntity
  8
Visible Edges(ISO)
100
AcDbCircle
 10
0.2999999999994429
 20
56.54802623035607
 30
0.0
 40
0.3000000000000039
100
AcDbArc
 50
180.0
 51
269.246086409033
  0
ARC
  5
33BF
330
3165
100
AcDbEntity
  8
Visible Edges(ISO)
100
AcDbCircle
 10
0.2999999999994429
 20
67.19933035380631
 30
0.0
 40
0.2999999999999956
100
AcDbArc
 50
89.7442144203954
 51
180.0
  0
LINE
  5
33C0
330
3165
100
AcDbEntity
  8
Visible Edges(ISO)
100
AcDbLine
 10
10.69541373673772
 20
-6.174999999999045
 30
0.0
 11
9.742785792574805
 21
-5.62499999999909
 31
0.0
  0
ARC
  5
33C1
330
3165
100
AcDbEntity
  8
Visible Edges(ISO)
100
AcDbCircle
 10
29.22835737772431
 20
-16.87499999999977
 30
0.0
 40
21.4
100
AcDbArc
 50
149.9999999999994
 51
329.9999999999995
  0
LINE
  5
33C2
330
3165
100
AcDbEntity
  8
Visible Edges(ISO)
100
AcDbLine
 10
48.71392896287371
 20
-28.12500000000068
 30
0.0
 11
47.76130101871092
 21
-27.5750000000005
 31
0.0
  0
ARC
  5
33C3
330
3165
100
AcDbEntity
  8
Visible Edges(ISO)
100
AcDbCircle
 10
29.22835737768654
 20
-16.87499999997863
 30
0.0
 40
22.4999999999566
100
AcDbArc
 50
149.9999999999994
 51
150.7539135909662
  0
ARC
  5
33C4
330
3165
100
AcDbEntity
  8
Visible Edges(ISO)
100
AcDbCircle
 10
29.22835737775941
 20
-16.87500000002069
 30
0.0
 40
22.49999999995918
100
AcDbArc
 50
329.2460864090267
 51
329.9999999999995
  0
LINE
  5
33C5
330
3165
100
AcDbEntity
  8
Visible Edges(ISO)
100
AcDbLine
 10
-9.742785792574975
 20
-5.624999999998408
 30
0.0
 11
-10.69541373673786
 21
-6.174999999998362
 31
0.0
  0
ARC
  5
33C6
330
3165
100
AcDbEntity
  8
Visible Edges(ISO)
100
AcDbCircle
 10
-29.22835737772528
 20
-16.87499999999772
 30
0.0
 40
21.40000000000001
100
AcDbArc
 50
209.9999999999997
 51
29.99999999999972
  0
LINE
  5
33C7
330
3165
100
AcDbEntity
  8
Visible Edges(ISO)
100
AcDbLine
 10
-47.76130101871268
 20
-27.57499999999686
 30
0.0
 11
-48.71392896287559
 21
-28.12499999999706
 31
0.0
  0
ARC
  5
33C8
330
3165
100
AcDbEntity
  8
Visible Edges(ISO)
100
AcDbCircle
 10
-29.22835737776129
 20
-16.87500000001887
 30
0.0
 40
22.49999999995817
100
AcDbArc
 50
209.9999999999997
 51
210.7539135909587
  0
ARC
  5
33C9
330
3165
100
AcDbEntity
  8
Visible Edges(ISO)
100
AcDbCircle
 10
-29.22835737769273
 20
-16.87499999997931
 30
0.0
 40
22.4999999999627
100
AcDbArc
 50
29.24608640903374
 51
29.99999999999972
  0
LINE
  5
33CA
330
3165
100
AcDbEntity
  8
Visible Edges(ISO)
100
AcDbLine
 10
-10.69541373673789
 20
-6.174999999998362
 30
0.0
 11
-9.742785792574975
 21
-5.624999999998408
 31
0.0
  0
ARC
  5
33CB
330
3165
100
AcDbEntity
  8
Visible Edges(ISO)
100
AcDbCircle
 10
-29.22835737772528
 20
-16.87499999999772
 30
0.0
 40
21.4
100
AcDbArc
 50
29.99999999999972
 51
209.9999999999997
  0
LINE
  5
33CC
330
3165
100
AcDbEntity
  8
Visible Edges(ISO)
100
AcDbLine
 10
-48.71392896287563
 20
-28.12499999999706
 30
0.0
 11
-47.76130101871271
 21
-27.57499999999686
 31
0.0
  0
ARC
  5
33CD
330
3165
100
AcDbEntity
  8
Visible Edges(ISO)
100
AcDbCircle
 10
-29.22835737768796
 20
-16.87499999997567
 30
0.0
 40
22.4999999999566
100
AcDbArc
 50
29.99999999999972
 51
30.75391359095873
  0
ARC
  5
33CE
330
3165
100
AcDbEntity
  8
Visible Edges(ISO)
100
AcDbCircle
 10
-29.22835737776032
 20
-16.87500000001751
 30
0.0
 40
22.49999999995984
100
AcDbArc
 50
209.2460864090337
 51
209.9999999999997
  0
LINE
  5
33CF
330
3165
100
AcDbEntity
  8
Visible Edges(ISO)
100
AcDbLine
 10
0.0000000000005684
 20
11.25000000000113
 30
0.0
 11
0.0000000000006821
 21
12.35000000000104
 31
0.0
  0
ARC
  5
33D0
330
3165
100
AcDbEntity
  8
Visible Edges(ISO)
100
AcDbCircle
 10
0.0000000000014779
 20
33.75000000000114
 30
0.0
 40
21.40000000000001
100
AcDbArc
 50
89.99999999999673
 51
269.9999999999968
  0
LINE
  5
33D1
330
3165
100
AcDbEntity
  8
Visible Edges(ISO)
100
AcDbLine
 10
0.0000000000023306
 20
55.15000000000123
 30
0.0
 11
0.000000000002359
 21
56.25000000000113
 31
0.0
  0
ARC
  5
33D2
330
3165
100
AcDbEntity
  8
Visible Edges(ISO)
100
AcDbCircle
 10
0.0000000000010232
 20
33.75000000004138
 30
0.0
 40
22.49999999995986
100
AcDbArc
 50
89.99999999999673
 51
90.75391359096377
  0
ARC
  5
33D3
330
3165
100
AcDbEntity
  8
Visible Edges(ISO)
100
AcDbCircle
 10
0.0000000000010516
 20
33.74999999996385
 30
0.0
 40
22.4999999999627
100
AcDbArc
 50
269.2460864090313
 51
269.9999999999984
  0
LINE
  5
33D4
330
3165
100
AcDbEntity
  8
Visible Edges(ISO)
100
AcDbLine
 10
-0.0000000000005684
 20
12.35000000000013
 30
0.0
 11
-0.0000000000005684
 21
11.25
 31
0.0
  0
ARC
  5
33D5
330
3165
100
AcDbEntity
  8
Visible Edges(ISO)
100
AcDbCircle
 10
-0.0000000000005684
 20
33.75
 30
0.0
 40
21.4
100
AcDbArc
 50
270.0
 51
90.0
  0
LINE
  5
33D6
330
3165
100
AcDbEntity
  8
Visible Edges(ISO)
100
AcDbLine
 10
-0.0000000000005684
 20
56.25
 30
0.0
 11
-0.0000000000005684
 21
55.1500000000001
 31
0.0
  0
ARC
  5
33D7
330
3165
100
AcDbEntity
  8
Visible Edges(ISO)
100
AcDbCircle
 10
-0.0000000000000568
 20
33.74999999995657
 30
0.0
 40
22.4999999999566
100
AcDbArc
 50
269.9999999999984
 51
270.753913590967
  0
ARC
  5
33D8
330
3165
100
AcDbEntity
  8
Visible Edges(ISO)
100
AcDbCircle
 10
-0.0000000000000853
 20
33.75000000004002
 30
0.0
 40
22.49999999996008
100
AcDbArc
 50
89.24608640903295
 51
90.0
  0
LINE
  5
33D9
330
3165
100
AcDbEntity
  8
Visible Edges(ISO)
100
AcDbLine
 10
9.742785792574323
 20
-5.625
 30
0.0
 11
10.69541373673724
 21
-6.174999999999953
 31
0.0
  0
ARC
  5
33DA
330
3165
100
AcDbEntity
  8
Visible Edges(ISO)
100
AcDbCircle
 10
29.22835737772422
 20
-16.875
 30
0.0
 40
21.40000000000001
100
AcDbArc
 50
330.0000000000003
 51
150.0000000000003
  0
LINE
  5
33DB
330
3165
100
AcDbEntity
  8
Visible Edges(ISO)
100
AcDbLine
 10
47.76130101871132
 20
-27.57500000000006
 30
0.0
 11
48.71392896287411
 21
-28.125
 31
0.0
  0
ARC
  5
33DC
330
3165
100
AcDbEntity
  8
Visible Edges(ISO)
100
AcDbCircle
 10
29.22835737775961
 20
-16.87500000001978
 30
0.0
 40
22.49999999995952
100
AcDbArc
 50
330.0000000000003
 51
330.7539135909662
  0
ARC
  5
33DD
330
3165
100
AcDbEntity
  8
Visible Edges(ISO)
100
AcDbCircle
 10
29.22835737769214
 20
-16.8749999999809
 30
0.0
 40
22.4999999999627
100
AcDbArc
 50
149.2460864090276
 51
150.0000000000003
  0
LINE
  5
33DE
330
3165
100
AcDbEntity
  8
Visible Edges(ISO)
100
AcDbLine
 10
11.64804168090063
 20
-6.724999999999226
 30
0.0
 11
10.69541373673772
 21
-6.174999999999045
 31
0.0
  0
ARC
  5
33DF
330
3165
100
AcDbEntity
  8
Visible Edges(ISO)
100
AcDbCircle
 10
29.22835737772431
 20
-16.87499999999977
 30
0.0
 40
20.30000000000001
100
AcDbArc
 50
149.9999999999994
 51
329.9999999999995
  0
LINE
  5
33E0
330
3165
100
AcDbEntity
  8
Visible Edges(ISO)
100
AcDbLine
 10
47.76130101871092
 20
-27.5750000000005
 30
0.0
 11
46.80867307454803
 21
-27.02500000000056
 31
0.0
  0
ARC
  5
33E1
330
3165
100
AcDbEntity
  8
Visible Edges(ISO)
100
AcDbCircle
 10
29.22835737772431
 20
-16.87499999999977
 30
0.0
 40
21.4
100
AcDbArc
 50
149.9999999999994
 51
329.9999999999995
  0
LINE
  5
33E2
330
3165
100
AcDbEntity
  8
Visible Edges(ISO)
100
AcDbLine
 10
-10.69541373673786
 20
-6.174999999998362
 30
0.0
 11
-11.64804168090074
 21
-6.724999999998318
 31
0.0
  0
ARC
  5
33E3
330
3165
100
AcDbEntity
  8
Visible Edges(ISO)
100
AcDbCircle
 10
-29.22835737772528
 20
-16.87499999999772
 30
0.0
 40
20.30000000000002
100
AcDbArc
 50
209.9999999999997
 51
29.99999999999972
  0
LINE
  5
33E4
330
3165
100
AcDbEntity
  8
Visible Edges(ISO)
100
AcDbLine
 10
-46.80867307454977
 20
-27.02499999999714
 30
0.0
 11
-47.76130101871268
 21
-27.57499999999686
 31
0.0
  0
ARC
  5
33E5
330
3165
100
AcDbEntity
  8
Visible Edges(ISO)
100
AcDbCircle
 10
-29.22835737772528
 20
-16.87499999999772
 30
0.0
 40
21.40000000000001
100
AcDbArc
 50
209.9999999999997
 51
29.99999999999972
  0
LINE
  5
33E6
330
3165
100
AcDbEntity
  8
Visible Edges(ISO)
100
AcDbLine
 10
-11.6480416809008
 20
-6.724999999998318
 30
0.0
 11
-10.69541373673789
 21
-6.174999999998362
 31
0.0
  0
ARC
  5
33E7
330
3165
100
AcDbEntity
  8
Visible Edges(ISO)
100
AcDbCircle
 10
-29.22835737772528
 20
-16.87499999999772
 30
0.0
 40
20.30000000000001
100
AcDbArc
 50
29.99999999999972
 51
209.9999999999997
  0
LINE
  5
33E8
330
3165
100
AcDbEntity
  8
Visible Edges(ISO)
100
AcDbLine
 10
-47.76130101871271
 20
-27.57499999999686
 30
0.0
 11
-46.80867307454983
 21
-27.02499999999714
 31
0.0
  0
ARC
  5
33E9
330
3165
100
AcDbEntity
  8
Visible Edges(ISO)
100
AcDbCircle
 10
-29.22835737772528
 20
-16.87499999999772
 30
0.0
 40
21.4
100
AcDbArc
 50
29.99999999999972
 51
209.9999999999997
  0
LINE
  5
33EA
330
3165
100
AcDbEntity
  8
Visible Edges(ISO)
100
AcDbLine
 10
0.0000000000006821
 20
12.35000000000104
 30
0.0
 11
0.0000000000006821
 21
13.45000000000141
 31
0.0
  0
ARC
  5
33EB
330
3165
100
AcDbEntity
  8
Visible Edges(ISO)
100
AcDbCircle
 10
0.0000000000014779
 20
33.75000000000114
 30
0.0
 40
20.30000000000002
100
AcDbArc
 50
89.99999999999673
 51
269.9999999999968
  0
LINE
  5
33EC
330
3165
100
AcDbEntity
  8
Visible Edges(ISO)
100
AcDbLine
 10
0.0000000000022737
 20
54.0500000000011
 30
0.0
 11
0.0000000000023306
 21
55.15000000000123
 31
0.0
  0
ARC
  5
33ED
330
3165
100
AcDbEntity
  8
Visible Edges(ISO)
100
AcDbCircle
 10
0.0000000000014779
 20
33.75000000000114
 30
0.0
 40
21.40000000000001
100
AcDbArc
 50
89.99999999999673
 51
269.9999999999968
  0
LINE
  5
33EE
330
3165
100
AcDbEntity
  8
Visible Edges(ISO)
100
AcDbLine
 10
-0.0000000000005684
 20
13.45000000000004
 30
0.0
 11
-0.0000000000005684
 21
12.35000000000013
 31
0.0
  0
ARC
  5
33EF
330
3165
100
AcDbEntity
  8
Visible Edges(ISO)
100
AcDbCircle
 10
-0.0000000000005684
 20
33.75
 30
0.0
 40
20.30000000000001
100
AcDbArc
 50
270.0
 51
90.0
  0
LINE
  5
33F0
330
3165
100
AcDbEntity
  8
Visible Edges(ISO)
100
AcDbLine
 10
-0.0000000000005684
 20
55.1500000000001
 30
0.0
 11
-0.0000000000005684
 21
54.04999999999995
 31
0.0
  0
ARC
  5
33F1
330
3165
100
AcDbEntity
  8
Visible Edges(ISO)
100
AcDbCircle
 10
-0.0000000000005684
 20
33.75
 30
0.0
 40
21.4
100
AcDbArc
 50
270.0
 51
90.0
  0
LINE
  5
33F2
330
3165
100
AcDbEntity
  8
Visible Edges(ISO)
100
AcDbLine
 10
10.69541373673724
 20
-6.174999999999953
 30
0.0
 11
11.64804168090012
 21
-6.724999999999909
 31
0.0
  0
ARC
  5
33F3
330
3165
100
AcDbEntity
  8
Visible Edges(ISO)
100
AcDbCircle
 10
29.22835737772422
 20
-16.875
 30
0.0
 40
20.30000000000002
100
AcDbArc
 50
330.0000000000003
 51
150.0000000000003
  0
LINE
  5
33F4
330
3165
100
AcDbEntity
  8
Visible Edges(ISO)
100
AcDbLine
 10
46.80867307454841
 20
-27.02499999999986
 30
0.0
 11
47.76130101871124
 21
-27.57500000000006
 31
0.0
  0
ARC
  5
33F5
330
3165
100
AcDbEntity
  8
Visible Edges(ISO)
100
AcDbCircle
 10
29.22835737772422
 20
-16.875
 30
0.0
 40
21.40000000000001
100
AcDbArc
 50
330.0000000000003
 51
150.0000000000003
  0
LINE
  5
33F6
330
3165
100
AcDbEntity
  8
Visible Edges(ISO)
100
AcDbLine
 10
12.6006696250634
 20
-7.274999999999407
 30
0.0
 11
11.64804168090063
 21
-6.724999999999226
 31
0.0
  0
ARC
  5
33F7
330
3165
100
AcDbEntity
  8
Visible Edges(ISO)
100
AcDbCircle
 10
29.22835737772431
 20
-16.87499999999977
 30
0.0
 40
19.19999999999999
100
AcDbArc
 50
149.9999999999994
 51
329.9999999999995
  0
LINE
  5
33F8
330
3165
100
AcDbEntity
  8
Visible Edges(ISO)
100
AcDbLine
 10
46.80867307454803
 20
-27.02500000000056
 30
0.0
 11
45.85604513038513
 21
-26.47500000000059
 31
0.0
  0
ARC
  5
33F9
330
3165
100
AcDbEntity
  8
Visible Edges(ISO)
100
AcDbCircle
 10
29.22835737772431
 20
-16.87499999999977
 30
0.0
 40
20.3
100
AcDbArc
 50
149.9999999999994
 51
329.9999999999995
  0
LINE
  5
33FA
330
3165
100
AcDbEntity
  8
Visible Edges(ISO)
100
AcDbLine
 10
-11.64804168090074
 20
-6.724999999998318
 30
0.0
 11
-12.60066962506369
 21
-7.274999999998499
 31
0.0
  0
ARC
  5
33FB
330
3165
100
AcDbEntity
  8
Visible Edges(ISO)
100
AcDbCircle
 10
-29.22835737772528
 20
-16.87499999999772
 30
0.0
 40
19.20000000000001
100
AcDbArc
 50
209.9999999999997
 51
29.99999999999972
  0
LINE
  5
33FC
330
3165
100
AcDbEntity
  8
Visible Edges(ISO)
100
AcDbLine
 10
-45.85604513038688
 20
-26.47499999999695
 30
0.0
 11
-46.80867307454977
 21
-27.02499999999714
 31
0.0
  0
ARC
  5
33FD
330
3165
100
AcDbEntity
  8
Visible Edges(ISO)
100
AcDbCircle
 10
-29.22835737772528
 20
-16.87499999999772
 30
0.0
 40
20.30000000000001
100
AcDbArc
 50
209.9999999999997
 51
29.99999999999972
  0
LINE
  5
33FE
330
3165
100
AcDbEntity
  8
Visible Edges(ISO)
100
AcDbLine
 10
-12.60066962506369
 20
-7.274999999998499
 30
0.0
 11
-11.6480416809008
 21
-6.724999999998318
 31
0.0
  0
ARC
  5
33FF
330
3165
100
AcDbEntity
  8
Visible Edges(ISO)
100
AcDbCircle
 10
-29.22835737772528
 20
-16.87499999999772
 30
0.0
 40
19.19999999999999
100
AcDbArc
 50
29.99999999999972
 51
209.9999999999997
  0
LINE
  5
3400
330
3165
100
AcDbEntity
  8
Visible Edges(ISO)
100
AcDbLine
 10
-46.80867307454977
 20
-27.02499999999714
 30
0.0
 11
-45.85604513038688
 21
-26.47499999999695
 31
0.0
  0
ARC
  5
3401
330
3165
100
AcDbEntity
  8
Visible Edges(ISO)
100
AcDbCircle
 10
-29.22835737772528
 20
-16.87499999999772
 30
0.0
 40
20.3
100
AcDbArc
 50
29.99999999999972
 51
209.9999999999997
  0
LINE
  5
3402
330
3165
100
AcDbEntity
  8
Visible Edges(ISO)
100
AcDbLine
 10
0.0000000000006821
 20
13.45000000000141
 30
0.0
 11
0.000000000000739
 21
14.55000000000109
 31
0.0
  0
ARC
  5
3403
330
3165
100
AcDbEntity
  8
Visible Edges(ISO)
100
AcDbCircle
 10
0.0000000000014779
 20
33.75000000000114
 30
0.0
 40
19.20000000000001
100
AcDbArc
 50
89.99999999999673
 51
269.9999999999968
  0
LINE
  5
3404
330
3165
100
AcDbEntity
  8
Visible Edges(ISO)
100
AcDbLine
 10
0.0000000000022169
 20
52.95000000000118
 30
0.0
 11
0.0000000000022737
 21
54.0500000000011
 31
0.0
  0
ARC
  5
3405
330
3165
100
AcDbEntity
  8
Visible Edges(ISO)
100
AcDbCircle
 10
0.0000000000014779
 20
33.75000000000114
 30
0.0
 40
20.30000000000002
100
AcDbArc
 50
89.99999999999673
 51
269.9999999999968
  0
LINE
  5
3406
330
3165
100
AcDbEntity
  8
Visible Edges(ISO)
100
AcDbLine
 10
-0.0000000000005684
 20
14.54999999999995
 30
0.0
 11
-0.0000000000005684
 21
13.45000000000004
 31
0.0
  0
ARC
  5
3407
330
3165
100
AcDbEntity
  8
Visible Edges(ISO)
100
AcDbCircle
 10
-0.0000000000005684
 20
33.75
 30
0.0
 40
19.19999999999999
100
AcDbArc
 50
270.0
 51
90.0
  0
LINE
  5
3408
330
3165
100
AcDbEntity
  8
Visible Edges(ISO)
100
AcDbLine
 10
-0.0000000000005684
 20
54.04999999999995
 30
0.0
 11
-0.0000000000005684
 21
52.95000000000005
 31
0.0
  0
ARC
  5
3409
330
3165
100
AcDbEntity
  8
Visible Edges(ISO)
100
AcDbCircle
 10
-0.0000000000005684
 20
33.75
 30
0.0
 40
20.3
100
AcDbArc
 50
270.0
 51
90.0
  0
LINE
  5
340A
330
3165
100
AcDbEntity
  8
Visible Edges(ISO)
100
AcDbLine
 10
11.64804168090012
 20
-6.724999999999909
 30
0.0
 11
12.60066962506303
 21
-7.274999999999861
 31
0.0
  0
ARC
  5
340B
330
3165
100
AcDbEntity
  8
Visible Edges(ISO)
100
AcDbCircle
 10
29.22835737772422
 20
-16.875
 30
0.0
 40
19.20000000000001
100
AcDbArc
 50
330.0000000000003
 51
150.0000000000003
  0
LINE
  5
340C
330
3165
100
AcDbEntity
  8
Visible Edges(ISO)
100
AcDbLine
 10
45.85604513038541
 20
-26.47499999999991
 30
0.0
 11
46.80867307454841
 21
-27.02499999999986
 31
0.0
  0
ARC
  5
340D
330
3165
100
AcDbEntity
  8
Visible Edges(ISO)
100
AcDbCircle
 10
29.22835737772422
 20
-16.875
 30
0.0
 40
20.30000000000002
100
AcDbArc
 50
330.0000000000003
 51
150.0000000000003
  0
LINE
  5
340E
330
3165
100
AcDbEntity
  8
Visible Edges(ISO)
100
AcDbLine
 10
13.55329756922631
 20
-7.824999999999362
 30
0.0
 11
12.6006696250634
 21
-7.274999999999407
 31
0.0
  0
ARC
  5
340F
330
3165
100
AcDbEntity
  8
Visible Edges(ISO)
100
AcDbCircle
 10
29.22835737772431
 20
-16.87499999999977
 30
0.0
 40
18.1
100
AcDbArc
 50
149.9999999999994
 51
329.9999999999995
  0
LINE
  5
3410
330
3165
100
AcDbEntity
  8
Visible Edges(ISO)
100
AcDbLine
 10
45.85604513038513
 20
-26.47500000000059
 30
0.0
 11
44.90341718622232
 21
-25.92500000000041
 31
0.0
  0
ARC
  5
3411
330
3165
100
AcDbEntity
  8
Visible Edges(ISO)
100
AcDbCircle
 10
29.22835737772431
 20
-16.87499999999977
 30
0.0
 40
19.19999999999999
100
AcDbArc
 50
149.9999999999994
 51
329.9999999999995
  0
LINE
  5
3412
330
3165
100
AcDbEntity
  8
Visible Edges(ISO)
100
AcDbLine
 10
-12.60066962506369
 20
-7.274999999998499
 30
0.0
 11
-13.55329756922657
 21
-7.824999999998226
 31
0.0
  0
ARC
  5
3413
330
3165
100
AcDbEntity
  8
Visible Edges(ISO)
100
AcDbCircle
 10
-29.22835737772528
 20
-16.87499999999772
 30
0.0
 40
18.10000000000002
100
AcDbArc
 50
209.9999999999997
 51
29.99999999999972
  0
LINE
  5
3414
330
3165
100
AcDbEntity
  8
Visible Edges(ISO)
100
AcDbLine
 10
-44.90341718622396
 20
-25.92499999999723
 30
0.0
 11
-45.85604513038688
 21
-26.47499999999695
 31
0.0
  0
ARC
  5
3415
330
3165
100
AcDbEntity
  8
Visible Edges(ISO)
100
AcDbCircle
 10
-29.22835737772528
 20
-16.87499999999772
 30
0.0
 40
19.20000000000001
100
AcDbArc
 50
209.9999999999997
 51
29.99999999999972
  0
LINE
  5
3416
330
3165
100
AcDbEntity
  8
Visible Edges(ISO)
100
AcDbLine
 10
-13.55329756922663
 20
-7.824999999998226
 30
0.0
 11
-12.60066962506369
 21
-7.274999999998499
 31
0.0
  0
ARC
  5
3417
330
3165
100
AcDbEntity
  8
Visible Edges(ISO)
100
AcDbCircle
 10
-29.22835737772528
 20
-16.87499999999772
 30
0.0
 40
18.1
100
AcDbArc
 50
29.99999999999972
 51
209.9999999999997
  0
LINE
  5
3418
330
3165
100
AcDbEntity
  8
Visible Edges(ISO)
100
AcDbLine
 10
-45.85604513038688
 20
-26.47499999999695
 30
0.0
 11
-44.903417186224
 21
-25.924999999997
 31
0.0
  0
ARC
  5
3419
330
3165
100
AcDbEntity
  8
Visible Edges(ISO)
100
AcDbCircle
 10
-29.22835737772528
 20
-16.87499999999772
 30
0.0
 40
19.19999999999999
100
AcDbArc
 50
29.99999999999972
 51
209.9999999999997
  0
LINE
  5
341A
330
3165
100
AcDbEntity
  8
Visible Edges(ISO)
100
AcDbLine
 10
0.000000000000739
 20
14.55000000000109
 30
0.0
 11
0.000000000000739
 21
15.650000000001
 31
0.0
  0
ARC
  5
341B
330
3165
100
AcDbEntity
  8
Visible Edges(ISO)
100
AcDbCircle
 10
0.0000000000014779
 20
33.75000000000114
 30
0.0
 40
18.10000000000002
100
AcDbArc
 50
89.99999999999673
 51
269.9999999999968
  0
LINE
  5
341C
330
3165
100
AcDbEntity
  8
Visible Edges(ISO)
100
AcDbLine
 10
0.0000000000021885
 20
51.85000000000105
 30
0.0
 11
0.0000000000022169
 21
52.95000000000118
 31
0.0
  0
ARC
  5
341D
330
3165
100
AcDbEntity
  8
Visible Edges(ISO)
100
AcDbCircle
 10
0.0000000000014779
 20
33.75000000000114
 30
0.0
 40
19.20000000000001
100
AcDbArc
 50
89.99999999999673
 51
269.9999999999968
  0
LINE
  5
341E
330
3165
100
AcDbEntity
  8
Visible Edges(ISO)
100
AcDbLine
 10
-0.0000000000005684
 20
15.65000000000009
 30
0.0
 11
-0.0000000000005684
 21
14.54999999999995
 31
0.0
  0
ARC
  5
341F
330
3165
100
AcDbEntity
  8
Visible Edges(ISO)
100
AcDbCircle
 10
-0.0000000000005684
 20
33.75
 30
0.0
 40
18.1
100
AcDbArc
 50
270.0
 51
90.0
  0
LINE
  5
3420
330
3165
100
AcDbEntity
  8
Visible Edges(ISO)
100
AcDbLine
 10
-0.0000000000005684
 20
52.95000000000005
 30
0.0
 11
-0.0000000000005684
 21
51.85000000000013
 31
0.0
  0
ARC
  5
3421
330
3165
100
AcDbEntity
  8
Visible Edges(ISO)
100
AcDbCircle
 10
-0.0000000000005684
 20
33.75
 30
0.0
 40
19.19999999999999
100
AcDbArc
 50
270.0
 51
90.0
  0
LINE
  5
3422
330
3165
100
AcDbEntity
  8
Visible Edges(ISO)
100
AcDbLine
 10
12.60066962506303
 20
-7.274999999999861
 30
0.0
 11
13.55329756922592
 21
-7.825000000000045
 31
0.0
  0
ARC
  5
3423
330
3165
100
AcDbEntity
  8
Visible Edges(ISO)
100
AcDbCircle
 10
29.22835737772422
 20
-16.875
 30
0.0
 40
18.10000000000001
100
AcDbArc
 50
330.0000000000003
 51
150.0000000000003
  0
LINE
  5
3424
330
3165
100
AcDbEntity
  8
Visible Edges(ISO)
100
AcDbLine
 10
44.90341718622263
 20
-25.92499999999996
 30
0.0
 11
45.85604513038541
 21
-26.47499999999991
 31
0.0
  0
ARC
  5
3425
330
3165
100
AcDbEntity
  8
Visible Edges(ISO)
100
AcDbCircle
 10
29.22835737772422
 20
-16.875
 30
0.0
 40
19.20000000000001
100
AcDbArc
 50
330.0000000000003
 51
150.0000000000003
  0
LINE
  5
3426
330
3165
100
AcDbEntity
  8
Visible Edges(ISO)
100
AcDbLine
 10
14.50592551338923
 20
-8.374999999999316
 30
0.0
 11
13.55329756922631
 21
-7.824999999999362
 31
0.0
  0
ARC
  5
3427
330
3165
100
AcDbEntity
  8
Visible Edges(ISO)
100
AcDbCircle
 10
29.22835737772431
 20
-16.87499999999977
 30
0.0
 40
17.0
100
AcDbArc
 50
149.9999999999994
 51
329.9999999999995
  0
LINE
  5
3428
330
3165
100
AcDbEntity
  8
Visible Edges(ISO)
100
AcDbLine
 10
44.90341718622232
 20
-25.92500000000041
 30
0.0
 11
43.9507892420594
 21
-25.37500000000046
 31
0.0
  0
ARC
  5
3429
330
3165
100
AcDbEntity
  8
Visible Edges(ISO)
100
AcDbCircle
 10
29.22835737772431
 20
-16.87499999999977
 30
0.0
 40
18.1
100
AcDbArc
 50
149.9999999999994
 51
329.9999999999995
  0
LINE
  5
342A
330
3165
100
AcDbEntity
  8
Visible Edges(ISO)
100
AcDbLine
 10
-13.55329756922657
 20
-7.824999999998226
 30
0.0
 11
-14.50592551338948
 21
-8.374999999998182
 31
0.0
  0
ARC
  5
342B
330
3165
100
AcDbEntity
  8
Visible Edges(ISO)
100
AcDbCircle
 10
-29.22835737772528
 20
-16.87499999999772
 30
0.0
 40
17.00000000000001
100
AcDbArc
 50
209.9999999999997
 51
29.99999999999972
  0
LINE
  5
342C
330
3165
100
AcDbEntity
  8
Visible Edges(ISO)
100
AcDbLine
 10
-43.95078924206106
 20
-25.37499999999706
 30
0.0
 11
-44.90341718622396
 21
-25.92499999999723
 31
0.0
  0
ARC
  5
342D
330
3165
100
AcDbEntity
  8
Visible Edges(ISO)
100
AcDbCircle
 10
-29.22835737772528
 20
-16.87499999999772
 30
0.0
 40
18.10000000000001
100
AcDbArc
 50
209.9999999999997
 51
29.99999999999972
  0
LINE
  5
342E
330
3165
100
AcDbEntity
  8
Visible Edges(ISO)
100
AcDbLine
 10
-14.5059255133895
 20
-8.374999999998182
 30
0.0
 11
-13.55329756922663
 21
-7.824999999998452
 31
0.0
  0
ARC
  5
342F
330
3165
100
AcDbEntity
  8
Visible Edges(ISO)
100
AcDbCircle
 10
-29.22835737772528
 20
-16.87499999999772
 30
0.0
 40
17.0
100
AcDbArc
 50
29.99999999999972
 51
209.9999999999997
  0
LINE
  5
3430
330
3165
100
AcDbEntity
  8
Visible Edges(ISO)
100
AcDbLine
 10
-44.903417186224
 20
-25.924999999997
 30
0.0
 11
-43.95078924206109
 21
-25.37499999999706
 31
0.0
  0
ARC
  5
3431
330
3165
100
AcDbEntity
  8
Visible Edges(ISO)
100
AcDbCircle
 10
-29.22835737772528
 20
-16.87499999999772
 30
0.0
 40
18.1
100
AcDbArc
 50
29.99999999999972
 51
209.9999999999997
  0
LINE
  5
3432
330
3165
100
AcDbEntity
  8
Visible Edges(ISO)
100
AcDbLine
 10
0.000000000000739
 20
15.650000000001
 30
0.0
 11
0.0000000000008242
 21
16.75000000000113
 31
0.0
  0
ARC
  5
3433
330
3165
100
AcDbEntity
  8
Visible Edges(ISO)
100
AcDbCircle
 10
0.0000000000014779
 20
33.75000000000114
 30
0.0
 40
17.00000000000001
100
AcDbArc
 50
89.99999999999673
 51
269.9999999999968
  0
LINE
  5
3434
330
3165
100
AcDbEntity
  8
Visible Edges(ISO)
100
AcDbLine
 10
0.00000000000216
 20
50.75000000000113
 30
0.0
 11
0.0000000000021885
 21
51.85000000000105
 31
0.0
  0
ARC
  5
3435
330
3165
100
AcDbEntity
  8
Visible Edges(ISO)
100
AcDbCircle
 10
0.0000000000014779
 20
33.75000000000114
 30
0.0
 40
18.10000000000001
100
AcDbArc
 50
89.99999999999673
 51
269.9999999999968
  0
LINE
  5
3436
330
3165
100
AcDbEntity
  8
Visible Edges(ISO)
100
AcDbLine
 10
-0.0000000000005684
 20
16.75
 30
0.0
 11
-0.0000000000005684
 21
15.65000000000009
 31
0.0
  0
ARC
  5
3437
330
3165
100
AcDbEntity
  8
Visible Edges(ISO)
100
AcDbCircle
 10
-0.0000000000005684
 20
33.75
 30
0.0
 40
17.0
100
AcDbArc
 50
270.0
 51
90.0
  0
LINE
  5
3438
330
3165
100
AcDbEntity
  8
Visible Edges(ISO)
100
AcDbLine
 10
-0.0000000000005684
 20
51.85000000000013
 30
0.0
 11
-0.0000000000005684
 21
50.75
 31
0.0
  0
ARC
  5
3439
330
3165
100
AcDbEntity
  8
Visible Edges(ISO)
100
AcDbCircle
 10
-0.0000000000005684
 20
33.75
 30
0.0
 40
18.1
100
AcDbArc
 50
270.0
 51
90.0
  0
LINE
  5
343A
330
3165
100
AcDbEntity
  8
Visible Edges(ISO)
100
AcDbLine
 10
13.55329756922592
 20
-7.825000000000045
 30
0.0
 11
14.50592551338883
 21
-8.375
 31
0.0
  0
ARC
  5
343B
330
3165
100
AcDbEntity
  8
Visible Edges(ISO)
100
AcDbCircle
 10
29.22835737772422
 20
-16.875
 30
0.0
 40
17.00000000000001
100
AcDbArc
 50
330.0000000000003
 51
150.0000000000003
  0
LINE
  5
343C
330
3165
100
AcDbEntity
  8
Visible Edges(ISO)
100
AcDbLine
 10
43.95078924205972
 20
-25.37499999999977
 30
0.0
 11
44.90341718622263
 21
-25.92499999999996
 31
0.0
  0
ARC
  5
343D
330
3165
100
AcDbEntity
  8
Visible Edges(ISO)
100
AcDbCircle
 10
29.22835737772422
 20
-16.875
 30
0.0
 40
18.10000000000001
100
AcDbArc
 50
330.0000000000003
 51
150.0000000000003
  0
LINE
  5
343E
330
3165
100
AcDbEntity
  8
Visible Edges(ISO)
100
AcDbLine
 10
15.45855345755203
 20
-8.924999999999498
 30
0.0
 11
14.50592551338923
 21
-8.374999999999316
 31
0.0
  0
ARC
  5
343F
330
3165
100
AcDbEntity
  8
Visible Edges(ISO)
100
AcDbCircle
 10
29.22835737772431
 20
-16.87499999999977
 30
0.0
 40
15.9
100
AcDbArc
 50
149.9999999999994
 51
329.9999999999995
  0
LINE
  5
3440
330
3165
100
AcDbEntity
  8
Visible Edges(ISO)
100
AcDbLine
 10
43.9507892420594
 20
-25.37500000000046
 30
0.0
 11
42.99816129789664
 21
-24.8250000000005
 31
0.0
  0
ARC
  5
3441
330
3165
100
AcDbEntity
  8
Visible Edges(ISO)
100
AcDbCircle
 10
29.22835737772431
 20
-16.87499999999977
 30
0.0
 40
17.0
100
AcDbArc
 50
149.9999999999994
 51
329.9999999999995
  0
LINE
  5
3442
330
3165
100
AcDbEntity
  8
Visible Edges(ISO)
100
AcDbLine
 10
-14.50592551338948
 20
-8.374999999998182
 30
0.0
 11
-15.4585534575524
 21
-8.924999999998133
 31
0.0
  0
ARC
  5
3443
330
3165
100
AcDbEntity
  8
Visible Edges(ISO)
100
AcDbCircle
 10
-29.22835737772528
 20
-16.87499999999772
 30
0.0
 40
15.90000000000001
100
AcDbArc
 50
209.9999999999997
 51
29.99999999999972
  0
LINE
  5
3444
330
3165
100
AcDbEntity
  8
Visible Edges(ISO)
100
AcDbLine
 10
-42.99816129789816
 20
-24.82499999999709
 30
0.0
 11
-43.95078924206106
 21
-25.37499999999706
 31
0.0
  0
ARC
  5
3445
330
3165
100
AcDbEntity
  8
Visible Edges(ISO)
100
AcDbCircle
 10
-29.22835737772528
 20
-16.87499999999772
 30
0.0
 40
17.00000000000001
100
AcDbArc
 50
209.9999999999997
 51
29.99999999999972
  0
LINE
  5
3446
330
3165
100
AcDbEntity
  8
Visible Edges(ISO)
100
AcDbLine
 10
-15.4585534575524
 20
-8.924999999998133
 30
0.0
 11
-14.5059255133895
 21
-8.374999999998182
 31
0.0
  0
ARC
  5
3447
330
3165
100
AcDbEntity
  8
Visible Edges(ISO)
100
AcDbCircle
 10
-29.22835737772528
 20
-16.87499999999772
 30
0.0
 40
15.9
100
AcDbArc
 50
29.99999999999972
 51
209.9999999999997
  0
LINE
  5
3448
330
3165
100
AcDbEntity
  8
Visible Edges(ISO)
100
AcDbLine
 10
-43.95078924206109
 20
-25.37499999999706
 30
0.0
 11
-42.9981612978982
 21
-24.82499999999709
 31
0.0
  0
ARC
  5
3449
330
3165
100
AcDbEntity
  8
Visible Edges(ISO)
100
AcDbCircle
 10
-29.22835737772528
 20
-16.87499999999772
 30
0.0
 40
17.0
100
AcDbArc
 50
29.99999999999972
 51
209.9999999999997
  0
LINE
  5
344A
330
3165
100
AcDbEntity
  8
Visible Edges(ISO)
100
AcDbLine
 10
0.0000000000008242
 20
16.75000000000113
 30
0.0
 11
0.0000000000008527
 21
17.85000000000104
 31
0.0
  0
ARC
  5
344B
330
3165
100
AcDbEntity
  8
Visible Edges(ISO)
100
AcDbCircle
 10
0.0000000000014779
 20
33.75000000000114
 30
0.0
 40
15.90000000000001
100
AcDbArc
 50
89.99999999999673
 51
269.9999999999968
  0
LINE
  5
344C
330
3165
100
AcDbEntity
  8
Visible Edges(ISO)
100
AcDbLine
 10
0.0000000000021032
 20
49.65000000000123
 30
0.0
 11
0.00000000000216
 21
50.75000000000113
 31
0.0
  0
ARC
  5
344D
330
3165
100
AcDbEntity
  8
Visible Edges(ISO)
100
AcDbCircle
 10
0.0000000000014779
 20
33.75000000000114
 30
0.0
 40
17.00000000000001
100
AcDbArc
 50
89.99999999999673
 51
269.9999999999968
  0
LINE
  5
344E
330
3165
100
AcDbEntity
  8
Visible Edges(ISO)
100
AcDbLine
 10
-0.0000000000005684
 20
17.85000000000013
 30
0.0
 11
-0.0000000000005684
 21
16.75
 31
0.0
  0
ARC
  5
344F
330
3165
100
AcDbEntity
  8
Visible Edges(ISO)
100
AcDbCircle
 10
-0.0000000000005684
 20
33.75
 30
0.0
 40
15.9
100
AcDbArc
 50
270.0
 51
90.0
  0
LINE
  5
3450
330
3165
100
AcDbEntity
  8
Visible Edges(ISO)
100
AcDbLine
 10
-0.0000000000005684
 20
50.75
 30
0.0
 11
-0.0000000000005684
 21
49.6500000000001
 31
0.0
  0
ARC
  5
3451
330
3165
100
AcDbEntity
  8
Visible Edges(ISO)
100
AcDbCircle
 10
-0.0000000000005684
 20
33.75
 30
0.0
 40
17.0
100
AcDbArc
 50
270.0
 51
90.0
  0
LINE
  5
3452
330
3165
100
AcDbEntity
  8
Visible Edges(ISO)
100
AcDbLine
 10
14.50592551338883
 20
-8.375
 30
0.0
 11
15.45855345755163
 21
-8.924999999999952
 31
0.0
  0
ARC
  5
3453
330
3165
100
AcDbEntity
  8
Visible Edges(ISO)
100
AcDbCircle
 10
29.22835737772422
 20
-16.875
 30
0.0
 40
15.90000000000001
100
AcDbArc
 50
330.0000000000003
 51
150.0000000000003
  0
LINE
  5
3454
330
3165
100
AcDbEntity
  8
Visible Edges(ISO)
100
AcDbLine
 10
42.99816129789681
 20
-24.82500000000005
 30
0.0
 11
43.95078924205972
 21
-25.37499999999977
 31
0.0
  0
ARC
  5
3455
330
3165
100
AcDbEntity
  8
Visible Edges(ISO)
100
AcDbCircle
 10
29.22835737772422
 20
-16.875
 30
0.0
 40
17.00000000000001
100
AcDbArc
 50
330.0000000000003
 51
150.0000000000003
  0
LINE
  5
3456
330
3165
100
AcDbEntity
  8
Visible Edges(ISO)
100
AcDbLine
 10
16.41118140171491
 20
-9.474999999999452
 30
0.0
 11
15.45855345755203
 21
-8.924999999999498
 31
0.0
  0
ARC
  5
3457
330
3165
100
AcDbEntity
  8
Visible Edges(ISO)
100
AcDbCircle
 10
29.22835737772431
 20
-16.87499999999977
 30
0.0
 40
14.8
100
AcDbArc
 50
149.9999999999994
 51
329.9999999999995
  0
LINE
  5
3458
330
3165
100
AcDbEntity
  8
Visible Edges(ISO)
100
AcDbLine
 10
42.99816129789664
 20
-24.8250000000005
 30
0.0
 11
42.04553335373372
 21
-24.27500000000032
 31
0.0
  0
ARC
  5
3459
330
3165
100
AcDbEntity
  8
Visible Edges(ISO)
100
AcDbCircle
 10
29.22835737772431
 20
-16.87499999999977
 30
0.0
 40
15.9
100
AcDbArc
 50
149.9999999999994
 51
329.9999999999995
  0
LINE
  5
345A
330
3165
100
AcDbEntity
  8
Visible Edges(ISO)
100
AcDbLine
 10
-15.4585534575524
 20
-8.924999999998133
 30
0.0
 11
-16.41118140171528
 21
-9.474999999998317
 31
0.0
  0
ARC
  5
345B
330
3165
100
AcDbEntity
  8
Visible Edges(ISO)
100
AcDbCircle
 10
-29.22835737772528
 20
-16.87499999999772
 30
0.0
 40
14.80000000000001
100
AcDbArc
 50
209.9999999999997
 51
29.99999999999972
  0
LINE
  5
345C
330
3165
100
AcDbEntity
  8
Visible Edges(ISO)
100
AcDbLine
 10
-42.04553335373526
 20
-24.27499999999714
 30
0.0
 11
-42.99816129789816
 21
-24.82499999999709
 31
0.0
  0
ARC
  5
345D
330
3165
100
AcDbEntity
  8
Visible Edges(ISO)
100
AcDbCircle
 10
-29.22835737772528
 20
-16.87499999999772
 30
0.0
 40
15.90000000000002
100
AcDbArc
 50
209.9999999999997
 51
29.99999999999972
  0
LINE
  5
345E
330
3165
100
AcDbEntity
  8
Visible Edges(ISO)
100
AcDbLine
 10
-16.41118140171534
 20
-9.474999999998317
 30
0.0
 11
-15.4585534575524
 21
-8.924999999998133
 31
0.0
  0
ARC
  5
345F
330
3165
100
AcDbEntity
  8
Visible Edges(ISO)
100
AcDbCircle
 10
-29.22835737772528
 20
-16.87499999999772
 30
0.0
 40
14.8
100
AcDbArc
 50
29.99999999999972
 51
209.9999999999997
  0
LINE
  5
3460
330
3165
100
AcDbEntity
  8
Visible Edges(ISO)
100
AcDbLine
 10
-42.9981612978982
 20
-24.82499999999709
 30
0.0
 11
-42.04553335373528
 21
-24.27499999999714
 31
0.0
  0
ARC
  5
3461
330
3165
100
AcDbEntity
  8
Visible Edges(ISO)
100
AcDbCircle
 10
-29.22835737772528
 20
-16.87499999999772
 30
0.0
 40
15.9
100
AcDbArc
 50
29.99999999999972
 51
209.9999999999997
  0
LINE
  5
3462
330
3165
100
AcDbEntity
  8
Visible Edges(ISO)
100
AcDbLine
 10
0.0000000000008527
 20
17.85000000000104
 30
0.0
 11
0.0000000000009095
 21
18.95000000000118
 31
0.0
  0
ARC
  5
3463
330
3165
100
AcDbEntity
  8
Visible Edges(ISO)
100
AcDbCircle
 10
0.0000000000014779
 20
33.75000000000114
 30
0.0
 40
14.80000000000001
100
AcDbArc
 50
89.99999999999673
 51
269.9999999999968
  0
LINE
  5
3464
330
3165
100
AcDbEntity
  8
Visible Edges(ISO)
100
AcDbLine
 10
0.0000000000021032
 20
48.5500000000011
 30
0.0
 11
0.0000000000021032
 21
49.65000000000123
 31
0.0
  0
ARC
  5
3465
330
3165
100
AcDbEntity
  8
Visible Edges(ISO)
100
AcDbCircle
 10
0.0000000000014779
 20
33.75000000000114
 30
0.0
 40
15.90000000000001
100
AcDbArc
 50
89.99999999999673
 51
269.9999999999968
  0
LINE
  5
3466
330
3165
100
AcDbEntity
  8
Visible Edges(ISO)
100
AcDbLine
 10
-0.0000000000005684
 20
18.95000000000004
 30
0.0
 11
-0.0000000000005684
 21
17.85000000000013
 31
0.0
  0
ARC
  5
3467
330
3165
100
AcDbEntity
  8
Visible Edges(ISO)
100
AcDbCircle
 10
-0.0000000000005684
 20
33.75
 30
0.0
 40
14.8
100
AcDbArc
 50
270.0
 51
90.0
  0
LINE
  5
3468
330
3165
100
AcDbEntity
  8
Visible Edges(ISO)
100
AcDbLine
 10
-0.0000000000005684
 20
49.6500000000001
 30
0.0
 11
-0.0000000000005684
 21
48.54999999999995
 31
0.0
  0
ARC
  5
3469
330
3165
100
AcDbEntity
  8
Visible Edges(ISO)
100
AcDbCircle
 10
-0.0000000000005684
 20
33.75
 30
0.0
 40
15.9
100
AcDbArc
 50
270.0
 51
90.0
  0
LINE
  5
346A
330
3165
100
AcDbEntity
  8
Visible Edges(ISO)
100
AcDbLine
 10
15.45855345755163
 20
-8.924999999999952
 30
0.0
 11
16.41118140171454
 21
-9.474999999999909
 31
0.0
  0
ARC
  5
346B
330
3165
100
AcDbEntity
  8
Visible Edges(ISO)
100
AcDbCircle
 10
29.22835737772422
 20
-16.875
 30
0.0
 40
14.80000000000001
100
AcDbArc
 50
330.0000000000003
 51
150.0000000000003
  0
LINE
  5
346C
330
3165
100
AcDbEntity
  8
Visible Edges(ISO)
100
AcDbLine
 10
42.04553335373392
 20
-24.27499999999986
 30
0.0
 11
42.99816129789681
 21
-24.82500000000005
 31
0.0
  0
ARC
  5
346D
330
3165
100
AcDbEntity
  8
Visible Edges(ISO)
100
AcDbCircle
 10
29.22835737772422
 20
-16.875
 30
0.0
 40
15.90000000000001
100
AcDbArc
 50
330.0000000000003
 51
150.0000000000003
  0
LINE
  5
346E
330
3165
100
AcDbEntity
  8
Visible Edges(ISO)
100
AcDbLine
 10
17.36380934587782
 20
-10.02499999999941
 30
0.0
 11
16.41118140171491
 21
-9.474999999999452
 31
0.0
  0
ARC
  5
346F
330
3165
100
AcDbEntity
  8
Visible Edges(ISO)
100
AcDbCircle
 10
29.22835737772431
 20
-16.87499999999977
 30
0.0
 40
13.7
100
AcDbArc
 50
149.9999999999994
 51
329.9999999999995
  0
LINE
  5
3470
330
3165
100
AcDbEntity
  8
Visible Edges(ISO)
100
AcDbLine
 10
42.04553335373372
 20
-24.27500000000032
 30
0.0
 11
41.09290540957082
 21
-23.72500000000036
 31
0.0
  0
ARC
  5
3471
330
3165
100
AcDbEntity
  8
Visible Edges(ISO)
100
AcDbCircle
 10
29.22835737772431
 20
-16.87499999999977
 30
0.0
 40
14.8
100
AcDbArc
 50
149.9999999999994
 51
329.9999999999995
  0
LINE
  5
3472
330
3165
100
AcDbEntity
  8
Visible Edges(ISO)
100
AcDbLine
 10
-16.41118140171528
 20
-9.474999999998317
 30
0.0
 11
-17.36380934587819
 21
-10.02499999999804
 31
0.0
  0
ARC
  5
3473
330
3165
100
AcDbEntity
  8
Visible Edges(ISO)
100
AcDbCircle
 10
-29.22835737772528
 20
-16.87499999999772
 30
0.0
 40
13.70000000000001
100
AcDbArc
 50
209.9999999999997
 51
29.99999999999972
  0
LINE
  5
3474
330
3165
100
AcDbEntity
  8
Visible Edges(ISO)
100
AcDbLine
 10
-41.09290540957235
 20
-23.72499999999718
 30
0.0
 11
-42.04553335373526
 21
-24.27499999999714
 31
0.0
  0
ARC
  5
3475
330
3165
100
AcDbEntity
  8
Visible Edges(ISO)
100
AcDbCircle
 10
-29.22835737772528
 20
-16.87499999999772
 30
0.0
 40
14.80000000000001
100
AcDbArc
 50
209.9999999999997
 51
29.99999999999972
  0
LINE
  5
3476
330
3165
100
AcDbEntity
  8
Visible Edges(ISO)
100
AcDbLine
 10
-17.36380934587822
 20
-10.02499999999804
 30
0.0
 11
-16.41118140171534
 21
-9.474999999998317
 31
0.0
  0
ARC
  5
3477
330
3165
100
AcDbEntity
  8
Visible Edges(ISO)
100
AcDbCircle
 10
-29.22835737772528
 20
-16.87499999999772
 30
0.0
 40
13.7
100
AcDbArc
 50
29.99999999999972
 51
209.9999999999997
  0
LINE
  5
3478
330
3165
100
AcDbEntity
  8
Visible Edges(ISO)
100
AcDbLine
 10
-42.04553335373528
 20
-24.27499999999714
 30
0.0
 11
-41.09290540957238
 21
-23.72499999999718
 31
0.0
  0
ARC
  5
3479
330
3165
100
AcDbEntity
  8
Visible Edges(ISO)
100
AcDbCircle
 10
-29.22835737772528
 20
-16.87499999999772
 30
0.0
 40
14.8
100
AcDbArc
 50
29.99999999999972
 51
209.9999999999997
  0
LINE
  5
347A
330
3165
100
AcDbEntity
  8
Visible Edges(ISO)
100
AcDbLine
 10
0.0000000000009095
 20
18.95000000000118
 30
0.0
 11
0.0000000000009663
 21
20.05000000000109
 31
0.0
  0
ARC
  5
347B
330
3165
100
AcDbEntity
  8
Visible Edges(ISO)
100
AcDbCircle
 10
0.0000000000014779
 20
33.75000000000114
 30
0.0
 40
13.70000000000001
100
AcDbArc
 50
89.99999999999673
 51
269.9999999999968
  0
LINE
  5
347C
330
3165
100
AcDbEntity
  8
Visible Edges(ISO)
100
AcDbLine
 10
0.0000000000020179
 20
47.45000000000118
 30
0.0
 11
0.0000000000021032
 21
48.5500000000011
 31
0.0
  0
ARC
  5
347D
330
3165
100
AcDbEntity
  8
Visible Edges(ISO)
100
AcDbCircle
 10
0.0000000000014779
 20
33.75000000000114
 30
0.0
 40
14.80000000000001
100
AcDbArc
 50
89.99999999999673
 51
269.9999999999968
  0
LINE
  5
347E
330
3165
100
AcDbEntity
  8
Visible Edges(ISO)
100
AcDbLine
 10
-0.0000000000005684
 20
20.04999999999995
 30
0.0
 11
-0.0000000000005684
 21
18.95000000000004
 31
0.0
  0
ARC
  5
347F
330
3165
100
AcDbEntity
  8
Visible Edges(ISO)
100
AcDbCircle
 10
-0.0000000000005684
 20
33.75
 30
0.0
 40
13.7
100
AcDbArc
 50
270.0
 51
90.0
  0
LINE
  5
3480
330
3165
100
AcDbEntity
  8
Visible Edges(ISO)
100
AcDbLine
 10
-0.0000000000005684
 20
48.54999999999995
 30
0.0
 11
-0.0000000000005684
 21
47.45000000000003
 31
0.0
  0
ARC
  5
3481
330
3165
100
AcDbEntity
  8
Visible Edges(ISO)
100
AcDbCircle
 10
-0.0000000000005684
 20
33.75
 30
0.0
 40
14.8
100
AcDbArc
 50
270.0
 51
90.0
  0
LINE
  5
3482
330
3165
100
AcDbEntity
  8
Visible Edges(ISO)
100
AcDbLine
 10
16.41118140171454
 20
-9.474999999999909
 30
0.0
 11
17.36380934587742
 21
-10.02499999999986
 31
0.0
  0
ARC
  5
3483
330
3165
100
AcDbEntity
  8
Visible Edges(ISO)
100
AcDbCircle
 10
29.22835737772422
 20
-16.875
 30
0.0
 40
13.70000000000001
100
AcDbArc
 50
330.0000000000003
 51
150.0000000000003
  0
LINE
  5
3484
330
3165
100
AcDbEntity
  8
Visible Edges(ISO)
100
AcDbLine
 10
41.09290540957103
 20
-23.72499999999991
 30
0.0
 11
42.04553335373392
 21
-24.27499999999986
 31
0.0
  0
ARC
  5
3485
330
3165
100
AcDbEntity
  8
Visible Edges(ISO)
100
AcDbCircle
 10
29.22835737772422
 20
-16.875
 30
0.0
 40
14.80000000000001
100
AcDbArc
 50
330.0000000000003
 51
150.0000000000003
  0
LINE
  5
3486
330
3165
100
AcDbEntity
  8
Visible Edges(ISO)
100
AcDbLine
 10
18.31643729004062
 20
-10.57499999999959
 30
0.0
 11
17.36380934587782
 21
-10.02499999999941
 31
0.0
  0
ARC
  5
3487
330
3165
100
AcDbEntity
  8
Visible Edges(ISO)
100
AcDbCircle
 10
29.22835737772431
 20
-16.87499999999977
 30
0.0
 40
12.6
100
AcDbArc
 50
149.9999999999994
 51
329.9999999999995
  0
LINE
  5
3488
330
3165
100
AcDbEntity
  8
Visible Edges(ISO)
100
AcDbLine
 10
41.09290540957082
 20
-23.72500000000036
 30
0.0
 11
40.14027746540803
 21
-23.17500000000041
 31
0.0
  0
ARC
  5
3489
330
3165
100
AcDbEntity
  8
Visible Edges(ISO)
100
AcDbCircle
 10
29.22835737772431
 20
-16.87499999999977
 30
0.0
 40
13.7
100
AcDbArc
 50
149.9999999999994
 51
329.9999999999995
  0
LINE
  5
348A
330
3165
100
AcDbEntity
  8
Visible Edges(ISO)
100
AcDbLine
 10
-17.36380934587819
 20
-10.02499999999804
 30
0.0
 11
-18.31643729004111
 21
-10.574999999998
 31
0.0
  0
ARC
  5
348B
330
3165
100
AcDbEntity
  8
Visible Edges(ISO)
100
AcDbCircle
 10
-29.22835737772528
 20
-16.87499999999772
 30
0.0
 40
12.6
100
AcDbArc
 50
209.9999999999997
 51
29.99999999999972
  0
LINE
  5
348C
330
3165
100
AcDbEntity
  8
Visible Edges(ISO)
100
AcDbLine
 10
-40.14027746540943
 20
-23.17499999999723
 30
0.0
 11
-41.09290540957235
 21
-23.72499999999718
 31
0.0
  0
ARC
  5
348D
330
3165
100
AcDbEntity
  8
Visible Edges(ISO)
100
AcDbCircle
 10
-29.22835737772528
 20
-16.87499999999772
 30
0.0
 40
13.70000000000001
100
AcDbArc
 50
209.9999999999997
 51
29.99999999999972
  0
LINE
  5
348E
330
3165
100
AcDbEntity
  8
Visible Edges(ISO)
100
AcDbLine
 10
-18.31643729004111
 20
-10.574999999998
 30
0.0
 11
-17.36380934587822
 21
-10.02499999999804
 31
0.0
  0
ARC
  5
348F
330
3165
100
AcDbEntity
  8
Visible Edges(ISO)
100
AcDbCircle
 10
-29.22835737772528
 20
-16.87499999999772
 30
0.0
 40
12.6
100
AcDbArc
 50
29.99999999999972
 51
209.9999999999997
  0
LINE
  5
3490
330
3165
100
AcDbEntity
  8
Visible Edges(ISO)
100
AcDbLine
 10
-41.09290540957238
 20
-23.72499999999718
 30
0.0
 11
-40.14027746540949
 21
-23.17499999999723
 31
0.0
  0
ARC
  5
3491
330
3165
100
AcDbEntity
  8
Visible Edges(ISO)
100
AcDbCircle
 10
-29.22835737772528
 20
-16.87499999999772
 30
0.0
 40
13.7
100
AcDbArc
 50
29.99999999999972
 51
209.9999999999997
  0
LINE
  5
3492
330
3165
100
AcDbEntity
  8
Visible Edges(ISO)
100
AcDbLine
 10
0.0000000000009663
 20
20.05000000000109
 30
0.0
 11
0.0000000000009663
 21
21.15000000000123
 31
0.0
  0
ARC
  5
3493
330
3165
100
AcDbEntity
  8
Visible Edges(ISO)
100
AcDbCircle
 10
0.0000000000014779
 20
33.75000000000114
 30
0.0
 40
12.60000000000001
100
AcDbArc
 50
89.99999999999673
 51
269.9999999999968
  0
LINE
  5
3494
330
3165
100
AcDbEntity
  8
Visible Edges(ISO)
100
AcDbLine
 10
0.0000000000019611
 20
46.35000000000103
 30
0.0
 11
0.0000000000020179
 21
47.45000000000118
 31
0.0
  0
ARC
  5
3495
330
3165
100
AcDbEntity
  8
Visible Edges(ISO)
100
AcDbCircle
 10
0.0000000000014779
 20
33.75000000000114
 30
0.0
 40
13.70000000000001
100
AcDbArc
 50
89.99999999999673
 51
269.9999999999968
  0
LINE
  5
3496
330
3165
100
AcDbEntity
  8
Visible Edges(ISO)
100
AcDbLine
 10
-0.0000000000005684
 20
21.15000000000009
 30
0.0
 11
-0.0000000000005684
 21
20.04999999999995
 31
0.0
  0
ARC
  5
3497
330
3165
100
AcDbEntity
  8
Visible Edges(ISO)
100
AcDbCircle
 10
-0.0000000000005684
 20
33.75
 30
0.0
 40
12.6
100
AcDbArc
 50
270.0
 51
90.0
  0
LINE
  5
3498
330
3165
100
AcDbEntity
  8
Visible Edges(ISO)
100
AcDbLine
 10
-0.0000000000005684
 20
47.45000000000003
 30
0.0
 11
-0.0000000000005684
 21
46.35000000000013
 31
0.0
  0
ARC
  5
3499
330
3165
100
AcDbEntity
  8
Visible Edges(ISO)
100
AcDbCircle
 10
-0.0000000000005684
 20
33.75
 30
0.0
 40
13.7
100
AcDbArc
 50
270.0
 51
90.0
  0
LINE
  5
349A
330
3165
100
AcDbEntity
  8
Visible Edges(ISO)
100
AcDbLine
 10
17.36380934587742
 20
-10.02499999999986
 30
0.0
 11
18.31643729004031
 21
-10.57500000000004
 31
0.0
  0
ARC
  5
349B
330
3165
100
AcDbEntity
  8
Visible Edges(ISO)
100
AcDbCircle
 10
29.22835737772422
 20
-16.875
 30
0.0
 40
12.6
100
AcDbArc
 50
330.0000000000003
 51
150.0000000000003
  0
LINE
  5
349C
330
3165
100
AcDbEntity
  8
Visible Edges(ISO)
100
AcDbLine
 10
40.14027746540821
 20
-23.17499999999995
 30
0.0
 11
41.09290540957103
 21
-23.72499999999991
 31
0.0
  0
ARC
  5
349D
330
3165
100
AcDbEntity
  8
Visible Edges(ISO)
100
AcDbCircle
 10
29.22835737772422
 20
-16.875
 30
0.0
 40
13.70000000000001
100
AcDbArc
 50
330.0000000000003
 51
150.0000000000003
  0
LINE
  5
349E
330
3165
100
AcDbEntity
  8
Visible Edges(ISO)
100
AcDbLine
 10
19.26906523420354
 20
-11.12499999999954
 30
0.0
 11
18.31643729004062
 21
-10.57499999999959
 31
0.0
  0
ARC
  5
349F
330
3165
100
AcDbEntity
  8
Visible Edges(ISO)
100
AcDbCircle
 10
29.22835737772431
 20
-16.87499999999977
 30
0.0
 40
11.49999999999999
100
AcDbArc
 50
149.9999999999994
 51
329.9999999999995
  0
LINE
  5
34A0
330
3165
100
AcDbEntity
  8
Visible Edges(ISO)
100
AcDbLine
 10
40.14027746540803
 20
-23.17500000000041
 30
0.0
 11
39.18764952124511
 21
-22.62500000000023
 31
0.0
  0
ARC
  5
34A1
330
3165
100
AcDbEntity
  8
Visible Edges(ISO)
100
AcDbCircle
 10
29.22835737772431
 20
-16.87499999999977
 30
0.0
 40
12.6
100
AcDbArc
 50
149.9999999999994
 51
329.9999999999995
  0
LINE
  5
34A2
330
3165
100
AcDbEntity
  8
Visible Edges(ISO)
100
AcDbLine
 10
-18.31643729004111
 20
-10.574999999998
 30
0.0
 11
-19.26906523420398
 21
-11.12499999999795
 31
0.0
  0
ARC
  5
34A3
330
3165
100
AcDbEntity
  8
Visible Edges(ISO)
100
AcDbCircle
 10
-29.22835737772528
 20
-16.87499999999772
 30
0.0
 40
11.50000000000001
100
AcDbArc
 50
209.9999999999997
 51
29.99999999999972
  0
LINE
  5
34A4
330
3165
100
AcDbEntity
  8
Visible Edges(ISO)
100
AcDbLine
 10
-39.18764952124656
 20
-22.62499999999727
 30
0.0
 11
-40.14027746540945
 21
-23.17499999999723
 31
0.0
  0
ARC
  5
34A5
330
3165
100
AcDbEntity
  8
Visible Edges(ISO)
100
AcDbCircle
 10
-29.22835737772528
 20
-16.87499999999772
 30
0.0
 40
12.6
100
AcDbArc
 50
209.9999999999997
 51
29.99999999999972
  0
LINE
  5
34A6
330
3165
100
AcDbEntity
  8
Visible Edges(ISO)
100
AcDbLine
 10
-19.26906523420405
 20
-11.12499999999795
 30
0.0
 11
-18.31643729004111
 21
-10.574999999998
 31
0.0
  0
ARC
  5
34A7
330
3165
100
AcDbEntity
  8
Visible Edges(ISO)
100
AcDbCircle
 10
-29.22835737772528
 20
-16.87499999999772
 30
0.0
 40
11.49999999999999
100
AcDbArc
 50
29.99999999999972
 51
209.9999999999997
  0
LINE
  5
34A8
330
3165
100
AcDbEntity
  8
Visible Edges(ISO)
100
AcDbLine
 10
-40.14027746540945
 20
-23.17499999999723
 30
0.0
 11
-39.18764952124656
 21
-22.62499999999727
 31
0.0
  0
ARC
  5
34A9
330
3165
100
AcDbEntity
  8
Visible Edges(ISO)
100
AcDbCircle
 10
-29.22835737772528
 20
-16.87499999999772
 30
0.0
 40
12.6
100
AcDbArc
 50
29.99999999999972
 51
209.9999999999997
  0
LINE
  5
34AA
330
3165
100
AcDbEntity
  8
Visible Edges(ISO)
100
AcDbLine
 10
0.0000000000009663
 20
21.15000000000123
 30
0.0
 11
0.0000000000010516
 21
22.25000000000114
 31
0.0
  0
ARC
  5
34AB
330
3165
100
AcDbEntity
  8
Visible Edges(ISO)
100
AcDbCircle
 10
0.0000000000014779
 20
33.75000000000114
 30
0.0
 40
11.50000000000001
100
AcDbArc
 50
89.99999999999673
 51
269.9999999999968
  0
LINE
  5
34AC
330
3165
100
AcDbEntity
  8
Visible Edges(ISO)
100
AcDbLine
 10
0.0000000000019327
 20
45.25000000000136
 30
0.0
 11
0.0000000000019611
 21
46.35000000000103
 31
0.0
  0
ARC
  5
34AD
330
3165
100
AcDbEntity
  8
Visible Edges(ISO)
100
AcDbCircle
 10
0.0000000000014779
 20
33.75000000000114
 30
0.0
 40
12.60000000000001
100
AcDbArc
 50
89.99999999999673
 51
269.9999999999968
  0
LINE
  5
34AE
330
3165
100
AcDbEntity
  8
Visible Edges(ISO)
100
AcDbLine
 10
-0.0000000000005684
 20
22.25
 30
0.0
 11
-0.0000000000005684
 21
21.15000000000009
 31
0.0
  0
ARC
  5
34AF
330
3165
100
AcDbEntity
  8
Visible Edges(ISO)
100
AcDbCircle
 10
-0.0000000000005684
 20
33.75
 30
0.0
 40
11.49999999999999
100
AcDbArc
 50
270.0
 51
90.0
  0
LINE
  5
34B0
330
3165
100
AcDbEntity
  8
Visible Edges(ISO)
100
AcDbLine
 10
-0.0000000000005684
 20
46.35000000000013
 30
0.0
 11
-0.0000000000005684
 21
45.25
 31
0.0
  0
ARC
  5
34B1
330
3165
100
AcDbEntity
  8
Visible Edges(ISO)
100
AcDbCircle
 10
-0.0000000000005684
 20
33.75
 30
0.0
 40
12.6
100
AcDbArc
 50
270.0
 51
90.0
  0
LINE
  5
34B2
330
3165
100
AcDbEntity
  8
Visible Edges(ISO)
100
AcDbLine
 10
18.31643729004031
 20
-10.57500000000004
 30
0.0
 11
19.26906523420322
 21
-11.125
 31
0.0
  0
ARC
  5
34B3
330
3165
100
AcDbEntity
  8
Visible Edges(ISO)
100
AcDbCircle
 10
29.22835737772422
 20
-16.875
 30
0.0
 40
11.5
100
AcDbArc
 50
330.0000000000003
 51
150.0000000000003
  0
LINE
  5
34B4
330
3165
100
AcDbEntity
  8
Visible Edges(ISO)
100
AcDbLine
 10
39.18764952124533
 20
-22.625
 30
0.0
 11
40.14027746540821
 21
-23.17499999999995
 31
0.0
  0
ARC
  5
34B5
330
3165
100
AcDbEntity
  8
Visible Edges(ISO)
100
AcDbCircle
 10
29.22835737772422
 20
-16.875
 30
0.0
 40
12.6
100
AcDbArc
 50
330.0000000000003
 51
150.0000000000003
  0
CIRCLE
  5
34B6
330
3165
100
AcDbEntity
  8
Visible Edges(ISO)
100
AcDbCircle
 10
25.20634094037144
 20
51.68065766220229
 30
0.0
 40
6.5
  0
LINE
  5
34B7
330
3165
100
AcDbEntity
  8
Visible Edges(ISO)
100
AcDbLine
 10
22.20015582527523
 20
49.95936423754324
 30
0.0
 11
22.21256454970154
 21
53.42344362802464
 31
0.0
  0
LINE
  5
34B8
330
3165
100
AcDbEntity
  8
Visible Edges(ISO)
100
AcDbLine
 10
22.21256454970154
 20
53.42344362802464
 30
0.0
 11
25.21874966479763
 21
55.14473705268368
 31
0.0
  0
LINE
  5
34B9
330
3165
100
AcDbEntity
  8
Visible Edges(ISO)
100
AcDbLine
 10
25.21874966479763
 20
55.14473705268368
 30
0.0
 11
28.21252605546752
 21
53.40195108686135
 31
0.0
  0
LINE
  5
34BA
330
3165
100
AcDbEntity
  8
Visible Edges(ISO)
100
AcDbLine
 10
28.21252605546752
 20
53.40195108686135
 30
0.0
 11
28.20011733104133
 21
49.93787169637993
 31
0.0
  0
LINE
  5
34BB
330
3165
100
AcDbEntity
  8
Visible Edges(ISO)
100
AcDbLine
 10
28.20011733104133
 20
49.93787169637993
 30
0.0
 11
25.19393221594512
 21
48.21657827172089
 31
0.0
  0
LINE
  5
34BC
330
3165
100
AcDbEntity
  8
Visible Edges(ISO)
100
AcDbLine
 10
25.19393221594512
 20
48.21657827172089
 30
0.0
 11
22.20015582527523
 21
49.95936423754324
 31
0.0
  0
CIRCLE
  5
34BD
330
3165
100
AcDbEntity
  8
Visible Edges(ISO)
100
AcDbCircle
 10
23.81569860407183
 20
13.75000000000023
 30
0.0
 40
6.500000000000002
  0
LINE
  5
34BE
330
3165
100
AcDbEntity
  8
Visible Edges(ISO)
100
AcDbLine
 10
26.10365225541483
 20
16.35101289679755
 30
0.0
 11
27.21221867394081
 21
13.06908046365447
 31
0.0
  0
LINE
  5
34BF
330
3165
100
AcDbEntity
  8
Visible Edges(ISO)
100
AcDbLine
 10
27.21221867394081
 20
13.06908046365447
 30
0.0
 11
24.92426502259781
 21
10.46806756685714
 31
0.0
  0
LINE
  5
34C0
330
3165
100
AcDbEntity
  8
Visible Edges(ISO)
100
AcDbLine
 10
24.92426502259781
 20
10.46806756685714
 30
0.0
 11
21.52774495272883
 21
11.1489871032029
 31
0.0
  0
LINE
  5
34C1
330
3165
100
AcDbEntity
  8
Visible Edges(ISO)
100
AcDbLine
 10
21.52774495272883
 20
11.1489871032029
 30
0.0
 11
20.4191785342029
 21
14.43091953634598
 31
0.0
  0
LINE
  5
34C2
330
3165
100
AcDbEntity
  8
Visible Edges(ISO)
100
AcDbLine
 10
20.4191785342029
 20
14.43091953634598
 30
0.0
 11
22.7071321855459
 21
17.03193243314331
 31
0.0
  0
LINE
  5
34C3
330
3165
100
AcDbEntity
  8
Visible Edges(ISO)
100
AcDbLine
 10
22.7071321855459
 20
17.03193243314331
 30
0.0
 11
26.10365225541483
 21
16.35101289679755
 31
0.0
  0
CIRCLE
  5
34C4
330
3165
100
AcDbEntity
  8
Visible Edges(ISO)
100
AcDbCircle
 10
57.35993288993933
 20
-4.010997240287223
 30
0.0
 40
6.500000000000002
  0
LINE
  5
34C5
330
3165
100
AcDbEntity
  8
Visible Edges(ISO)
100
AcDbLine
 10
58.56159794513633
 20
-0.761997225649111
 30
0.0
 11
60.77448196711043
 21
-3.427169697608633
 31
0.0
  0
LINE
  5
34C6
330
3165
100
AcDbEntity
  8
Visible Edges(ISO)
100
AcDbLine
 10
60.77448196711043
 20
-3.427169697608633
 30
0.0
 11
59.57281691191352
 21
-6.676169712246745
 31
0.0
  0
LINE
  5
34C7
330
3165
100
AcDbEntity
  8
Visible Edges(ISO)
100
AcDbLine
 10
59.57281691191352
 20
-6.676169712246745
 30
0.0
 11
56.15826783474243
 21
-7.25999725492511
 31
0.0
  0
LINE
  5
34C8
330
3165
100
AcDbEntity
  8
Visible Edges(ISO)
100
AcDbLine
 10
56.15826783474243
 20
-7.25999725492511
 30
0.0
 11
53.94538381276823
 21
-4.594824782965588
 31
0.0
  0
LINE
  5
34C9
330
3165
100
AcDbEntity
  8
Visible Edges(ISO)
100
AcDbLine
 10
53.94538381276823
 20
-4.594824782965588
 30
0.0
 11
55.14704886796522
 21
-1.345824768327473
 31
0.0
  0
LINE
  5
34CA
330
3165
100
AcDbEntity
  8
Visible Edges(ISO)
100
AcDbLine
 10
55.14704886796522
 20
-1.345824768327473
 30
0.0
 11
58.56159794513633
 21
-0.761997225649111
 31
0.0
  0
CIRCLE
  5
34CB
330
3165
100
AcDbEntity
  8
Visible Edges(ISO)
100
AcDbCircle
 10
32.15359194956625
 20
-47.66966042191484
 30
0.0
 40
6.500000000000002
  0
LINE
  5
34CC
330
3165
100
AcDbEntity
  8
Visible Edges(ISO)
100
AcDbLine
 10
28.69135451907883
 20
-47.78329129330041
 30
0.0
 11
30.32406601304842
 21
-44.72809028887217
 31
0.0
  0
LINE
  5
34CD
330
3165
100
AcDbEntity
  8
Visible Edges(ISO)
100
AcDbLine
 10
30.32406601304842
 20
-44.72809028887217
 30
0.0
 11
33.78630344353593
 21
-44.6144594174866
 31
0.0
  0
LINE
  5
34CE
330
3165
100
AcDbEntity
  8
Visible Edges(ISO)
100
AcDbLine
 10
33.78630344353593
 20
-44.6144594174866
 30
0.0
 11
35.61582938005361
 21
-47.5560295505295
 31
0.0
  0
LINE
  5
34CF
330
3165
100
AcDbEntity
  8
Visible Edges(ISO)
100
AcDbLine
 10
35.61582938005361
 20
-47.5560295505295
 30
0.0
 11
33.98311788608391
 21
-50.6112305549575
 31
0.0
  0
LINE
  5
34D0
330
3165
100
AcDbEntity
  8
Visible Edges(ISO)
100
AcDbLine
 10
33.98311788608391
 20
-50.6112305549575
 30
0.0
 11
30.52088045559651
 21
-50.72486142634307
 31
0.0
  0
LINE
  5
34D1
330
3165
100
AcDbEntity
  8
Visible Edges(ISO)
100
AcDbLine
 10
30.52088045559651
 20
-50.72486142634307
 30
0.0
 11
28.69135451907883
 21
-47.78329129330041
 31
0.0
  0
CIRCLE
  5
34D2
330
3165
100
AcDbEntity
  8
Visible Edges(ISO)
100
AcDbCircle
 10
-0.0000000000009379
 20
-27.49999999999886
 30
0.0
 40
6.5
  0
LINE
  5
34D3
330
3165
100
AcDbEntity
  8
Visible Edges(ISO)
100
AcDbLine
 10
-2.833288282000893
 20
-25.50689249886364
 30
0.0
 11
0.3094375874555624
 21
-24.0497466209747
 31
0.0
  0
LINE
  5
34D4
330
3165
100
AcDbEntity
  8
Visible Edges(ISO)
100
AcDbLine
 10
0.3094375874555624
 20
-24.0497466209747
 30
0.0
 11
3.142725869455546
 21
-26.04285412210993
 31
0.0
  0
LINE
  5
34D5
330
3165
100
AcDbEntity
  8
Visible Edges(ISO)
100
AcDbLine
 10
3.142725869455546
 20
-26.04285412210993
 30
0.0
 11
2.833288281999017
 21
-29.49310750113409
 31
0.0
  0
LINE
  5
34D6
330
3165
100
AcDbEntity
  8
Visible Edges(ISO)
100
AcDbLine
 10
2.833288281999017
 20
-29.49310750113432
 30
0.0
 11
-0.3094375874574666
 21
-30.95025337902325
 31
0.0
  0
LINE
  5
34D7
330
3165
100
AcDbEntity
  8
Visible Edges(ISO)
100
AcDbLine
 10
-0.3094375874574666
 20
-30.95025337902325
 30
0.0
 11
-3.142725869457365
 21
-28.95714587788802
 31
0.0
  0
LINE
  5
34D8
330
3165
100
AcDbEntity
  8
Visible Edges(ISO)
100
AcDbLine
 10
-3.142725869457365
 20
-28.95714587788802
 30
0.0
 11
-2.833288282000893
 21
-25.50689249886364
 31
0.0
  0
CIRCLE
  5
34D9
330
3165
100
AcDbEntity
  8
Visible Edges(ISO)
100
AcDbCircle
 10
-32.1535919495696
 20
-47.66966042191256
 30
0.0
 40
6.5
  0
LINE
  5
34DA
330
3165
100
AcDbEntity
  8
Visible Edges(ISO)
100
AcDbLine
 10
-34.70979541197357
 20
-50.00757056962878
 30
0.0
 11
-35.45638326045918
 21
-46.624878360087
 31
0.0
  0
LINE
  5
34DB
330
3165
100
AcDbEntity
  8
Visible Edges(ISO)
100
AcDbLine
 10
-35.45638326045918
 20
-46.624878360087
 30
0.0
 11
-32.90017979805519
 21
-44.28696821237099
 31
0.0
  0
LINE
  5
34DC
330
3165
100
AcDbEntity
  8
Visible Edges(ISO)
100
AcDbLine
 10
-32.90017979805519
 20
-44.28696821237076
 30
0.0
 11
-29.59738848716563
 21
-45.33175027419633
 31
0.0
  0
LINE
  5
34DD
330
3165
100
AcDbEntity
  8
Visible Edges(ISO)
100
AcDbLine
 10
-29.59738848716563
 20
-45.33175027419633
 30
0.0
 11
-28.85080063868006
 21
-48.71444248373814
 31
0.0
  0
LINE
  5
34DE
330
3165
100
AcDbEntity
  8
Visible Edges(ISO)
100
AcDbLine
 10
-28.85080063868006
 20
-48.71444248373814
 30
0.0
 11
-31.40700410108403
 21
-51.05235263145414
 31
0.0
  0
LINE
  5
34DF
330
3165
100
AcDbEntity
  8
Visible Edges(ISO)
100
AcDbLine
 10
-31.40700410108403
 20
-51.05235263145414
 30
0.0
 11
-34.70979541197357
 21
-50.00757056962878
 31
0.0
  0
CIRCLE
  5
34E0
330
3165
100
AcDbEntity
  8
Visible Edges(ISO)
100
AcDbCircle
 10
-57.35993288993984
 20
-4.010997240283812
 30
0.0
 40
6.5
  0
LINE
  5
34E1
330
3165
100
AcDbEntity
  8
Visible Edges(ISO)
100
AcDbLine
 10
-60.44615634239718
 20
-5.584281957524352
 30
0.0
 11
-60.26554914868455
 21
-2.124891687320769
 31
0.0
  0
LINE
  5
34E2
330
3165
100
AcDbEntity
  8
Visible Edges(ISO)
100
AcDbLine
 10
-60.26554914868455
 20
-2.124891687320769
 30
0.0
 11
-57.17932569622719
 21
-0.5516069700804565
 31
0.0
  0
LINE
  5
34E3
330
3165
100
AcDbEntity
  8
Visible Edges(ISO)
100
AcDbLine
 10
-57.17932569622721
 20
-0.5516069700804565
 30
0.0
 11
-54.2737094374825
 21
-2.437712523043501
 31
0.0
  0
LINE
  5
34E4
330
3165
100
AcDbEntity
  8
Visible Edges(ISO)
100
AcDbLine
 10
-54.2737094374825
 20
-2.437712523043501
 30
0.0
 11
-54.45431663119514
 21
-5.897102793247086
 31
0.0
  0
LINE
  5
34E5
330
3165
100
AcDbEntity
  8
Visible Edges(ISO)
100
AcDbLine
 10
-54.45431663119514
 20
-5.897102793247086
 30
0.0
 11
-57.54054008365248
 21
-7.470387510487397
 31
0.0
  0
LINE
  5
34E6
330
3165
100
AcDbEntity
  8
Visible Edges(ISO)
100
AcDbLine
 10
-57.54054008365248
 20
-7.470387510487397
 30
0.0
 11
-60.44615634239718
 21
-5.584281957524352
 31
0.0
  0
CIRCLE
  5
34E7
330
3165
100
AcDbEntity
  8
Visible Edges(ISO)
100
AcDbCircle
 10
-23.8156986040716
 20
13.7500000000025
 30
0.0
 40
6.5
  0
LINE
  5
34E8
330
3165
100
AcDbEntity
  8
Visible Edges(ISO)
100
AcDbLine
 10
-21.17888564216833
 20
15.99660130062057
 30
0.0
 11
-20.55167832460956
 21
12.58975364027515
 31
0.0
  0
LINE
  5
34E9
330
3165
100
AcDbEntity
  8
Visible Edges(ISO)
100
AcDbLine
 10
-20.55167832460956
 20
12.58975364027515
 30
0.0
 11
-23.18849128651283
 21
10.34315233965708
 31
0.0
  0
LINE
  5
34EA
330
3165
100
AcDbEntity
  8
Visible Edges(ISO)
100
AcDbLine
 10
-23.18849128651283
 20
10.34315233965708
 30
0.0
 11
-26.45251156597487
 21
11.50339869938443
 31
0.0
  0
LINE
  5
34EB
330
3165
100
AcDbEntity
  8
Visible Edges(ISO)
100
AcDbLine
 10
-26.45251156597487
 20
11.50339869938443
 30
0.0
 11
-27.07971888353367
 21
14.91024635972985
 31
0.0
  0
LINE
  5
34EC
330
3165
100
AcDbEntity
  8
Visible Edges(ISO)
100
AcDbLine
 10
-27.07971888353367
 20
14.91024635972985
 30
0.0
 11
-24.4429059216304
 21
17.15684766034769
 31
0.0
  0
LINE
  5
34ED
330
3165
100
AcDbEntity
  8
Visible Edges(ISO)
100
AcDbLine
 10
-24.4429059216304
 20
17.15684766034769
 30
0.0
 11
-21.17888564216833
 21
15.99660130062057
 31
0.0
  0
CIRCLE
  5
34EE
330
3165
100
AcDbEntity
  8
Visible Edges(ISO)
100
AcDbCircle
 10
-25.20634094036978
 20
51.68065766220434
 30
0.0
 40
6.500000000000002
  0
LINE
  5
34EF
330
3165
100
AcDbEntity
  8
Visible Edges(ISO)
100
AcDbLine
 10
-25.41555388884615
 20
55.13843584221945
 30
0.0
 11
-22.31642367006322
 21
53.59073048039316
 31
0.0
  0
LINE
  5
34F0
330
3165
100
AcDbEntity
  8
Visible Edges(ISO)
100
AcDbLine
 10
-22.31642367006322
 20
53.59073048039316
 30
0.0
 11
-22.10721072158682
 21
50.13295230037782
 31
0.0
  0
LINE
  5
34F1
330
3165
100
AcDbEntity
  8
Visible Edges(ISO)
100
AcDbLine
 10
-22.10721072158682
 20
50.13295230037782
 30
0.0
 11
-24.99712799189339
 21
48.222879482189
 31
0.0
  0
LINE
  5
34F2
330
3165
100
AcDbEntity
  8
Visible Edges(ISO)
100
AcDbLine
 10
-24.99712799189339
 20
48.222879482189
 30
0.0
 11
-28.09625821067636
 21
49.77058484401528
 31
0.0
  0
LINE
  5
34F3
330
3165
100
AcDbEntity
  8
Visible Edges(ISO)
100
AcDbLine
 10
-28.09625821067636
 20
49.77058484401528
 30
0.0
 11
-28.30547115915272
 21
53.22836302403061
 31
0.0
  0
LINE
  5
34F4
330
3165
100
AcDbEntity
  8
Visible Edges(ISO)
100
AcDbLine
 10
-28.30547115915272
 20
53.22836302403061
 30
0.0
 11
-25.41555388884615
 21
55.13843584221945
 31
0.0
  0
LINE
  5
354E
330
3165
100
AcDbEntity
  8
DIM
100
AcDbLine
 10
-72.5000000000003
 20
-0.9999999999979126
 30
0.0
 11
-72.5000000000003
 21
-84.43127309136968
 31
0.0
  0
LINE
  5
354F
330
3165
100
AcDbEntity
  8
DIM
100
AcDbLine
 10
72.5
 20
-0.9999999999999587
 30
0.0
 11
72.5
 21
-84.43127309136968
 31
0.0
  0
LINE
  5
3550
330
3165
100
AcDbEntity
  8
DIM
100
AcDbLine
 10
-70.0000000000003
 20
-83.43127309136969
 30
0.0
 11
70.0
 21
-83.43127309136969
 31
0.0
  0
SOLID
  5
3551
330
3165
100
AcDbEntity
  8
DIM
100
AcDbTrace
 10
-70.0000000000003
 20
-83.01460642470301
 30
0.0
 11
-70.0000000000003
 21
-83.84793975803637
 31
0.0
 12
-72.5000000000003
 22
-83.43127309136969
 32
0.0
 13
-72.5000000000003
 23
-83.43127309136969
 33
0.0
  0
SOLID
  5
3552
330
3165
100
AcDbEntity
  8
DIM
100
AcDbTrace
 10
70.0
 20
-83.01460642470301
 30
0.0
 11
70.0
 21
-83.84793975803637
 31
0.0
 12
72.5
 22
-83.43127309136969
 32
0.0
 13
72.5
 23
-83.43127309136969
 33
0.0
  0
MTEXT
  5
3553
330
3165
100
AcDbEntity
  8
DIM
 62
     2
100
AcDbMText
 10
-0.000000000000149
 20
-80.00542721308523
 30
0.0
 40
3.5
 41
0.0
 46
0.0
 71
     5
 72
     1
  1
Ø145 [5.709"]
 73
     1
 44
1.0
  0
LINE
  5
3555
330
3165
100
AcDbEntity
  8
DIM
100
AcDbLine
 10
10.85924567934679
 20
42.5861067940341
 30
0.0
 11
37.26257471301537
 21
64.07034630278952
 31
0.0
  0
LINE
  5
3556
330
3165
100
AcDbEntity
  8
DIM
100
AcDbLine
 10
37.26257471301537
 20
64.07034630278952
 30
0.0
 11
66.0748048697453
 21
64.0703463027895
 31
0.0
  0
SOLID
  5
3557
330
3165
100
AcDbEntity
  8
DIM
100
AcDbTrace
 10
10.59626631047672
 20
42.90929862972897
 30
0.0
 11
11.12222504821684
 21
42.26291495833925
 31
0.0
 12
8.920094665177611
 22
41.00823058081375
 32
0.0
 13
8.920094665177611
 23
41.00823058081375
 33
0.0
  0
MTEXT
  5
3558
330
3165
100
AcDbEntity
  8
DIM
 62
     2
100
AcDbMText
 10
52.41868979138032
 20
67.49619218107401
 30
0.0
 40
3.5
 41
0.0
 46
0.0
 71
     5
 72
     1
  1
∅23 [∅0.906"]
 73
     1
 44
1.0
  0
LINE
  5
3559
330
3165
100
AcDbEntity
  8
DIM
100
AcDbLine
 10
15.94153908398165
 20
53.00791607713225
 30
0.0
 11
34.00639868195678
 21
74.83087484229542
 31
0.0
  0
LINE
  5
355A
330
3165
100
AcDbEntity
  8
DIM
100
AcDbLine
 10
34.00639868195678
 20
74.83087484229542
 30
0.0
 11
62.45639868195677
 21
74.83087484229542
 31
0.0
  0
SOLID
  5
355B
330
3165
100
AcDbEntity
  8
DIM
100
AcDbTrace
 10
15.62057381602943
 20
53.27360839519863
 30
0.0
 11
16.26250435193384
 21
52.74222375906589
 31
0.0
 12
14.34738517558341
 22
51.08212446941905
 32
0.0
 13
14.34738517558341
 23
51.08212446941905
 33
0.0
  0
MTEXT
  5
355C
330
3165
100
AcDbEntity
  8
DIM
 62
     2
100
AcDbMText
 10
48.98139868195676
 20
78.25587484229545
 30
0.0
 40
3.5
 41
0.0
 46
0.0
 71
     5
 72
     1
  1
∅45 [∅1.772"]
 73
     1
 44
1.0
  0
ENDBLK
  5
32FF
330
3165
100
AcDbEntity
  8
0
100
AcDbBlockEnd
  0
ENDSEC
  0
SECTION
  2
ENTITIES
  0
INSERT
  5
330C
330
1A
100
AcDbEntity
  8
AM_0
100
AcDbBlockReference
  2
H3135UGWOC
 10
72.49999856529893
 20
88.9884425442292
 30
0.0
  0
VIEWPORT
  5
2CAA
102
{ACAD_XDICTIONARY
360
2CAB
102
}
330
2CA3
100
AcDbEntity
 67
     1
  8
0
348
A55
100
AcDbViewport
 10
128.5
 20
97.5
 30
0.0
 40
349.2069620253165
 41
222.18
 68
     1
 69
     1
 12
128.5
 22
97.5
 13
0.0
 23
0.0
 14
10.0
 24
10.0
 15
10.0
 25
10.0
 16
0.0
 26
0.0
 36
1.0
 17
0.0
 27
0.0
 37
0.0
 42
50.0
 43
0.0
 44
0.0
 45
222.18
 50
0.0
 51
0.0
 72
   100
 90
   819232
  1

281
     0
 71
     1
 74
     0
110
0.0
120
0.0
130
0.0
111
1.0
121
0.0
131
0.0
112
0.0
122
1.0
132
0.0
 79
     0
146
0.0
170
     0
 61
     5
292
     1
282
     1
141
0.0
142
0.0
 63
   250
421
  3355443
1001
GENIUS_GENSCREG_15
1000
PF
1040
1.0
1000
DF
1040
1.0
1000
MIN
1011
-46.10348101265822
1021
-13.59
1031
0.0
1000
MAX
1011
303.1034810126582
1021
208.59
1031
0.0
1000
FLAGS
1070
     4
1001
GENIUS_GENOBJ-N-SDF_13
1002
{
1000
OWNER
1000
GEN
1002
}
1001
GENIUS_GENODEF_13
1002
{
1000
HIER
1070
     0
1002
}
1002
{
1000
MANEDIT
1070
     0
1002
}
1002
{
1000
NOSEL
1070
     0
1002
}
1002
{
1000
BEHIND
1070
     0
1002
}
1002
{
1000
OTHER
1070
     0
1002
}
1002
{
1000
REACTOR
1002
}
  0
ENDSEC
  0
SECTION
  2
OBJECTS
  0
DICTIONARY
  5
C
330
0
100
AcDbDictionary
281
     1
  3
ACAD_CIP_PREVIOUS_PRODUCT_INFO
350
CD7
  3
ACAD_COLOR
350
3CA
  3
ACAD_DETAILVIEWSTYLE
350
CCB
  3
ACAD_FIELDLIST
350
D6A
  3
ACAD_GROUP
350
D
  3
ACAD_LAYOUT
350
167
  3
ACAD_MATERIAL
350
3C9
  3
ACAD_MLEADERSTYLE
350
A72
  3
ACAD_MLINESTYLE
350
E
  3
ACAD_PLOTSETTINGS
350
168
  3
ACAD_PLOTSTYLENAME
350
165
  3
ACAD_SCALELIST
350
A60
  3
ACAD_SECTIONVIEWSTYLE
350
CC9
  3
ACAD_TABLESTYLE
350
650
  3
ACAD_VISUALSTYLE
350
A4F
  3
ACASAPPOBJECT
350
EE
  3
ACASGREF_MASTER
350
9B
  3
ACDB_RECOMPOSE_DATA
350
355F
  3
ACDBVARIABLEDICTIONARY
350
5D
  3
ACMDICTIONARY
350
142
  3
AD_GREF_MODULE
350
AF
  3
AD_MAPI_MODULE
350
18E
  3
AMG
350
171
  3
AMGSNAPSETTINGS
350
1F2
  3
ASE_INDEX_DICTIONARY
350
849
  3
coolorange
350
13F2
  3
MAPISURF_MODULE
350
2E8
  0
DICTIONARY
  5
592
330
2
100
AcDbDictionary
280
     1
281
     1
  3
ACAD_LAYERFILTERS
360
C7C
  3
ACAD_LAYERSTATES
360
822
  3
ACLYDICTIONARY
360
C7B
  3
AMLAYER_GROUPCOLORS
360
593
  0
DICTIONARY
  5
AB7
330
F
100
AcDbDictionary
280
     1
281
     1
  3
ADSK_XREC_LAYER_RECONCILED
360
330D
  0
DICTIONARY
  5
AB9
330
5CF
100
AcDbDictionary
280
     1
281
     1
  3
ADSK_XREC_LAYER_RECONCILED
360
330E
  0
DICTIONARY
  5
330F
330
3300
100
AcDbDictionary
280
     1
281
     1
  3
ADSK_XREC_LAYER_RECONCILED
360
3310
  0
DICTIONARY
  5
3311
330
3302
100
AcDbDictionary
280
     1
281
     1
  3
ADSK_XREC_LAYER_RECONCILED
360
3312
  0
DICTIONARY
  5
12A
330
1A
100
AcDbDictionary
280
     1
281
     1
  3
ACAD_INDEX
360
30C4
  0
DICTIONARY
  5
34FE
330
3165
100
AcDbDictionary
280
     1
281
     1
  3
ACAD_SORTENTS
360
3554
  0
DICTIONARY
  5
2CAB
330
2CAA
100
AcDbDictionary
280
     1
281
     1
  3
ASDK_XREC_ANNOTATION_SCALE_INFO
360
2CAC
  0
XRECORD
  5
CD7
102
{ACAD_REACTORS
330
C
102
}
330
C
100
AcDbXrecord
280
     1
300
AMECH_PP
300
2013
300
85963PDSU_2013_0F
  0
DICTIONARY
  5
3CA
102
{ACAD_REACTORS
330
C
102
}
330
C
100
AcDbDictionary
281
     1
  0
DICTIONARY
  5
CCB
102
{ACAD_REACTORS
330
C
102
}
330
C
100
AcDbDictionary
281
     1
  3
ISO 128-34_2001
350
10B9
  3
Metric50
350
CCC
  0
FIELDLIST
  5
D6A
102
{ACAD_REACTORS
330
C
102
}
330
C
100
AcDbIdSet
 90
        3
330
10BD
330
10BE
330
10BF
100
AcDbFieldList
  0
DICTIONARY
  5
D
102
{ACAD_REACTORS
330
C
102
}
330
C
100
AcDbDictionary
281
     1
  0
DICTIONARY
  5
167
102
{ACAD_REACTORS
330
C
102
}
330
C
100
AcDbDictionary
281
     1
  3
Layout1
350
2CA4
  3
Model
350
169
  0
DICTIONARY
  5
3C9
102
{ACAD_REACTORS
330
C
102
}
330
C
100
AcDbDictionary
281
     1
  3
ByBlock
350
A3F
  3
ByLayer
350
A37
  3
Global
350
A47
  0
DICTIONARY
  5
A72
102
{ACAD_REACTORS
330
C
102
}
330
C
100
AcDbDictionary
281
     1
  3
Standard
350
A73
  0
DICTIONARY
  5
E
102
{ACAD_REACTORS
330
C
102
}
330
C
100
AcDbDictionary
281
     1
  3
STANDARD
350
13
  0
DICTIONARY
  5
168
102
{ACAD_REACTORS
330
C
102
}
330
C
100
AcDbDictionary
281
     1
  3
Setup1
350
2C89
  0
ACDBDICTIONARYWDFLT
  5
165
102
{ACAD_REACTORS
330
C
102
}
330
C
100
AcDbDictionary
281
     1
  3
Normal
350
166
100
AcDbDictionaryWithDefault
340
166
  0
DICTIONARY
  5
A60
102
{ACAD_REACTORS
330
C
102
}
330
C
100
AcDbDictionary
281
     1
  3
A0
350
A61
  3
A1
350
A62
  3
A2
350
A63
  3
A3
350
A64
  3
A4
350
A65
  3
A5
350
A66
  3
A6
350
A67
  3
A7
350
A68
  3
A8
350
A69
  3
A9
350
A6A
  3
B0
350
A6B
  3
B1
350
A6C
  3
B2
350
A6D
  3
B3
350
A6E
  3
B4
350
A6F
  3
B5
350
A70
  3
B6
350
A71
  0
DICTIONARY
  5
CC9
102
{ACAD_REACTORS
330
C
102
}
330
C
100
AcDbDictionary
281
     1
  3
ISO 128_1982
350
10BA
  3
Metric50
350
CCA
  0
DICTIONARY
  5
650
102
{ACAD_REACTORS
330
C
102
}
330
C
100
AcDbDictionary
281
     1
  3
Standard
350
651
  0
DICTIONARY
  5
A4F
102
{ACAD_REACTORS
330
C
102
}
330
C
100
AcDbDictionary
281
     1
  3
2dWireframe
350
A55
  3
3D Hidden
350
A57
  3
3dWireframe
350
A56
  3
Basic
350
A54
  3
Brighten
350
A5B
  3
ColorChange
350
A5F
  3
Conceptual
350
A58
  3
Dim
350
A5A
  3
EdgeColorOff
350
CC8
  3
Facepattern
350
A5E
  3
Flat
350
A50
  3
FlatWithEdges
350
A51
  3
Gouraud
350
A52
  3
GouraudWithEdges
350
A53
  3
Hidden
350
CC0
  3
JitterOff
350
CC6
  3
Linepattern
350
A5D
  3
OverhangOff
350
CC7
  3
Realistic
350
A59
  3
Shaded
350
CC5
  3
Shaded with edges
350
CC4
  3
Shades of Gray
350
CC1
  3
Sketchy
350
CC2
  3
Thicken
350
A5C
  3
Wireframe
350
CBF
  3
X-Ray
350
CC3
  0
ACAD_PROXY_OBJECT
  5
EE
102
{ACAD_REACTORS
330
C
102
}
330
C
100
AcDbProxyObject
 90
      499
 91
      544
 95
  3276827
 70
     0
162
                 0
161
                10
310
404C
 94
        0
  0
ACAD_PROXY_OBJECT
  5
9B
102
{ACAD_REACTORS
330
C
102
}
330
C
100
AcDbProxyObject
 90
      499
 91
      514
 95
  3276827
 70
     0
162
                 0
161
                34
310
010000404C
 94
        0
  0
XRECORD
  5
355F
102
{ACAD_REACTORS
330
C
102
}
330
C
100
AcDbXrecord
280
     1
 90
        1
330
651
  0
DICTIONARY
  5
5D
102
{ACAD_REACTORS
330
C
102
}
330
C
100
AcDbDictionary
281
     1
  3
CANNOSCALE
350
AF4
  3
CMLEADERSTYLE
350
AF2
  3
CTABLESTYLE
350
66F
  3
CVIEWDETAILSTYLE
350
FFA
  3
CVIEWSECTIONSTYLE
350
FFB
  3
DIMADEC
350
5E
  3
DIMASSOC
350
3C7
  3
INDEXCTL
350
128
  3
LAYEREVAL
350
AF6
  3
LAYERNOTIFY
350
AF7
  3
LIGHTINGUNITS
350
AF5
  3
MSLTSCALE
350
AF3
  0
DICTIONARY
  5
142
102
{ACAD_REACTORS
330
C
102
}
330
C
100
AcDbDictionary
281
     1
  3
ACMSTDDICTIONARY
350
143
  3
AMDTSECTSYM_ARROWCOLOR
350
47D
  0
ACAD_PROXY_OBJECT
  5
AF
102
{ACAD_REACTORS
330
C
102
}
330
C
100
AcDbProxyObject
 90
      499
 91
      526
 95
  3276827
 70
     0
162
                 0
161
               114
310
00000043800000000000000000000C
 94
        0
  0
ACAD_PROXY_OBJECT
  5
18E
102
{ACAD_REACTORS
330
C
102
}
330
C
100
AcDbProxyObject
 90
      499
 91
      570
 95
  3276827
 70
     0
162
                 0
161
                34
310
05000044CC
 94
        0
  0
DICTIONARY
  5
171
102
{ACAD_REACTORS
330
C
102
}
330
C
100
AcDbDictionary
281
     1
  0
DICTIONARY
  5
1F2
102
{ACAD_REACTORS
330
C
102
}
330
C
100
AcDbDictionary
281
     1
  0
DICTIONARY
  5
849
102
{ACAD_REACTORS
330
C
102
}
330
C
100
AcDbDictionary
281
     1
  3
ASEBlockHierarchyIndexRecord
350
84B
1001
DCO15
1040
1524370329.156
  0
DICTIONARY
  5
13F2
102
{ACAD_REACTORS
330
C
102
}
330
C
100
AcDbDictionary
281
     1
  3
myviewproperty
350
13F3
  0
ACAD_PROXY_OBJECT
  5
2E8
102
{ACAD_REACTORS
330
C
102
}
330
C
100
AcDbProxyObject
 90
      499
 91
      610
 95
  3276827
 70
     0
162
                 0
161
                 8
310
0439
 94
        0
  0
DICTIONARY
  5
C7C
102
{ACAD_REACTORS
330
592
102
}
330
592
100
AcDbDictionary
281
     1
  0
DICTIONARY
  5
822
102
{ACAD_REACTORS
330
592
102
}
330
592
100
AcDbDictionary
281
     1
  0
DICTIONARY
  5
C7B
102
{ACAD_REACTORS
330
592
102
}
330
592
100
AcDbDictionary
281
     1
1001
ACAD
1000
<All
  0
DICTIONARY
  5
593
102
{ACAD_REACTORS
330
592
102
}
330
592
100
AcDbDictionary
280
     1
281
     1
  0
XRECORD
  5
330D
102
{ACAD_REACTORS
330
AB7
102
}
330
AB7
100
AcDbXrecord
280
     1
290
     1
  0
XRECORD
  5
330E
102
{ACAD_REACTORS
330
AB9
102
}
330
AB9
100
AcDbXrecord
280
     1
290
     1
  0
XRECORD
  5
3310
102
{ACAD_REACTORS
330
330F
102
}
330
330F
100
AcDbXrecord
280
     1
290
     1
  0
XRECORD
  5
3312
102
{ACAD_REACTORS
330
3311
102
}
330
3311
100
AcDbXrecord
280
     1
290
     1
  0
DICTIONARY
  5
30C4
102
{ACAD_REACTORS
330
12A
102
}
330
12A
100
AcDbDictionary
281
     1
  3
*A1
350
30C5
  0
SORTENTSTABLE
  5
3554
102
{ACAD_REACTORS
330
34FE
102
}
330
34FE
100
AcDbSortentsTable
330
3165
331
34E0
  5
34E0
331
34F1
  5
34F1
331
33F5
  5
33F5
331
33E4
  5
33E4
331
33DA
  5
33DA
331
33C9
  5
33C9
331
33B8
  5
33B8
331
347F
  5
347F
331
3557
  5
355B
331
3490
  5
3490
331
3450
  5
3450
331
34A1
  5
34A1
331
3461
  5
3461
331
34D4
  5
34D4
331
34C3
  5
34C3
331
34B2
  5
34B2
331
3439
  5
3439
331
3428
  5
3428
331
3417
  5
3417
331
3406
  5
3406
331
33A7
  5
33A7
331
3396
  5
3396
331
3385
  5
3385
331
3374
  5
3374
331
336D
  5
336D
331
34E1
  5
34E1
331
34F2
  5
34F2
331
33F6
  5
33F6
331
33E5
  5
33E5
331
33DB
  5
33DB
331
33CA
  5
33CA
331
33B9
  5
33B9
331
33A8
  5
33A8
331
3480
  5
3480
331
3491
  5
3491
331
3451
  5
3451
331
34A2
  5
34A2
331
3462
  5
3462
331
34D5
  5
34D5
331
34C4
  5
34C4
331
34B3
  5
34B3
331
343A
  5
343A
331
3429
  5
3429
331
3418
  5
3418
331
3407
  5
3407
331
3397
  5
3397
331
3386
  5
3386
331
3375
  5
3375
331
336E
  5
336E
331
3558
  5
355C
331
34E2
  5
34E2
331
34F3
  5
34F3
331
33F7
  5
33F7
331
33E6
  5
33E6
331
33DC
  5
33DC
331
33CB
  5
33CB
331
33BA
  5
33BA
331
33A9
  5
33A9
331
3398
  5
3398
331
3470
  5
3470
331
3481
  5
3481
331
3492
  5
3492
331
3452
  5
3452
331
34A3
  5
34A3
331
3463
  5
3463
331
34D6
  5
34D6
331
34C5
  5
34C5
331
34B4
  5
34B4
331
343B
  5
343B
331
342A
  5
342A
331
3419
  5
3419
331
3408
  5
3408
331
3387
  5
3387
331
3376
  5
3376
331
336F
  5
336F
331
3559
  5
3555
331
34E3
  5
34E3
331
34F4
  5
34F4
331
3471
  5
3471
331
3482
  5
3482
331
3493
  5
3493
331
3453
  5
3453
331
34A4
  5
34A4
331
3464
  5
3464
331
34D7
  5
34D7
331
34C6
  5
34C6
331
34B5
  5
34B5
331
343C
  5
343C
331
342B
  5
342B
331
341A
  5
341A
331
3409
  5
3409
331
33F8
  5
33F8
331
33E7
  5
33E7
331
33DD
  5
33DD
331
33CC
  5
33CC
331
33BB
  5
33BB
331
33AA
  5
33AA
331
3399
  5
3399
331
3388
  5
3388
331
3377
  5
3377
331
34D8
  5
34D8
331
355A
  5
3556
331
34E4
  5
34E4
331
3472
  5
3472
331
3483
  5
3483
331
3494
  5
3494
331
3454
  5
3454
331
34A5
  5
34A5
331
3465
  5
3465
331
34C7
  5
34C7
331
34B6
  5
34B6
331
343D
  5
343D
331
342C
  5
342C
331
341B
  5
341B
331
340A
  5
340A
331
33F9
  5
33F9
331
33E8
  5
33E8
331
33DE
  5
33DE
331
33CD
  5
33CD
331
33BC
  5
33BC
331
33AB
  5
33AB
331
339A
  5
339A
331
3389
  5
3389
331
3378
  5
3378
331
34D9
  5
34D9
331
34C8
  5
34C8
331
355B
  5
3557
331
34E5
  5
34E5
331
3473
  5
3473
331
3484
  5
3484
331
3495
  5
3495
331
3455
  5
3455
331
34A6
  5
34A6
331
3466
  5
3466
331
34B7
  5
34B7
331
343E
  5
343E
331
342D
  5
342D
331
341C
  5
341C
331
340B
  5
340B
331
33FA
  5
33FA
331
33E9
  5
33E9
331
33DF
  5
33DF
331
33CE
  5
33CE
331
33BD
  5
33BD
331
33AC
  5
33AC
331
339B
  5
339B
331
338A
  5
338A
331
3379
  5
3379
331
34DA
  5
34DA
331
34C9
  5
34C9
331
34B8
  5
34B8
331
355C
  5
3558
331
34E6
  5
34E6
331
3474
  5
3474
331
3485
  5
3485
331
3496
  5
3496
331
3456
  5
3456
331
34A7
  5
34A7
331
3467
  5
3467
331
343F
  5
343F
331
342E
  5
342E
331
341D
  5
341D
331
340C
  5
340C
331
33FB
  5
33FB
331
33EA
  5
33EA
331
33CF
  5
33CF
331
33BE
  5
33BE
331
33AD
  5
33AD
331
339C
  5
339C
331
338B
  5
338B
331
337A
  5
337A
331
34A8
  5
34A8
331
3468
  5
3468
331
34DB
  5
34DB
331
34CA
  5
34CA
331
34B9
  5
34B9
331
3440
  5
3440
331
34E7
  5
34E7
331
3475
  5
3475
331
3486
  5
3486
331
3497
  5
3497
331
3457
  5
3457
331
342F
  5
342F
331
341E
  5
341E
331
340D
  5
340D
331
33FC
  5
33FC
331
33EB
  5
33EB
331
33D0
  5
33D0
331
33BF
  5
33BF
331
33AE
  5
33AE
331
339D
  5
339D
331
338C
  5
338C
331
337B
  5
337B
331
3498
  5
3498
331
3458
  5
3458
331
34A9
  5
34A9
331
3469
  5
3469
331
34DC
  5
34DC
331
34CB
  5
34CB
331
34BA
  5
34BA
331
3441
  5
3441
331
3430
  5
3430
331
34E8
  5
34E8
331
3476
  5
3476
331
354E
  5
34F8
331
3487
  5
3487
331
341F
  5
341F
331
340E
  5
340E
331
33FD
  5
33FD
331
33EC
  5
33EC
331
33D1
  5
33D1
331
33C0
  5
33C0
331
33AF
  5
33AF
331
339E
  5
339E
331
338D
  5
338D
331
337C
  5
337C
331
3488
  5
3488
331
3448
  5
3448
331
3499
  5
3499
331
3459
  5
3459
331
34AA
  5
34AA
331
346A
  5
346A
331
34DD
  5
34DD
331
34CC
  5
34CC
331
34BB
  5
34BB
331
3442
  5
3442
331
3431
  5
3431
331
3420
  5
3420
331
34E9
  5
34E9
331
3477
  5
3477
331
354F
  5
34FB
331
340F
  5
340F
331
33FE
  5
33FE
331
33ED
  5
33ED
331
33D2
  5
33D2
331
33C1
  5
33C1
331
33B0
  5
33B0
331
339F
  5
339F
331
338E
  5
338E
331
337D
  5
337D
331
3478
  5
3478
331
3550
  5
354E
331
3489
  5
3489
331
3449
  5
3449
331
349A
  5
349A
331
345A
  5
345A
331
34AB
  5
34AB
331
346B
  5
346B
331
34DE
  5
34DE
331
34CD
  5
34CD
331
34BC
  5
34BC
331
3443
  5
3443
331
3432
  5
3432
331
3421
  5
3421
331
3410
  5
3410
331
34EA
  5
34EA
331
33EE
  5
33EE
331
33D3
  5
33D3
331
33C2
  5
33C2
331
33B1
  5
33B1
331
33A0
  5
33A0
331
338F
  5
338F
331
337E
  5
337E
331
33FF
  5
33FF
331
3366
  5
3366
331
3479
  5
3479
331
3551
  5
354F
331
348A
  5
348A
331
344A
  5
344A
331
349B
  5
349B
331
345B
  5
345B
331
34AC
  5
34AC
331
346C
  5
346C
331
34DF
  5
34DF
331
34CE
  5
34CE
331
34BD
  5
34BD
331
3444
  5
3444
331
3433
  5
3433
331
3422
  5
3422
331
3411
  5
3411
331
3400
  5
3400
331
34EB
  5
34EB
331
33EF
  5
33EF
331
33D4
  5
33D4
331
33C3
  5
33C3
331
33B2
  5
33B2
331
33A1
  5
33A1
331
3390
  5
3390
331
337F
  5
337F
331
3367
  5
3367
331
33F0
  5
33F0
331
347A
  5
347A
331
3552
  5
3550
331
348B
  5
348B
331
344B
  5
344B
331
349C
  5
349C
331
345C
  5
345C
331
34AD
  5
34AD
331
346D
  5
346D
331
34CF
  5
34CF
331
34BE
  5
34BE
331
3445
  5
3445
331
3434
  5
3434
331
3423
  5
3423
331
3412
  5
3412
331
3401
  5
3401
331
34EC
  5
34EC
331
33D5
  5
33D5
331
33C4
  5
33C4
331
33B3
  5
33B3
331
33A2
  5
33A2
331
3391
  5
3391
331
3380
  5
3380
331
3368
  5
3368
331
33F1
  5
33F1
331
33E0
  5
33E0
331
347B
  5
347B
331
3553
  5
3551
331
348C
  5
348C
331
344C
  5
344C
331
349D
  5
349D
331
345D
  5
345D
331
34AE
  5
34AE
331
346E
  5
346E
331
34D0
  5
34D0
331
34BF
  5
34BF
331
3446
  5
3446
331
3435
  5
3435
331
3424
  5
3424
331
3413
  5
3413
331
3402
  5
3402
331
34ED
  5
34ED
331
33D6
  5
33D6
331
33C5
  5
33C5
331
33B4
  5
33B4
331
33A3
  5
33A3
331
3392
  5
3392
331
3381
  5
3381
331
3370
  5
3370
331
3369
  5
3369
331
33F2
  5
33F2
331
33E1
  5
33E1
331
347C
  5
347C
331
348D
  5
348D
331
344D
  5
344D
331
349E
  5
349E
331
345E
  5
345E
331
34AF
  5
34AF
331
346F
  5
346F
331
34D1
  5
34D1
331
34C0
  5
34C0
331
3447
  5
3447
331
3436
  5
3436
331
3425
  5
3425
331
3414
  5
3414
331
3403
  5
3403
331
34EE
  5
34EE
331
33D7
  5
33D7
331
33C6
  5
33C6
331
33B5
  5
33B5
331
33A4
  5
33A4
331
3393
  5
3393
331
3382
  5
3382
331
3371
  5
3371
331
336A
  5
336A
331
33F3
  5
33F3
331
33E2
  5
33E2
331
33D8
  5
33D8
331
347D
  5
347D
331
3555
  5
3559
331
348E
  5
348E
331
344E
  5
344E
331
349F
  5
349F
331
345F
  5
345F
331
34D2
  5
34D2
331
34C1
  5
34C1
331
34B0
  5
34B0
331
3437
  5
3437
331
3426
  5
3426
331
3415
  5
3415
331
3404
  5
3404
331
34EF
  5
34EF
331
33C7
  5
33C7
331
33B6
  5
33B6
331
33A5
  5
33A5
331
3394
  5
3394
331
3383
  5
3383
331
3372
  5
3372
331
336B
  5
336B
331
34F0
  5
34F0
331
33F4
  5
33F4
331
33E3
  5
33E3
331
33D9
  5
33D9
331
33C8
  5
33C8
331
347E
  5
347E
331
3556
  5
355A
331
348F
  5
348F
331
344F
  5
344F
331
34A0
  5
34A0
331
3460
  5
3460
331
34D3
  5
34D3
331
34C2
  5
34C2
331
34B1
  5
34B1
331
3438
  5
3438
331
3427
  5
3427
331
3416
  5
3416
331
3405
  5
3405
331
33B7
  5
33B7
331
33A6
  5
33A6
331
3395
  5
3395
331
3384
  5
3384
331
3373
  5
3373
331
336C
  5
336C
  0
XRECORD
  5
2CAC
102
{ACAD_REACTORS
330
2CAB
102
}
330
2CAB
100
AcDbXrecord
280
     1
 90
        1
340
A61
  0
ACDBDETAILVIEWSTYLE
  5
10B9
102
{ACAD_XDICTIONARY
360
13FE
102
}
102
{ACAD_REACTORS
330
CCB
102
}
330
CCB
100
AcDbModelDocViewStyle
 70
     0
  3

290
     0
100
AcDbDetailViewStyle
 70
     0
 71
     0
 90
        3
 71
     1
340
159
 62
     7
 40
5.0
340
D74
 62
   256
 40
5.0
300

 40
0.0
280
     0
 71
     2
340
16
 90
       25
 62
   256
 71
     3
340
159
 62
     7
 40
5.0
 90
        1
 40
15.0
 90
        1
300
%<\AcVar ViewDetailId>% (%<\AcVar ViewScale \f "%sn">%)
 71
     4
340
16
 90
       25
 62
   256
340
16
 90
       25
 62
   256
280
     1
  0
ACDBDETAILVIEWSTYLE
  5
CCC
102
{ACAD_XDICTIONARY
360
13FC
102
}
102
{ACAD_REACTORS
330
CCB
102
}
330
CCB
100
AcDbModelDocViewStyle
 70
     0
  3
Metric50
290
     0
100
AcDbDetailViewStyle
 70
     0
 71
     0
 90
        3
 71
     1
340
10
 62
   256
 40
5.0
340
0
 62
   256
 40
5.0
300

 40
0.0
280
     1
 71
     2
340
16
 90
       25
 62
   256
 71
     3
340
10
 62
   256
 40
5.0
 90
        0
 40
15.0
 90
        1
300
%<\AcVar ViewDetailId>% (%<\AcVar ViewScale \f "%sn">%)
 71
     4
340
16
 90
       25
 62
   256
340
16
 90
       25
 62
   256
280
     0
  0
LAYOUT
  5
2CA4
102
{ACAD_REACTORS
330
167
102
}
330
167
100
AcDbPlotSettings
  1

  2
none_device
  4
ISO_A4_(210.00_x_297.00_MM)
  6

 40
7.5
 41
20.0
 42
7.5
 43
20.0
 44
210.0
 45
297.0
 46
0.0
 47
0.0
 48
0.0
 49
0.0
140
0.0
141
0.0
142
1.0
143
2.0
 70
   688
 72
     1
 73
     1
 74
     5
  7
@Layout.ctb
 75
    17
147
0.5
 76
     0
 77
     2
 78
   300
148
0.0
149
0.0
100
AcDbLayout
  1
Layout1
 70
     1
 71
     1
 10
0.0
 20
0.0
 11
12.0
 21
9.0
 12
0.0
 22
0.0
 32
0.0
 14
1.000000000000000E+20
 24
1.000000000000000E+20
 34
1.000000000000000E+20
 15
-1.000000000000000E+20
 25
-1.000000000000000E+20
 35
-1.000000000000000E+20
146
0.0
 13
0.0
 23
0.0
 33
0.0
 16
1.0
 26
0.0
 36
0.0
 17
0.0
 27
1.0
 37
0.0
 76
     0
330
2CA3
331
2CAA
1001
ACAD_PSEXT
1000
None
1000
None
1000
Not applicable
1000
The layout will not be plotted unless a new plotter configuration name is selected.
1070
     0
  0
LAYOUT
  5
169
102
{ACAD_XDICTIONARY
360
1474
102
}
102
{ACAD_REACTORS
330
167
102
}
330
167
100
AcDbPlotSettings
  1

  2
none_device
  4
Letter_(8.50_x_11.00_Inches)
  6

 40
6.349999904632567
 41
6.349999904632567
 42
6.350006103515625
 43
6.350006103515625
 44
215.8999938964844
 45
279.3999938964844
 46
38.1308720290886
 47
0.0
 48
0.0
 49
0.0
140
0.0
141
0.0
142
1.0
143
24.24127445441686
 70
 11956
 72
     0
 73
     1
 74
     0
  7
@Layout.ctb
 75
     0
147
0.0412519565289521
 76
     0
 77
     2
 78
   300
148
8019.824937415057
149
-189.2331007602539
100
AcDbLayout
  1
Model
 70
     1
 71
     0
 10
0.0
 20
0.0
 11
12.0
 21
9.0
 12
0.0
 22
0.0
 32
0.0
 14
0.0
 24
0.0
 34
0.0
 15
0.0
 25
0.0
 35
0.0
146
0.0
 13
0.0
 23
0.0
 33
0.0
 16
1.0
 26
0.0
 36
0.0
 17
0.0
 27
1.0
 37
0.0
 76
     0
330
1A
331
A35
1001
ACAD_PSEXT
1000
None
1000
None
1000
Not applicable
1000
The layout will not be plotted unless a new plotter configuration name is selected.
1070
     0
  0
MATERIAL
  5
A3F
102
{ACAD_XDICTIONARY
360
A40
102
}
102
{ACAD_REACTORS
330
3C9
102
}
330
3C9
100
AcDbMaterial
  1
ByBlock
 72
     0
 43
0.0008202099737533
 43
0.0
 43
0.0
 43
0.0
 43
0.0
 43
0.0008202099737533
 43
0.0
 43
0.0
 43
0.0
 43
0.0
 43
1.0
 43
0.0
 43
0.0
 43
0.0
 43
0.0
 43
1.0
 77
     0
 47
0.0008202099737533
 47
0.0
 47
0.0
 47
0.0
 47
0.0
 47
0.0008202099737533
 47
0.0
 47
0.0
 47
0.0
 47
0.0
 47
1.0
 47
0.0
 47
0.0
 47
0.0
 47
0.0
 47
1.0
171
     0
 49
0.0008202099737533
 49
0.0
 49
0.0
 49
0.0
 49
0.0
 49
0.0008202099737533
 49
0.0
 49
0.0
 49
0.0
 49
0.0
 49
1.0
 49
0.0
 49
0.0
 49
0.0
 49
0.0
 49
1.0
175
     0
142
0.0008202099737533
142
0.0
142
0.0
142
0.0
142
0.0
142
0.0008202099737533
142
0.0
142
0.0
142
0.0
142
0.0
142
1.0
142
0.0
142
0.0
142
0.0
142
0.0
142
1.0
179
     0
144
0.0008202099737533
144
0.0
144
0.0
144
0.0
144
0.0
144
0.0008202099737533
144
0.0
144
0.0
144
0.0
144
0.0
144
1.0
144
0.0
144
0.0
144
0.0
144
0.0
144
1.0
147
0.0008202099737533
147
0.0
147
0.0
147
0.0
147
0.0
147
0.0008202099737533
147
0.0
147
0.0
147
0.0
147
0.0
147
1.0
147
0.0
147
0.0
147
0.0
147
0.0
147
1.0
  0
MATERIAL
  5
A37
102
{ACAD_XDICTIONARY
360
A38
102
}
102
{ACAD_REACTORS
330
3C9
102
}
330
3C9
100
AcDbMaterial
  1
ByLayer
 72
     0
 43
0.0008202099737533
 43
0.0
 43
0.0
 43
0.0
 43
0.0
 43
0.0008202099737533
 43
0.0
 43
0.0
 43
0.0
 43
0.0
 43
1.0
 43
0.0
 43
0.0
 43
0.0
 43
0.0
 43
1.0
 77
     0
 47
0.0008202099737533
 47
0.0
 47
0.0
 47
0.0
 47
0.0
 47
0.0008202099737533
 47
0.0
 47
0.0
 47
0.0
 47
0.0
 47
1.0
 47
0.0
 47
0.0
 47
0.0
 47
0.0
 47
1.0
171
     0
 49
0.0008202099737533
 49
0.0
 49
0.0
 49
0.0
 49
0.0
 49
0.0008202099737533
 49
0.0
 49
0.0
 49
0.0
 49
0.0
 49
1.0
 49
0.0
 49
0.0
 49
0.0
 49
0.0
 49
1.0
175
     0
142
0.0008202099737533
142
0.0
142
0.0
142
0.0
142
0.0
142
0.0008202099737533
142
0.0
142
0.0
142
0.0
142
0.0
142
1.0
142
0.0
142
0.0
142
0.0
142
0.0
142
1.0
179
     0
144
0.0008202099737533
144
0.0
144
0.0
144
0.0
144
0.0
144
0.0008202099737533
144
0.0
144
0.0
144
0.0
144
0.0
144
1.0
144
0.0
144
0.0
144
0.0
144
0.0
144
1.0
147
0.0008202099737533
147
0.0
147
0.0
147
0.0
147
0.0
147
0.0008202099737533
147
0.0
147
0.0
147
0.0
147
0.0
147
1.0
147
0.0
147
0.0
147
0.0
147
0.0
147
1.0
  0
MATERIAL
  5
A47
102
{ACAD_XDICTIONARY
360
A48
102
}
102
{ACAD_REACTORS
330
3C9
102
}
330
3C9
100
AcDbMaterial
  1
Global
 72
     0
 43
0.0008202099737533
 43
0.0
 43
0.0
 43
0.0
 43
0.0
 43
0.0008202099737533
 43
0.0
 43
0.0
 43
0.0
 43
0.0
 43
1.0
 43
0.0
 43
0.0
 43
0.0
 43
0.0
 43
1.0
 77
     0
 47
0.0008202099737533
 47
0.0
 47
0.0
 47
0.0
 47
0.0
 47
0.0008202099737533
 47
0.0
 47
0.0
 47
0.0
 47
0.0
 47
1.0
 47
0.0
 47
0.0
 47
0.0
 47
0.0
 47
1.0
171
     0
 49
0.0008202099737533
 49
0.0
 49
0.0
 49
0.0
 49
0.0
 49
0.0008202099737533
 49
0.0
 49
0.0
 49
0.0
 49
0.0
 49
1.0
 49
0.0
 49
0.0
 49
0.0
 49
0.0
 49
1.0
175
     0
142
0.0008202099737533
142
0.0
142
0.0
142
0.0
142
0.0
142
0.0008202099737533
142
0.0
142
0.0
142
0.0
142
0.0
142
1.0
142
0.0
142
0.0
142
0.0
142
0.0
142
1.0
179
     0
144
0.0008202099737533
144
0.0
144
0.0
144
0.0
144
0.0
144
0.0008202099737533
144
0.0
144
0.0
144
0.0
144
0.0
144
1.0
144
0.0
144
0.0
144
0.0
144
0.0
144
1.0
147
0.0008202099737533
147
0.0
147
0.0
147
0.0
147
0.0
147
0.0008202099737533
147
0.0
147
0.0
147
0.0
147
0.0
147
1.0
147
0.0
147
0.0
147
0.0
147
0.0
147
1.0
  0
MLEADERSTYLE
  5
A73
102
{ACAD_XDICTIONARY
360
1497
102
}
102
{ACAD_REACTORS
330
A72
102
}
330
A72
100
AcDbMLeaderStyle
179
     2
170
     2
171
     1
172
     0
 90
        2
 40
0.0
 41
0.0
173
     1
 91
-1056964608
340
14
 92
       -2
290
     1
 42
2.0
291
     1
 43
0.36
  3
Standard
 44
4.0
300

342
10
174
     1
178
     6
175
     1
176
     0
 93
-1056964608
 45
4.0
292
     0
297
     0
 46
4.0
 94
-1056964608
 47
1.0
 49
1.0
140
1.0
293
     1
141
0.0
294
     1
177
     0
142
1.0
295
     0
296
     0
143
0.125
271
     0
272
     9
273
     9
298
     1
  0
MLINESTYLE
  5
13
102
{ACAD_REACTORS
330
E
102
}
330
E
100
AcDbMlineStyle
  2
STANDARD
 70
     0
  3

 62
     0
 51
90.0
 52
90.0
 71
     2
 49
0.5
 62
   256
  6
BYLAYER
 49
-0.5
 62
   256
  6
BYLAYER
  0
PLOTSETTINGS
  5
2C89
102
{ACAD_REACTORS
330
168
102
}
330
168
100
AcDbPlotSettings
  1
Setup1
  2
none_device
  4
ISO_A4_(210.00_x_297.00_MM)
  6

 40
7.5
 41
20.0
 42
7.5
 43
20.0
 44
210.0
 45
297.0
 46
0.0
 47
0.0
 48
0.0
 49
0.0
140
0.0
141
0.0
142
1.0
143
2.0
 70
   688
 72
     1
 73
     1
 74
     5
  7
@Layout.ctb
 75
    17
147
0.5
 76
     0
 77
     2
 78
   300
148
0.0
149
0.0
1001
ACAD_PSEXT
1000
None
1000
None
1000
Not applicable
1000
The layout will not be plotted unless a new plotter configuration name is selected.
1070
     0
  0
ACDBPLACEHOLDER
  5
166
102
{ACAD_REACTORS
330
165
102
}
330
165
  0
SCALE
  5
A61
102
{ACAD_REACTORS
330
A60
102
}
330
A60
100
AcDbScale
 70
     0
300
1:1
140
1.0
141
1.0
290
     1
  0
SCALE
  5
A62
102
{ACAD_REACTORS
330
A60
102
}
330
A60
100
AcDbScale
 70
     0
300
1:2
140
1.0
141
2.0
290
     0
  0
SCALE
  5
A63
102
{ACAD_REACTORS
330
A60
102
}
330
A60
100
AcDbScale
 70
     0
300
1:4
140
1.0
141
4.0
290
     0
  0
SCALE
  5
A64
102
{ACAD_REACTORS
330
A60
102
}
330
A60
100
AcDbScale
 70
     0
300
1:5
140
1.0
141
5.0
290
     0
  0
SCALE
  5
A65
102
{ACAD_REACTORS
330
A60
102
}
330
A60
100
AcDbScale
 70
     0
300
1:8
140
1.0
141
8.0
290
     0
  0
SCALE
  5
A66
102
{ACAD_REACTORS
330
A60
102
}
330
A60
100
AcDbScale
 70
     0
300
1:10
140
1.0
141
10.0
290
     0
  0
SCALE
  5
A67
102
{ACAD_REACTORS
330
A60
102
}
330
A60
100
AcDbScale
 70
     0
300
1:16
140
1.0
141
16.0
290
     0
  0
SCALE
  5
A68
102
{ACAD_REACTORS
330
A60
102
}
330
A60
100
AcDbScale
 70
     0
300
1:20
140
1.0
141
20.0
290
     0
  0
SCALE
  5
A69
102
{ACAD_REACTORS
330
A60
102
}
330
A60
100
AcDbScale
 70
     0
300
1:30
140
1.0
141
30.0
290
     0
  0
SCALE
  5
A6A
102
{ACAD_REACTORS
330
A60
102
}
330
A60
100
AcDbScale
 70
     0
300
1:40
140
1.0
141
40.0
290
     0
  0
SCALE
  5
A6B
102
{ACAD_REACTORS
330
A60
102
}
330
A60
100
AcDbScale
 70
     0
300
1:50
140
1.0
141
50.0
290
     0
  0
SCALE
  5
A6C
102
{ACAD_REACTORS
330
A60
102
}
330
A60
100
AcDbScale
 70
     0
300
1:100
140
1.0
141
100.0
290
     0
  0
SCALE
  5
A6D
102
{ACAD_REACTORS
330
A60
102
}
330
A60
100
AcDbScale
 70
     0
300
2:1
140
2.0
141
1.0
290
     0
  0
SCALE
  5
A6E
102
{ACAD_REACTORS
330
A60
102
}
330
A60
100
AcDbScale
 70
     0
300
4:1
140
4.0
141
1.0
290
     0
  0
SCALE
  5
A6F
102
{ACAD_REACTORS
330
A60
102
}
330
A60
100
AcDbScale
 70
     0
300
8:1
140
8.0
141
1.0
290
     0
  0
SCALE
  5
A70
102
{ACAD_REACTORS
330
A60
102
}
330
A60
100
AcDbScale
 70
     0
300
10:1
140
10.0
141
1.0
290
     0
  0
SCALE
  5
A71
102
{ACAD_REACTORS
330
A60
102
}
330
A60
100
AcDbScale
 70
     0
300
100:1
140
100.0
141
1.0
290
     0
  0
ACDBSECTIONVIEWSTYLE
  5
10BA
102
{ACAD_XDICTIONARY
360
10BB
102
}
102
{ACAD_REACTORS
330
CC9
102
}
330
CC9
100
AcDbModelDocViewStyle
 70
     0
  3

290
     0
100
AcDbSectionViewStyle
 70
     0
 71
     0
 90
      110
 71
     1
340
159
 62
     7
 40
5.0
340
D78
340
D78
 62
     0
 40
7.0
300
I,O,Q,S,X,Z
 40
10.0
 90
        4
 40
2.5
 90
        0
 71
     2
340
176
 90
       -1
 62
     1
340
176
 90
       -1
 62
     4
 40
10.0
 40
5.0
 40
10.0
 71
     3
340
159
 62
     7
 40
5.0
 90
        1
 40
5.25
 90
        1
300
%<\AcVar ViewSectionStartId>%-%<\AcVar ViewSectionEndId>%
 71
     4
 62
   256
 62
   257
300
ANSI31
 40
1.0
 90
        0
290
     0
290
     0
 90
        6
 40
0.0
 40
1.570796326794896
 40
0.2617993877991494
 40
1.308996938995747
 40
-0.2617993877991494
 40
1.832595714594045
  0
ACDBSECTIONVIEWSTYLE
  5
CCA
102
{ACAD_XDICTIONARY
360
13FA
102
}
102
{ACAD_REACTORS
330
CC9
102
}
330
CC9
100
AcDbModelDocViewStyle
 70
     0
  3
Metric50
290
     0
100
AcDbSectionViewStyle
 70
     0
 71
     0
 90
      102
 71
     1
340
10
 62
   256
 40
5.0
340
0
340
0
 62
   256
 40
5.0
300
I, O, Q, S, X, Z
 40
10.0
 90
        0
 40
2.5
 90
        0
 71
     2
340
16
 90
       25
 62
   256
340
16
 90
       50
 62
   256
 40
5.0
 40
2.5
 40
5.0
 71
     3
340
10
 62
   256
 40
5.0
 90
        0
 40
15.0
 90
        1
300
%<\AcVar ViewSectionStartId>%-%<\AcVar ViewSectionEndId>% (%<\AcVar ViewScale \f "%sn">%)
 71
     4
 62
   256
 62
   257
300
ANSI31
 40
1.0
 90
        0
290
     0
290
     0
 90
        6
 40
0.0
 40
1.570796326794896
 40
0.2617993877991494
 40
1.308996938995747
 40
-0.2617993877991494
 40
1.832595714594045
  0
TABLESTYLE
  5
651
102
{ACAD_XDICTIONARY
360
AED
102
}
102
{ACAD_REACTORS
330
650
102
}
330
650
100
AcDbTableStyle
280
     0
  3
Standard
 70
     0
 71
     0
 40
1.5
 41
1.5
280
     0
281
     0
  7
STANDARD
140
4.5
170
     2
 62
     0
 63
     7
283
     0
 90
        4
 91
        0
  1

274
    -2
284
     1
 64
     0
275
    -2
285
     1
 65
     0
276
    -2
286
     1
 66
     0
277
    -2
287
     1
 67
     0
278
    -2
288
     1
 68
     0
279
    -2
289
     1
 69
     0
  7
STANDARD
140
6.0
170
     5
 62
     0
 63
     7
283
     0
 90
        4
 91
        0
  1

274
    -2
284
     1
 64
     0
275
    -2
285
     1
 65
     0
276
    -2
286
     1
 66
     0
277
    -2
287
     1
 67
     0
278
    -2
288
     1
 68
     0
279
    -2
289
     1
 69
     0
  7
STANDARD
140
4.5
170
     5
 62
     0
 63
     7
283
     0
 90
        4
 91
        0
  1

274
    -2
284
     1
 64
     0
275
    -2
285
     1
 65
     0
276
    -2
286
     1
 66
     0
277
    -2
287
     1
 67
     0
278
    -2
288
     1
 68
     0
279
    -2
289
     1
 69
     0
  0
VISUALSTYLE
  5
A55
102
{ACAD_REACTORS
330
A4F
102
}
330
A4F
100
AcDbVisualStyle
  2
2dWireframe
 70
     4
177
     3
291
     0
 70
    58
 90
        0
176
     1
 90
        2
176
     1
 90
        0
176
     1
 90
        0
176
     1
 40
0.6
176
     1
 40
30.0
176
     1
 62
     7
420
 16777215
176
     1
 90
        1
176
     1
 90
        4
176
     1
 62
     7
176
     1
 62
   257
176
     1
 90
        1
176
     1
 90
        1
176
     1
 40
1.0
176
     1
 90
        0
176
     1
 62
   257
176
     1
 40
1.0
176
     1
 90
        1
176
     1
 90
        6
176
     1
 90
        2
176
     1
 62
     7
176
     1
 90
        5
176
     1
 90
        0
176
     1
 90
        0
176
     1
290
     0
176
     1
 90
        1
176
     1
 40
0.0
176
     1
 90
        0
176
     1
290
     1
176
     1
290
     1
176
     1
290
     0
176
     1
290
     0
176
     1
290
     0
176
     1
290
     0
176
     1
290
     0
176
     1
290
     0
176
     1
290
     0
176
     1
 90
       50
176
     1
 40
0.0
176
     1
 40
1.0
176
     1
 90
        0
176
     1
 62
    18
176
     1
 90
       50
176
     1
 90
        3
176
     1
 62
     5
420
      255
176
     1
290
     0
176
     1
 90
       50
176
     1
 90
       50
176
     1
 90
       50
176
     1
290
     0
176
     1
 90
       50
176
     1
 62
   256
176
     0
 40
1.0
176
     0
 90
        2
176
     1
  1
strokes_ogs.tif
176
     1
290
     0
176
     1
 40
1.0
176
     1
 40
1.0
176
     1
  0
VISUALSTYLE
  5
A57
102
{ACAD_REACTORS
330
A4F
102
}
330
A4F
100
AcDbVisualStyle
  2
3D Hidden
 70
     6
177
     3
291
     0
 70
    58
 90
        1
176
     1
 90
        2
176
     1
 90
        2
176
     1
 90
        0
176
     1
 40
0.6
176
     1
 40
30.0
176
     1
 62
     7
420
 16777215
176
     1
 90
        2
176
     1
 90
        2
176
     1
 62
     7
176
     1
 62
   257
176
     1
 90
        2
176
     1
 90
        1
176
     1
 40
40.0
176
     1
 90
        0
176
     1
 62
   257
176
     1
 40
1.0
176
     1
 90
        1
176
     1
 90
        6
176
     1
 90
        2
176
     1
 62
     7
176
     1
 90
        3
176
     1
 90
        0
176
     1
 90
        0
176
     1
290
     0
176
     1
 90
        1
176
     1
 40
0.0
176
     1
 90
        0
176
     1
290
     0
176
     1
290
     1
176
     1
290
     1
176
     1
290
     0
176
     1
290
     0
176
     1
290
     0
176
     1
290
     0
176
     1
290
     0
176
     1
290
     0
176
     1
 90
       50
176
     1
 40
0.0
176
     1
 40
1.0
176
     1
 90
        0
176
     1
 62
    18
176
     1
 90
       50
176
     1
 90
        3
176
     1
 62
     5
420
      255
176
     1
290
     0
176
     1
 90
       50
176
     1
 90
       50
176
     1
 90
       50
176
     1
290
     0
176
     1
 90
       50
176
     1
 62
   256
176
     0
 40
1.0
176
     0
 90
        2
176
     1
  1
strokes_ogs.tif
176
     1
290
     0
176
     1
 40
1.0
176
     1
 40
1.0
176
     1
  0
VISUALSTYLE
  5
A56
102
{ACAD_REACTORS
330
A4F
102
}
330
A4F
100
AcDbVisualStyle
  2
3dWireframe
 70
     5
177
     3
291
     0
 70
    58
 90
        0
176
     1
 90
        2
176
     1
 90
        0
176
     1
 90
        0
176
     1
 40
0.6
176
     1
 40
30.0
176
     1
 62
     7
420
 16777215
176
     1
 90
        1
176
     1
 90
        4
176
     1
 62
     7
176
     1
 62
   257
176
     1
 90
        1
176
     1
 90
        1
176
     1
 40
1.0
176
     1
 90
        0
176
     1
 62
   257
176
     1
 40
1.0
176
     1
 90
        1
176
     1
 90
        6
176
     1
 90
        2
176
     1
 62
     7
176
     1
 90
        5
176
     1
 90
        0
176
     1
 90
        0
176
     1
290
     0
176
     1
 90
        1
176
     1
 40
0.0
176
     1
 90
        0
176
     1
290
     0
176
     1
290
     1
176
     1
290
     1
176
     1
290
     0
176
     1
290
     0
176
     1
290
     0
176
     1
290
     0
176
     1
290
     0
176
     1
290
     0
176
     1
 90
       50
176
     1
 40
0.0
176
     1
 40
1.0
176
     1
 90
        0
176
     1
 62
    18
176
     1
 90
       50
176
     1
 90
        3
176
     1
 62
     5
420
      255
176
     1
290
     0
176
     1
 90
       50
176
     1
 90
       50
176
     1
 90
       50
176
     1
290
     0
176
     1
 90
       50
176
     1
 62
   256
176
     0
 40
1.0
176
     0
 90
        2
176
     1
  1
strokes_ogs.tif
176
     1
290
     0
176
     1
 40
1.0
176
     1
 40
1.0
176
     1
  0
VISUALSTYLE
  5
A54
102
{ACAD_REACTORS
330
A4F
102
}
330
A4F
100
AcDbVisualStyle
  2
Basic
 70
     7
177
     3
291
     1
 70
    58
 90
        1
176
     1
 90
        0
176
     1
 90
        1
176
     1
 90
        0
176
     1
 40
0.6
176
     1
 40
30.0
176
     1
 62
     7
420
 16777215
176
     1
 90
        0
176
     1
 90
        4
176
     1
 62
     7
176
     1
 62
   257
176
     1
 90
        1
176
     1
 90
        1
176
     1
 40
1.0
176
     1
 90
        8
176
     1
 62
     7
176
     1
 40
1.0
176
     1
 90
        1
176
     1
 90
        6
176
     1
 90
        2
176
     1
 62
     7
176
     1
 90
        5
176
     1
 90
        0
176
     1
 90
        0
176
     1
290
     0
176
     1
 90
        1
176
     1
 40
0.0
176
     1
 90
        0
176
     1
290
     0
176
     1
290
     1
176
     1
290
     1
176
     1
290
     0
176
     1
290
     0
176
     1
290
     0
176
     1
290
     0
176
     1
290
     0
176
     1
290
     0
176
     1
 90
       50
176
     1
 40
0.0
176
     1
 40
1.0
176
     1
 90
        0
176
     1
 62
    18
176
     1
 90
       50
176
     1
 90
        3
176
     1
 62
     5
420
      255
176
     1
290
     0
176
     1
 90
       50
176
     1
 90
       50
176
     1
 90
       50
176
     1
290
     0
176
     1
 90
       50
176
     1
 62
   256
176
     0
 40
1.0
176
     0
 90
        2
176
     1
  1
strokes_ogs.tif
176
     1
290
     0
176
     1
 40
1.0
176
     1
 40
1.0
176
     1
  0
VISUALSTYLE
  5
A5B
102
{ACAD_REACTORS
330
A4F
102
}
330
A4F
100
AcDbVisualStyle
  2
Brighten
 70
    12
177
     3
291
     1
 70
    58
 90
        2
176
     1
 90
        2
176
     1
 90
        0
176
     1
 90
        0
176
     1
 40
0.6
176
     1
 40
30.0
176
     1
 62
     7
420
 16777215
176
     1
 90
        1
176
     1
 90
        4
176
     1
 62
     7
176
     1
 62
   257
176
     1
 90
        1
176
     1
 90
        1
176
     1
 40
1.0
176
     1
 90
        8
176
     1
 62
     7
176
     1
 40
1.0
176
     1
 90
        1
176
     1
 90
        6
176
     1
 90
        2
176
     1
 62
     7
176
     1
 90
        5
176
     1
 90
        0
176
     1
 90
        0
176
     1
290
     0
176
     1
 90
        1
176
     1
 40
50.0
176
     1
 90
        0
176
     1
290
     0
176
     1
290
     1
176
     1
290
     1
176
     1
290
     0
176
     1
290
     0
176
     1
290
     0
176
     1
290
     0
176
     1
290
     0
176
     1
290
     0
176
     1
 90
       50
176
     1
 40
0.0
176
     1
 40
1.0
176
     1
 90
        0
176
     1
 62
    18
176
     1
 90
       50
176
     1
 90
        3
176
     1
 62
     5
420
      255
176
     1
290
     0
176
     1
 90
       50
176
     1
 90
       50
176
     1
 90
       50
176
     1
290
     0
176
     1
 90
       50
176
     1
 62
   256
176
     0
 40
1.0
176
     0
 90
        2
176
     1
  1
strokes_ogs.tif
176
     1
290
     0
176
     1
 40
1.0
176
     1
 40
1.0
176
     1
  0
VISUALSTYLE
  5
A5F
102
{ACAD_REACTORS
330
A4F
102
}
330
A4F
100
AcDbVisualStyle
  2
ColorChange
 70
    16
177
     3
291
     1
 70
    58
 90
        2
176
     1
 90
        2
176
     1
 90
        3
176
     1
 90
        0
176
     1
 40
0.6
176
     1
 40
30.0
176
     1
 62
     8
420
  8421504
176
     1
 90
        1
176
     1
 90
        4
176
     1
 62
     7
176
     1
 62
   257
176
     1
 90
        1
176
     1
 90
        1
176
     1
 40
1.0
176
     1
 90
        8
176
     1
 62
     8
420
  8421504
176
     1
 40
1.0
176
     1
 90
        1
176
     1
 90
        6
176
     1
 90
        2
176
     1
 62
     7
176
     1
 90
        5
176
     1
 90
        0
176
     1
 90
        0
176
     1
290
     0
176
     1
 90
        1
176
     1
 40
0.0
176
     1
 90
        0
176
     1
290
     0
176
     1
290
     1
176
     1
290
     1
176
     1
290
     0
176
     1
290
     0
176
     1
290
     0
176
     1
290
     0
176
     1
290
     0
176
     1
290
     0
176
     1
 90
       50
176
     1
 40
0.0
176
     1
 40
1.0
176
     1
 90
        0
176
     1
 62
    18
176
     1
 90
       50
176
     1
 90
        3
176
     1
 62
     5
420
      255
176
     1
290
     0
176
     1
 90
       50
176
     1
 90
       50
176
     1
 90
       50
176
     1
290
     0
176
     1
 90
       50
176
     1
 62
   256
176
     0
 40
1.0
176
     0
 90
        2
176
     1
  1
strokes_ogs.tif
176
     1
290
     0
176
     1
 40
1.0
176
     1
 40
1.0
176
     1
  0
VISUALSTYLE
  5
A58
102
{ACAD_REACTORS
330
A4F
102
}
330
A4F
100
AcDbVisualStyle
  2
Conceptual
 70
     9
177
     3
291
     0
 70
    58
 90
        3
176
     1
 90
        2
176
     1
 90
        0
176
     1
 90
        0
176
     1
 40
0.6
176
     1
 40
30.0
176
     1
 62
     7
420
 16777215
176
     1
 90
        2
176
     1
 90
        2
176
     1
 62
     7
176
     1
 62
   257
176
     1
 90
        1
176
     1
 90
        1
176
     1
 40
40.0
176
     1
 90
        8
176
     1
 62
     7
176
     1
 40
1.0
176
     1
 90
        1
176
     1
 90
        6
176
     1
 90
        2
176
     1
 62
     7
176
     1
 90
        3
176
     1
 90
        0
176
     1
 90
        0
176
     1
290
     0
176
     1
 90
        1
176
     1
 40
0.0
176
     1
 90
        0
176
     1
290
     0
176
     1
290
     1
176
     1
290
     1
176
     1
290
     0
176
     1
290
     0
176
     1
290
     0
176
     1
290
     0
176
     1
290
     0
176
     1
290
     0
176
     1
 90
       50
176
     1
 40
0.0
176
     1
 40
1.0
176
     1
 90
        0
176
     1
 62
    18
176
     1
 90
       50
176
     1
 90
        3
176
     1
 62
     5
420
      255
176
     1
290
     0
176
     1
 90
       50
176
     1
 90
       50
176
     1
 90
       50
176
     1
290
     0
176
     1
 90
       50
176
     1
 62
   256
176
     0
 40
1.0
176
     0
 90
        2
176
     1
  1
strokes_ogs.tif
176
     1
290
     0
176
     1
 40
1.0
176
     1
 40
1.0
176
     1
  0
VISUALSTYLE
  5
A5A
102
{ACAD_REACTORS
330
A4F
102
}
330
A4F
100
AcDbVisualStyle
  2
Dim
 70
    11
177
     3
291
     1
 70
    58
 90
        2
176
     1
 90
        2
176
     1
 90
        0
176
     1
 90
        0
176
     1
 40
0.6
176
     1
 40
30.0
176
     1
 62
     7
420
 16777215
176
     1
 90
        1
176
     1
 90
        4
176
     1
 62
     7
176
     1
 62
   257
176
     1
 90
        1
176
     1
 90
        1
176
     1
 40
1.0
176
     1
 90
        8
176
     1
 62
     7
176
     1
 40
1.0
176
     1
 90
        1
176
     1
 90
        6
176
     1
 90
        2
176
     1
 62
     7
176
     1
 90
        5
176
     1
 90
        0
176
     1
 90
        0
176
     1
290
     0
176
     1
 90
        1
176
     1
 40
-50.0
176
     1
 90
        0
176
     1
290
     0
176
     1
290
     1
176
     1
290
     1
176
     1
290
     0
176
     1
290
     0
176
     1
290
     0
176
     1
290
     0
176
     1
290
     0
176
     1
290
     0
176
     1
 90
       50
176
     1
 40
0.0
176
     1
 40
1.0
176
     1
 90
        0
176
     1
 62
    18
176
     1
 90
       50
176
     1
 90
        3
176
     1
 62
     5
420
      255
176
     1
290
     0
176
     1
 90
       50
176
     1
 90
       50
176
     1
 90
       50
176
     1
290
     0
176
     1
 90
       50
176
     1
 62
   256
176
     0
 40
1.0
176
     0
 90
        2
176
     1
  1
strokes_ogs.tif
176
     1
290
     0
176
     1
 40
1.0
176
     1
 40
1.0
176
     1
  0
VISUALSTYLE
  5
CC8
102
{ACAD_REACTORS
330
A4F
102
}
330
A4F
100
AcDbVisualStyle
  2
EdgeColorOff
 70
    22
177
     3
291
     1
 70
    58
 90
        2
176
     0
 90
        2
176
     0
 90
        0
176
     0
 90
        0
176
     0
 40
0.6
176
     0
 40
30.0
176
     0
 62
     7
420
 16777215
176
     0
 90
        1
176
     0
 90
        4
176
     0
 62
     7
176
     0
 62
   257
176
     0
 90
        1
176
     0
 90
        1
176
     0
 40
1.0
176
     0
 90
        8
176
     2
 62
     7
176
     0
 40
1.0
176
     0
 90
        1
176
     0
 90
        6
176
     0
 90
        2
176
     0
 62
     7
176
     0
 90
        5
176
     0
 90
        0
176
     0
 90
        0
176
     0
290
     0
176
     0
 90
        1
176
     0
 40
0.0
176
     0
 90
        0
176
     0
290
     0
176
     0
290
     1
176
     0
290
     1
176
     0
290
     0
176
     0
290
     0
176
     0
290
     0
176
     0
290
     0
176
     0
290
     0
176
     0
290
     0
176
     0
 90
       50
176
     0
 40
0.0
176
     0
 40
1.0
176
     0
 90
        0
176
     0
 62
    18
176
     0
 90
       50
176
     0
 90
        3
176
     0
 62
     5
420
      255
176
     0
290
     0
176
     0
 90
       50
176
     0
 90
       50
176
     0
 90
       50
176
     0
290
     0
176
     0
 90
       50
176
     0
 62
   256
176
     0
 40
1.0
176
     0
 90
        2
176
     0
  1
strokes_ogs.tif
176
     0
290
     0
176
     0
 40
1.0
176
     0
 40
1.0
176
     0
  0
VISUALSTYLE
  5
A5E
102
{ACAD_REACTORS
330
A4F
102
}
330
A4F
100
AcDbVisualStyle
  2
Facepattern
 70
    15
177
     3
291
     1
 70
    58
 90
        2
176
     1
 90
        2
176
     1
 90
        0
176
     1
 90
        0
176
     1
 40
0.6
176
     1
 40
30.0
176
     1
 62
     7
420
 16777215
176
     1
 90
        1
176
     1
 90
        4
176
     1
 62
     7
176
     1
 62
   257
176
     1
 90
        1
176
     1
 90
        1
176
     1
 40
1.0
176
     1
 90
        8
176
     1
 62
     7
176
     1
 40
1.0
176
     1
 90
        1
176
     1
 90
        6
176
     1
 90
        2
176
     1
 62
     7
176
     1
 90
        5
176
     1
 90
        0
176
     1
 90
        0
176
     1
290
     0
176
     1
 90
        1
176
     1
 40
0.0
176
     1
 90
        0
176
     1
290
     0
176
     1
290
     1
176
     1
290
     1
176
     1
290
     0
176
     1
290
     0
176
     1
290
     0
176
     1
290
     0
176
     1
290
     0
176
     1
290
     0
176
     1
 90
       50
176
     1
 40
0.0
176
     1
 40
1.0
176
     1
 90
        0
176
     1
 62
    18
176
     1
 90
       50
176
     1
 90
        3
176
     1
 62
     5
420
      255
176
     1
290
     0
176
     1
 90
       50
176
     1
 90
       50
176
     1
 90
       50
176
     1
290
     0
176
     1
 90
       50
176
     1
 62
   256
176
     0
 40
1.0
176
     0
 90
        2
176
     1
  1
strokes_ogs.tif
176
     1
290
     0
176
     1
 40
1.0
176
     1
 40
1.0
176
     1
  0
VISUALSTYLE
  5
A50
102
{ACAD_REACTORS
330
A4F
102
}
330
A4F
100
AcDbVisualStyle
  2
Flat
 70
     0
177
     3
291
     1
 70
    58
 90
        2
176
     1
 90
        1
176
     1
 90
        1
176
     1
 90
        2
176
     1
 40
0.6
176
     1
 40
30.0
176
     1
 62
     7
420
 16777215
176
     1
 90
        0
176
     1
 90
        4
176
     1
 62
     7
176
     1
 62
   257
176
     1
 90
        1
176
     1
 90
        1
176
     1
 40
1.0
176
     1
 90
        8
176
     1
 62
     7
176
     1
 40
1.0
176
     1
 90
        1
176
     1
 90
        6
176
     1
 90
        2
176
     1
 62
     7
176
     1
 90
        5
176
     1
 90
        0
176
     1
 90
        0
176
     1
290
     0
176
     1
 90
       13
176
     1
 40
0.0
176
     1
 90
        0
176
     1
290
     0
176
     1
290
     1
176
     1
290
     1
176
     1
290
     0
176
     1
290
     0
176
     1
290
     0
176
     1
290
     0
176
     1
290
     0
176
     1
290
     0
176
     1
 90
       50
176
     1
 40
0.0
176
     1
 40
1.0
176
     1
 90
        0
176
     1
 62
    18
176
     1
 90
       50
176
     1
 90
        3
176
     1
 62
     5
420
      255
176
     1
290
     0
176
     1
 90
       50
176
     1
 90
       50
176
     1
 90
       50
176
     1
290
     0
176
     1
 90
       50
176
     1
 62
   256
176
     0
 40
1.0
176
     0
 90
        2
176
     1
  1
strokes_ogs.tif
176
     1
290
     0
176
     1
 40
1.0
176
     1
 40
1.0
176
     1
  0
VISUALSTYLE
  5
A51
102
{ACAD_REACTORS
330
A4F
102
}
330
A4F
100
AcDbVisualStyle
  2
FlatWithEdges
 70
     1
177
     3
291
     1
 70
    58
 90
        2
176
     1
 90
        1
176
     1
 90
        1
176
     1
 90
        2
176
     1
 40
0.6
176
     1
 40
30.0
176
     1
 62
     7
420
 16777215
176
     1
 90
        1
176
     1
 90
        4
176
     1
 62
     7
176
     1
 62
   257
176
     1
 90
        1
176
     1
 90
        1
176
     1
 40
1.0
176
     1
 90
        0
176
     1
 62
   257
176
     1
 40
1.0
176
     1
 90
        1
176
     1
 90
        6
176
     1
 90
        2
176
     1
 62
     7
176
     1
 90
        5
176
     1
 90
        0
176
     1
 90
        0
176
     1
290
     0
176
     1
 90
       13
176
     1
 40
0.0
176
     1
 90
        0
176
     1
290
     0
176
     1
290
     1
176
     1
290
     1
176
     1
290
     0
176
     1
290
     0
176
     1
290
     0
176
     1
290
     0
176
     1
290
     0
176
     1
290
     0
176
     1
 90
       50
176
     1
 40
0.0
176
     1
 40
1.0
176
     1
 90
        0
176
     1
 62
    18
176
     1
 90
       50
176
     1
 90
        3
176
     1
 62
     5
420
      255
176
     1
290
     0
176
     1
 90
       50
176
     1
 90
       50
176
     1
 90
       50
176
     1
290
     0
176
     1
 90
       50
176
     1
 62
   256
176
     0
 40
1.0
176
     0
 90
        2
176
     1
  1
strokes_ogs.tif
176
     1
290
     0
176
     1
 40
1.0
176
     1
 40
1.0
176
     1
  0
VISUALSTYLE
  5
A52
102
{ACAD_REACTORS
330
A4F
102
}
330
A4F
100
AcDbVisualStyle
  2
Gouraud
 70
     2
177
     3
291
     1
 70
    58
 90
        2
176
     1
 90
        2
176
     1
 90
        1
176
     1
 90
        2
176
     1
 40
0.6
176
     1
 40
30.0
176
     1
 62
     7
420
 16777215
176
     1
 90
        0
176
     1
 90
        4
176
     1
 62
     7
176
     1
 62
   257
176
     1
 90
        1
176
     1
 90
        1
176
     1
 40
1.0
176
     1
 90
        0
176
     1
 62
     7
176
     1
 40
1.0
176
     1
 90
        1
176
     1
 90
        6
176
     1
 90
        2
176
     1
 62
     7
176
     1
 90
        5
176
     1
 90
        0
176
     1
 90
        0
176
     1
290
     0
176
     1
 90
       13
176
     1
 40
0.0
176
     1
 90
        0
176
     1
290
     0
176
     1
290
     1
176
     1
290
     1
176
     1
290
     0
176
     1
290
     0
176
     1
290
     0
176
     1
290
     0
176
     1
290
     0
176
     1
290
     0
176
     1
 90
       50
176
     1
 40
0.0
176
     1
 40
1.0
176
     1
 90
        0
176
     1
 62
    18
176
     1
 90
       50
176
     1
 90
        3
176
     1
 62
     5
420
      255
176
     1
290
     0
176
     1
 90
       50
176
     1
 90
       50
176
     1
 90
       50
176
     1
290
     0
176
     1
 90
       50
176
     1
 62
   256
176
     0
 40
1.0
176
     0
 90
        2
176
     1
  1
strokes_ogs.tif
176
     1
290
     0
176
     1
 40
1.0
176
     1
 40
1.0
176
     1
  0
VISUALSTYLE
  5
A53
102
{ACAD_REACTORS
330
A4F
102
}
330
A4F
100
AcDbVisualStyle
  2
GouraudWithEdges
 70
     3
177
     3
291
     1
 70
    58
 90
        2
176
     1
 90
        2
176
     1
 90
        1
176
     1
 90
        2
176
     1
 40
0.6
176
     1
 40
30.0
176
     1
 62
     7
420
 16777215
176
     1
 90
        1
176
     1
 90
        4
176
     1
 62
     7
176
     1
 62
   257
176
     1
 90
        1
176
     1
 90
        1
176
     1
 40
1.0
176
     1
 90
        0
176
     1
 62
   257
176
     1
 40
1.0
176
     1
 90
        1
176
     1
 90
        6
176
     1
 90
        2
176
     1
 62
     7
176
     1
 90
        5
176
     1
 90
        0
176
     1
 90
        0
176
     1
290
     0
176
     1
 90
       13
176
     1
 40
0.0
176
     1
 90
        0
176
     1
290
     0
176
     1
290
     1
176
     1
290
     1
176
     1
290
     0
176
     1
290
     0
176
     1
290
     0
176
     1
290
     0
176
     1
290
     0
176
     1
290
     0
176
     1
 90
       50
176
     1
 40
0.0
176
     1
 40
1.0
176
     1
 90
        0
176
     1
 62
    18
176
     1
 90
       50
176
     1
 90
        3
176
     1
 62
     5
420
      255
176
     1
290
     0
176
     1
 90
       50
176
     1
 90
       50
176
     1
 90
       50
176
     1
290
     0
176
     1
 90
       50
176
     1
 62
   256
176
     0
 40
1.0
176
     0
 90
        2
176
     1
  1
strokes_ogs.tif
176
     1
290
     0
176
     1
 40
1.0
176
     1
 40
1.0
176
     1
  0
VISUALSTYLE
  5
CC0
102
{ACAD_REACTORS
330
A4F
102
}
330
A4F
100
AcDbVisualStyle
  2
Hidden
 70
     6
177
     3
291
     0
 70
    58
 90
        1
176
     1
 90
        2
176
     1
 90
        2
176
     1
 90
        0
176
     1
 40
0.6
176
     1
 40
30.0
176
     1
 62
     7
420
 16777215
176
     1
 90
        2
176
     1
 90
        2
176
     1
 62
     7
176
     1
 62
   257
176
     1
 90
        2
176
     1
 90
        1
176
     1
 40
40.0
176
     1
 90
        0
176
     1
 62
   257
176
     1
 40
1.0
176
     1
 90
        1
176
     1
 90
        6
176
     1
 90
        2
176
     1
 62
     7
176
     1
 90
        3
176
     1
 90
        0
176
     1
 90
        0
176
     1
290
     0
176
     1
 90
        1
176
     1
 40
0.0
176
     1
 90
        0
176
     1
290
     0
176
     1
290
     1
176
     1
290
     1
176
     1
290
     0
176
     1
290
     0
176
     1
290
     0
176
     1
290
     0
176
     1
290
     0
176
     1
290
     0
176
     1
 90
       50
176
     1
 40
0.0
176
     1
 40
1.0
176
     1
 90
        0
176
     1
 62
    18
176
     1
 90
       50
176
     1
 90
        3
176
     1
 62
     5
420
      255
176
     1
290
     0
176
     1
 90
       50
176
     1
 90
       50
176
     1
 90
       50
176
     1
290
     0
176
     1
 90
       50
176
     1
 62
   256
176
     0
 40
1.0
176
     0
 90
        2
176
     1
  1
strokes_ogs.tif
176
     1
290
     0
176
     1
 40
1.0
176
     1
 40
1.0
176
     1
  0
VISUALSTYLE
  5
CC6
102
{ACAD_REACTORS
330
A4F
102
}
330
A4F
100
AcDbVisualStyle
  2
JitterOff
 70
    20
177
     3
291
     1
 70
    58
 90
        2
176
     0
 90
        2
176
     0
 90
        0
176
     0
 90
        0
176
     0
 40
0.6
176
     0
 40
30.0
176
     0
 62
     7
420
 16777215
176
     0
 90
        1
176
     0
 90
        4
176
     0
 62
     7
176
     0
 62
   257
176
     0
 90
        1
176
     0
 90
        1
176
     0
 40
1.0
176
     0
 90
       10
176
     2
 62
     7
176
     0
 40
1.0
176
     0
 90
        1
176
     0
 90
        6
176
     0
 90
        2
176
     0
 62
     7
176
     0
 90
        5
176
     0
 90
        0
176
     0
 90
        0
176
     0
290
     0
176
     0
 90
        1
176
     0
 40
0.0
176
     0
 90
        0
176
     0
290
     0
176
     0
290
     1
176
     0
290
     1
176
     0
290
     0
176
     0
290
     0
176
     0
290
     0
176
     0
290
     0
176
     0
290
     0
176
     0
290
     0
176
     0
 90
       50
176
     0
 40
0.0
176
     0
 40
1.0
176
     0
 90
        0
176
     0
 62
    18
176
     0
 90
       50
176
     0
 90
        3
176
     0
 62
     5
420
      255
176
     0
290
     0
176
     0
 90
       50
176
     0
 90
       50
176
     0
 90
       50
176
     0
290
     0
176
     0
 90
       50
176
     0
 62
   256
176
     0
 40
1.0
176
     0
 90
        2
176
     0
  1
strokes_ogs.tif
176
     0
290
     0
176
     0
 40
1.0
176
     0
 40
1.0
176
     0
  0
VISUALSTYLE
  5
A5D
102
{ACAD_REACTORS
330
A4F
102
}
330
A4F
100
AcDbVisualStyle
  2
Linepattern
 70
    14
177
     3
291
     1
 70
    58
 90
        2
176
     1
 90
        2
176
     1
 90
        0
176
     1
 90
        0
176
     1
 40
0.6
176
     1
 40
30.0
176
     1
 62
     7
420
 16777215
176
     1
 90
        1
176
     1
 90
        4
176
     1
 62
     7
176
     1
 62
   257
176
     1
 90
        7
176
     1
 90
        7
176
     1
 40
1.0
176
     1
 90
        8
176
     1
 62
     7
176
     1
 40
1.0
176
     1
 90
        1
176
     1
 90
        6
176
     1
 90
        2
176
     1
 62
     7
176
     1
 90
        5
176
     1
 90
        0
176
     1
 90
        0
176
     1
290
     0
176
     1
 90
        1
176
     1
 40
0.0
176
     1
 90
        0
176
     1
290
     0
176
     1
290
     1
176
     1
290
     1
176
     1
290
     0
176
     1
290
     0
176
     1
290
     0
176
     1
290
     0
176
     1
290
     0
176
     1
290
     0
176
     1
 90
       50
176
     1
 40
0.0
176
     1
 40
1.0
176
     1
 90
        0
176
     1
 62
    18
176
     1
 90
       50
176
     1
 90
        3
176
     1
 62
     5
420
      255
176
     1
290
     0
176
     1
 90
       50
176
     1
 90
       50
176
     1
 90
       50
176
     1
290
     0
176
     1
 90
       50
176
     1
 62
   256
176
     0
 40
1.0
176
     0
 90
        2
176
     1
  1
strokes_ogs.tif
176
     1
290
     0
176
     1
 40
1.0
176
     1
 40
1.0
176
     1
  0
VISUALSTYLE
  5
CC7
102
{ACAD_REACTORS
330
A4F
102
}
330
A4F
100
AcDbVisualStyle
  2
OverhangOff
 70
    21
177
     3
291
     1
 70
    58
 90
        2
176
     0
 90
        2
176
     0
 90
        0
176
     0
 90
        0
176
     0
 40
0.6
176
     0
 40
30.0
176
     0
 62
     7
420
 16777215
176
     0
 90
        1
176
     0
 90
        4
176
     0
 62
     7
176
     0
 62
   257
176
     0
 90
        1
176
     0
 90
        1
176
     0
 40
1.0
176
     0
 90
        9
176
     2
 62
     7
176
     0
 40
1.0
176
     0
 90
        1
176
     0
 90
        6
176
     0
 90
        2
176
     0
 62
     7
176
     0
 90
        5
176
     0
 90
        0
176
     0
 90
        0
176
     0
290
     0
176
     0
 90
        1
176
     0
 40
0.0
176
     0
 90
        0
176
     0
290
     0
176
     0
290
     1
176
     0
290
     1
176
     0
290
     0
176
     0
290
     0
176
     0
290
     0
176
     0
290
     0
176
     0
290
     0
176
     0
290
     0
176
     0
 90
       50
176
     0
 40
0.0
176
     0
 40
1.0
176
     0
 90
        0
176
     0
 62
    18
176
     0
 90
       50
176
     0
 90
        3
176
     0
 62
     5
420
      255
176
     0
290
     0
176
     0
 90
       50
176
     0
 90
       50
176
     0
 90
       50
176
     0
290
     0
176
     0
 90
       50
176
     0
 62
   256
176
     0
 40
1.0
176
     0
 90
        2
176
     0
  1
strokes_ogs.tif
176
     0
290
     0
176
     0
 40
1.0
176
     0
 40
1.0
176
     0
  0
VISUALSTYLE
  5
A59
102
{ACAD_REACTORS
330
A4F
102
}
330
A4F
100
AcDbVisualStyle
  2
Realistic
 70
     8
177
     3
291
     0
 70
    58
 90
        2
176
     1
 90
        2
176
     1
 90
        0
176
     1
 90
        0
176
     1
 40
0.6
176
     1
 40
30.0
176
     1
 62
     7
420
 16777215
176
     1
 90
        1
176
     1
 90
        0
176
     1
 62
     7
176
     1
 62
   257
176
     1
 90
        1
176
     1
 90
        1
176
     1
 40
1.0
176
     1
 90
        8
176
     1
 62
     8
420
  7895160
176
     1
 40
1.0
176
     1
 90
        1
176
     1
 90
        6
176
     1
 90
        2
176
     1
 62
     7
176
     1
 90
        5
176
     1
 90
        0
176
     1
 90
        0
176
     1
290
     0
176
     1
 90
       13
176
     1
 40
0.0
176
     1
 90
        0
176
     1
290
     0
176
     1
290
     1
176
     1
290
     1
176
     1
290
     0
176
     1
290
     0
176
     1
290
     0
176
     1
290
     0
176
     1
290
     0
176
     1
290
     0
176
     1
 90
       50
176
     1
 40
0.0
176
     1
 40
1.0
176
     1
 90
        0
176
     1
 62
    18
176
     1
 90
       50
176
     1
 90
        3
176
     1
 62
     5
420
      255
176
     1
290
     0
176
     1
 90
       50
176
     1
 90
       50
176
     1
 90
       50
176
     1
290
     0
176
     1
 90
       50
176
     1
 62
   256
176
     0
 40
1.0
176
     0
 90
        2
176
     1
  1
strokes_ogs.tif
176
     1
290
     0
176
     1
 40
1.0
176
     1
 40
1.0
176
     1
  0
VISUALSTYLE
  5
CC5
102
{ACAD_REACTORS
330
A4F
102
}
330
A4F
100
AcDbVisualStyle
  2
Shaded
 70
    27
177
     3
291
     0
 70
    58
 90
        2
176
     1
 90
        2
176
     1
 90
        1
176
     1
 90
        2
176
     1
 40
0.6
176
     1
 40
30.0
176
     1
 62
     7
420
 16777215
176
     1
 90
        0
176
     1
 90
        4
176
     1
 62
     7
176
     1
 62
   257
176
     1
 90
        1
176
     1
 90
        1
176
     1
 40
1.0
176
     1
 90
        8
176
     1
 62
   257
176
     1
 40
1.0
176
     1
 90
        1
176
     1
 90
        6
176
     1
 90
        2
176
     1
 62
     8
420
  7895160
176
     1
 90
        3
176
     1
 90
        0
176
     1
 90
        0
176
     1
290
     0
176
     1
 90
        5
176
     1
 40
0.0
176
     1
 90
        0
176
     1
290
     0
176
     1
290
     1
176
     1
290
     1
176
     1
290
     0
176
     1
290
     0
176
     1
290
     0
176
     1
290
     0
176
     1
290
     0
176
     1
290
     0
176
     1
 90
       50
176
     1
 40
0.0
176
     1
 40
1.0
176
     1
 90
        0
176
     1
 62
    18
176
     1
 90
       50
176
     1
 90
        3
176
     1
 62
     5
420
      255
176
     1
290
     0
176
     1
 90
       50
176
     1
 90
       50
176
     1
 90
       50
176
     1
290
     0
176
     1
 90
       50
176
     1
 62
   256
176
     0
 40
1.0
176
     0
 90
        2
176
     1
  1
strokes_ogs.tif
176
     1
290
     0
176
     1
 40
1.0
176
     1
 40
1.0
176
     1
  0
VISUALSTYLE
  5
CC4
102
{ACAD_REACTORS
330
A4F
102
}
330
A4F
100
AcDbVisualStyle
  2
Shaded with edges
 70
    26
177
     3
291
     0
 70
    58
 90
        2
176
     1
 90
        2
176
     1
 90
        1
176
     1
 90
        2
176
     1
 40
0.6
176
     1
 40
30.0
176
     1
 62
     7
420
 16777215
176
     1
 90
        1
176
     1
 90
       10
176
     1
 62
     7
176
     1
 62
   257
176
     1
 90
        2
176
     1
 90
        1
176
     1
 40
1.0
176
     1
 90
        8
176
     1
 62
   257
176
     1
 40
1.0
176
     1
 90
        1
176
     1
 90
        6
176
     1
 90
        2
176
     1
 62
     7
176
     1
 90
        3
176
     1
 90
        0
176
     1
 90
        0
176
     1
290
     0
176
     1
 90
        5
176
     1
 40
0.0
176
     1
 90
        0
176
     1
290
     0
176
     1
290
     1
176
     1
290
     1
176
     1
290
     0
176
     1
290
     0
176
     1
290
     0
176
     1
290
     0
176
     1
290
     0
176
     1
290
     0
176
     1
 90
       50
176
     1
 40
0.0
176
     1
 40
1.0
176
     1
 90
        0
176
     1
 62
    18
176
     1
 90
       50
176
     1
 90
        3
176
     1
 62
     5
420
      255
176
     1
290
     0
176
     1
 90
       50
176
     1
 90
       50
176
     1
 90
       50
176
     1
290
     0
176
     1
 90
       50
176
     1
 62
   256
176
     0
 40
1.0
176
     0
 90
        2
176
     1
  1
strokes_ogs.tif
176
     1
290
     0
176
     1
 40
1.0
176
     1
 40
1.0
176
     1
  0
VISUALSTYLE
  5
CC1
102
{ACAD_REACTORS
330
A4F
102
}
330
A4F
100
AcDbVisualStyle
  2
Shades of Gray
 70
    23
177
     3
291
     0
 70
    58
 90
        2
176
     1
 90
        2
176
     1
 90
        3
176
     1
 90
        0
176
     1
 40
0.6
176
     1
 40
30.0
176
     1
 62
     7
420
 16777215
176
     1
 90
        2
176
     1
 90
        2
176
     1
 62
     7
176
     1
 62
     7
176
     1
 90
        1
176
     1
 90
        1
176
     1
 40
40.0
176
     1
 90
        8
176
     1
 62
     7
176
     1
 40
1.0
176
     1
 90
        1
176
     1
 90
        6
176
     1
 90
        2
176
     1
 62
     7
176
     1
 90
        3
176
     1
 90
        0
176
     1
 90
        0
176
     1
290
     0
176
     1
 90
        1
176
     1
 40
0.0
176
     1
 90
        0
176
     1
290
     0
176
     1
290
     1
176
     1
290
     1
176
     1
290
     0
176
     1
290
     0
176
     1
290
     0
176
     1
290
     0
176
     1
290
     0
176
     1
290
     0
176
     1
 90
       50
176
     1
 40
0.0
176
     1
 40
1.0
176
     1
 90
        0
176
     1
 62
    18
176
     1
 90
       50
176
     1
 90
        3
176
     1
 62
     5
420
      255
176
     1
290
     0
176
     1
 90
       50
176
     1
 90
       50
176
     1
 90
       50
176
     1
290
     0
176
     1
 90
       50
176
     1
 62
   256
176
     0
 40
1.0
176
     0
 90
        2
176
     1
  1
strokes_ogs.tif
176
     1
290
     0
176
     1
 40
1.0
176
     1
 40
1.0
176
     1
  0
VISUALSTYLE
  5
CC2
102
{ACAD_REACTORS
330
A4F
102
}
330
A4F
100
AcDbVisualStyle
  2
Sketchy
 70
    24
177
     3
291
     0
 70
    58
 90
        1
176
     1
 90
        2
176
     1
 90
        2
176
     1
 90
        0
176
     1
 40
0.6
176
     1
 40
30.0
176
     1
 62
     7
420
 16777215
176
     1
 90
        2
176
     1
 90
        2
176
     1
 62
     7
176
     1
 62
     7
176
     1
 90
        1
176
     1
 90
        1
176
     1
 40
40.0
176
     1
 90
       11
176
     1
 62
     7
176
     1
 40
1.0
176
     1
 90
        1
176
     1
 90
        6
176
     1
 90
        2
176
     1
 62
     7
176
     1
 90
        6
176
     1
 90
        0
176
     1
 90
        0
176
     1
290
     0
176
     1
 90
        1
176
     1
 40
0.0
176
     1
 90
        0
176
     1
290
     0
176
     1
290
     1
176
     1
290
     1
176
     1
290
     0
176
     1
290
     0
176
     1
290
     0
176
     1
290
     0
176
     1
290
     0
176
     1
290
     0
176
     1
 90
       50
176
     1
 40
0.0
176
     1
 40
1.0
176
     1
 90
        0
176
     1
 62
    18
176
     1
 90
       50
176
     1
 90
        3
176
     1
 62
     5
420
      255
176
     1
290
     0
176
     1
 90
       50
176
     1
 90
       50
176
     1
 90
       50
176
     1
290
     0
176
     1
 90
       50
176
     1
 62
   256
176
     0
 40
1.0
176
     0
 90
        2
176
     1
  1
strokes_ogs.tif
176
     1
290
     0
176
     1
 40
1.0
176
     1
 40
1.0
176
     1
  0
VISUALSTYLE
  5
A5C
102
{ACAD_REACTORS
330
A4F
102
}
330
A4F
100
AcDbVisualStyle
  2
Thicken
 70
    13
177
     3
291
     1
 70
    58
 90
        2
176
     1
 90
        2
176
     1
 90
        0
176
     1
 90
        0
176
     1
 40
0.6
176
     1
 40
30.0
176
     1
 62
     7
420
 16777215
176
     1
 90
        1
176
     1
 90
        4
176
     1
 62
     7
176
     1
 62
   257
176
     1
 90
        1
176
     1
 90
        1
176
     1
 40
1.0
176
     1
 90
       12
176
     1
 62
     7
176
     1
 40
1.0
176
     1
 90
        1
176
     1
 90
        6
176
     1
 90
        2
176
     1
 62
     7
176
     1
 90
        5
176
     1
 90
        0
176
     1
 90
        0
176
     1
290
     0
176
     1
 90
        1
176
     1
 40
0.0
176
     1
 90
        0
176
     1
290
     0
176
     1
290
     1
176
     1
290
     1
176
     1
290
     0
176
     1
290
     0
176
     1
290
     0
176
     1
290
     0
176
     1
290
     0
176
     1
290
     0
176
     1
 90
       50
176
     1
 40
0.0
176
     1
 40
1.0
176
     1
 90
        0
176
     1
 62
    18
176
     1
 90
       50
176
     1
 90
        3
176
     1
 62
     5
420
      255
176
     1
290
     0
176
     1
 90
       50
176
     1
 90
       50
176
     1
 90
       50
176
     1
290
     0
176
     1
 90
       50
176
     1
 62
   256
176
     0
 40
1.0
176
     0
 90
        2
176
     1
  1
strokes_ogs.tif
176
     1
290
     0
176
     1
 40
1.0
176
     1
 40
1.0
176
     1
  0
VISUALSTYLE
  5
CBF
102
{ACAD_REACTORS
330
A4F
102
}
330
A4F
100
AcDbVisualStyle
  2
Wireframe
 70
     5
177
     3
291
     0
 70
    58
 90
        0
176
     1
 90
        2
176
     1
 90
        0
176
     1
 90
        0
176
     1
 40
0.6
176
     1
 40
30.0
176
     1
 62
     7
420
 16777215
176
     1
 90
        1
176
     1
 90
        4
176
     1
 62
     7
176
     1
 62
   257
176
     1
 90
        1
176
     1
 90
        1
176
     1
 40
1.0
176
     1
 90
        0
176
     1
 62
   257
176
     1
 40
1.0
176
     1
 90
        1
176
     1
 90
        6
176
     1
 90
        2
176
     1
 62
     7
176
     1
 90
        3
176
     1
 90
        0
176
     1
 90
        0
176
     1
290
     0
176
     1
 90
        1
176
     1
 40
0.0
176
     1
 90
        0
176
     1
290
     0
176
     1
290
     1
176
     1
290
     1
176
     1
290
     0
176
     1
290
     0
176
     1
290
     0
176
     1
290
     0
176
     1
290
     0
176
     1
290
     0
176
     1
 90
       50
176
     1
 40
0.0
176
     1
 40
1.0
176
     1
 90
        0
176
     1
 62
    18
176
     1
 90
       50
176
     1
 90
        3
176
     1
 62
     5
420
      255
176
     1
290
     0
176
     1
 90
       50
176
     1
 90
       50
176
     1
 90
       50
176
     1
290
     0
176
     1
 90
       50
176
     1
 62
   256
176
     0
 40
1.0
176
     0
 90
        2
176
     1
  1
strokes_ogs.tif
176
     1
290
     0
176
     1
 40
1.0
176
     1
 40
1.0
176
     1
  0
VISUALSTYLE
  5
CC3
102
{ACAD_REACTORS
330
A4F
102
}
330
A4F
100
AcDbVisualStyle
  2
X-Ray
 70
    25
177
     3
291
     0
 70
    58
 90
        2
176
     1
 90
        2
176
     1
 90
        1
176
     1
 90
        1
176
     1
 40
0.5
176
     1
 40
30.0
176
     1
 62
     7
420
 16777215
176
     1
 90
        1
176
     1
 90
        0
176
     1
 62
     7
176
     1
 62
   257
176
     1
 90
        1
176
     1
 90
        1
176
     1
 40
1.0
176
     1
 90
        8
176
     1
 62
     7
176
     1
 40
1.0
176
     1
 90
        1
176
     1
 90
        6
176
     1
 90
        2
176
     1
 62
     7
176
     1
 90
        3
176
     1
 90
        0
176
     1
 90
        0
176
     1
290
     0
176
     1
 90
       13
176
     1
 40
0.0
176
     1
 90
        0
176
     1
290
     0
176
     1
290
     1
176
     1
290
     1
176
     1
290
     0
176
     1
290
     0
176
     1
290
     0
176
     1
290
     0
176
     1
290
     0
176
     1
290
     0
176
     1
 90
       50
176
     1
 40
0.0
176
     1
 40
1.0
176
     1
 90
        0
176
     1
 62
    18
176
     1
 90
       50
176
     1
 90
        3
176
     1
 62
     5
420
      255
176
     1
290
     0
176
     1
 90
       50
176
     1
 90
       50
176
     1
 90
       50
176
     1
290
     0
176
     1
 90
       50
176
     1
 62
   256
176
     0
 40
1.0
176
     0
 90
        2
176
     1
  1
strokes_ogs.tif
176
     1
290
     0
176
     1
 40
1.0
176
     1
 40
1.0
176
     1
  0
DICTIONARYVAR
  5
AF4
102
{ACAD_REACTORS
330
5D
102
}
330
5D
100
DictionaryVariables
280
     0
  1
1:1
  0
DICTIONARYVAR
  5
AF2
102
{ACAD_REACTORS
330
5D
102
}
330
5D
100
DictionaryVariables
280
     0
  1
STANDARD
  0
DICTIONARYVAR
  5
66F
102
{ACAD_REACTORS
330
5D
102
}
330
5D
100
DictionaryVariables
280
     0
  1
STANDARD
  0
DICTIONARYVAR
  5
FFA
102
{ACAD_REACTORS
330
5D
102
}
330
5D
100
DictionaryVariables
280
     0
  1
ISO 128-34_2001
  0
DICTIONARYVAR
  5
FFB
102
{ACAD_REACTORS
330
5D
102
}
330
5D
100
DictionaryVariables
280
     0
  1
ISO 128_1982
  0
DICTIONARYVAR
  5
5E
102
{ACAD_REACTORS
330
5D
102
}
330
5D
100
DictionaryVariables
280
     0
  1
0
  0
DICTIONARYVAR
  5
3C7
102
{ACAD_REACTORS
330
5D
102
}
330
5D
100
DictionaryVariables
280
     0
  1
1
  0
DICTIONARYVAR
  5
128
102
{ACAD_REACTORS
330
5D
102
}
330
5D
100
DictionaryVariables
280
     0
  1
1
  0
DICTIONARYVAR
  5
AF6
102
{ACAD_REACTORS
330
5D
102
}
330
5D
100
DictionaryVariables
280
     0
  1
1
  0
DICTIONARYVAR
  5
AF7
102
{ACAD_REACTORS
330
5D
102
}
330
5D
100
DictionaryVariables
280
     0
  1
15
  0
DICTIONARYVAR
  5
AF5
102
{ACAD_REACTORS
330
5D
102
}
330
5D
100
DictionaryVariables
280
     0
  1
0
  0
DICTIONARYVAR
  5
AF3
102
{ACAD_REACTORS
330
5D
102
}
330
5D
100
DictionaryVariables
280
     0
  1
0
  0
DICTIONARY
  5
143
102
{ACAD_REACTORS
330
142
102
}
330
142
100
AcDbDictionary
281
     1
  0
XRECORD
  5
47D
102
{ACAD_REACTORS
330
142
102
}
330
142
100
AcDbXrecord
280
     1
 90
-1056964608
  0
XRECORD
  5
84B
102
{ACAD_REACTORS
330
849
102
}
330
849
100
AcDbXrecord
280
     1
  0
DICTIONARY
  5
13F3
102
{ACAD_REACTORS
330
13F2
102
}
330
13F2
100
AcDbDictionary
281
     1
  3
_HasBOM
350
13F9
  3
Comment
350
13F8
  3
Folder
350
13F7
  3
GEN-TITLE-DES1
350
13F5
  3
GEN-TITLE-DES2
350
13F6
  3
GEN-TITLE-NR
350
13F4
  0
LAYER_INDEX
  5
30C5
102
{ACAD_REACTORS
330
30C4
102
}
330
30C4
100
AcDbIndex
 40
2457357.710688842
100
AcDbLayerIndex
  8
0
360
30C6
 90
        0
  8
AM_0
360
30C7
 90
        1
  8
Visible Edges(ISO)
360
30C8
 90
        0
  8
Defpoints
360
30C9
 90
        0
  8
DIM
360
30CA
 90
        0
  0
DICTIONARY
  5
13FE
330
10B9
100
AcDbDictionary
280
     1
281
     1
  3
ACAD_XREC_ROUNDTRIP
360
14B0
  0
DICTIONARY
  5
13FC
330
CCC
100
AcDbDictionary
280
     1
281
     1
  3
ACAD_XREC_ROUNDTRIP
360
14AE
  0
DICTIONARY
  5
1474
330
169
100
AcDbDictionary
280
     1
281
     1
  0
DICTIONARY
  5
A40
330
A3F
100
AcDbDictionary
280
     1
281
     1
  3
BUMPTILE
360
A42
  3
DIFFUSETILE
360
A41
  3
OPACITYTILE
360
A45
  3
REFLECTIONTILE
360
A44
  3
REFRACTIONTILE
360
A46
  3
SPECULARTILE
360
A43
  0
DICTIONARY
  5
A38
330
A37
100
AcDbDictionary
280
     1
281
     1
  3
BUMPTILE
360
A3A
  3
DIFFUSETILE
360
A39
  3
OPACITYTILE
360
A3D
  3
REFLECTIONTILE
360
A3C
  3
REFRACTIONTILE
360
A3E
  3
SPECULARTILE
360
A3B
  0
DICTIONARY
  5
A48
330
A47
100
AcDbDictionary
280
     1
281
     1
  3
BUMPTILE
360
A4A
  3
DIFFUSETILE
360
A49
  3
OPACITYTILE
360
A4D
  3
REFLECTIONTILE
360
A4C
  3
REFRACTIONTILE
360
A4E
  3
SPECULARTILE
360
A4B
  0
DICTIONARY
  5
1497
330
A73
100
AcDbDictionary
280
     1
281
     1
  3
ACAD_XREC_ROUNDTRIP
360
1498
  0
DICTIONARY
  5
10BB
330
10BA
100
AcDbDictionary
280
     1
281
     1
  3
ACAD_FIELD
360
10BC
  3
ACAD_XREC_ROUNDTRIP
360
14B1
  0
DICTIONARY
  5
13FA
330
CCA
100
AcDbDictionary
280
     1
281
     1
  3
ACAD_XREC_ROUNDTRIP
360
14AD
  0
DICTIONARY
  5
AED
330
651
100
AcDbDictionary
280
     1
281
     1
  3
ACAD_ROUNDTRIP_2008_TABLESTYLE_CELLSTYLEMAP
360
355E
  0
XRECORD
  5
13F9
102
{ACAD_REACTORS
330
13F3
102
}
330
13F3
100
AcDbXrecord
280
     1
  1
_HasBOM
  1
False
  0
XRECORD
  5
13F8
102
{ACAD_REACTORS
330
13F3
102
}
330
13F3
100
AcDbXrecord
280
     1
  1
Comment
  1

  0
XRECORD
  5
13F7
102
{ACAD_REACTORS
330
13F3
102
}
330
13F3
100
AcDbXrecord
280
     1
  1
Folder
  1

  0
XRECORD
  5
13F5
102
{ACAD_REACTORS
330
13F3
102
}
330
13F3
100
AcDbXrecord
280
     1
  1
GEN-TITLE-DES1
  1

  0
XRECORD
  5
13F6
102
{ACAD_REACTORS
330
13F3
102
}
330
13F3
100
AcDbXrecord
280
     1
  1
GEN-TITLE-DES2
  1

  0
XRECORD
  5
13F4
102
{ACAD_REACTORS
330
13F3
102
}
330
13F3
100
AcDbXrecord
280
     1
  1
GEN-TITLE-NR
  1

  0
IDBUFFER
  5
30C6
330
0
100
AcDbIdBuffer
  0
IDBUFFER
  5
30C7
330
0
100
AcDbIdBuffer
330
330C
  0
IDBUFFER
  5
30C8
330
0
100
AcDbIdBuffer
  0
IDBUFFER
  5
30C9
330
0
100
AcDbIdBuffer
  0
IDBUFFER
  5
30CA
330
0
100
AcDbIdBuffer
  0
XRECORD
  5
14B0
102
{ACAD_REACTORS
330
13FE
102
}
330
13FE
100
AcDbXrecord
280
     1
102
DISPLAYNAME
  1
ISO 128-34:2001
102
FLAGS
 90
        1
  0
XRECORD
  5
14AE
102
{ACAD_REACTORS
330
13FC
102
}
330
13FC
100
AcDbXrecord
280
     1
102
DISPLAYNAME
  1
Metric50
102
FLAGS
 90
        0
  0
XRECORD
  5
A42
102
{ACAD_REACTORS
330
A40
102
}
330
A40
100
AcDbXrecord
280
     1
270
     1
271
     1
  0
XRECORD
  5
A41
102
{ACAD_REACTORS
330
A40
102
}
330
A40
100
AcDbXrecord
280
     1
270
     1
271
     1
  0
XRECORD
  5
A45
102
{ACAD_REACTORS
330
A40
102
}
330
A40
100
AcDbXrecord
280
     1
270
     1
271
     1
  0
XRECORD
  5
A44
102
{ACAD_REACTORS
330
A40
102
}
330
A40
100
AcDbXrecord
280
     1
270
     1
271
     1
  0
XRECORD
  5
A46
102
{ACAD_REACTORS
330
A40
102
}
330
A40
100
AcDbXrecord
280
     1
270
     1
271
     1
  0
XRECORD
  5
A43
102
{ACAD_REACTORS
330
A40
102
}
330
A40
100
AcDbXrecord
280
     1
270
     1
271
     1
  0
XRECORD
  5
A3A
102
{ACAD_REACTORS
330
A38
102
}
330
A38
100
AcDbXrecord
280
     1
270
     1
271
     1
  0
XRECORD
  5
A39
102
{ACAD_REACTORS
330
A38
102
}
330
A38
100
AcDbXrecord
280
     1
270
     1
271
     1
  0
XRECORD
  5
A3D
102
{ACAD_REACTORS
330
A38
102
}
330
A38
100
AcDbXrecord
280
     1
270
     1
271
     1
  0
XRECORD
  5
A3C
102
{ACAD_REACTORS
330
A38
102
}
330
A38
100
AcDbXrecord
280
     1
270
     1
271
     1
  0
XRECORD
  5
A3E
102
{ACAD_REACTORS
330
A38
102
}
330
A38
100
AcDbXrecord
280
     1
270
     1
271
     1
  0
XRECORD
  5
A3B
102
{ACAD_REACTORS
330
A38
102
}
330
A38
100
AcDbXrecord
280
     1
270
     1
271
     1
  0
XRECORD
  5
A4A
102
{ACAD_REACTORS
330
A48
102
}
330
A48
100
AcDbXrecord
280
     1
270
     1
271
     1
  0
XRECORD
  5
A49
102
{ACAD_REACTORS
330
A48
102
}
330
A48
100
AcDbXrecord
280
     1
270
     1
271
     1
  0
XRECORD
  5
A4D
102
{ACAD_REACTORS
330
A48
102
}
330
A48
100
AcDbXrecord
280
     1
270
     1
271
     1
  0
XRECORD
  5
A4C
102
{ACAD_REACTORS
330
A48
102
}
330
A48
100
AcDbXrecord
280
     1
270
     1
271
     1
  0
XRECORD
  5
A4E
102
{ACAD_REACTORS
330
A48
102
}
330
A48
100
AcDbXrecord
280
     1
270
     1
271
     1
  0
XRECORD
  5
A4B
102
{ACAD_REACTORS
330
A48
102
}
330
A48
100
AcDbXrecord
280
     1
270
     1
271
     1
  0
XRECORD
  5
1498
102
{ACAD_REACTORS
330
1497
102
}
330
1497
100
AcDbXrecord
280
     1
102
ACAD_ROUNDTRIP_2012_MLEADER_STYLE
298
     1
  0
DICTIONARY
  5
10BC
102
{ACAD_REACTORS
330
10BB
102
}
330
10BB
100
AcDbDictionary
280
     1
281
     1
  3
TEXT
360
10BD
  0
XRECORD
  5
14B1
102
{ACAD_REACTORS
330
10BB
102
}
330
10BB
100
AcDbXrecord
280
     1
102
DISPLAYNAME
  1
ISO 128:1982
102
FLAGS
 90
        1
  0
XRECORD
  5
14AD
102
{ACAD_REACTORS
330
13FA
102
}
330
13FA
100
AcDbXrecord
280
     1
102
DISPLAYNAME
  1
Metric50
102
FLAGS
 90
        0
  0
CELLSTYLEMAP
  5
355E
102
{ACAD_REACTORS
330
AED
102
}
330
AED
100
AcDbCellStyleMap
 90
        3
300
CELLSTYLE
  1
TABLEFORMAT_BEGIN
 90
        5
170
     1
 91
        0
 92
    32768
 62
   257
 93
        1
300
CONTENTFORMAT
  1
CONTENTFORMAT_BEGIN
 90
        0
 91
        0
 92
        4
 93
        0
300

 40
0.0
140
1.0
 94
        5
 62
     0
340
10
144
6.0
309
CONTENTFORMAT_END
171
     1
301
MARGIN
  1
CELLMARGIN_BEGIN
 40
1.5
 40
1.5
 40
1.5
 40
1.5
 40
0.18
 40
0.18
309
CELLMARGIN_END
 94
        6
 95
        1
302
GRIDFORMAT
  1
GRIDFORMAT_BEGIN
 90
        0
 91
        1
 62
     0
 92
       -2
340
0
 93
        0
 40
0.045
309
GRIDFORMAT_END
 95
        2
302
GRIDFORMAT
  1
GRIDFORMAT_BEGIN
 90
        0
 91
        1
 62
     0
 92
       -2
340
0
 93
        0
 40
0.045
309
GRIDFORMAT_END
 95
        4
302
GRIDFORMAT
  1
GRIDFORMAT_BEGIN
 90
        0
 91
        1
 62
     0
 92
       -2
340
0
 93
        0
 40
0.045
309
GRIDFORMAT_END
 95
        8
302
GRIDFORMAT
  1
GRIDFORMAT_BEGIN
 90
        0
 91
        1
 62
     0
 92
       -2
340
0
 93
        0
 40
0.045
309
GRIDFORMAT_END
 95
       16
302
GRIDFORMAT
  1
GRIDFORMAT_BEGIN
 90
        0
 91
        1
 62
     0
 92
       -2
340
0
 93
        0
 40
0.045
309
GRIDFORMAT_END
 95
       32
302
GRIDFORMAT
  1
GRIDFORMAT_BEGIN
 90
        0
 91
        1
 62
     0
 92
       -2
340
0
 93
        0
 40
0.045
309
GRIDFORMAT_END
309
TABLEFORMAT_END
  1
CELLSTYLE_BEGIN
 90
        1
 91
        1
300
_TITLE
309
CELLSTYLE_END
300
CELLSTYLE
  1
TABLEFORMAT_BEGIN
 90
        5
170
     1
 91
        0
 92
        0
 62
   257
 93
        1
300
CONTENTFORMAT
  1
CONTENTFORMAT_BEGIN
 90
        0
 91
        0
 92
        4
 93
        0
300

 40
0.0
140
1.0
 94
        5
 62
     0
340
10
144
4.5
309
CONTENTFORMAT_END
171
     1
301
MARGIN
  1
CELLMARGIN_BEGIN
 40
1.5
 40
1.5
 40
1.5
 40
1.5
 40
0.18
 40
0.18
309
CELLMARGIN_END
 94
        6
 95
        1
302
GRIDFORMAT
  1
GRIDFORMAT_BEGIN
 90
        0
 91
        1
 62
     0
 92
       -2
340
0
 93
        0
 40
0.045
309
GRIDFORMAT_END
 95
        2
302
GRIDFORMAT
  1
GRIDFORMAT_BEGIN
 90
        0
 91
        1
 62
     0
 92
       -2
340
0
 93
        0
 40
0.045
309
GRIDFORMAT_END
 95
        4
302
GRIDFORMAT
  1
GRIDFORMAT_BEGIN
 90
        0
 91
        1
 62
     0
 92
       -2
340
0
 93
        0
 40
0.045
309
GRIDFORMAT_END
 95
        8
302
GRIDFORMAT
  1
GRIDFORMAT_BEGIN
 90
        0
 91
        1
 62
     0
 92
       -2
340
0
 93
        0
 40
0.045
309
GRIDFORMAT_END
 95
       16
302
GRIDFORMAT
  1
GRIDFORMAT_BEGIN
 90
        0
 91
        1
 62
     0
 92
       -2
340
0
 93
        0
 40
0.045
309
GRIDFORMAT_END
 95
       32
302
GRIDFORMAT
  1
GRIDFORMAT_BEGIN
 90
        0
 91
        1
 62
     0
 92
       -2
340
0
 93
        0
 40
0.045
309
GRIDFORMAT_END
309
TABLEFORMAT_END
  1
CELLSTYLE_BEGIN
 90
        2
 91
        1
300
_HEADER
309
CELLSTYLE_END
300
CELLSTYLE
  1
TABLEFORMAT_BEGIN
 90
        5
170
     1
 91
        0
 92
        0
 62
   257
 93
        1
300
CONTENTFORMAT
  1
CONTENTFORMAT_BEGIN
 90
        0
 91
        0
 92
        4
 93
        0
300

 40
0.0
140
1.0
 94
        2
 62
     0
340
10
144
4.5
309
CONTENTFORMAT_END
171
     1
301
MARGIN
  1
CELLMARGIN_BEGIN
 40
1.5
 40
1.5
 40
1.5
 40
1.5
 40
0.18
 40
0.18
309
CELLMARGIN_END
 94
        6
 95
        1
302
GRIDFORMAT
  1
GRIDFORMAT_BEGIN
 90
        0
 91
        1
 62
     0
 92
       -2
340
0
 93
        0
 40
0.045
309
GRIDFORMAT_END
 95
        2
302
GRIDFORMAT
  1
GRIDFORMAT_BEGIN
 90
        0
 91
        1
 62
     0
 92
       -2
340
0
 93
        0
 40
0.045
309
GRIDFORMAT_END
 95
        4
302
GRIDFORMAT
  1
GRIDFORMAT_BEGIN
 90
        0
 91
        1
 62
     0
 92
       -2
340
0
 93
        0
 40
0.045
309
GRIDFORMAT_END
 95
        8
302
GRIDFORMAT
  1
GRIDFORMAT_BEGIN
 90
        0
 91
        1
 62
     0
 92
       -2
340
0
 93
        0
 40
0.045
309
GRIDFORMAT_END
 95
       16
302
GRIDFORMAT
  1
GRIDFORMAT_BEGIN
 90
        0
 91
        1
 62
     0
 92
       -2
340
0
 93
        0
 40
0.045
309
GRIDFORMAT_END
 95
       32
302
GRIDFORMAT
  1
GRIDFORMAT_BEGIN
 90
        0
 91
        1
 62
     0
 92
       -2
340
0
 93
        0
 40
0.045
309
GRIDFORMAT_END
309
TABLEFORMAT_END
  1
CELLSTYLE_BEGIN
 90
        3
 91
        2
300
_DATA
309
CELLSTYLE_END
  0
FIELD
  5
10BD
102
{ACAD_REACTORS
330
10BC
102
}
330
10BC
100
AcDbField
  1
_text
  2
%<\_FldIdx 0>%-%<\_FldIdx 1>%
 90
        2
360
10BE
360
10BF
 97
        0
 91
       63
 92
        0
 94
        9
 95
        2
 96
        0
300

 93
        0
  7
ACFD_FIELD_VALUE
 93
        3
 90
        0
 94
        0
300

302

304
ACVALUE_END
301

 98
        0
  0
FIELD
  5
10BE
330
10BD
100
AcDbField
  1
AcVar
  2
\AcVar ViewSectionStartId
 90
        0
 97
        0
 91
       63
 92
        0
 94
       43
 95
        2
 96
        0
300

 93
        1
  6
Variable
 93
        2
 90
        4
  1
ViewSectionStartId
 94
        0
300

302

304
ACVALUE_END
  7
ACFD_FIELD_VALUE
 93
        1
 90
        0
 94
        0
300

302

304
ACVALUE_END
301
----
 98
        4
  0
FIELD
  5
10BF
330
10BD
100
AcDbField
  1
AcVar
  2
\AcVar ViewSectionEndId
 90
        0
 97
        0
 91
       63
 92
        0
 94
       43
 95
        2
 96
        0
300

 93
        1
  6
Variable
 93
        2
 90
        4
  1
ViewSectionEndId
 94
        0
300

302

304
ACVALUE_END
  7
ACFD_FIELD_VALUE
 93
        1
 90
        0
 94
        0
300

302

304
ACVALUE_END
301
----
 98
        4
  0
ENDSEC
  0
SECTION
  2
ACDSDATA
 70
     2
 71
     7
  0
ACDSSCHEMA
 90
        0
  1
AcDb_Thumbnail_Schema
  2
AcDbDs::ID
280
    10
 91
        8
  2
Thumbnail_Data
280
    15
 91
        0
101
ACDSRECORD
 95
        0
 90
        1
  2
AcDbDs::TreatedAsObjectData
280
     1
291
     1
101
ACDSRECORD
 95
        0
 90
        2
  2
AcDbDs::Legacy
280
     1
291
     1
101
ACDSRECORD
  1
AcDbDs::ID
 90
        3
  2
AcDs:Indexable
280
     1
291
     1
101
ACDSRECORD
  1
AcDbDs::ID
 90
        4
  2
AcDbDs::HandleAttribute
280
     7
282
     1
  0
ACDSSCHEMA
 90
        1
  1
AcDbDs::TreatedAsObjectDataSchema
  2
AcDbDs::TreatedAsObjectData
280
     1
 91
        0
  0
ACDSSCHEMA
 90
        2
  1
AcDbDs::LegacySchema
  2
AcDbDs::Legacy
280
     1
 91
        0
  0
ACDSSCHEMA
 90
        3
  1
AcDbDs::IndexedPropertySchema
  2
AcDs:Indexable
280
     1
 91
        0
  0
ACDSSCHEMA
 90
        4
  1
AcDbDs::HandleAttributeSchema
  2
AcDbDs::HandleAttribute
280
     7
 91
        1
284
     1
  0
ACDSRECORD
 90
        0
  2
AcDbDs::ID
280
    10
320
2CA4
  2
Thumbnail_Data
280
    15
 94
      907
310
89504E470D0A1A0A0000000D4948445200000100000000BF08030000002647F24000000300504C5445212830000000C8C8C80000000000000000000000000000000000000000000000000000330000660000990000CC0000FF0033000033330033660033990033CC0033FF0066000066330066660066990066CC0066FF0099
310
000099330099660099990099CC0099FF00CC0000CC3300CC6600CC9900CCCC00CCFF00FF0000FF3300FF6600FF9900FFCC00FFFF3300003300333300663300993300CC3300FF3333003333333333663333993333CC3333FF3366003366333366663366993366CC3366FF3399003399333399663399993399CC3399FF33CC00
310
33CC3333CC6633CC9933CCCC33CCFF33FF0033FF3333FF6633FF9933FFCC33FFFF6600006600336600666600996600CC6600FF6633006633336633666633996633CC6633FF6666006666336666666666996666CC6666FF6699006699336699666699996699CC6699FF66CC0066CC3366CC6666CC9966CCCC66CCFF66FF0066
310
FF3366FF6666FF9966FFCC66FFFF9900009900339900669900999900CC9900FF9933009933339933669933999933CC9933FF9966009966339966669966999966CC9966FF9999009999339999669999999999CC9999FF99CC0099CC3399CC6699CC9999CCCC99CCFF99FF0099FF3399FF6699FF9999FFCC99FFFFCC0000CC00
310
33CC0066CC0099CC00CCCC00FFCC3300CC3333CC3366CC3399CC33CCCC33FFCC6600CC6633CC6666CC6699CC66CCCC66FFCC9900CC9933CC9966CC9999CC99CCCC99FFCCCC00CCCC33CCCC66CCCC99CCCCCCCCCCFFCCFF00CCFF33CCFF66CCFF99CCFFCCCCFFFFFF0000FF0033FF0066FF0099FF00CCFF00FFFF3300FF3333
310
FF3366FF3399FF33CCFF33FFFF6600FF6633FF6666FF6699FF66CCFF66FFFF9900FF9933FF9966FF9999FF99CCFF99FFFFCC00FFCC33FFCC66FFCC99FFCCCCFFCCFFFFFF00FFFF33FFFF66FFFF99FFFFCCFFFFFF0000000D0D0D1A1A1A2828283535354343435050505D5D5D6B6B6B787878868686939393A1A1A1AEAEAEBB
310
BBBBC9C9C9D6D6D6E4E4E4F1F1F1FFFFFF000000000000000000000000000000000000000000000000000000000000B21171F6000000464944415478DAEDC13101000000C2A0F54F6D085FA00000000000000000000000000000000000000000000000000000000000000000000000000000000000000000000000E036BFBF
310
000103F617CF0000000049454E44AE426082
  0
ACDSRECORD
 90
        0
  2
AcDbDs::ID
280
    10
320
169
  2
Thumbnail_Data
280
    15
 94
     1332
310
89504E470D0A1A0A0000000D4948445200000100000000A20803000000990FE30500000300504C5445212830000000C8C8C80000000000000000000000000000000000000000000000000000330000660000990000CC0000FF0033000033330033660033990033CC0033FF0066000066330066660066990066CC0066FF0099
310
000099330099660099990099CC0099FF00CC0000CC3300CC6600CC9900CCCC00CCFF00FF0000FF3300FF6600FF9900FFCC00FFFF3300003300333300663300993300CC3300FF3333003333333333663333993333CC3333FF3366003366333366663366993366CC3366FF3399003399333399663399993399CC3399FF33CC00
310
33CC3333CC6633CC9933CCCC33CCFF33FF0033FF3333FF6633FF9933FFCC33FFFF6600006600336600666600996600CC6600FF6633006633336633666633996633CC6633FF6666006666336666666666996666CC6666FF6699006699336699666699996699CC6699FF66CC0066CC3366CC6666CC9966CCCC66CCFF66FF0066
310
FF3366FF6666FF9966FFCC66FFFF9900009900339900669900999900CC9900FF9933009933339933669933999933CC9933FF9966009966339966669966999966CC9966FF9999009999339999669999999999CC9999FF99CC0099CC3399CC6699CC9999CCCC99CCFF99FF0099FF3399FF6699FF9999FFCC99FFFFCC0000CC00
310
33CC0066CC0099CC00CCCC00FFCC3300CC3333CC3366CC3399CC33CCCC33FFCC6600CC6633CC6666CC6699CC66CCCC66FFCC9900CC9933CC9966CC9999CC99CCCC99FFCCCC00CCCC33CCCC66CCCC99CCCCCCCCCCFFCCFF00CCFF33CCFF66CCFF99CCFFCCCCFFFFFF0000FF0033FF0066FF0099FF00CCFF00FFFF3300FF3333
310
FF3366FF3399FF33CCFF33FFFF6600FF6633FF6666FF6699FF66CCFF66FFFF9900FF9933FF9966FF9999FF99CCFF99FFFFCC00FFCC33FFCC66FFCC99FFCCCCFFCCFFFFFF00FFFF33FFFF66FFFF99FFFFCCFFFFFF0000000D0D0D1A1A1A2828283535354343435050505D5D5D6B6B6B787878868686939393A1A1A1AEAEAEBB
310
BBBBC9C9C9D6D6D6E4E4E4F1F1F1FFFFFF000000000000000000000000000000000000000000000000000000000000B21171F60000011D4944415478DAEDDD4B0AC2301440D16E28FBDFCC5B42270E32B7FE8B1F106BFA023977D28A8AE6D05290F29C26499224E9A74A5765006C7FC9F27C7CF7A6B2FDCBB400A8DD9405D0
310
CBE908000000000000000000000000000000000000000000000000000000000000000000000000000000000000000000000000000000FC0D206AF4B1FE7004A400D40A00000000000000000000000000000000180DC04F620000000000000000000000000000000000000000000000000080262B1C7DB2742925CE43D4E3A9
310
65F1A7CD28008F851F96AEDB4C80DD86DEDF3FE9CDEDD931CF69A7407CB85D3C2E73F35B00AC5A3DEC75BC7ED323E0B61B35EF2AB07FF1BA1B595781D1FF624392244992244992244992244992244992244952571D0111E7C5CED53675980000000049454E44AE42608286631967407D672966C07D078AE71F77D26C02F3E1
310
7CE5C0FD5480885D42802542791DC06E5FB4454680CB5E03B0DB36406C7B06ECB7FFDDE1B25D80549F04FFFE28901EA0FCD967A52C0051C6738932FD9723FA9DF5BF062F5A79789D7E9C65069CACF144315D3FBC09AC70250588F9ED2F67EF61FDF146FE21FB805F0E680B00B53E19A0FF6FC00C7805C00BBEBEA8CF7D7CCD
310
F5C548820000D838FF9B01CAB6014AFC3780F281852449922449922449922449922449922449926EF70DAF1801257F9AFF7A0000000049454E44AE426082
  0
ENDSEC
  0
EOF
