  0
SECTION
  2
HEADER
  9
$ACADVER
  1
AC1027
  9
$ACADMAINTVER
 70
    20
  9
$DWGCODEPAGE
  3
ANSI_1252
  9
$LASTSAVEDBY
  1
se-milkar
  9
$CUSTOMPROPERTYTAG
  1
AmdtFileType
  9
$CUSTOMPROPERTY
  1
84
  9
$REQUIREDVERSIONS
160
                 0
  9
$INSBASE
 10
0.0
 20
0.0
 30
0.0
  9
$EXTMIN
 10
-0.0000008936272877
 20
7.994491760085395
 30
0.0
  9
$EXTMAX
 10
209.9999991063727
 20
238.8157390121767
 30
0.0
  9
$LIMMIN
 10
0.0
 20
0.0
  9
$LIMMAX
 10
420.0
 20
297.0
  9
$ORTHOMODE
 70
     0
  9
$REGENMODE
 70
     1
  9
$FILLMODE
 70
     1
  9
$QTEXTMODE
 70
     0
  9
$MIRRTEXT
 70
     0
  9
$LTSCALE
 40
1.0
  9
$ATTMODE
 70
     1
  9
$TEXTSIZE
 40
3.5
  9
$TRACEWID
 40
1.0
  9
$TEXTSTYLE
  7
STANDARD
  9
$CLAYER
  8
AM_0
  9
$CELTYPE
  6
BYLAYER
  9
$CECOLOR
 62
   256
  9
$CELTSCALE
 40
1.0
  9
$DISPSILH
 70
     0
  9
$DIMSCALE
 40
1.0
  9
$DIMASZ
 40
2.5
  9
$DIMEXO
 40
1.0
  9
$DIMDLI
 40
10.0
  9
$DIMRND
 40
0.0
  9
$DIMDLE
 40
0.0
  9
$DIMEXE
 40
1.0
  9
$DIMTP
 40
0.1
  9
$DIMTM
 40
0.1
  9
$DIMTXT
 40
3.5
  9
$DIMCEN
 40
0.0
  9
$DIMTSZ
 40
0.0
  9
$DIMTOL
 70
     0
  9
$DIMLIM
 70
     0
  9
$DIMTIH
 70
     0
  9
$DIMTOH
 70
     0
  9
$DIMSE1
 70
     0
  9
$DIMSE2
 70
     0
  9
$DIMTAD
 70
     1
  9
$DIMZIN
 70
     8
  9
$DIMBLK
  1

  9
$DIMASO
 70
     1
  9
$DIMSHO
 70
     1
  9
$DIMPOST
  1

  9
$DIMAPOST
  1
"
  9
$DIMALT
 70
     0
  9
$DIMALTD
 70
     3
  9
$DIMALTF
 40
0.0393701
  9
$DIMLFAC
 40
1.0
  9
$DIMTOFL
 70
     1
  9
$DIMTVP
 40
0.0
  9
$DIMTIX
 70
     0
  9
$DIMSOXD
 70
     0
  9
$DIMSAH
 70
     0
  9
$DIMBLK1
  1

  9
$DIMBLK2
  1

  9
$DIMSTYLE
  2
AM_ISO
  9
$DIMCLRD
 70
   256
  9
$DIMCLRE
 70
   256
  9
$DIMCLRT
 70
     2
  9
$DIMTFAC
 40
0.71
  9
$DIMGAP
 40
1.5
  9
$DIMJUST
 70
     0
  9
$DIMSD1
 70
     0
  9
$DIMSD2
 70
     0
  9
$DIMTOLJ
 70
     0
  9
$DIMTZIN
 70
     8
  9
$DIMALTZ
 70
     0
  9
$DIMALTTZ
 70
     0
  9
$DIMUPT
 70
     0
  9
$DIMDEC
 70
     2
  9
$DIMTDEC
 70
     2
  9
$DIMALTU
 70
     2
  9
$DIMALTTD
 70
     3
  9
$DIMTXSTY
  7
STANDARD
  9
$DIMAUNIT
 70
     0
  9
$DIMADEC
 70
     0
  9
$DIMALTRND
 40
0.0
  9
$DIMAZIN
 70
     2
  9
$DIMDSEP
 70
    46
  9
$DIMATFIT
 70
     3
  9
$DIMFRAC
 70
     0
  9
$DIMLDRBLK
  1

  9
$DIMLUNIT
 70
     2
  9
$DIMLWD
 70
    -1
  9
$DIMLWE
 70
    -1
  9
$DIMTMOVE
 70
     0
  9
$DIMFXL
 40
1.0
  9
$DIMFXLON
 70
     0
  9
$DIMJOGANG
 40
0.7853981633974483
  9
$DIMTFILL
 70
     0
  9
$DIMTFILLCLR
 70
     0
  9
$DIMARCSYM
 70
     0
  9
$DIMLTYPE
  6

  9
$DIMLTEX1
  6

  9
$DIMLTEX2
  6

  9
$DIMTXTDIRECTION
 70
     0
  9
$LUNITS
 70
     2
  9
$LUPREC
 70
     2
  9
$SKETCHINC
 40
1.0
  9
$FILLETRAD
 40
2.5
  9
$AUNITS
 70
     0
  9
$AUPREC
 70
     0
  9
$MENU
  1
.
  9
$ELEVATION
 40
0.0
  9
$PELEVATION
 40
0.0
  9
$THICKNESS
 40
0.0
  9
$LIMCHECK
 70
     0
  9
$CHAMFERA
 40
2.5
  9
$CHAMFERB
 40
2.5
  9
$CHAMFERC
 40
20.0
  9
$CHAMFERD
 40
0.0
  9
$SKPOLY
 70
     1
  9
$TDCREATE
 40
2457357.419563739
  9
$TDUCREATE
 40
2457357.377897072
  9
$TDUPDATE
 40
2457357.713029317
  9
$TDUUPDATE
 40
2457357.671362651
  9
$TDINDWG
 40
0.0009094097
  9
$TDUSRTIMER
 40
0.0009093403
  9
$USRTIMER
 70
     1
  9
$ANGBASE
 50
0.0
  9
$ANGDIR
 70
     0
  9
$PDMODE
 70
     0
  9
$PDSIZE
 40
0.0
  9
$PLINEWID
 40
0.0
  9
$SPLFRAME
 70
     0
  9
$SPLINETYPE
 70
     6
  9
$SPLINESEGS
 70
     8
  9
$HANDSEED
  5
361A
  9
$SURFTAB1
 70
     6
  9
$SURFTAB2
 70
     6
  9
$SURFTYPE
 70
     6
  9
$SURFU
 70
     6
  9
$SURFV
 70
     6
  9
$UCSBASE
  2

  9
$UCSNAME
  2

  9
$UCSORG
 10
0.0
 20
0.0
 30
0.0
  9
$UCSXDIR
 10
1.0
 20
0.0
 30
0.0
  9
$UCSYDIR
 10
0.0
 20
1.0
 30
0.0
  9
$UCSORTHOREF
  2

  9
$UCSORTHOVIEW
 70
     0
  9
$UCSORGTOP
 10
0.0
 20
0.0
 30
0.0
  9
$UCSORGBOTTOM
 10
0.0
 20
0.0
 30
0.0
  9
$UCSORGLEFT
 10
0.0
 20
0.0
 30
0.0
  9
$UCSORGRIGHT
 10
0.0
 20
0.0
 30
0.0
  9
$UCSORGFRONT
 10
0.0
 20
0.0
 30
0.0
  9
$UCSORGBACK
 10
0.0
 20
0.0
 30
0.0
  9
$PUCSBASE
  2

  9
$PUCSNAME
  2

  9
$PUCSORG
 10
0.0
 20
0.0
 30
0.0
  9
$PUCSXDIR
 10
1.0
 20
0.0
 30
0.0
  9
$PUCSYDIR
 10
0.0
 20
1.0
 30
0.0
  9
$PUCSORTHOREF
  2

  9
$PUCSORTHOVIEW
 70
     0
  9
$PUCSORGTOP
 10
0.0
 20
0.0
 30
0.0
  9
$PUCSORGBOTTOM
 10
0.0
 20
0.0
 30
0.0
  9
$PUCSORGLEFT
 10
0.0
 20
0.0
 30
0.0
  9
$PUCSORGRIGHT
 10
0.0
 20
0.0
 30
0.0
  9
$PUCSORGFRONT
 10
0.0
 20
0.0
 30
0.0
  9
$PUCSORGBACK
 10
0.0
 20
0.0
 30
0.0
  9
$USERI1
 70
     0
  9
$USERI2
 70
     0
  9
$USERI3
 70
     0
  9
$USERI4
 70
     0
  9
$USERI5
 70
     0
  9
$USERR1
 40
0.0
  9
$USERR2
 40
0.0
  9
$USERR3
 40
0.0
  9
$USERR4
 40
0.0
  9
$USERR5
 40
0.0
  9
$WORLDVIEW
 70
     1
  9
$SHADEDGE
 70
     3
  9
$SHADEDIF
 70
    70
  9
$TILEMODE
 70
     1
  9
$MAXACTVP
 70
    48
  9
$PINSBASE
 10
0.0
 20
0.0
 30
0.0
  9
$PLIMCHECK
 70
     0
  9
$PEXTMIN
 10
1.000000000000000E+20
 20
1.000000000000000E+20
 30
1.000000000000000E+20
  9
$PEXTMAX
 10
-1.000000000000000E+20
 20
-1.000000000000000E+20
 30
-1.000000000000000E+20
  9
$PLIMMIN
 10
0.0
 20
0.0
  9
$PLIMMAX
 10
12.0
 20
9.0
  9
$UNITMODE
 70
     0
  9
$VISRETAIN
 70
     1
  9
$PLINEGEN
 70
     0
  9
$PSLTSCALE
 70
     1
  9
$TREEDEPTH
 70
  3020
  9
$CMLSTYLE
  2
STANDARD
  9
$CMLJUST
 70
     0
  9
$CMLSCALE
 40
1.0
  9
$PROXYGRAPHICS
 70
     1
  9
$MEASUREMENT
 70
     1
  9
$CELWEIGHT
370
    -1
  9
$ENDCAPS
280
     0
  9
$JOINSTYLE
280
     0
  9
$LWDISPLAY
290
     0
  9
$INSUNITS
 70
     4
  9
$HYPERLINKBASE
  1

  9
$STYLESHEET
  1
@LAYOUT.CTB
  9
$XEDIT
290
     1
  9
$CEPSNTYPE
380
     0
  9
$PSTYLEMODE
290
     1
  9
$FINGERPRINTGUID
  2
{D6B4D850-1EC8-4BB9-A5C7-2E29F0759A56}
  9
$VERSIONGUID
  2
{2F4C8497-EE01-42C6-A73F-78AB249A3FB3}
  9
$EXTNAMES
290
     1
  9
$PSVPSCALE
 40
0.0
  9
$OLESTARTUP
290
     0
  9
$SORTENTS
280
   127
  9
$INDEXCTL
280
     1
  9
$HIDETEXT
280
     0
  9
$XCLIPFRAME
280
     0
  9
$HALOGAP
280
     0
  9
$OBSCOLOR
 70
   257
  9
$OBSLTYPE
280
     0
  9
$INTERSECTIONDISPLAY
280
     0
  9
$INTERSECTIONCOLOR
 70
   257
  9
$DIMASSOC
280
     2
  9
$PROJECTNAME
  1

  9
$CAMERADISPLAY
290
     0
  9
$LENSLENGTH
 40
50.0
  9
$CAMERAHEIGHT
 40
0.0
  9
$STEPSPERSEC
 40
2.0
  9
$STEPSIZE
 40
6.0
  9
$3DDWFPREC
 40
2.0
  9
$PSOLWIDTH
 40
0.25
  9
$PSOLHEIGHT
 40
4.0
  9
$LOFTANG1
 40
1.570796326794896
  9
$LOFTANG2
 40
1.570796326794896
  9
$LOFTMAG1
 40
0.0
  9
$LOFTMAG2
 40
0.0
  9
$LOFTPARAM
 70
     7
  9
$LOFTNORMALS
280
     1
  9
$LATITUDE
 40
37.795
  9
$LONGITUDE
 40
-122.394
  9
$NORTHDIRECTION
 40
0.0
  9
$TIMEZONE
 70
 -8000
  9
$LIGHTGLYPHDISPLAY
280
     1
  9
$TILEMODELIGHTSYNCH
280
     1
  9
$CMATERIAL
347
A37
  9
$SOLIDHIST
280
     1
  9
$SHOWHIST
280
     1
  9
$DWFFRAME
280
     2
  9
$DGNFRAME
280
     0
  9
$REALWORLDSCALE
290
     1
  9
$INTERFERECOLOR
 62
     1
  9
$INTERFEREOBJVS
345
A59
  9
$INTERFEREVPVS
346
CBF
  9
$CSHADOW
280
     0
  9
$SHADOWPLANELOCATION
 40
0.0
  0
ENDSEC
  0
SECTION
  2
CLASSES
  0
CLASS
  1
DICTIONARYVAR
  2
AcDbDictionaryVar
  3
ObjectDBX Classes
 90
        0
 91
       12
280
     0
281
     0
  0
CLASS
  1
ACMESTATEMGR
  2
AcMeStateMgr
  3
AcMeServices
 90
     1024
 91
        1
280
     0
281
     0
  0
CLASS
  1
ACMESCOPE
  2
AcMeScope
  3
AcMeServices
 90
     1024
 91
        1
280
     0
281
     0
  0
CLASS
  1
ACMECOMMANDHISTORY
  2
AcMeCommandHistory
  3
AcMeServices
 90
     1024
 91
        1
280
     0
281
     0
  0
CLASS
  1
ACRFINSADJUSTERMGR
  2
AcRfInsAdjusterMgr
  3
AcMeServices
 90
     1024
 91
        1
280
     0
281
     0
  0
CLASS
  1
ACMEDRAWINGMAN
  2
AcMeDrawingMan
  3
AcMeServices
 90
     1024
 91
        0
280
     0
281
     0
  0
CLASS
  1
AMATTR
  2
AcMeAttribute
  3
AcMeServices
 90
     1024
 91
        0
280
     0
281
     0
  0
CLASS
  1
ACMEBOMCOLUMN
  2
AcMeBOMColumn
  3
AcMeServices
 90
     1024
 91
        0
280
     0
281
     0
  0
CLASS
  1
ACMEBOMCONF
  2
AcMeBOMConf
  3
AcMeServices
 90
     1024
 91
        0
280
     0
281
     0
  0
CLASS
  1
ACMEBOMTABLE
  2
AcMeBOMTable
  3
AcMeServices
 90
     1024
 91
        0
280
     0
281
     0
  0
CLASS
  1
ACMEBOMENTRY
  2
AcMeBOMEntry
  3
AcMeServices
 90
     1024
 91
        0
280
     0
281
     0
  0
CLASS
  1
ACMEVIEW
  2
AcMeView
  3
AcMeServices
 90
     1024
 91
        0
280
     0
281
     0
  0
CLASS
  1
ACGREFMASTER
  2
AcGrefMaster
  3
AcAttribServices
 90
     1024
 91
        1
280
     0
281
     0
  0
CLASS
  1
AMIMASTER
  2
AmiMaster
  3
AmiServices
 90
     1024
 91
        1
280
     0
281
     0
  0
CLASS
  1
ACASGREFMASTER
  2
AcAsGrefMaster
  3
AutoSurfResolverServices
 90
     1024
 91
        2
280
     0
281
     0
  0
CLASS
  1
ADAPPL
  2
AcAdAppl
  3
DesignerAssemblies
 90
     1024
 91
        0
280
     0
281
     0
  0
CLASS
  1
DEPMGR
  2
AcAdDepMgr
  3
DesignerAssemblies
 90
     1024
 91
        0
280
     0
281
     0
  0
CLASS
  1
PARAMMGR
  2
AcAdParamMgr
  3
DesignerAssemblies
 90
     1024
 91
        0
280
     0
281
     0
  0
CLASS
  1
PARAMSCOPE
  2
AcAdParamScope
  3
DesignerAssemblies
 90
     1024
 91
        0
280
     0
281
     0
  0
CLASS
  1
ACIMSYSVARMAN
  2
AcImSysVarManager
  3
AcMeServices
 90
     1024
 91
        3
280
     0
281
     0
  0
CLASS
  1
ACIMINTSYSVAR
  2
AcImIntSysVar
  3
AcMeServices
 90
     1024
 91
        2
280
     0
281
     0
  0
CLASS
  1
ACIMREALSYSVAR
  2
AcImRealSysVar
  3
AcMeServices
 90
     1024
 91
        0
280
     0
281
     0
  0
CLASS
  1
ACIMSTRSYSVAR
  2
AcImStrSysVar
  3
AcMeServices
 90
     1024
 91
        5
280
     0
281
     0
  0
CLASS
  1
NAMEDAPPL
  2
AcAdNamedAppl
  3
DesignerAssemblies
 90
     1024
 91
        0
280
     0
281
     0
  0
CLASS
  1
ADHNTMPLT
  2
AdHoleNoteTemplateMgr
  3
DesignerServices
 90
     1024
 91
        0
280
     0
281
     0
  0
CLASS
  1
AM_HNTEMPLATE_MGR_NAME
  2
AdHoleNoteTemplateMgrName
  3
DesignerServices
 90
     1024
 91
        0
280
     0
281
     0
  0
CLASS
  1
ACADGREFMODULE
  2
AcAdGrefModule
  3
AdGrefServices
 90
     1024
 91
        2
280
     0
281
     0
  0
CLASS
  1
AM_DRAWING_MGR
  2
AcDmDwgMgr
  3
AcMechDwgViewMgmt
 90
     1024
 91
        0
280
     0
281
     0
  0
CLASS
  1
AM_DWG_DOCUMENT
  2
AcDmDwgDocument
  3
AcMechDwgViewMgmt
 90
     1024
 91
        0
280
     0
281
     0
  0
CLASS
  1
AM_DWG_SHEET
  2
AcDmSheet
  3
AcMechDwgViewMgmt
 90
     1024
 91
        0
280
     0
281
     0
  0
CLASS
  1
AM_VIEWDIMPARMAP
  2
AcDmViewDimParMap
  3
AcMechDwgViewMgmt
 90
     1024
 91
        0
280
     0
281
     0
  0
CLASS
  1
AM_DWGMGR_NAME
  2
AcDmDwgMgrName
  3
AcMechDwgViewMgmt
 90
     1024
 91
        0
280
     0
281
     0
  0
CLASS
  1
ACAMPROJECT
  2
AcAmProject
  3
DesignerAssemblies
 90
     1024
 91
        1
280
     0
281
     0
  0
CLASS
  1
ACAMGRCOMPSET
  2
AcAmGrCompSet
  3
DesignerAssemblies
 90
        0
 91
        0
280
     0
281
     0
  0
CLASS
  1
ACAMGRCOMPDEFSET
  2
AcAmGrCompDefSet
  3
DesignerAssemblies
 90
     1024
 91
        1
280
     0
281
     0
  0
CLASS
  1
ACAMGRCOMPDEF
  2
AcAmGrCompDef
  3
DesignerAssemblies
 90
     1024
 91
        1
280
     0
281
     0
  0
CLASS
  1
ACCMCONTEXT
  2
AcCmContext
  3
DesignerAssemblies
 90
     1024
 91
        0
280
     0
281
     0
  0
CLASS
  1
ACAMCOMPDEF
  2
AcAmCompDef
  3
DesignerAssemblies
 90
     1024
 91
        1
280
     0
281
     0
  0
CLASS
  1
ACAMCOMPDEFMGR
  2
AcAmCompDefMgr
  3
DesignerAssemblies
 90
     1024
 91
        1
280
     0
281
     0
  0
CLASS
  1
AMCONTEXTMGR
  2
AcAmContextMgr
  3
DesignerAssemblies
 90
     1024
 91
        1
280
     0
281
     0
  0
CLASS
  1
ACAMCONTEXTMODELER
  2
AcAmContextModeler
  3
DesignerAssemblies
 90
     1024
 91
        1
280
     0
281
     0
  0
CLASS
  1
ACDMVIEWGEOM
  2
AcDmViewGeometry
  3
AcMechDwgViewMgmt
 90
     1024
 91
        0
280
     0
281
     1
  0
CLASS
  1
CBROWSERAPPOBJECT
  2
CBrowserAppObject
  3
McadcomServices
 90
     1024
 91
        2
280
     0
281
     0
  0
CLASS
  1
IM_STATIC_MAN
  2
AcImStaticVarManager
  3
AcMeServices
 90
     1024
 91
        0
280
     0
281
     0
  0
CLASS
  1
ASAPP
  2
AcAsAppObject
  3
AutoSurfServices
 90
     1024
 91
        2
280
     0
281
     0
  0
CLASS
  1
ACIMDBLSTATICVAR
  2
AcImDblStaticVar
  3
AcMeServices
 90
     1024
 91
        0
280
     0
281
     0
  0
CLASS
  1
ACIMSTRSTATICVAR
  2
AcImStrStaticVar
  3
AcMeServices
 90
     1024
 91
        0
280
     0
281
     0
  0
CLASS
  1
ACIMINTSTATICVAR
  2
AcImIntStaticVar
  3
AcMeServices
 90
     1024
 91
        0
280
     0
281
     0
  0
CLASS
  1
CATALOGSTATE
  2
AcAmCatalogState
  3
DesignerAssemblies
 90
     1024
 91
        0
280
     0
281
     0
  0
CLASS
  1
DM_PLACEHOLDER
  2
AcDmSelsetPlaceholder
  3
McadcomServices
 90
     1024
 91
        1
280
     0
281
     0
  0
CLASS
  1
LAYER_INDEX
  2
AcDbLayerIndex
  3
ObjectDBX Classes
 90
        0
 91
        1
280
     0
281
     0
  0
CLASS
  1
IDBUFFER
  2
AcDbIdBuffer
  3
ObjectDBX Classes
 90
        0
 91
        5
280
     0
281
     0
  0
CLASS
  1
ACMSTANDARDJIS
  2
AcmStandardJIS
  3
"Amdt_StdImp|Product Description: AutoCAD Mechanical|Company: Autodesk, Inc."
 90
     1024
 91
        0
280
     0
281
     0
  0
CLASS
  1
ACMSTANDARDANSI
  2
AcmStandardANSI
  3
"Amdt_StdImp|Product Description: AutoCAD Mechanical|Company: Autodesk, Inc."
 90
     1024
 91
        0
280
     0
281
     0
  0
CLASS
  1
ACMSTANDARDBSI
  2
AcmStandardBSI
  3
"Amdt_StdImp|Product Description: AutoCAD Mechanical|Company: Autodesk, Inc."
 90
     1024
 91
        0
280
     0
281
     0
  0
CLASS
  1
ACMSTANDARDDIN
  2
AcmStandardDIN
  3
"Amdt_StdImp|Product Description: AutoCAD Mechanical|Company: Autodesk, Inc."
 90
     1024
 91
        0
280
     0
281
     0
  0
CLASS
  1
ACMSTANDARDISO
  2
AcmStandardISO
  3
"Amdt_StdImp|Product Description: AutoCAD Mechanical|Company: Autodesk, Inc."
 90
     1024
 91
        1
280
     0
281
     0
  0
CLASS
  1
ACDBDICTIONARYWDFLT
  2
AcDbDictionaryWithDefault
  3
ObjectDBX Classes
 90
        0
 91
        1
280
     0
281
     0
  0
CLASS
  1
ACDBPLACEHOLDER
  2
AcDbPlaceHolder
  3
ObjectDBX Classes
 90
        0
 91
        1
280
     0
281
     0
  0
CLASS
  1
LAYOUT
  2
AcDbLayout
  3
ObjectDBX Classes
 90
        0
 91
        2
280
     0
281
     0
  0
CLASS
  1
ACME_DOCUMENT
  2
AcMeDbDoc
  3
AcMeServices
 90
     1024
 91
        1
280
     0
281
     0
  0
CLASS
  1
AMGSETTINGSOBJ
  2
AmgSettingsObj
  3
"AcadM|Product Description: AutoCAD Mechanical|Company: Autodesk, Inc."
 90
     1024
 91
        2
280
     0
281
     0
  0
CLASS
  1
AMGOBJPROPCFG
  2
AmgObjPropCfg
  3
"AmgLay|Product Description: AutoCAD Mechanical|Company: Autodesk, Inc."
 90
     1024
 91
        1
280
     0
281
     0
  0
CLASS
  1
ACDBENTITYCACHE
  2
AcMeEntityCache
  3
AcMeServices
 90
     1024
 91
        1
280
     0
281
     0
  0
CLASS
  1
GSMANAGER
  2
AcMeGSManager
  3
AcMeServices
 90
     1024
 91
        0
280
     0
281
     0
  0
CLASS
  1
AMDTINTERNALREACTOR
  2
AmdtInternalReactor
  3
AcMeServices
 90
     1024
 91
        0
280
     0
281
     0
  0
CLASS
  1
ACME_DATABASE
  2
AcMeDbDatabase
  3
AcMeServices
 90
     1024
 91
        1
280
     0
281
     0
  0
CLASS
  1
ACGREFACADMASTER
  2
AcGrefacadMaster
  3
AcGrefServices
 90
     1024
 91
        1
280
     0
281
     0
  0
CLASS
  1
AMDTMENUSTATEMGR
  2
AmdtMenuStateMgr
  3
McadcomServices
 90
     1024
 91
        1
280
     0
281
     0
  0
CLASS
  1
AMDTMCOMMENUSTATE
  2
AmdtMcomMenuState
  3
McadcomServices
 90
     1024
 91
        1
280
     0
281
     0
  0
CLASS
  1
MAPIADMODULE
  2
MApiAdModule
  3
MApiAdServices
 90
     1024
 91
        2
280
     0
281
     0
  0
CLASS
  1
AMDTDMMENUSTATE
  2
AmdtDmMenuState
  3
AcMechDwgViewMgmt
 90
     1024
 91
        0
280
     0
281
     0
  0
CLASS
  1
AMDTADMENUSTATE
  2
AmdtAdMenuState
  3
DesignerServices
 90
     1024
 91
        0
280
     0
281
     0
  0
CLASS
  1
AMDTAMMENUSTATE
  2
AmdtAmMenuState
  3
DesignerAssemblies
 90
     1024
 91
        1
280
     0
281
     0
  0
CLASS
  1
ACMDATADICTIONARY
  2
AcmDataDictionary
  3
"AcmSymBB|Product Description: AutoCAD Mechanical|Company: Autodesk, Inc."
 90
     1024
 91
        1
280
     0
281
     0
  0
CLASS
  1
ACMDATAENTRYBLOCK
  2
AcmDataEntryBlock
  3
AcmSymBB|Product Description: AutoCAD Mechanical|Company: Autodesk, Inc.
 90
     1024
 91
        0
280
     0
281
     0
  0
CLASS
  1
ACMSURFSTANDARDJIS
  2
AcmSurfTextStdJIS
  3
"Amdt_StdImp|Product Description: AutoCAD Mechanical|Company: Autodesk, Inc."
 90
     1024
 91
        0
280
     0
281
     0
  0
CLASS
  1
ACMFCFSTANDARDJIS
  2
AcmFCFStdJIS
  3
"Amdt_StdImp|Product Description: AutoCAD Mechanical|Company: Autodesk, Inc."
 90
     1024
 91
        0
280
     0
281
     0
  0
CLASS
  1
ACMWELDSTANDARDJIS
  2
AcmWeldingStdJIS
  3
"Amdt_StdImp|Product Description: AutoCAD Mechanical|Company: Autodesk, Inc."
 90
     1024
 91
        0
280
     0
281
     0
  0
CLASS
  1
ACMIDSTANDARDJIS
  2
AcmIdStdJIS
  3
"Amdt_StdImp|Product Description: AutoCAD Mechanical|Company: Autodesk, Inc."
 90
     1024
 91
        0
280
     0
281
     0
  0
CLASS
  1
ACMDATUMSTANDARDJIS
  2
AcmDatumStdJIS
  3
"Amdt_StdImp|Product Description: AutoCAD Mechanical|Company: Autodesk, Inc."
 90
     1024
 91
        0
280
     0
281
     0
  0
CLASS
  1
ACMBOMSTANDARDJIS
  2
AcmBOMStdJIS
  3
"Amdt_StdImp|Product Description: AutoCAD Mechanical|Company: Autodesk, Inc."
 90
     1024
 91
        0
280
     0
281
     0
  0
CLASS
  1
ACMSURFSTANDARDANSI
  2
AcmSurfTextStdANSI
  3
"Amdt_StdImp|Product Description: AutoCAD Mechanical|Company: Autodesk, Inc."
 90
     1024
 91
        0
280
     0
281
     0
  0
CLASS
  1
ACMFCFSTANDARDANSI
  2
AcmFCFStdANSI
  3
"Amdt_StdImp|Product Description: AutoCAD Mechanical|Company: Autodesk, Inc."
 90
     1024
 91
        0
280
     0
281
     0
  0
CLASS
  1
ACMWELDSTANDARDANSI
  2
AcmWeldingStdANSI
  3
"Amdt_StdImp|Product Description: AutoCAD Mechanical|Company: Autodesk, Inc."
 90
     1024
 91
        0
280
     0
281
     0
  0
CLASS
  1
ACMIDSTANDARDANSI
  2
AcmIdStdANSI
  3
"Amdt_StdImp|Product Description: AutoCAD Mechanical|Company: Autodesk, Inc."
 90
     1024
 91
        0
280
     0
281
     0
  0
CLASS
  1
ACMDATUMSTANDARDANSI
  2
AcmDatumStdANSI
  3
"Amdt_StdImp|Product Description: AutoCAD Mechanical|Company: Autodesk, Inc."
 90
     1024
 91
        0
280
     0
281
     0
  0
CLASS
  1
ACMBOMSTANDARDANSI
  2
AcmBOMStdANSI
  3
"Amdt_StdImp|Product Description: AutoCAD Mechanical|Company: Autodesk, Inc."
 90
     1024
 91
        0
280
     0
281
     0
  0
CLASS
  1
ACMSURFSTANDARDBSI
  2
AcmSurfTextStdBSI
  3
"Amdt_StdImp|Product Description: AutoCAD Mechanical|Company: Autodesk, Inc."
 90
     1024
 91
        0
280
     0
281
     0
  0
CLASS
  1
ACMFCFSTANDARDBSI
  2
AcmFCFStdBSI
  3
"Amdt_StdImp|Product Description: AutoCAD Mechanical|Company: Autodesk, Inc."
 90
     1024
 91
        0
280
     0
281
     0
  0
CLASS
  1
ACMWELDSTANDARDBSI
  2
AcmWeldingStdBSI
  3
"Amdt_StdImp|Product Description: AutoCAD Mechanical|Company: Autodesk, Inc."
 90
     1024
 91
        0
280
     0
281
     0
  0
CLASS
  1
ACMIDSTANDARDBSI
  2
AcmIdStdBSI
  3
"Amdt_StdImp|Product Description: AutoCAD Mechanical|Company: Autodesk, Inc."
 90
     1024
 91
        0
280
     0
281
     0
  0
CLASS
  1
ACMDATUMSTANDARDBSI
  2
AcmDatumStdBSI
  3
"Amdt_StdImp|Product Description: AutoCAD Mechanical|Company: Autodesk, Inc."
 90
     1024
 91
        0
280
     0
281
     0
  0
CLASS
  1
ACMBOMSTANDARDBSI
  2
AcmBOMStdBSI
  3
"Amdt_StdImp|Product Description: AutoCAD Mechanical|Company: Autodesk, Inc."
 90
     1024
 91
        0
280
     0
281
     0
  0
CLASS
  1
AMDTEDGESTANDARDDIN
  2
AmdtEdgeStdDIN
  3
"Amdt_StdImp|Product Description: AutoCAD Mechanical|Company: Autodesk, Inc."
 90
     1024
 91
        0
280
     0
281
     0
  0
CLASS
  1
ACMSURFSTANDARDDIN
  2
AcmSurfTextStdDIN
  3
"Amdt_StdImp|Product Description: AutoCAD Mechanical|Company: Autodesk, Inc."
 90
     1024
 91
        0
280
     0
281
     0
  0
CLASS
  1
ACMFCFSTANDARDDIN
  2
AcmFCFStdDIN
  3
"Amdt_StdImp|Product Description: AutoCAD Mechanical|Company: Autodesk, Inc."
 90
     1024
 91
        0
280
     0
281
     0
  0
CLASS
  1
ACMWELDSTANDARDDIN
  2
AcmWeldingStdDIN
  3
"Amdt_StdImp|Product Description: AutoCAD Mechanical|Company: Autodesk, Inc."
 90
     1024
 91
        0
280
     0
281
     0
  0
CLASS
  1
ACMIDSTANDARDDIN
  2
AcmIdStdDIN
  3
"Amdt_StdImp|Product Description: AutoCAD Mechanical|Company: Autodesk, Inc."
 90
     1024
 91
        0
280
     0
281
     0
  0
CLASS
  1
ACMDATUMSTANDARDDIN
  2
AcmDatumStdDIN
  3
"Amdt_StdImp|Product Description: AutoCAD Mechanical|Company: Autodesk, Inc."
 90
     1024
 91
        0
280
     0
281
     0
  0
CLASS
  1
ACMBOMSTANDARDDIN
  2
AcmBOMStdDIN
  3
"Amdt_StdImp|Product Description: AutoCAD Mechanical|Company: Autodesk, Inc."
 90
     1024
 91
        0
280
     0
281
     0
  0
CLASS
  1
ACMSURFSTANDARDISO
  2
AcmSurfTextStdISO
  3
"Amdt_StdImp|Product Description: AutoCAD Mechanical|Company: Autodesk, Inc."
 90
     1024
 91
        0
280
     0
281
     0
  0
CLASS
  1
ACMFCFSTANDARDISO
  2
AcmFCFStdISO
  3
"Amdt_StdImp|Product Description: AutoCAD Mechanical|Company: Autodesk, Inc."
 90
     1024
 91
        0
280
     0
281
     0
  0
CLASS
  1
ACMWELDSTANDARDISO
  2
AcmWeldingStdISO
  3
"Amdt_StdImp|Product Description: AutoCAD Mechanical|Company: Autodesk, Inc."
 90
     1024
 91
        1
280
     0
281
     0
  0
CLASS
  1
ACMIDSTANDARDISO
  2
AcmIdStdISO
  3
"Amdt_StdImp|Product Description: AutoCAD Mechanical|Company: Autodesk, Inc."
 90
     1024
 91
        0
280
     0
281
     0
  0
CLASS
  1
ACMDATUMSTANDARDISO
  2
AcmDatumStdISO
  3
"Amdt_StdImp|Product Description: AutoCAD Mechanical|Company: Autodesk, Inc."
 90
     1024
 91
        1
280
     0
281
     0
  0
CLASS
  1
ACMBOMSTANDARDISO
  2
AcmBOMStdISO
  3
"Amdt_StdImp|Product Description: AutoCAD Mechanical|Company: Autodesk, Inc."
 90
     1024
 91
        1
280
     0
281
     0
  0
CLASS
  1
AMDTBROWSERDBTAB
  2
AmdtBrowserDbTab
  3
McadcomServices
 90
     1024
 91
        1
280
     0
281
     0
  0
CLASS
  1
ACAMGFILTERDAT
  2
AcAmgFilterDat
  3
"AcadM|Product Description: AutoCAD Mechanical|Company: Autodesk, Inc."
 90
     1024
 91
        0
280
     0
281
     0
  0
CLASS
  1
MAPIAMMOUDLE
  2
MApiAmModule
  3
MApiAmServices
 90
     1024
 91
        1
280
     0
281
     0
  0
CLASS
  1
AMDTMAPISURFMOUDULE
  2
AmdtMApiSurfModule
  3
MApiSurfServices
 90
     1024
 91
        2
280
     0
281
     0
  0
CLASS
  1
ACAMGLAYSTD
  2
AcAmgLayStd
  3
"AmgLay|Product Description: AutoCAD Mechanical|Company: Autodesk, Inc."
 90
     1024
 91
        1
280
     0
281
     0
  0
CLASS
  1
ACAMGDIMSTD
  2
AcAmgDimStd
  3
"AmgDim|Product Description: AutoCAD Mechanical|Company: Autodesk, Inc."
 90
     1024
 91
        1
280
     0
281
     0
  0
CLASS
  1
ACAMGTITLESTD
  2
AcAmgTitleStd
  3
"AmgTitle|Product Description: AutoCAD Mechanical|Company: Autodesk, Inc."
 90
     1024
 91
        1
280
     0
281
     0
  0
CLASS
  1
ACMDETAILSTANDARDJIS
  2
AmdtDetailSymStdJIS
  3
"Amdt_StdImp|Product Description: AutoCAD Mechanical|Company: Autodesk, Inc."
 90
     1024
 91
        0
280
     0
281
     0
  0
CLASS
  1
ACMSECTIONSTANDARDJIS
  2
AmdtSectionSymStdJIS
  3
"Amdt_StdImp|Product Description: AutoCAD Mechanical|Company: Autodesk, Inc."
 90
     1024
 91
        0
280
     0
281
     0
  0
CLASS
  1
ACMCENTERLINESTANDARDJIS
  2
AmdtCenterLineStdJIS
  3
"Amdt_StdImp|Product Description: AutoCAD Mechanical|Company: Autodesk, Inc."
 90
     1024
 91
        0
280
     0
281
     0
  0
CLASS
  1
ACMTHREADLINESTANDARDJIS
  2
AmdtThreadLineStdJIS
  3
"Amdt_StdImp|Product Description: AutoCAD Mechanical|Company: Autodesk, Inc."
 90
     1024
 91
        0
280
     0
281
     0
  0
CLASS
  1
ACMDETAILSTANDARDANSI
  2
AmdtDetailSymStdANSI
  3
"Amdt_StdImp|Product Description: AutoCAD Mechanical|Company: Autodesk, Inc."
 90
     1024
 91
        0
280
     0
281
     0
  0
CLASS
  1
ACMSECTIONSTANDARDANSI
  2
AmdtSectionSymStdANSI
  3
"Amdt_StdImp|Product Description: AutoCAD Mechanical|Company: Autodesk, Inc."
 90
     1024
 91
        0
280
     0
281
     0
  0
CLASS
  1
ACMCENTERLINESTANDARDANSI
  2
AmdtCenterLineStdANSI
  3
"Amdt_StdImp|Product Description: AutoCAD Mechanical|Company: Autodesk, Inc."
 90
     1024
 91
        0
280
     0
281
     0
  0
CLASS
  1
ACMTHREADLINESTANDARDANSI
  2
AmdtThreadLineStdANSI
  3
"Amdt_StdImp|Product Description: AutoCAD Mechanical|Company: Autodesk, Inc."
 90
     1024
 91
        0
280
     0
281
     0
  0
CLASS
  1
ACMDETAILSTANDARDBSI
  2
AmdtDetailSymStdBSI
  3
"Amdt_StdImp|Product Description: AutoCAD Mechanical|Company: Autodesk, Inc."
 90
     1024
 91
        0
280
     0
281
     0
  0
CLASS
  1
ACMSECTIONSTANDARDBSI
  2
AmdtSectionSymStdBSI
  3
"Amdt_StdImp|Product Description: AutoCAD Mechanical|Company: Autodesk, Inc."
 90
     1024
 91
        0
280
     0
281
     0
  0
CLASS
  1
ACMCENTERLINESTANDARDBSI
  2
AmdtCenterLineStdBSI
  3
"Amdt_StdImp|Product Description: AutoCAD Mechanical|Company: Autodesk, Inc."
 90
     1024
 91
        0
280
     0
281
     0
  0
CLASS
  1
ACMTHREADLINESTANDARDBSI
  2
AmdtThreadLineStdBSI
  3
"Amdt_StdImp|Product Description: AutoCAD Mechanical|Company: Autodesk, Inc."
 90
     1024
 91
        0
280
     0
281
     0
  0
CLASS
  1
ACMDETAILSTANDARDDIN
  2
AmdtDetailSymStdDIN
  3
"Amdt_StdImp|Product Description: AutoCAD Mechanical|Company: Autodesk, Inc."
 90
     1024
 91
        0
280
     0
281
     0
  0
CLASS
  1
ACMSECTIONSTANDARDDIN
  2
AmdtSectionSymStdDIN
  3
"Amdt_StdImp|Product Description: AutoCAD Mechanical|Company: Autodesk, Inc."
 90
     1024
 91
        0
280
     0
281
     0
  0
CLASS
  1
ACMCENTERLINESTANDARDDIN
  2
AmdtCenterLineStdDIN
  3
"Amdt_StdImp|Product Description: AutoCAD Mechanical|Company: Autodesk, Inc."
 90
     1024
 91
        0
280
     0
281
     0
  0
CLASS
  1
ACMTHREADLINESTANDARDDIN
  2
AmdtThreadLineStdDIN
  3
"Amdt_StdImp|Product Description: AutoCAD Mechanical|Company: Autodesk, Inc."
 90
     1024
 91
        0
280
     0
281
     0
  0
CLASS
  1
AMDTEDGESTANDARDISO
  2
AmdtEdgeStdISO
  3
"Amdt_StdImp|Product Description: AutoCAD Mechanical|Company: Autodesk, Inc."
 90
     1024
 91
        0
280
     0
281
     0
  0
CLASS
  1
ACMDETAILSTANDARDISO
  2
AmdtDetailSymStdISO
  3
"Amdt_StdImp|Product Description: AutoCAD Mechanical|Company: Autodesk, Inc."
 90
     1024
 91
        1
280
     0
281
     0
  0
CLASS
  1
ACMSECTIONSTANDARDISO
  2
AmdtSectionSymStdISO
  3
"Amdt_StdImp|Product Description: AutoCAD Mechanical|Company: Autodesk, Inc."
 90
     1024
 91
        0
280
     0
281
     0
  0
CLASS
  1
ACMCENTERLINESTANDARDISO
  2
AmdtCenterLineStdISO
  3
"Amdt_StdImp|Product Description: AutoCAD Mechanical|Company: Autodesk, Inc."
 90
     1024
 91
        1
280
     0
281
     0
  0
CLASS
  1
ACMTHREADLINESTANDARDISO
  2
AmdtThreadLineStdISO
  3
"Amdt_StdImp|Product Description: AutoCAD Mechanical|Company: Autodesk, Inc."
 90
     1024
 91
        1
280
     0
281
     0
  0
CLASS
  1
ACMNOTESTANDARDISO
  2
AmdtNoteStdISO
  3
"Amdt_StdImp|Product Description: AutoCAD Mechanical|Company: Autodesk, Inc."
 90
     1024
 91
        1
280
     0
281
     0
  0
CLASS
  1
ACAMGHOLECHARTSTDISO
  2
AcAmgHoleChartStdISO
  3
AmgDim|Product Description: AutoCAD Mechanical|Company: Autodesk, Inc.
 90
     1024
 91
        1
280
     0
281
     0
  0
CLASS
  1
ACMNOTESTANDARDANSI
  2
AmdtNoteStdANSI
  3
"Amdt_StdImp|Product Description: AutoCAD Mechanical|Company: Autodesk, Inc."
 90
     1024
 91
        0
280
     0
281
     0
  0
CLASS
  1
AMDTNOTETEMPLATEDB
  2
AmdtNoteTemplateDB
  3
AcmSymBB|Product Description: AutoCAD Mechanical|Company: Autodesk, Inc.
 90
     1024
 91
        7
280
     0
281
     0
  0
CLASS
  1
ACAMGHOLECHARTSTDANSI
  2
AcAmgHoleChartStdANSI
  3
AmgDim|Product Description: AutoCAD Mechanical|Company: Autodesk, Inc.
 90
     1024
 91
        0
280
     0
281
     0
  0
CLASS
  1
TABLESTYLE
  2
AcDbTableStyle
  3
ObjectDBX Classes
 90
     4095
 91
        1
280
     0
281
     0
  0
CLASS
  1
ACAD_TABLE
  2
AcDbTable
  3
ObjectDBX Classes
 90
     1025
 91
        0
280
     0
281
     1
  0
CLASS
  1
MATERIAL
  2
AcDbMaterial
  3
ObjectDBX Classes
 90
     1153
 91
        3
280
     0
281
     0
  0
CLASS
  1
VISUALSTYLE
  2
AcDbVisualStyle
  3
ObjectDBX Classes
 90
     4095
 91
       26
280
     0
281
     0
  0
CLASS
  1
SCALE
  2
AcDbScale
  3
ObjectDBX Classes
 90
     1153
 91
       17
280
     0
281
     0
  0
CLASS
  1
MLEADERSTYLE
  2
AcDbMLeaderStyle
  3
ACDB_MLEADERSTYLE_CLASS
 90
     4095
 91
        1
280
     0
281
     0
  0
CLASS
  1
ACRFATTGENMGR
  2
AcRfAttGeneralMgr
  3
AcAttribServices
 90
     1024
 91
        0
280
     0
281
     0
  0
CLASS
  1
ACRFOBJATTMGR
  2
AcRfObjAttGroupMgr
  3
AcAttribServices
 90
     1024
 91
        0
280
     0
281
     0
  0
CLASS
  1
ACRFMCADAPIATTHOLDER
  2
AcRfMCADAPIAttHolder
  3
AcAttribServices
 90
     1024
 91
        0
280
     0
281
     0
  0
CLASS
  1
AMDTSYSATTR
  2
AmdtSystemAttribute
  3
AcAttribServices
 90
     1024
 91
        0
280
     0
281
     0
  0
CLASS
  1
ACMTAPERSTANDARDISO
  2
AcmTaperStdISO
  3
"Amdt_StdImp|Product Description: AutoCAD Mechanical|Company: Autodesk, Inc."
 90
     1024
 91
        1
280
     0
281
     0
  0
CLASS
  1
ACMANOOTATIONVIEWSTANDARDISO
  2
AmdtAnViewStdISO
  3
"Amdt_StdImp|Product Description: AutoCAD Mechanical|Company: Autodesk, Inc."
 90
     1024
 91
        1
280
     0
281
     0
  0
CLASS
  1
ACMTAPERSTANDARDANSI
  2
AcmTaperStdANSI
  3
"Amdt_StdImp|Product Description: AutoCAD Mechanical|Company: Autodesk, Inc."
 90
     1024
 91
        0
280
     0
281
     0
  0
CLASS
  1
ACMANOOTATIONVIEWSTANDARDANSI
  2
AmdtAnViewStdANSI
  3
"Amdt_StdImp|Product Description: AutoCAD Mechanical|Company: Autodesk, Inc."
 90
     1024
 91
        0
280
     0
281
     0
  0
CLASS
  1
CELLSTYLEMAP
  2
AcDbCellStyleMap
  3
ObjectDBX Classes
 90
     1152
 91
        2
280
     0
281
     0
  0
CLASS
  1
CAMSSTRUCTBTNSTATE
  2
StructBtnState
  3
DesignerAssemblies
 90
     1024
 91
        0
280
     0
281
     0
  0
CLASS
  1
ACDBSECTIONVIEWSTYLE
  2
AcDbSectionViewStyle
  3
ObjectDBX Classes
 90
     1025
 91
        2
280
     0
281
     0
  0
CLASS
  1
ACDBDETAILVIEWSTYLE
  2
AcDbDetailViewStyle
  3
ObjectDBX Classes
 90
     1025
 91
        2
280
     0
281
     0
  0
CLASS
  1
FIELD
  2
AcDbField
  3
ObjectDBX Classes
 90
     1152
 91
        3
280
     0
281
     0
  0
CLASS
  1
SORTENTSTABLE
  2
AcDbSortentsTable
  3
ObjectDBX Classes
 90
        0
 91
        1
280
     0
281
     0
  0
CLASS
  1
FIELDLIST
  2
AcDbFieldList
  3
ObjectDBX Classes
 90
     1152
 91
        1
280
     0
281
     0
  0
CLASS
  1
ACMSECTIONSTANDARDCUSTOM
  2
AmdtSectionSymStdCustom
  3
"Amdt_StdImp|Product Description: AutoCAD Mechanical|Company: Autodesk, Inc."
 90
     1024
 91
        0
280
     0
281
     0
  0
CLASS
  1
ACMDETAILTANDARDCUSTOM
  2
AmdtDetailSymStdCustom
  3
"Amdt_StdImp|Product Description: AutoCAD Mechanical|Company: Autodesk, Inc."
 90
     1024
 91
        0
280
     0
281
     0
  0
CLASS
  1
EXACXREFPANELOBJECT
  2
ExAcXREFPanelObject
  3
EXAC_ESW
 90
     1025
 91
        0
280
     0
281
     0
  0
CLASS
  1
NPOCOLLECTION
  2
AcDbImpNonPersistentObjectsCollection
  3
ObjectDBX Classes
 90
     1153
 91
        0
280
     0
281
     0
  0
CLASS
  1
ACAD_EVALUATION_GRAPH
  2
AcDbEvalGraph
  3
ObjectDBX Classes
 90
     1153
 91
        1
280
     0
281
     0
  0
CLASS
  1
ACAECUSTOBJ
  2
AcAeEditorObj
  3
AcAeEditorObj
 90
     1024
 91
        1
280
     0
281
     0
  0
CLASS
  1
ACDB_DYNAMICBLOCKPURGEPREVENTER_VERSION
  2
AcDbDynamicBlockPurgePreventer
  3
ObjectDBX Classes
 90
     1153
 91
        1
280
     0
281
     0
  0
CLASS
  1
PLOTSETTINGS
  2
AcDbPlotSettings
  3
ObjectDBX Classes
 90
        0
 91
        1
280
     0
281
     0
  0
CLASS
  1
DIMASSOC
  2
AcDbDimAssoc
  3
"AcDbDimAssoc|Product Desc:     AcDim ARX App For Dimension|Company:          Autodesk, Inc.|WEB Address:      www.autodesk.com"
 90
        0
 91
        6
280
     0
281
     0
  0
CLASS
  1
AMDTEDGESTANDARDISO13715
  2
AmdtEdgeStdISO13715
  3
"Amdt_StdImp|Product Description: AutoCAD Mechanical|Company: Autodesk, Inc."
 90
     1024
 91
        1
280
     0
281
     0
  0
CLASS
  1
ACMSURFSTANDARDISO2002
  2
AcmSurfTextStdISO2002
  3
"Amdt_StdImp|Product Description: AutoCAD Mechanical|Company: Autodesk, Inc."
 90
     1024
 91
        1
280
     0
281
     0
  0
CLASS
  1
ACMFCFSTANDARDISO2004
  2
AcmFCFStdISO2004
  3
"Amdt_StdImp|Product Description: AutoCAD Mechanical|Company: Autodesk, Inc."
 90
     1024
 91
        1
280
     0
281
     0
  0
CLASS
  1
ACMIDSTANDARDISO2004
  2
AcmIdStdISO2004
  3
"Amdt_StdImp|Product Description: AutoCAD Mechanical|Company: Autodesk, Inc."
 90
     1024
 91
        1
280
     0
281
     0
  0
CLASS
  1
ACMSECTIONSTANDARDISO2001
  2
AmdtSectionSymStdISO2001
  3
"Amdt_StdImp|Product Description: AutoCAD Mechanical|Company: Autodesk, Inc."
 90
     1024
 91
        1
280
     0
281
     0
  0
ENDSEC
  0
SECTION
  2
TABLES
  0
TABLE
  2
VPORT
  5
8
330
0
100
AcDbSymbolTable
 70
     1
  0
VPORT
  5
A35
330
8
100
AcDbSymbolTableRecord
100
AcDbViewportTableRecord
  2
*Active
 70
     0
 10
0.0
 20
0.0
 11
1.0
 21
1.0
 12
299.3748555314445
 22
67.48322010186416
 13
0.0
 23
0.0
 14
2.5
 24
2.5
 15
10.0
 25
10.0
 16
0.0
 26
0.0
 36
1.0
 17
0.0
 27
0.0
 37
0.0
 40
783.4171435282639
 41
1.356540084388185
 42
50.0
 43
0.0
 44
0.0
 50
0.0
 51
0.0
 71
     0
 72
   100
 73
     1
 74
     1
 75
     0
 76
     0
 77
     0
 78
     0
281
     0
 65
     0
110
0.0
120
0.0
130
0.0
111
1.0
121
0.0
131
0.0
112
0.0
122
1.0
132
0.0
 79
     0
146
0.0
348
A55
 60
     3
 61
     5
292
     1
282
     1
141
0.0
142
0.0
 63
   250
421
  3355443
1001
ACAD_NAV_VCDISPLAY
1070
     3
  0
ENDTAB
  0
TABLE
  2
LTYPE
  5
5
330
0
100
AcDbSymbolTable
 70
    19
  0
LTYPE
  5
14
330
5
100
AcDbSymbolTableRecord
100
AcDbLinetypeTableRecord
  2
BYBLOCK
 70
     0
  3

 72
    65
 73
     0
 40
0.0
  0
LTYPE
  5
15
330
5
100
AcDbSymbolTableRecord
100
AcDbLinetypeTableRecord
  2
BYLAYER
 70
     0
  3

 72
    65
 73
     0
 40
0.0
  0
LTYPE
  5
16
330
5
100
AcDbSymbolTableRecord
100
AcDbLinetypeTableRecord
  2
CONTINUOUS
 70
     0
  3
Solid line
 72
    65
 73
     0
 40
0.0
  0
LTYPE
  5
15B
330
5
100
AcDbSymbolTableRecord
100
AcDbLinetypeTableRecord
  2
ACISOWELD
 70
     0
  3
_ _ _ _ _
 72
    65
 73
     2
 40
2.0
 49
2.0
 74
     0
 49
-1.0
 74
     0
  0
LTYPE
  5
15C
330
5
100
AcDbSymbolTableRecord
100
AcDbLinetypeTableRecord
  2
ACISOTGB
 70
     0
  3
__ . . __ . .
 72
    65
 73
     6
 40
9.0
 49
4.0
 74
     0
 49
-1.0
 74
     0
 49
1.0
 74
     0
 49
-1.0
 74
     0
 49
1.0
 74
     0
 49
-1.0
 74
     0
  0
LTYPE
  5
15D
330
5
100
AcDbSymbolTableRecord
100
AcDbLinetypeTableRecord
  2
ACISOTGL
 70
     0
  3
_ _ _ _ _
 72
    65
 73
     2
 40
3.0
 49
2.0
 74
     0
 49
-1.0
 74
     0
  0
LTYPE
  5
175
330
5
100
AcDbSymbolTableRecord
100
AcDbLinetypeTableRecord
  2
AM_ISO02W050
 70
     0
  3
__ __ __ __ __ __ __ __ __ __ __ __ __ __ __
 72
    65
 73
     2
 40
7.5
 49
6.0
 74
     0
 49
-1.5
 74
     0
  0
LTYPE
  5
176
330
5
100
AcDbSymbolTableRecord
100
AcDbLinetypeTableRecord
  2
AM_ISO08W050
 70
     0
  3
____ . ____ . ____ . ____ . ____ . ____ . ____
 72
    65
 73
     4
 40
18.0
 49
12.0
 74
     0
 49
-1.5
 74
     0
 49
3.0
 74
     0
 49
-1.5
 74
     0
  0
LTYPE
  5
177
330
5
100
AcDbSymbolTableRecord
100
AcDbLinetypeTableRecord
  2
AM_ISO09W050
 70
     0
  3
_____ . . _____ . . _____ . . ____ .. ____
 72
    65
 73
     6
 40
22.5
 49
12.0
 74
     0
 49
-1.5
 74
     0
 49
3.0
 74
     0
 49
-1.5
 74
     0
 49
3.0
 74
     0
 49
-1.5
 74
     0
  0
LTYPE
  5
178
330
5
100
AcDbSymbolTableRecord
100
AcDbLinetypeTableRecord
  2
AM_ISO02W050x2
 70
     0
  3
 _ _ _ _ _ _ _ _ _ _ _ _
 72
    65
 73
     2
 40
3.75
 49
3.0
 74
     0
 49
-0.75
 74
     0
  0
LTYPE
  5
179
330
5
100
AcDbSymbolTableRecord
100
AcDbLinetypeTableRecord
  2
AM_ISO08W050x2
 70
     0
  3
__ . __ . __ . __ . __ . __
 72
    65
 73
     4
 40
9.0
 49
6.0
 74
     0
 49
-0.75
 74
     0
 49
1.5
 74
     0
 49
-0.75
 74
     0
  0
LTYPE
  5
17C
330
5
100
AcDbSymbolTableRecord
100
AcDbLinetypeTableRecord
  2
Amzigzag
 70
     0
  3
/\/-/\/-/\/-/\/-/\/-/\/
 72
    65
 73
     2
 40
11.0001
 49
0.0001
 74
     4
 75
   135
340
17B
 46
0.04
 50
0.0
 44
0.0
 45
0.0
 49
-11.0
 74
     0
  0
LTYPE
  5
2ED
330
5
100
AcDbSymbolTableRecord
100
AcDbLinetypeTableRecord
  2
Amconstr
 70
     0
  3
_______________________
 72
    65
 73
     2
 40
9999.0
 49
9999.0
 74
     0
 49
0.0
 74
     0
  0
ENDTAB
  0
TABLE
  2
LAYER
  5
2
102
{ACAD_XDICTIONARY
360
592
102
}
330
0
100
AcDbSymbolTable
 70
     5
  0
LAYER
  5
F
102
{ACAD_XDICTIONARY
360
AB7
102
}
330
2
100
AcDbSymbolTableRecord
100
AcDbLayerTableRecord
  2
0
 70
     0
 62
     7
  6
CONTINUOUS
370
    -3
390
166
347
A47
348
0
  0
LAYER
  5
5CF
102
{ACAD_XDICTIONARY
360
AB9
102
}
330
2
100
AcDbSymbolTableRecord
100
AcDbLayerTableRecord
  2
AM_0
 70
     0
 62
     7
  6
CONTINUOUS
370
    50
390
166
347
A47
348
0
  0
LAYER
  5
3363
102
{ACAD_XDICTIONARY
360
3372
102
}
330
2
100
AcDbSymbolTableRecord
100
AcDbLayerTableRecord
  2
Visible Edges(ISO)
 70
     0
 62
     7
  6
CONTINUOUS
370
    18
390
166
347
A47
348
0
  0
LAYER
  5
3364
330
2
100
AcDbSymbolTableRecord
100
AcDbLayerTableRecord
  2
Defpoints
 70
     0
 62
     7
  6
CONTINUOUS
290
     0
370
    -3
390
166
347
A47
348
0
  0
LAYER
  5
3365
102
{ACAD_XDICTIONARY
360
3374
102
}
330
2
100
AcDbSymbolTableRecord
100
AcDbLayerTableRecord
  2
DIM
 70
     0
 62
     3
  6
CONTINUOUS
370
    25
390
166
347
A47
348
0
1001
AcAecLayerStandard
1000

1000

  0
ENDTAB
  0
TABLE
  2
STYLE
  5
3
330
0
100
AcDbSymbolTable
 70
     7
  0
STYLE
  5
10
330
3
100
AcDbSymbolTableRecord
100
AcDbTextStyleTableRecord
  2
STANDARD
 70
     0
 40
0.0
 41
1.0
 50
0.0
 71
     0
 42
3.5
  3
ISOCP.SHX
  4

  0
STYLE
  5
159
330
3
100
AcDbSymbolTableRecord
100
AcDbTextStyleTableRecord
  2
ACISOTS
 70
     0
 40
1.0
 41
1.0
 50
0.0
 71
     0
 42
2.5
  3
isocp.shx
  4

  0
STYLE
  5
15A
330
3
100
AcDbSymbolTableRecord
100
AcDbTextStyleTableRecord
  2
ACISOGDT
 70
     0
 40
0.0
 41
1.0
 50
0.0
 71
     0
 42
2.5
  3
amgdt.shx
  4

  0
STYLE
  5
17B
330
3
100
AcDbSymbolTableRecord
100
AcDbTextStyleTableRecord
  2

 70
     1
 40
0.0
 41
1.0
 50
0.0
 71
     0
 42
3.5
  3
ltypeshp.shx
  4

  0
STYLE
  5
D0A
330
3
100
AcDbSymbolTableRecord
100
AcDbTextStyleTableRecord
  2
ISOCP
 70
     0
 40
0.0
 41
1.0
 50
0.0
 71
     0
 42
3.5
  3
isocp
  4

  0
ENDTAB
  0
TABLE
  2
VIEW
  5
6
330
0
100
AcDbSymbolTable
 70
     9
  0
VIEW
  5
1C8
330
6
100
AcDbSymbolTableRecord
100
AcDbViewTableRecord
  2
AMDTVIEW1
 70
     0
 40
329.0721649484536
 10
210.0
 20
164.5360824742268
 41
420.0
 11
0.0
 21
0.0
 31
1.0
 12
0.0
 22
0.0
 32
0.0
 42
50.0
 43
0.0
 44
0.0
 50
0.0
 71
     0
281
     0
 72
     0
 73
     0
348
A55
  0
VIEW
  5
1C9
330
6
100
AcDbSymbolTableRecord
100
AcDbViewTableRecord
  2
AMDTVIEW2
 70
     0
 40
329.0721649484536
 10
210.0
 20
164.5360824742268
 41
420.0
 11
0.0
 21
0.0
 31
1.0
 12
0.0
 22
0.0
 32
0.0
 42
50.0
 43
0.0
 44
0.0
 50
0.0
 71
     0
281
     0
 72
     0
 73
     0
348
A55
  0
VIEW
  5
1CA
330
6
100
AcDbSymbolTableRecord
100
AcDbViewTableRecord
  2
AMDTVIEW3
 70
     0
 40
329.0721649484536
 10
210.0
 20
164.5360824742268
 41
420.0
 11
0.0
 21
0.0
 31
1.0
 12
0.0
 22
0.0
 32
0.0
 42
50.0
 43
0.0
 44
0.0
 50
0.0
 71
     0
281
     0
 72
     0
 73
     0
348
A55
  0
VIEW
  5
FA2
330
6
100
AcDbSymbolTableRecord
100
AcDbViewTableRecord
  2
AM_VIEW1
 70
     0
 40
148.5
 10
116.6562170706006
 20
222.75
 41
233.3124341412013
 11
0.0
 21
0.0
 31
1.0
 12
0.0
 22
0.0
 32
0.0
 42
50.0
 43
0.0
 44
0.0
 50
0.0
 71
     0
281
     0
 72
     0
 73
     0
  0
VIEW
  5
FA3
330
6
100
AcDbSymbolTableRecord
100
AcDbViewTableRecord
  2
AM_VIEW2
 70
     0
 40
148.5
 10
303.3437829293994
 20
222.75
 41
233.3124341412013
 11
0.0
 21
0.0
 31
1.0
 12
0.0
 22
0.0
 32
0.0
 42
50.0
 43
0.0
 44
0.0
 50
0.0
 71
     0
281
     0
 72
     0
 73
     0
  0
VIEW
  5
FA4
330
6
100
AcDbSymbolTableRecord
100
AcDbViewTableRecord
  2
AM_VIEW3
 70
     0
 40
148.5
 10
116.6562170706006
 20
74.25
 41
233.3124341412013
 11
0.0
 21
0.0
 31
1.0
 12
0.0
 22
0.0
 32
0.0
 42
50.0
 43
0.0
 44
0.0
 50
0.0
 71
     0
281
     0
 72
     0
 73
     0
  0
VIEW
  5
FA5
330
6
100
AcDbSymbolTableRecord
100
AcDbViewTableRecord
  2
AM_VIEW4
 70
     0
 40
148.5
 10
303.3437829293994
 20
74.25
 41
233.3124341412013
 11
0.0
 21
0.0
 31
1.0
 12
0.0
 22
0.0
 32
0.0
 42
50.0
 43
0.0
 44
0.0
 50
0.0
 71
     0
281
     0
 72
     0
 73
     0
  0
VIEW
  5
FA6
330
6
100
AcDbSymbolTableRecord
100
AcDbViewTableRecord
  2
AM_VIEW5
 70
     0
 40
148.5
 10
210.0
 20
148.5
 41
233.3124341412013
 11
0.0
 21
0.0
 31
1.0
 12
0.0
 22
0.0
 32
0.0
 42
50.0
 43
0.0
 44
0.0
 50
0.0
 71
     0
281
     0
 72
     0
 73
     0
  0
VIEW
  5
FA7
330
6
100
AcDbSymbolTableRecord
100
AcDbViewTableRecord
  2
AM_VIEW6
 70
     0
 40
296.99703
 10
210.0
 20
148.5
 41
466.6202020337196
 11
0.0
 21
0.0
 31
1.0
 12
0.0
 22
0.0
 32
0.0
 42
50.0
 43
0.0
 44
0.0
 50
0.0
 71
     0
281
     0
 72
     0
 73
     0
  0
ENDTAB
  0
TABLE
  2
UCS
  5
7
330
0
100
AcDbSymbolTable
 70
     0
  0
ENDTAB
  0
TABLE
  2
APPID
  5
9
330
0
100
AcDbSymbolTable
 70
    41
  0
APPID
  5
11
330
9
100
AcDbSymbolTableRecord
100
AcDbRegAppTableRecord
  2
ACAD
 70
     0
  0
APPID
  5
CD
330
9
100
AcDbSymbolTableRecord
100
AcDbRegAppTableRecord
  2
AD_DRAW
 70
     0
  0
APPID
  5
E7
330
9
100
AcDbSymbolTableRecord
100
AcDbRegAppTableRecord
  2
DESIGNERASSEMBLIES
 70
     0
  0
APPID
  5
EB
330
9
100
AcDbSymbolTableRecord
100
AcDbRegAppTableRecord
  2
MCAD_NO_VIS
 70
     0
  0
APPID
  5
122
330
9
100
AcDbSymbolTableRecord
100
AcDbRegAppTableRecord
  2
ASURF_PCURVE_APPNAME
 70
     0
  0
APPID
  5
17F
330
9
100
AcDbSymbolTableRecord
100
AcDbRegAppTableRecord
  2
ACAD_TEMP_GRAPHIC
 70
     0
  0
APPID
  5
189
330
9
100
AcDbSymbolTableRecord
100
AcDbRegAppTableRecord
  2
ACATTRIBSERVICES
 70
     0
  0
APPID
  5
1C4
330
9
100
AcDbSymbolTableRecord
100
AcDbRegAppTableRecord
  2
ACADM_DIM_EDIT
 70
     0
  0
APPID
  5
1D5
330
9
100
AcDbSymbolTableRecord
100
AcDbRegAppTableRecord
  2
GENIUS_GENDIM_13
 70
     0
  0
APPID
  5
1D6
330
9
100
AcDbSymbolTableRecord
100
AcDbRegAppTableRecord
  2
GENIUS_GENDTOL_13
 70
     0
  0
APPID
  5
1D7
330
9
100
AcDbSymbolTableRecord
100
AcDbRegAppTableRecord
  2
GENIUS_GE3DTOL_13
 70
     0
  0
APPID
  5
2E9
330
9
100
AcDbSymbolTableRecord
100
AcDbRegAppTableRecord
  2
AMG_3D2D_5.0
 70
     0
  0
APPID
  5
3C0
330
9
100
AcDbSymbolTableRecord
100
AcDbRegAppTableRecord
  2
AMDT_DM_ADJ
 70
     0
  0
APPID
  5
82F
330
9
100
AcDbSymbolTableRecord
100
AcDbRegAppTableRecord
  2
ACAD_PSEXT
 70
     0
  0
APPID
  5
84A
330
9
100
AcDbSymbolTableRecord
100
AcDbRegAppTableRecord
  2
DCO15
 70
     0
  0
APPID
  5
892
330
9
100
AcDbSymbolTableRecord
100
AcDbRegAppTableRecord
  2
ACAD_DSTYLE_DIMTEXT_FILL
 70
     0
  0
APPID
  5
A74
330
9
100
AcDbSymbolTableRecord
100
AcDbRegAppTableRecord
  2
ACAD_MLEADERVER
 70
     0
  0
APPID
  5
AB1
330
9
100
AcDbSymbolTableRecord
100
AcDbRegAppTableRecord
  2
AcAecLayerStandard
 70
     0
  0
APPID
  5
CE6
330
9
100
AcDbSymbolTableRecord
100
AcDbRegAppTableRecord
  2
ACAD_NAV_VCDISPLAY
 70
     0
  0
APPID
  5
D0F
330
9
100
AcDbSymbolTableRecord
100
AcDbRegAppTableRecord
  2
ACAD_DSTYLE_DIMARC_LENGTH_SYMBOL
 70
     0
  0
APPID
  5
D10
330
9
100
AcDbSymbolTableRecord
100
AcDbRegAppTableRecord
  2
ACAD_DSTYLE_DIMJOGGED_JOGANGLE_SYMBOL
 70
     0
  0
APPID
  5
D11
330
9
100
AcDbSymbolTableRecord
100
AcDbRegAppTableRecord
  2
ACAD_EXEMPT_FROM_CAD_STANDARDS
 70
     0
  0
APPID
  5
D91
330
9
100
AcDbSymbolTableRecord
100
AcDbRegAppTableRecord
  2
GENIUS_GENTRA_14
 70
     0
  0
APPID
  5
D92
330
9
100
AcDbSymbolTableRecord
100
AcDbRegAppTableRecord
  2
ACAD_DSTYLE_DIMBREAK
 70
     0
  0
APPID
  5
D93
330
9
100
AcDbSymbolTableRecord
100
AcDbRegAppTableRecord
  2
ACAD_DSTYLE_DIMJAG
 70
     0
  0
APPID
  5
D94
330
9
100
AcDbSymbolTableRecord
100
AcDbRegAppTableRecord
  2
ACAD_DSTYLE_DIMTALN
 70
     0
  0
APPID
  5
F9C
330
9
100
AcDbSymbolTableRecord
100
AcDbRegAppTableRecord
  2
GENIUS_GENOBJ-N-TIT_13
 70
     0
  0
APPID
  5
F9D
330
9
100
AcDbSymbolTableRecord
100
AcDbRegAppTableRecord
  2
GENIUS_GENOLIS_13
 70
     0
  0
APPID
  5
F9E
330
9
100
AcDbSymbolTableRecord
100
AcDbRegAppTableRecord
  2
GENIUS_GENODEF_13
 70
     0
  0
APPID
  5
F9F
330
9
100
AcDbSymbolTableRecord
100
AcDbRegAppTableRecord
  2
GENIUS_GENOENT_13
 70
     0
  0
APPID
  5
FA0
330
9
100
AcDbSymbolTableRecord
100
AcDbRegAppTableRecord
  2
GENIUS_GENTITLE_13
 70
     0
  0
APPID
  5
FA1
330
9
100
AcDbSymbolTableRecord
100
AcDbRegAppTableRecord
  2
GENIUS_GENOREF_13
 70
     0
  0
APPID
  5
FA8
330
9
100
AcDbSymbolTableRecord
100
AcDbRegAppTableRecord
  2
GENIUS_GENSCREG_15
 70
     0
  0
APPID
  5
FA9
330
9
100
AcDbSymbolTableRecord
100
AcDbRegAppTableRecord
  2
GENIUS_GENOBJ-N-SDF_13
 70
     0
  0
APPID
  5
14AF
330
9
100
AcDbSymbolTableRecord
100
AcDbRegAppTableRecord
  2
ACAD_OBJECT_CHANGE_GUID
 70
     0
  0
APPID
  5
16D9
330
9
100
AcDbSymbolTableRecord
100
AcDbRegAppTableRecord
  2
ACAUTHENVIRON
 70
     0
  0
APPID
  5
18D6
330
9
100
AcDbSymbolTableRecord
100
AcDbRegAppTableRecord
  2
AcDbDynamicBlockTrueName
 70
     0
  0
APPID
  5
18D7
330
9
100
AcDbSymbolTableRecord
100
AcDbRegAppTableRecord
  2
AcDbDynamicBlockGUID
 70
     0
  0
APPID
  5
2A26
330
9
100
AcDbSymbolTableRecord
100
AcDbRegAppTableRecord
  2
PE_URL
 70
     0
  0
APPID
  5
3366
330
9
100
AcDbSymbolTableRecord
100
AcDbRegAppTableRecord
  2
ACAD_DSTYLE_DIMINSPECT
 70
     0
  0
APPID
  5
3367
330
9
100
AcDbSymbolTableRecord
100
AcDbRegAppTableRecord
  2
ACAD_DSTYLE_DIMRADIAL_EXTENSION
 70
     0
  0
ENDTAB
  0
TABLE
  2
DIMSTYLE
  5
A
330
0
100
AcDbSymbolTable
 70
    15
100
AcDbDimStyleTable
 71
     1
340
344
  0
DIMSTYLE
105
344
102
{ACAD_REACTORS
330
33AB
102
}
330
A
100
AcDbSymbolTableRecord
100
AcDbDimStyleTableRecord
  2
AM_ISO
 70
     0
  4
"
 41
2.5
 42
1.0
 43
10.0
 44
1.0
 47
0.1
 48
0.1
 73
     0
 74
     0
 77
     1
 78
     8
 79
     2
140
3.5
141
0.0
143
0.0393701
146
0.71
147
1.5
171
     3
172
     1
176
   256
177
   256
178
     2
271
     2
272
     2
274
     3
283
     0
284
     8
340
10
371
    -1
372
    -1
  0
DIMSTYLE
105
345
102
{ACAD_REACTORS
330
335C
330
335F
102
}
330
A
100
AcDbSymbolTableRecord
100
AcDbDimStyleTableRecord
  2
AM_ISO$3
 70
     0
  4
"
 41
2.5
 42
1.0
 43
10.0
 44
1.0
 47
0.1
 48
0.1
 73
     0
 77
     1
 78
     8
 79
     2
140
3.5
141
0.0
143
0.0393701
146
0.71
147
1.5
176
   256
177
   256
178
     2
271
     2
272
     3
274
     4
283
     0
284
     8
288
     1
289
     0
340
10
371
    -1
372
    -1
  0
DIMSTYLE
105
346
330
A
100
AcDbSymbolTableRecord
100
AcDbDimStyleTableRecord
  2
AM_ISO$4
 70
     0
  4
"
 41
2.5
 42
1.0
 43
10.0
 44
1.0
 47
0.1
 48
0.1
 73
     0
 77
     1
 78
     8
 79
     2
140
3.5
141
0.0
143
0.0393701
146
0.71
147
1.5
176
   256
177
   256
178
     2
271
     2
272
     3
274
     4
283
     0
284
     8
288
     1
289
     0
340
10
371
    -1
372
    -1
  0
DIMSTYLE
105
347
330
A
100
AcDbSymbolTableRecord
100
AcDbDimStyleTableRecord
  2
AM_ISO$6
 70
     0
  4
"
 41
2.5
 42
1.0
 43
10.0
 44
1.0
 47
0.1
 48
0.1
 73
     0
 74
     0
 78
     8
 79
     2
140
3.5
141
0.0
143
0.0393701
146
0.71
147
1.5
172
     1
176
   256
177
   256
178
     2
271
     2
272
     3
274
     4
283
     0
284
     8
340
10
371
    -1
372
    -1
  0
DIMSTYLE
105
348
330
A
100
AcDbSymbolTableRecord
100
AcDbDimStyleTableRecord
  2
AM_ISO$7
 70
     0
  4
"
 41
2.5
 42
1.0
 43
10.0
 44
1.0
 47
0.1
 48
0.1
 73
     0
 74
     0
 77
     1
 78
     8
 79
     2
140
5.0
141
0.0
143
0.0393701
146
0.71
147
1.5
172
     1
176
   256
177
   256
178
     2
271
     2
272
     3
274
     4
283
     0
284
     8
340
10
371
    -1
372
    -1
  0
DIMSTYLE
105
349
330
A
100
AcDbSymbolTableRecord
100
AcDbDimStyleTableRecord
  2
AM_ISO$SF
 70
     0
  4
"
 41
2.5
 42
1.0
 43
10.0
 44
1.0
 47
0.1
 48
0.1
 73
     0
 74
     0
 75
     1
 76
     1
 77
     1
 78
     8
 79
     2
140
3.5
141
0.0
143
0.0393701
146
0.71
147
1.5
172
     1
176
   256
177
   256
178
     2
271
     2
272
     3
274
     4
283
     0
284
     8
340
10
371
    -1
372
    -1
  0
DIMSTYLE
105
34A
330
A
100
AcDbSymbolTableRecord
100
AcDbDimStyleTableRecord
  2
AM_ISO$SH
 70
     0
  4
"
 41
2.5
 42
1.0
 43
10.0
 44
1.0
 47
0.1
 48
0.1
 73
     0
 74
     0
 75
     1
 76
     1
 77
     1
 78
     8
 79
     2
140
3.5
141
0.0
143
0.0393701
144
2.0
146
0.71
147
1.5
172
     1
173
     1
176
   256
177
   256
178
     2
271
     2
272
     3
274
     4
283
     0
284
     8
340
10
343
2F4
371
    -1
372
    -1
  0
DIMSTYLE
105
D0D
330
A
100
AcDbSymbolTableRecord
100
AcDbDimStyleTableRecord
  2
STANDARD
 70
     0
 41
3.5
 42
2.0
 43
10.0
 44
1.0
 46
2.0
 73
     0
 74
     0
 77
     1
 78
     8
140
3.5
141
0.0
143
25.39999999999999
145
1.0
147
1.0
172
     1
175
     1
176
   256
177
   256
178
     3
271
     2
272
     2
284
     8
340
D0A
  0
DIMSTYLE
105
D0E
102
{ACAD_REACTORS
330
3359
102
}
330
A
100
AcDbSymbolTableRecord
100
AcDbDimStyleTableRecord
  2
AM_ISO$0
 70
     0
  4
"
 41
2.5
 42
1.0
 43
10.0
 44
1.0
 47
0.1
 48
0.1
 73
     0
 74
     0
 77
     1
 78
     8
 79
     2
140
3.5
141
0.0
143
0.0393701
146
0.71
147
1.5
172
     1
176
   256
177
   256
178
     2
271
     2
272
     3
274
     4
283
     0
284
     8
340
10
371
    -1
372
    -1
  0
ENDTAB
  0
TABLE
  2
BLOCK_RECORD
  5
1
330
0
100
AcDbSymbolTable
 70
    12
  0
BLOCK_RECORD
  5
1A
102
{ACAD_XDICTIONARY
360
12A
102
}
330
1
100
AcDbSymbolTableRecord
100
AcDbBlockTableRecord
  2
*MODEL_SPACE
340
169
 70
     0
280
     1
281
     0
  0
BLOCK_RECORD
  5
2CA3
330
1
100
AcDbSymbolTableRecord
100
AcDbBlockTableRecord
  2
*Paper_Space
340
2CA4
 70
     0
280
     1
281
     0
  0
BLOCK_RECORD
  5
2F4
330
1
100
AcDbSymbolTableRecord
100
AcDbBlockTableRecord
  2
GENAXEH
340
0
 70
     0
280
     1
281
     0
  0
BLOCK_RECORD
  5
D74
330
1
100
AcDbSymbolTableRecord
100
AcDbBlockTableRecord
  2
_ACMFILLED15
340
0
310
2800000020000000200000000100080000000000000400000000000000000000000000000000000000000000000080000080000000808000800000008000800080800000C0C0C000C0DCC000F0CAA6000020400000206000002080000020A0000020C0000020E00000400000004020000040400000406000004080000040A0
310
000040C0000040E00000600000006020000060400000606000006080000060A0000060C0000060E00000800000008020000080400000806000008080000080A0000080C0000080E00000A0000000A0200000A0400000A0600000A0800000A0A00000A0C00000A0E00000C0000000C0200000C0400000C0600000C0800000C0
310
A00000C0C00000C0E00000E0000000E0200000E0400000E0600000E0800000E0A00000E0C00000E0E00040000000400020004000400040006000400080004000A0004000C0004000E00040200000402020004020400040206000402080004020A0004020C0004020E000404000004040200040404000404060004040800040
310
40A0004040C0004040E00040600000406020004060400040606000406080004060A0004060C0004060E00040800000408020004080400040806000408080004080A0004080C0004080E00040A0000040A0200040A0400040A0600040A0800040A0A00040A0C00040A0E00040C0000040C0200040C0400040C0600040C08000
310
40C0A00040C0C00040C0E00040E0000040E0200040E0400040E0600040E0800040E0A00040E0C00040E0E00080000000800020008000400080006000800080008000A0008000C0008000E00080200000802020008020400080206000802080008020A0008020C0008020E00080400000804020008040400080406000804080
310
008040A0008040C0008040E00080600000806020008060400080606000806080008060A0008060C0008060E00080800000808020008080400080806000808080008080A0008080C0008080E00080A0000080A0200080A0400080A0600080A0800080A0A00080A0C00080A0E00080C0000080C0200080C0400080C0600080C0
310
800080C0A00080C0C00080C0E00080E0000080E0200080E0400080E0600080E0800080E0A00080E0C00080E0E000C0000000C0002000C0004000C0006000C0008000C000A000C000C000C000E000C0200000C0202000C0204000C0206000C0208000C020A000C020C000C020E000C0400000C0402000C0404000C0406000C0
310
408000C040A000C040C000C040E000C0600000C0602000C0604000C0606000C0608000C060A000C060C000C060E000C0800000C0802000C0804000C0806000C0808000C080A000C080C000C080E000C0A00000C0A02000C0A04000C0A06000C0A08000C0A0A000C0A0C000C0A0E000C0C00000C0C02000C0C04000C0C06000
310
C0C08000C0C0A000F0FBFF00A4A0A000808080000000FF0000FF000000FFFF00FF000000FF00FF00FFFF0000FFFFFF0000000000000000000000000000000000000000000000000000000000000000000000000000000000000000000000000000000000000000000000000000000000000000000000000000000000000000
310
00000000000000000000000000000000000000000000000000000000000000000000000000000000000000000000000000000000000000000000000000000000000000000000000000000000000000000000000000000000000000000000000000000000000000000000000000000000000000000000000000000000000000
310
00000000000000000000000000000000000000000000000000000000000000000000000000000000000000000000000000000000000000000000000000000000000000000000000000000000000000000000000000000000000000000000000000000000000000000000000000000000000000000000000000000000000000
310
00000000000000000000000000000000000000000000000000000000000000000000000000000000000000000000000000000000FFFFFFFF00000000000000000000000000000000000000000000000000000000FFFFFFFFFFFFFFFFFFFFFF000000000000000000000000000000000000000000FFFFFFFFFFFFFFFFFFFFFF
310
FFFFFFFFFFFFFFFF00000000000000000000000000FFFFFFFFFFFFFFFFFFFFFFFFFFFFFFFFFFFFFFFFFFFFFFFFFFFF000000000000FFFFFFFFFFFFFFFFFFFFFFFFFFFFFFFFFFFFFFFFFFFFFFFFFFFFFFFFFFFF0000FFFFFFFFFFFFFFFFFFFFFFFFFFFFFFFFFFFFFFFFFFFFFFFFFF00000000000000FFFFFFFFFFFFFFFFFFFF
310
FFFFFFFFFF0000000000000000000000000000000000FFFFFFFFFF00000000000000000000000000000000000000000000000000000000000000000000000000000000000000000000000000000000000000000000000000000000000000000000000000000000000000000000000000000000000000000000000000000000
310
00000000000000000000000000000000000000000000000000000000000000000000000000000000000000000000000000000000000000000000000000000000000000000000000000000000000000000000000000000000000000000000000000000000000000000000000000000000000000000000000000000000000000
310
00000000000000000000000000000000000000000000000000000000000000000000000000000000000000000000000000000000000000000000000000000000000000000000000000000000000000000000000000000000000000000000000000000000000000000000000000000000000000000000000000000000000000
310
0000000000000000000000000000000000000000000000000000000000000000000000000000000000000000000000000000000000000000
 70
     0
280
     1
281
     0
  0
BLOCK_RECORD
  5
D78
330
1
100
AcDbSymbolTableRecord
100
AcDbBlockTableRecord
  2
_ACMFILLED30
340
0
 70
     0
280
     1
281
     0
  0
BLOCK_RECORD
  5
3165
102
{ACAD_XDICTIONARY
360
35C4
102
}
330
1
100
AcDbSymbolTableRecord
100
AcDbBlockTableRecord
  2
H3200UG
340
0
310
2800000020000000200000000100080000000000000400000000000000000000000000000000000000000000000080000080000000808000800000008000800080800000C0C0C000C0DCC000F0CAA6000020400000206000002080000020A0000020C0000020E00000400000004020000040400000406000004080000040A0
310
000040C0000040E00000600000006020000060400000606000006080000060A0000060C0000060E00000800000008020000080400000806000008080000080A0000080C0000080E00000A0000000A0200000A0400000A0600000A0800000A0A00000A0C00000A0E00000C0000000C0200000C0400000C0600000C0800000C0
310
A00000C0C00000C0E00000E0000000E0200000E0400000E0600000E0800000E0A00000E0C00000E0E00040000000400020004000400040006000400080004000A0004000C0004000E00040200000402020004020400040206000402080004020A0004020C0004020E000404000004040200040404000404060004040800040
310
40A0004040C0004040E00040600000406020004060400040606000406080004060A0004060C0004060E00040800000408020004080400040806000408080004080A0004080C0004080E00040A0000040A0200040A0400040A0600040A0800040A0A00040A0C00040A0E00040C0000040C0200040C0400040C0600040C08000
310
40C0A00040C0C00040C0E00040E0000040E0200040E0400040E0600040E0800040E0A00040E0C00040E0E00080000000800020008000400080006000800080008000A0008000C0008000E00080200000802020008020400080206000802080008020A0008020C0008020E00080400000804020008040400080406000804080
310
008040A0008040C0008040E00080600000806020008060400080606000806080008060A0008060C0008060E00080800000808020008080400080806000808080008080A0008080C0008080E00080A0000080A0200080A0400080A0600080A0800080A0A00080A0C00080A0E00080C0000080C0200080C0400080C0600080C0
310
800080C0A00080C0C00080C0E00080E0000080E0200080E0400080E0600080E0800080E0A00080E0C00080E0E000C0000000C0002000C0004000C0006000C0008000C000A000C000C000C000E000C0200000C0202000C0204000C0206000C0208000C020A000C020C000C020E000C0400000C0402000C0404000C0406000C0
310
408000C040A000C040C000C040E000C0600000C0602000C0604000C0606000C0608000C060A000C060C000C060E000C0800000C0802000C0804000C0806000C0808000C080A000C080C000C080E000C0A00000C0A02000C0A04000C0A06000C0A08000C0A0A000C0A0C000C0A0E000C0C00000C0C02000C0C04000C0C06000
310
C0C08000C0C0A000F0FBFF00A4A0A000808080000000FF0000FF000000FFFF00FF000000FF00FF00FFFF0000FFFFFF00494949494949494949494949494949494949494949494949494949494949494949494949FA49494949494949494949494949494949494949494949FA4949494949494949FAFAFAFAFAFAFAFAFAFAFB
310
FBFBFBFAFAFAFAFAFAFAFAFAFA4949494949494949FA49494949494949494949494949494949494949494949FA4949494949494949FA49494949494949FFFFFFFFFFFFFFFF49494949494949FA4949494949494949FA4949494949FFFF4949494949494949FFFF4949494949FA4949494949494949FA494949FFFFFF494949
310
FFFFFFFF494949FFFFFF494949FA4949494949494949FA4949FF49FFFFFF4949FF4949FF4949FFFFFF49FF4949FA4949494949494949FA49FF4949FFFFFF4949FFFFFFFF4949FFFFFF4949FF49FA4949494949494949FAFFFF49FFFFFFFFFFFF49494949FFFFFFFFFFFF49FFFFFA4949494949494949FAFFFFFFFFFFFFFFFF
310
FFFFFFFFFFFFFFFFFFFFFFFFFFFFFA4949494949494949FAFF49FFFFFF494949FFFFFFFFFFFFFF4949FFFFFF4949FF4949494949494949FF49FFFFFF49494949FFFFFFFFFFFF49494949FFFFFF49FF4949494949494949FF49FFFFFF49494949FFFFFFFFFFFF49494949FFFFFF49FF4949494949494949FFFFFFFFFFFF4949
310
49FFFFFFFFFFFF494949FFFFFFFFFFFF4949494949494949FFFFFFFFFFFFFFFFFFFFFFFFFFFFFFFFFFFFFFFFFFFFFFFF4949494949494949FF494949FFFFFFFFFFFFFFFFFFFFFFFFFFFFFFFF494949FF4949494949494949FF49494949FFFFFFFF49FFFFFFFF49FFFFFFFF49494949FF4949494949494949FF494949FFFF49
310
FFFFFFFFFFFFFFFFFFFF49FFFFFF4949FF494949494949494949FF49FF49FFFF49FFFFFF4949FFFFFF49FFFF49FF4949FF494949494949494949FF49FF49FFFFFFFFFF49494949FFFFFFFFFF49FF49FF4949494949494949494949FFFFFFFF49FFFFFF49494949FFFFFF49FFFFFF49FF4949494949494949494949FF494949
310
49FFFFFF49494949FFFFFF49494949FF49494949494949494949494949FF49494949FFFFFFFFFFFFFFFF4949494949FF49494949494949494949494949FF4949FFFFFFFFFFFFFFFFFFFFFFFF4949FF494949494949494949494949494949FFFFFFFFFF49FFFFFFFF49FFFFFFFFFF4949494949494949494949494949494949
310
49FFFF494949FFFF4949FAFFFF49494949494949494949494949494949494949494949FFFFFFFFFFFFFFFFFAFA494949494949494949494949494949494949494949494949494949494949FA49FBFBFBFB494949494949494949494949494949494949494949494949494949FBFBFBFB494949494949494949494949494949
310
4949494949494949494949494949FBFBFB494949494949494949494949494949494949494949494949494949494949494949494949494949
102
{BLKREFS
331
336F
102
}
 70
     4
280
     1
281
     0
1001
AcDbDynamicBlockGUID
1000
{5DA25C7C-D80F-4AD6-8164-49E05E461ED0}
  0
ENDTAB
  0
ENDSEC
  0
SECTION
  2
BLOCKS
  0
BLOCK
  5
1B
330
1A
100
AcDbEntity
  8
0
100
AcDbBlockBegin
  2
*MODEL_SPACE
 70
     0
 10
0.0
 20
0.0
 30
0.0
  3
*MODEL_SPACE
  1

  0
ENDBLK
  5
1C
330
1A
100
AcDbEntity
  8
0
100
AcDbBlockEnd
  0
BLOCK
  5
2CA5
330
2CA3
100
AcDbEntity
 67
     1
  8
0
100
AcDbBlockBegin
  2
*Paper_Space
 70
     0
 10
0.0
 20
0.0
 30
0.0
  3
*Paper_Space
  1

  0
ENDBLK
  5
2CA6
330
2CA3
100
AcDbEntity
 67
     1
  8
0
100
AcDbBlockEnd
  0
BLOCK
  5
C49
330
2F4
100
AcDbEntity
  8
0
100
AcDbBlockBegin
  2
GENAXEH
 70
     0
 10
0.0
 20
0.0
 30
0.0
  3
GENAXEH
  1

  0
LINE
  5
C4A
330
2F4
100
AcDbEntity
  8
0
100
AcDbLine
 10
-1.0
 20
0.0
 30
0.0
 11
1.0
 21
0.0
 31
0.0
  0
ENDBLK
  5
C4B
330
2F4
100
AcDbEntity
  8
0
100
AcDbBlockEnd
  0
BLOCK
  5
D75
330
D74
100
AcDbEntity
  8
0
100
AcDbBlockBegin
  2
_ACMFILLED15
 70
     0
 10
0.0
 20
0.0
 30
0.0
  3
_ACMFILLED15
  1

  0
TRACE
  5
D76
330
D74
100
AcDbEntity
  8
AM_0
 62
     0
100
AcDbTrace
 10
-1.0
 20
-0.131652497
 30
0.0
 11
-1.0
 21
0.131652497
 31
0.0
 12
0.0
 22
0.0
 32
0.0
 13
0.0
 23
0.0
 33
0.0
  0
ENDBLK
  5
D77
330
D74
100
AcDbEntity
  8
0
100
AcDbBlockEnd
  0
BLOCK
  5
D79
330
D78
100
AcDbEntity
  8
0
100
AcDbBlockBegin
  2
_ACMFILLED30
 70
     0
 10
0.0
 20
0.0
 30
0.0
  3
_ACMFILLED30
  1

  0
TRACE
  5
D7A
330
D78
100
AcDbEntity
  8
AM_0
 62
     0
100
AcDbTrace
 10
-1.0
 20
-0.26794919
 30
0.0
 11
-1.0
 21
0.26794919
 31
0.0
 12
0.0
 22
0.0
 32
0.0
 13
0.0
 23
0.0
 33
0.0
  0
ENDBLK
  5
D7B
330
D78
100
AcDbEntity
  8
0
100
AcDbBlockEnd
  0
BLOCK
  5
3166
330
3165
100
AcDbEntity
  8
0
100
AcDbBlockBegin
  2
H3200UG
 70
     0
 10
0.0
 20
0.0
 30
0.0
  3
H3200UG
  1

  0
ARC
  5
33C9
330
3165
100
AcDbEntity
  8
Visible Edges(ISO)
100
AcDbCircle
 10
74.02086292448752
 20
-42.38955497358688
 30
0.0
 40
0.2999999999999798
100
AcDbArc
 50
150.4869388320784
 51
239.9999999999907
  0
ARC
  5
33CA
330
3165
100
AcDbEntity
  8
Visible Edges(ISO)
100
AcDbCircle
 10
12.88167745395643
 20
-7.090829784141987
 30
0.0
 40
0.2999999999999918
100
AcDbArc
 50
240.0000000000068
 51
329.5130611679433
  0
ARC
  5
33CB
330
3165
100
AcDbEntity
  8
Visible Edges(ISO)
100
AcDbCircle
 10
86.49234187233986
 20
-49.58996670132318
 30
0.0
 40
0.2999999999999912
100
AcDbArc
 50
240.0000000000068
 51
330.1724048123682
  0
ARC
  5
33CC
330
3165
100
AcDbEntity
  8
Visible Edges(ISO)
100
AcDbCircle
 10
0.3000000000000114
 20
0.1732050807570431
 30
0.0
 40
0.3000000000000026
100
AcDbArc
 50
180.0
 51
240.0000000000025
  0
LINE
  5
33CD
330
3165
100
AcDbEntity
  8
Visible Edges(ISO)
100
AcDbLine
 10
0.1500000000000341
 20
-0.0866025403779531
 30
0.0
 11
12.73167745395642
 21
-7.350637405276984
 31
0.0
  0
ARC
  5
33CE
330
3165
100
AcDbEntity
  8
Visible Edges(ISO)
100
AcDbCircle
 10
0.2999999999999545
 20
99.69954864491592
 30
0.0
 40
0.3000000000000012
100
AcDbArc
 50
89.82759518764066
 51
180.0
  0
ARC
  5
33CF
330
3165
100
AcDbEntity
  8
Visible Edges(ISO)
100
AcDbCircle
 10
0.3000000000000114
 20
14.70127481055397
 30
0.0
 40
0.3000000000000045
100
AcDbArc
 50
90.48693883208557
 51
180.0
  0
LINE
  5
33D0
330
3165
100
AcDbEntity
  8
Visible Edges(ISO)
100
AcDbLine
 10
0.0
 20
14.70127481055397
 30
0.0
 11
0.0000000000000284
 21
0.1732050807570431
 31
0.0
  0
ARC
  5
33D1
330
3165
100
AcDbEntity
  8
Visible Edges(ISO)
100
AcDbCircle
 10
0.2999999999999545
 20
85.2987251894458
 30
0.0
 40
0.2999999999999813
100
AcDbArc
 50
180.0
 51
269.5130611679177
  0
LINE
  5
33D2
330
3165
100
AcDbEntity
  8
Visible Edges(ISO)
100
AcDbLine
 10
-0.0000000000000568
 20
99.69954864491592
 30
0.0
 11
-0.0000000000000568
 21
85.2987251894458
 31
0.0
  0
ARC
  5
33D3
330
3165
100
AcDbEntity
  8
Visible Edges(ISO)
100
AcDbCircle
 10
-0.0000000000000568
 20
50.0
 30
0.0
 40
35.0
100
AcDbArc
 50
270.4869388320872
 51
89.51306116791281
  0
ARC
  5
33D4
330
3165
100
AcDbEntity
  8
Visible Edges(ISO)
100
AcDbCircle
 10
-0.000000000370278
 20
0.00000000020691
 30
0.0
 40
100.0000000004241
100
AcDbArc
 50
330.1724048123674
 51
330.5729673448555
  0
ARC
  5
33D5
330
3165
100
AcDbEntity
  8
Visible Edges(ISO)
100
AcDbCircle
 10
0.0000000000011369
 20
0.0000000001498393
 30
0.0
 40
99.99999999985028
100
AcDbArc
 50
89.42703265514333
 51
89.827595187639
  0
LINE
  5
33D6
330
3165
100
AcDbEntity
  8
Visible Edges(ISO)
100
AcDbLine
 10
73.87086292448754
 20
-42.64936259472301
 30
0.0
 11
86.34234187233991
 21
-49.84977432245819
 31
0.0
  0
ARC
  5
33D7
330
3165
100
AcDbEntity
  8
Visible Edges(ISO)
100
AcDbCircle
 10
43.30127018922192
 20
-25.0
 30
0.0
 40
35.0
100
AcDbArc
 50
330.486938832093
 51
149.5130611679126
  0
ARC
  5
33D8
330
3165
100
AcDbEntity
  8
Visible Edges(ISO)
100
AcDbCircle
 10
-73.72086292448739
 20
-42.90917021585801
 30
0.0
 40
0.2999999999999798
100
AcDbArc
 50
30.48693883210278
 51
120.0000000000355
  0
ARC
  5
33D9
330
3165
100
AcDbEntity
  8
Visible Edges(ISO)
100
AcDbCircle
 10
-12.58167745395639
 20
-7.61044502641198
 30
0.0
 40
0.2999999999999918
100
AcDbArc
 50
119.9999999999961
 51
209.5130611678763
  0
ARC
  5
33DA
330
3165
100
AcDbEntity
  8
Visible Edges(ISO)
100
AcDbCircle
 10
-86.19234187233969
 20
-50.10958194359296
 30
0.0
 40
0.2999999999999913
100
AcDbArc
 50
119.9999999999961
 51
210.1724048123851
  0
ARC
  5
33DB
330
3165
100
AcDbEntity
  8
Visible Edges(ISO)
100
AcDbCircle
 10
0.0000000000000284
 20
-0.3464101615138588
 30
0.0
 40
0.3000000000000026
100
AcDbArc
 50
60.0000000000025
 51
119.9999999999961
  0
LINE
  5
33DC
330
3165
100
AcDbEntity
  8
Visible Edges(ISO)
100
AcDbLine
 10
-0.1499999999999773
 20
-0.0866025403779531
 30
0.0
 11
-12.73167745395636
 21
-7.350637405276984
 31
0.0
  0
ARC
  5
33DD
330
3165
100
AcDbEntity
  8
Visible Edges(ISO)
100
AcDbCircle
 10
86.19234187233983
 20
-50.10958194359296
 30
0.0
 40
0.3000000000000012
100
AcDbArc
 50
329.8275951876148
 51
59.99999999998351
  0
ARC
  5
33DE
330
3165
100
AcDbEntity
  8
Visible Edges(ISO)
100
AcDbCircle
 10
12.58167745395644
 20
-7.61044502641198
 30
0.0
 40
0.3000000000000045
100
AcDbArc
 50
330.4869388320785
 51
59.99999999999077
  0
LINE
  5
33DF
330
3165
100
AcDbEntity
  8
Visible Edges(ISO)
100
AcDbLine
 10
12.73167745395642
 20
-7.350637405276984
 30
0.0
 11
0.1500000000000341
 21
-0.0866025403779531
 31
0.0
  0
ARC
  5
33E0
330
3165
100
AcDbEntity
  8
Visible Edges(ISO)
100
AcDbCircle
 10
73.72086292448756
 20
-42.90917021585801
 30
0.0
 40
0.2999999999999814
100
AcDbArc
 50
60.0000000000025
 51
149.513061167957
  0
LINE
  5
33E1
330
3165
100
AcDbEntity
  8
Visible Edges(ISO)
100
AcDbLine
 10
86.34234187233991
 20
-49.84977432245819
 30
0.0
 11
73.87086292448754
 21
-42.64936259472301
 31
0.0
  0
ARC
  5
33E2
330
3165
100
AcDbEntity
  8
Visible Edges(ISO)
100
AcDbCircle
 10
43.30127018922192
 20
-25.0
 30
0.0
 40
35.0
100
AcDbArc
 50
150.486938832093
 51
329.5130611679126
  0
ARC
  5
33E3
330
3165
100
AcDbEntity
  8
Visible Edges(ISO)
100
AcDbCircle
 10
0.0000000028484806
 20
0.0000000016718786
 30
0.0
 40
100.0000000033027
100
AcDbArc
 50
210.1724048123699
 51
210.5729673448467
  0
ARC
  5
33E4
330
3165
100
AcDbEntity
  8
Visible Edges(ISO)
100
AcDbCircle
 10
0.0000000001291198
 20
-0.0000000000759428
 30
0.0
 40
99.99999999985028
100
AcDbArc
 50
329.4270326551388
 51
329.8275951876447
  0
LINE
  5
33E5
330
3165
100
AcDbEntity
  8
Visible Edges(ISO)
100
AcDbLine
 10
-73.87086292448741
 20
-42.64936259472301
 30
0.0
 11
-86.34234187233969
 21
-49.84977432245819
 31
0.0
  0
ARC
  5
33E6
330
3165
100
AcDbEntity
  8
Visible Edges(ISO)
100
AcDbCircle
 10
-43.3012701892219
 20
-25.0
 30
0.0
 40
35.0
100
AcDbArc
 50
210.4869388320874
 51
29.51306116790699
  0
ARC
  5
33E7
330
3165
100
AcDbEntity
  8
Visible Edges(ISO)
100
AcDbCircle
 10
-0.3000000000000682
 20
85.2987251894458
 30
0.0
 40
0.2999999999999798
100
AcDbArc
 50
270.4869388320856
 51
0.0
  0
ARC
  5
33E8
330
3165
100
AcDbEntity
  8
Visible Edges(ISO)
100
AcDbCircle
 10
-0.3000000000000114
 20
14.70127481055397
 30
0.0
 40
0.2999999999999918
100
AcDbArc
 50
0.0
 51
89.51306116791442
  0
ARC
  5
33E9
330
3165
100
AcDbEntity
  8
Visible Edges(ISO)
100
AcDbCircle
 10
-0.300000000000125
 20
99.69954864491592
 30
0.0
 40
0.2999999999999913
100
AcDbArc
 50
0.0
 51
90.17240481236262
  0
ARC
  5
33EA
330
3165
100
AcDbEntity
  8
Visible Edges(ISO)
100
AcDbCircle
 10
-0.2999999999999545
 20
0.1732050807570431
 30
0.0
 40
0.3000000000000026
100
AcDbArc
 50
299.9999999999975
 51
0.0
  0
LINE
  5
33EB
330
3165
100
AcDbEntity
  8
Visible Edges(ISO)
100
AcDbLine
 10
0.0000000000000284
 20
0.1732050807570431
 30
0.0
 11
0.0
 21
14.70127481055397
 31
0.0
  0
ARC
  5
33EC
330
3165
100
AcDbEntity
  8
Visible Edges(ISO)
100
AcDbCircle
 10
-86.49234187233975
 20
-49.58996670132318
 30
0.0
 40
0.3000000000000012
100
AcDbArc
 50
209.8275951876318
 51
299.9999999999902
  0
ARC
  5
33ED
330
3165
100
AcDbEntity
  8
Visible Edges(ISO)
100
AcDbCircle
 10
-12.8816774539564
 20
-7.090829784141987
 30
0.0
 40
0.3000000000000045
100
AcDbArc
 50
210.4869388321028
 51
300.0000000000092
  0
LINE
  5
33EE
330
3165
100
AcDbEntity
  8
Visible Edges(ISO)
100
AcDbLine
 10
-12.73167745395636
 20
-7.350637405276984
 30
0.0
 11
-0.1499999999999773
 21
-0.0866025403779531
 31
0.0
  0
ARC
  5
33EF
330
3165
100
AcDbEntity
  8
Visible Edges(ISO)
100
AcDbCircle
 10
-74.02086292448742
 20
-42.38955497358688
 30
0.0
 40
0.2999999999999814
100
AcDbArc
 50
299.9999999999932
 51
29.51306116792153
  0
LINE
  5
33F0
330
3165
100
AcDbEntity
  8
Visible Edges(ISO)
100
AcDbLine
 10
-86.34234187233975
 20
-49.84977432245819
 30
0.0
 11
-73.87086292448744
 21
-42.64936259472301
 31
0.0
  0
ARC
  5
33F1
330
3165
100
AcDbEntity
  8
Visible Edges(ISO)
100
AcDbCircle
 10
-43.3012701892219
 20
-25.0
 30
0.0
 40
35.0
100
AcDbArc
 50
30.48693883208742
 51
209.513061167907
  0
ARC
  5
33F2
330
3165
100
AcDbEntity
  8
Visible Edges(ISO)
100
AcDbCircle
 10
0.0000000000208047
 20
-0.0000000027500846
 30
0.0
 40
100.0000000027505
100
AcDbArc
 50
90.17240481236914
 51
90.57296734485339
  0
ARC
  5
33F3
330
3165
100
AcDbEntity
  8
Visible Edges(ISO)
100
AcDbCircle
 10
-0.00000000013722
 20
-0.0000000000779892
 30
0.0
 40
99.99999999984229
100
AcDbArc
 50
209.4270326551445
 51
209.8275951876354
  0
LINE
  5
33F4
330
3165
100
AcDbEntity
  8
Visible Edges(ISO)
100
AcDbLine
 10
-0.0000000000001137
 20
85.2987251894458
 30
0.0
 11
-0.0000000000001137
 21
99.69954864491592
 31
0.0
  0
ARC
  5
33F5
330
3165
100
AcDbEntity
  8
Visible Edges(ISO)
100
AcDbCircle
 10
-0.0000000000000568
 20
50.0
 30
0.0
 40
35.0
100
AcDbArc
 50
90.48693883208557
 51
269.5130611679128
  0
LINE
  5
33F6
330
3165
100
AcDbEntity
  8
Visible Edges(ISO)
100
AcDbLine
 10
68.76241706048411
 20
-39.69999999999982
 30
0.0
 11
68.06959673745663
 21
-39.29999999999996
 31
0.0
  0
ARC
  5
33F7
330
3165
100
AcDbEntity
  8
Visible Edges(ISO)
100
AcDbCircle
 10
43.30127018922181
 20
-25.0
 30
0.0
 40
28.59999999999981
100
AcDbArc
 50
330.0000000000003
 51
150.0000000000003
  0
LINE
  5
33F8
330
3165
100
AcDbEntity
  8
Visible Edges(ISO)
100
AcDbLine
 10
18.53294364098701
 20
-10.69999999999982
 30
0.0
 11
17.84012331795944
 21
-10.29999999999995
 31
0.0
  0
ARC
  5
33F9
330
3165
100
AcDbEntity
  8
Visible Edges(ISO)
100
AcDbCircle
 10
43.30127018922181
 20
-25.0
 30
0.0
 40
29.3999999999998
100
AcDbArc
 50
330.0000000000003
 51
150.0000000000003
  0
LINE
  5
33FA
330
3165
100
AcDbEntity
  8
Visible Edges(ISO)
100
AcDbLine
 10
-0.0000000000001705
 20
20.60000000000014
 30
0.0
 11
-0.0000000000001705
 21
21.40000000000009
 31
0.0
  0
ARC
  5
33FB
330
3165
100
AcDbEntity
  8
Visible Edges(ISO)
100
AcDbCircle
 10
-0.0000000000001137
 20
50.0
 30
0.0
 40
28.60000000000009
100
AcDbArc
 50
270.0
 51
90.0
  0
LINE
  5
33FC
330
3165
100
AcDbEntity
  8
Visible Edges(ISO)
100
AcDbLine
 10
0.0
 20
78.60000000000012
 30
0.0
 11
0.0000000000000284
 21
79.40000000000009
 31
0.0
  0
ARC
  5
33FD
330
3165
100
AcDbEntity
  8
Visible Edges(ISO)
100
AcDbCircle
 10
-0.0000000000001137
 20
50.0
 30
0.0
 40
29.40000000000008
100
AcDbArc
 50
270.0
 51
90.0
  0
LINE
  5
33FE
330
3165
100
AcDbEntity
  8
Visible Edges(ISO)
100
AcDbLine
 10
-68.76241706048424
 20
-39.69999999999982
 30
0.0
 11
-68.0695967374567
 21
-39.29999999999996
 31
0.0
  0
ARC
  5
33FF
330
3165
100
AcDbEntity
  8
Visible Edges(ISO)
100
AcDbCircle
 10
-43.30127018922195
 20
-25.0
 30
0.0
 40
28.59999999999981
100
AcDbArc
 50
209.9999999999997
 51
29.99999999999972
  0
LINE
  5
3400
330
3165
100
AcDbEntity
  8
Visible Edges(ISO)
100
AcDbLine
 10
-18.53294364098721
 20
-10.69999999999982
 30
0.0
 11
-17.84012331795966
 21
-10.29999999999995
 31
0.0
  0
ARC
  5
3401
330
3165
100
AcDbEntity
  8
Visible Edges(ISO)
100
AcDbCircle
 10
-43.30127018922195
 20
-25.0
 30
0.0
 40
29.3999999999998
100
AcDbArc
 50
209.9999999999997
 51
29.99999999999972
  0
LINE
  5
3402
330
3165
100
AcDbEntity
  8
Visible Edges(ISO)
100
AcDbLine
 10
17.84012331795952
 20
-10.29999999999995
 30
0.0
 11
18.53294364098701
 21
-10.69999999999982
 31
0.0
  0
ARC
  5
3403
330
3165
100
AcDbEntity
  8
Visible Edges(ISO)
100
AcDbCircle
 10
43.30127018922204
 20
-25.0
 30
0.0
 40
28.60000000000009
100
AcDbArc
 50
150.0000000000003
 51
330.0000000000003
  0
LINE
  5
3404
330
3165
100
AcDbEntity
  8
Visible Edges(ISO)
100
AcDbLine
 10
68.06959673745703
 20
-39.29999999999996
 30
0.0
 11
68.76241706048459
 21
-39.69999999999982
 31
0.0
  0
ARC
  5
3405
330
3165
100
AcDbEntity
  8
Visible Edges(ISO)
100
AcDbCircle
 10
43.30127018922204
 20
-25.0
 30
0.0
 40
29.40000000000009
100
AcDbArc
 50
150.0000000000003
 51
330.0000000000003
  0
LINE
  5
3406
330
3165
100
AcDbEntity
  8
Visible Edges(ISO)
100
AcDbLine
 10
0.0000000000001137
 20
79.40000000000009
 30
0.0
 11
0.0000000000001137
 21
78.60000000000012
 31
0.0
  0
ARC
  5
3407
330
3165
100
AcDbEntity
  8
Visible Edges(ISO)
100
AcDbCircle
 10
0.0000000000001421
 20
50.0
 30
0.0
 40
28.59999999999982
100
AcDbArc
 50
90.0
 51
270.0
  0
LINE
  5
3408
330
3165
100
AcDbEntity
  8
Visible Edges(ISO)
100
AcDbLine
 10
0.0000000000001705
 20
21.40000000000009
 30
0.0
 11
0.0000000000001705
 21
20.60000000000014
 31
0.0
  0
ARC
  5
3409
330
3165
100
AcDbEntity
  8
Visible Edges(ISO)
100
AcDbCircle
 10
0.0000000000001421
 20
50.0
 30
0.0
 40
29.3999999999998
100
AcDbArc
 50
90.0
 51
270.0
  0
LINE
  5
340A
330
3165
100
AcDbEntity
  8
Visible Edges(ISO)
100
AcDbLine
 10
-17.84012331795932
 20
-10.29999999999995
 30
0.0
 11
-18.5329436409869
 21
-10.69999999999982
 31
0.0
  0
ARC
  5
340B
330
3165
100
AcDbEntity
  8
Visible Edges(ISO)
100
AcDbCircle
 10
-43.30127018922195
 20
-25.0
 30
0.0
 40
28.60000000000009
100
AcDbArc
 50
29.99999999999972
 51
209.9999999999997
  0
LINE
  5
340C
330
3165
100
AcDbEntity
  8
Visible Edges(ISO)
100
AcDbLine
 10
-68.069596737457
 20
-39.29999999999996
 30
0.0
 11
-68.76241706048458
 21
-39.69999999999982
 31
0.0
  0
ARC
  5
340D
330
3165
100
AcDbEntity
  8
Visible Edges(ISO)
100
AcDbCircle
 10
-43.30127018922195
 20
-25.0
 30
0.0
 40
29.4000000000001
100
AcDbArc
 50
29.99999999999972
 51
209.9999999999997
  0
LINE
  5
340E
330
3165
100
AcDbEntity
  8
Visible Edges(ISO)
100
AcDbLine
 10
69.4552373835117
 20
-40.0999999999999
 30
0.0
 11
68.76241706048411
 21
-39.69999999999982
 31
0.0
  0
ARC
  5
340F
330
3165
100
AcDbEntity
  8
Visible Edges(ISO)
100
AcDbCircle
 10
43.30127018922181
 20
-25.0
 30
0.0
 40
29.39999999999979
100
AcDbArc
 50
330.0000000000003
 51
150.0000000000003
  0
LINE
  5
3410
330
3165
100
AcDbEntity
  8
Visible Edges(ISO)
100
AcDbLine
 10
17.84012331795952
 20
-10.29999999999995
 30
0.0
 11
17.14730299493192
 21
-9.899999999999863
 31
0.0
  0
ARC
  5
3411
330
3165
100
AcDbEntity
  8
Visible Edges(ISO)
100
AcDbCircle
 10
43.30127018922181
 20
-25.0
 30
0.0
 40
30.19999999999978
100
AcDbArc
 50
330.0000000000003
 51
150.0000000000003
  0
LINE
  5
3412
330
3165
100
AcDbEntity
  8
Visible Edges(ISO)
100
AcDbLine
 10
-0.0000000000001705
 20
19.80000000000018
 30
0.0
 11
-0.0000000000001705
 21
20.60000000000014
 31
0.0
  0
ARC
  5
3413
330
3165
100
AcDbEntity
  8
Visible Edges(ISO)
100
AcDbCircle
 10
-0.0000000000000568
 20
50.0
 30
0.0
 40
29.40000000000008
100
AcDbArc
 50
270.0
 51
90.0
  0
LINE
  5
3414
330
3165
100
AcDbEntity
  8
Visible Edges(ISO)
100
AcDbLine
 10
0.0000000000000284
 20
79.40000000000009
 30
0.0
 11
0.0000000000000284
 21
80.20000000000004
 31
0.0
  0
ARC
  5
3415
330
3165
100
AcDbEntity
  8
Visible Edges(ISO)
100
AcDbCircle
 10
-0.0000000000000568
 20
50.0
 30
0.0
 40
30.20000000000007
100
AcDbArc
 50
270.0
 51
90.0
  0
LINE
  5
3416
330
3165
100
AcDbEntity
  8
Visible Edges(ISO)
100
AcDbLine
 10
-69.45523738351176
 20
-40.0999999999999
 30
0.0
 11
-68.76241706048421
 21
-39.69999999999982
 31
0.0
  0
ARC
  5
3417
330
3165
100
AcDbEntity
  8
Visible Edges(ISO)
100
AcDbCircle
 10
-43.30127018922192
 20
-25.0
 30
0.0
 40
29.39999999999979
100
AcDbArc
 50
209.9999999999997
 51
29.99999999999972
  0
LINE
  5
3418
330
3165
100
AcDbEntity
  8
Visible Edges(ISO)
100
AcDbLine
 10
-17.84012331795963
 20
-10.29999999999995
 30
0.0
 11
-17.14730299493209
 21
-9.899999999999863
 31
0.0
  0
ARC
  5
3419
330
3165
100
AcDbEntity
  8
Visible Edges(ISO)
100
AcDbCircle
 10
-43.30127018922192
 20
-25.0
 30
0.0
 40
30.19999999999978
100
AcDbArc
 50
209.9999999999997
 51
29.99999999999972
  0
LINE
  5
341A
330
3165
100
AcDbEntity
  8
Visible Edges(ISO)
100
AcDbLine
 10
17.14730299493192
 20
-9.899999999999863
 30
0.0
 11
17.84012331795952
 21
-10.29999999999995
 31
0.0
  0
ARC
  5
341B
330
3165
100
AcDbEntity
  8
Visible Edges(ISO)
100
AcDbCircle
 10
43.30127018922204
 20
-25.0
 30
0.0
 40
29.40000000000008
100
AcDbArc
 50
150.0000000000003
 51
330.0000000000003
  0
LINE
  5
341C
330
3165
100
AcDbEntity
  8
Visible Edges(ISO)
100
AcDbLine
 10
68.76241706048452
 20
-39.69999999999982
 30
0.0
 11
69.4552373835121
 21
-40.0999999999999
 31
0.0
  0
ARC
  5
341D
330
3165
100
AcDbEntity
  8
Visible Edges(ISO)
100
AcDbCircle
 10
43.30127018922204
 20
-25.0
 30
0.0
 40
30.20000000000008
100
AcDbArc
 50
150.0000000000003
 51
330.0000000000003
  0
LINE
  5
341E
330
3165
100
AcDbEntity
  8
Visible Edges(ISO)
100
AcDbLine
 10
0.0000000000000568
 20
80.20000000000004
 30
0.0
 11
0.0000000000000568
 21
79.40000000000009
 31
0.0
  0
ARC
  5
341F
330
3165
100
AcDbEntity
  8
Visible Edges(ISO)
100
AcDbCircle
 10
0.0000000000001137
 20
50.0
 30
0.0
 40
29.3999999999998
100
AcDbArc
 50
90.0
 51
270.0
  0
LINE
  5
3420
330
3165
100
AcDbEntity
  8
Visible Edges(ISO)
100
AcDbLine
 10
0.0000000000001421
 20
20.60000000000014
 30
0.0
 11
0.0000000000001421
 21
19.80000000000018
 31
0.0
  0
ARC
  5
3421
330
3165
100
AcDbEntity
  8
Visible Edges(ISO)
100
AcDbCircle
 10
0.0000000000001137
 20
50.0
 30
0.0
 40
30.19999999999978
100
AcDbArc
 50
90.0
 51
270.0
  0
LINE
  5
3422
330
3165
100
AcDbEntity
  8
Visible Edges(ISO)
100
AcDbLine
 10
-17.1473029949318
 20
-9.899999999999863
 30
0.0
 11
-17.84012331795935
 21
-10.29999999999995
 31
0.0
  0
ARC
  5
3423
330
3165
100
AcDbEntity
  8
Visible Edges(ISO)
100
AcDbCircle
 10
-43.30127018922195
 20
-25.0
 30
0.0
 40
29.40000000000008
100
AcDbArc
 50
29.99999999999972
 51
209.9999999999997
  0
LINE
  5
3424
330
3165
100
AcDbEntity
  8
Visible Edges(ISO)
100
AcDbLine
 10
-68.76241706048458
 20
-39.69999999999982
 30
0.0
 11
-69.45523738351211
 21
-40.0999999999999
 31
0.0
  0
ARC
  5
3425
330
3165
100
AcDbEntity
  8
Visible Edges(ISO)
100
AcDbCircle
 10
-43.30127018922195
 20
-25.0
 30
0.0
 40
30.20000000000007
100
AcDbArc
 50
29.99999999999972
 51
209.9999999999997
  0
LINE
  5
3426
330
3165
100
AcDbEntity
  8
Visible Edges(ISO)
100
AcDbLine
 10
70.14805770653921
 20
-40.49999999999999
 30
0.0
 11
69.4552373835117
 21
-40.0999999999999
 31
0.0
  0
ARC
  5
3427
330
3165
100
AcDbEntity
  8
Visible Edges(ISO)
100
AcDbCircle
 10
43.30127018922181
 20
-25.0
 30
0.0
 40
30.19999999999978
100
AcDbArc
 50
330.0000000000003
 51
150.0000000000003
  0
LINE
  5
3428
330
3165
100
AcDbEntity
  8
Visible Edges(ISO)
100
AcDbLine
 10
17.14730299493192
 20
-9.899999999999863
 30
0.0
 11
16.45448267190443
 21
-9.5
 31
0.0
  0
ARC
  5
3429
330
3165
100
AcDbEntity
  8
Visible Edges(ISO)
100
AcDbCircle
 10
43.30127018922181
 20
-25.0
 30
0.0
 40
30.99999999999977
100
AcDbArc
 50
330.0000000000003
 51
150.0000000000003
  0
LINE
  5
342A
330
3165
100
AcDbEntity
  8
Visible Edges(ISO)
100
AcDbLine
 10
-0.000000000000199
 20
19.0
 30
0.0
 11
-0.0000000000001705
 21
19.80000000000018
 31
0.0
  0
ARC
  5
342B
330
3165
100
AcDbEntity
  8
Visible Edges(ISO)
100
AcDbCircle
 10
-0.0000000000001137
 20
50.0
 30
0.0
 40
30.20000000000007
100
AcDbArc
 50
270.0
 51
90.0
  0
LINE
  5
342C
330
3165
100
AcDbEntity
  8
Visible Edges(ISO)
100
AcDbLine
 10
0.0
 20
80.20000000000004
 30
0.0
 11
0.0000000000000284
 21
81.0
 31
0.0
  0
ARC
  5
342D
330
3165
100
AcDbEntity
  8
Visible Edges(ISO)
100
AcDbCircle
 10
-0.0000000000001137
 20
50.0
 30
0.0
 40
31.00000000000007
100
AcDbArc
 50
270.0
 51
90.0
  0
LINE
  5
342E
330
3165
100
AcDbEntity
  8
Visible Edges(ISO)
100
AcDbLine
 10
-70.14805770653932
 20
-40.49999999999999
 30
0.0
 11
-69.45523738351177
 21
-40.0999999999999
 31
0.0
  0
ARC
  5
342F
330
3165
100
AcDbEntity
  8
Visible Edges(ISO)
100
AcDbCircle
 10
-43.30127018922195
 20
-25.0
 30
0.0
 40
30.19999999999978
100
AcDbArc
 50
209.9999999999997
 51
29.99999999999972
  0
LINE
  5
3430
330
3165
100
AcDbEntity
  8
Visible Edges(ISO)
100
AcDbLine
 10
-17.14730299493209
 20
-9.899999999999863
 30
0.0
 11
-16.45448267190454
 21
-9.5
 31
0.0
  0
ARC
  5
3431
330
3165
100
AcDbEntity
  8
Visible Edges(ISO)
100
AcDbCircle
 10
-43.30127018922195
 20
-25.0
 30
0.0
 40
30.99999999999977
100
AcDbArc
 50
209.9999999999997
 51
29.99999999999972
  0
LINE
  5
3432
330
3165
100
AcDbEntity
  8
Visible Edges(ISO)
100
AcDbLine
 10
16.45448267190443
 20
-9.5
 30
0.0
 11
17.14730299493192
 21
-9.899999999999863
 31
0.0
  0
ARC
  5
3433
330
3165
100
AcDbEntity
  8
Visible Edges(ISO)
100
AcDbCircle
 10
43.30127018922204
 20
-25.0
 30
0.0
 40
30.20000000000007
100
AcDbArc
 50
150.0000000000003
 51
330.0000000000003
  0
LINE
  5
3434
330
3165
100
AcDbEntity
  8
Visible Edges(ISO)
100
AcDbLine
 10
69.4552373835121
 20
-40.0999999999999
 30
0.0
 11
70.14805770653961
 21
-40.49999999999999
 31
0.0
  0
ARC
  5
3435
330
3165
100
AcDbEntity
  8
Visible Edges(ISO)
100
AcDbCircle
 10
43.30127018922204
 20
-25.0
 30
0.0
 40
31.00000000000008
100
AcDbArc
 50
150.0000000000003
 51
330.0000000000003
  0
LINE
  5
3436
330
3165
100
AcDbEntity
  8
Visible Edges(ISO)
100
AcDbLine
 10
0.0000000000000853
 20
81.0
 30
0.0
 11
0.0000000000000853
 21
80.20000000000004
 31
0.0
  0
ARC
  5
3437
330
3165
100
AcDbEntity
  8
Visible Edges(ISO)
100
AcDbCircle
 10
0.0000000000001421
 20
50.0
 30
0.0
 40
30.19999999999978
100
AcDbArc
 50
90.0
 51
270.0
  0
LINE
  5
3438
330
3165
100
AcDbEntity
  8
Visible Edges(ISO)
100
AcDbLine
 10
0.0000000000001705
 20
19.80000000000018
 30
0.0
 11
0.0000000000001705
 21
19.0
 31
0.0
  0
ARC
  5
3439
330
3165
100
AcDbEntity
  8
Visible Edges(ISO)
100
AcDbCircle
 10
0.0000000000001421
 20
50.0
 30
0.0
 40
30.99999999999978
100
AcDbArc
 50
90.0
 51
270.0
  0
LINE
  5
343A
330
3165
100
AcDbEntity
  8
Visible Edges(ISO)
100
AcDbLine
 10
-16.45448267190423
 20
-9.5
 30
0.0
 11
-17.1473029949318
 21
-9.899999999999863
 31
0.0
  0
ARC
  5
343B
330
3165
100
AcDbEntity
  8
Visible Edges(ISO)
100
AcDbCircle
 10
-43.30127018922195
 20
-25.0
 30
0.0
 40
30.20000000000008
100
AcDbArc
 50
29.99999999999972
 51
209.9999999999997
  0
LINE
  5
343C
330
3165
100
AcDbEntity
  8
Visible Edges(ISO)
100
AcDbLine
 10
-69.4552373835121
 20
-40.0999999999999
 30
0.0
 11
-70.14805770653968
 21
-40.49999999999999
 31
0.0
  0
ARC
  5
343D
330
3165
100
AcDbEntity
  8
Visible Edges(ISO)
100
AcDbCircle
 10
-43.30127018922195
 20
-25.0
 30
0.0
 40
31.00000000000008
100
AcDbArc
 50
29.99999999999972
 51
209.9999999999997
  0
LINE
  5
343E
330
3165
100
AcDbEntity
  8
Visible Edges(ISO)
100
AcDbLine
 10
70.8408780295668
 20
-40.89999999999986
 30
0.0
 11
70.14805770653921
 21
-40.49999999999999
 31
0.0
  0
ARC
  5
343F
330
3165
100
AcDbEntity
  8
Visible Edges(ISO)
100
AcDbCircle
 10
43.30127018922181
 20
-25.0
 30
0.0
 40
30.99999999999976
100
AcDbArc
 50
330.0000000000003
 51
150.0000000000003
  0
LINE
  5
3440
330
3165
100
AcDbEntity
  8
Visible Edges(ISO)
100
AcDbLine
 10
16.45448267190443
 20
-9.5
 30
0.0
 11
15.76166234887682
 21
-9.099999999999909
 31
0.0
  0
ARC
  5
3441
330
3165
100
AcDbEntity
  8
Visible Edges(ISO)
100
AcDbCircle
 10
43.30127018922181
 20
-25.0
 30
0.0
 40
31.79999999999977
100
AcDbArc
 50
330.0000000000003
 51
150.0000000000003
  0
LINE
  5
3442
330
3165
100
AcDbEntity
  8
Visible Edges(ISO)
100
AcDbLine
 10
-0.0000000000001137
 20
18.20000000000004
 30
0.0
 11
-0.0000000000001137
 21
19.0
 31
0.0
  0
ARC
  5
3443
330
3165
100
AcDbEntity
  8
Visible Edges(ISO)
100
AcDbCircle
 10
-0.0000000000000284
 20
50.0
 30
0.0
 40
31.00000000000006
100
AcDbArc
 50
270.0
 51
90.0
  0
LINE
  5
3444
330
3165
100
AcDbEntity
  8
Visible Edges(ISO)
100
AcDbLine
 10
0.0000000000000853
 20
81.0
 30
0.0
 11
0.0000000000000853
 21
81.80000000000019
 31
0.0
  0
ARC
  5
3445
330
3165
100
AcDbEntity
  8
Visible Edges(ISO)
100
AcDbCircle
 10
-0.0000000000000284
 20
50.0
 30
0.0
 40
31.80000000000006
100
AcDbArc
 50
270.0
 51
90.0
  0
LINE
  5
3446
330
3165
100
AcDbEntity
  8
Visible Edges(ISO)
100
AcDbLine
 10
-70.84087802956678
 20
-40.89999999999986
 30
0.0
 11
-70.14805770653921
 21
-40.49999999999999
 31
0.0
  0
ARC
  5
3447
330
3165
100
AcDbEntity
  8
Visible Edges(ISO)
100
AcDbCircle
 10
-43.30127018922186
 20
-25.0
 30
0.0
 40
30.99999999999976
100
AcDbArc
 50
209.9999999999997
 51
29.99999999999972
  0
LINE
  5
3448
330
3165
100
AcDbEntity
  8
Visible Edges(ISO)
100
AcDbLine
 10
-16.45448267190448
 20
-9.5
 30
0.0
 11
-15.76166234887694
 21
-9.099999999999909
 31
0.0
  0
ARC
  5
3449
330
3165
100
AcDbEntity
  8
Visible Edges(ISO)
100
AcDbCircle
 10
-43.30127018922186
 20
-25.0
 30
0.0
 40
31.79999999999977
100
AcDbArc
 50
209.9999999999997
 51
29.99999999999972
  0
LINE
  5
344A
330
3165
100
AcDbEntity
  8
Visible Edges(ISO)
100
AcDbLine
 10
15.76166234887682
 20
-9.099999999999909
 30
0.0
 11
16.45448267190443
 21
-9.5
 31
0.0
  0
ARC
  5
344B
330
3165
100
AcDbEntity
  8
Visible Edges(ISO)
100
AcDbCircle
 10
43.30127018922204
 20
-25.0
 30
0.0
 40
31.00000000000007
100
AcDbArc
 50
150.0000000000003
 51
330.0000000000003
  0
LINE
  5
344C
330
3165
100
AcDbEntity
  8
Visible Edges(ISO)
100
AcDbLine
 10
70.14805770653961
 20
-40.49999999999999
 30
0.0
 11
70.84087802956722
 21
-40.89999999999986
 31
0.0
  0
ARC
  5
344D
330
3165
100
AcDbEntity
  8
Visible Edges(ISO)
100
AcDbCircle
 10
43.30127018922204
 20
-25.0
 30
0.0
 40
31.80000000000007
100
AcDbArc
 50
150.0000000000003
 51
330.0000000000003
  0
LINE
  5
344E
330
3165
100
AcDbEntity
  8
Visible Edges(ISO)
100
AcDbLine
 10
0.0000000000000284
 20
81.80000000000019
 30
0.0
 11
0.0000000000000284
 21
81.0
 31
0.0
  0
ARC
  5
344F
330
3165
100
AcDbEntity
  8
Visible Edges(ISO)
100
AcDbCircle
 10
0.0000000000000284
 20
50.0
 30
0.0
 40
30.99999999999976
100
AcDbArc
 50
90.0
 51
270.0
  0
LINE
  5
3450
330
3165
100
AcDbEntity
  8
Visible Edges(ISO)
100
AcDbLine
 10
0.0000000000000853
 20
19.0
 30
0.0
 11
0.0000000000000853
 21
18.20000000000004
 31
0.0
  0
ARC
  5
3451
330
3165
100
AcDbEntity
  8
Visible Edges(ISO)
100
AcDbCircle
 10
0.0000000000000284
 20
50.0
 30
0.0
 40
31.79999999999977
100
AcDbArc
 50
90.0
 51
270.0
  0
LINE
  5
3452
330
3165
100
AcDbEntity
  8
Visible Edges(ISO)
100
AcDbLine
 10
-15.76166234887677
 20
-9.099999999999909
 30
0.0
 11
-16.45448267190431
 21
-9.5
 31
0.0
  0
ARC
  5
3453
330
3165
100
AcDbEntity
  8
Visible Edges(ISO)
100
AcDbCircle
 10
-43.30127018922204
 20
-25.0
 30
0.0
 40
31.00000000000007
100
AcDbArc
 50
29.99999999999972
 51
209.9999999999997
  0
LINE
  5
3454
330
3165
100
AcDbEntity
  8
Visible Edges(ISO)
100
AcDbLine
 10
-70.14805770653976
 20
-40.49999999999999
 30
0.0
 11
-70.84087802956735
 21
-40.89999999999986
 31
0.0
  0
ARC
  5
3455
330
3165
100
AcDbEntity
  8
Visible Edges(ISO)
100
AcDbCircle
 10
-43.30127018922204
 20
-25.0
 30
0.0
 40
31.80000000000007
100
AcDbArc
 50
29.99999999999972
 51
209.9999999999997
  0
LINE
  5
3456
330
3165
100
AcDbEntity
  8
Visible Edges(ISO)
100
AcDbLine
 10
71.53369835259439
 20
-41.29999999999995
 30
0.0
 11
70.84087802956671
 21
-40.89999999999986
 31
0.0
  0
ARC
  5
3457
330
3165
100
AcDbEntity
  8
Visible Edges(ISO)
100
AcDbCircle
 10
43.30127018922181
 20
-25.0
 30
0.0
 40
31.79999999999978
100
AcDbArc
 50
330.0000000000003
 51
150.0000000000003
  0
LINE
  5
3458
330
3165
100
AcDbEntity
  8
Visible Edges(ISO)
100
AcDbLine
 10
15.76166234887682
 20
-9.099999999999909
 30
0.0
 11
15.06884202584933
 21
-8.699999999999818
 31
0.0
  0
ARC
  5
3459
330
3165
100
AcDbEntity
  8
Visible Edges(ISO)
100
AcDbCircle
 10
43.30127018922181
 20
-25.0
 30
0.0
 40
32.59999999999978
100
AcDbArc
 50
330.0000000000003
 51
150.0000000000003
  0
LINE
  5
345A
330
3165
100
AcDbEntity
  8
Visible Edges(ISO)
100
AcDbLine
 10
-0.0000000000001705
 20
17.40000000000009
 30
0.0
 11
-0.0000000000001705
 21
18.20000000000004
 31
0.0
  0
ARC
  5
345B
330
3165
100
AcDbEntity
  8
Visible Edges(ISO)
100
AcDbCircle
 10
-0.0000000000000568
 20
50.0
 30
0.0
 40
31.80000000000009
100
AcDbArc
 50
270.0
 51
90.0
  0
LINE
  5
345C
330
3165
100
AcDbEntity
  8
Visible Edges(ISO)
100
AcDbLine
 10
0.0000000000000284
 20
81.80000000000019
 30
0.0
 11
0.0000000000000284
 21
82.60000000000012
 31
0.0
  0
ARC
  5
345D
330
3165
100
AcDbEntity
  8
Visible Edges(ISO)
100
AcDbCircle
 10
-0.0000000000000568
 20
50.0
 30
0.0
 40
32.6000000000001
100
AcDbArc
 50
270.0
 51
90.0
  0
LINE
  5
345E
330
3165
100
AcDbEntity
  8
Visible Edges(ISO)
100
AcDbLine
 10
-71.53369835259443
 20
-41.29999999999995
 30
0.0
 11
-70.84087802956688
 21
-40.89999999999986
 31
0.0
  0
ARC
  5
345F
330
3165
100
AcDbEntity
  8
Visible Edges(ISO)
100
AcDbCircle
 10
-43.30127018922192
 20
-25.0
 30
0.0
 40
31.79999999999978
100
AcDbArc
 50
209.9999999999997
 51
29.99999999999972
  0
LINE
  5
3460
330
3165
100
AcDbEntity
  8
Visible Edges(ISO)
100
AcDbLine
 10
-15.76166234887699
 20
-9.099999999999909
 30
0.0
 11
-15.06884202584945
 21
-8.699999999999818
 31
0.0
  0
ARC
  5
3461
330
3165
100
AcDbEntity
  8
Visible Edges(ISO)
100
AcDbCircle
 10
-43.30127018922192
 20
-25.0
 30
0.0
 40
32.59999999999978
100
AcDbArc
 50
209.9999999999997
 51
29.99999999999972
  0
LINE
  5
3462
330
3165
100
AcDbEntity
  8
Visible Edges(ISO)
100
AcDbLine
 10
15.06884202584933
 20
-8.699999999999818
 30
0.0
 11
15.76166234887682
 21
-9.099999999999909
 31
0.0
  0
ARC
  5
3463
330
3165
100
AcDbEntity
  8
Visible Edges(ISO)
100
AcDbCircle
 10
43.30127018922204
 20
-25.0
 30
0.0
 40
31.80000000000009
100
AcDbArc
 50
150.0000000000003
 51
330.0000000000003
  0
LINE
  5
3464
330
3165
100
AcDbEntity
  8
Visible Edges(ISO)
100
AcDbLine
 10
70.84087802956722
 20
-40.89999999999986
 30
0.0
 11
71.53369835259486
 21
-41.29999999999995
 31
0.0
  0
ARC
  5
3465
330
3165
100
AcDbEntity
  8
Visible Edges(ISO)
100
AcDbCircle
 10
43.30127018922204
 20
-25.0
 30
0.0
 40
32.6000000000001
100
AcDbArc
 50
150.0000000000003
 51
330.0000000000003
  0
LINE
  5
3466
330
3165
100
AcDbEntity
  8
Visible Edges(ISO)
100
AcDbLine
 10
0.0000000000000568
 20
82.60000000000012
 30
0.0
 11
0.0000000000000568
 21
81.80000000000019
 31
0.0
  0
ARC
  5
3467
330
3165
100
AcDbEntity
  8
Visible Edges(ISO)
100
AcDbCircle
 10
0.0000000000001137
 20
50.0
 30
0.0
 40
31.79999999999978
100
AcDbArc
 50
90.0
 51
270.0
  0
LINE
  5
3468
330
3165
100
AcDbEntity
  8
Visible Edges(ISO)
100
AcDbLine
 10
0.0000000000001421
 20
18.20000000000004
 30
0.0
 11
0.0000000000001421
 21
17.40000000000009
 31
0.0
  0
ARC
  5
3469
330
3165
100
AcDbEntity
  8
Visible Edges(ISO)
100
AcDbCircle
 10
0.0000000000001137
 20
50.0
 30
0.0
 40
32.59999999999978
100
AcDbArc
 50
90.0
 51
270.0
  0
LINE
  5
346A
330
3165
100
AcDbEntity
  8
Visible Edges(ISO)
100
AcDbLine
 10
-15.06884202584911
 20
-8.699999999999818
 30
0.0
 11
-15.76166234887668
 21
-9.099999999999909
 31
0.0
  0
ARC
  5
346B
330
3165
100
AcDbEntity
  8
Visible Edges(ISO)
100
AcDbCircle
 10
-43.30127018922195
 20
-25.0
 30
0.0
 40
31.80000000000009
100
AcDbArc
 50
29.99999999999972
 51
209.9999999999997
  0
LINE
  5
346C
330
3165
100
AcDbEntity
  8
Visible Edges(ISO)
100
AcDbLine
 10
-70.84087802956728
 20
-40.89999999999986
 30
0.0
 11
-71.53369835259484
 21
-41.29999999999995
 31
0.0
  0
ARC
  5
346D
330
3165
100
AcDbEntity
  8
Visible Edges(ISO)
100
AcDbCircle
 10
-43.30127018922197
 20
-25.0
 30
0.0
 40
32.6000000000001
100
AcDbArc
 50
29.99999999999972
 51
209.9999999999997
  0
LINE
  5
346E
330
3165
100
AcDbEntity
  8
Visible Edges(ISO)
100
AcDbLine
 10
72.22651867562182
 20
-41.69999999999982
 30
0.0
 11
71.53369835259423
 21
-41.29999999999995
 31
0.0
  0
ARC
  5
346F
330
3165
100
AcDbEntity
  8
Visible Edges(ISO)
100
AcDbCircle
 10
43.30127018922181
 20
-25.0
 30
0.0
 40
32.59999999999969
100
AcDbArc
 50
330.0000000000003
 51
150.0000000000003
  0
LINE
  5
3470
330
3165
100
AcDbEntity
  8
Visible Edges(ISO)
100
AcDbLine
 10
15.06884202584945
 20
-8.699999999999818
 30
0.0
 11
14.37602170282182
 21
-8.300000000001091
 31
0.0
  0
ARC
  5
3471
330
3165
100
AcDbEntity
  8
Visible Edges(ISO)
100
AcDbCircle
 10
43.30127018922181
 20
-25.0
 30
0.0
 40
33.39999999999967
100
AcDbArc
 50
330.0000000000003
 51
150.0000000000003
  0
LINE
  5
3472
330
3165
100
AcDbEntity
  8
Visible Edges(ISO)
100
AcDbLine
 10
-0.0000000000001705
 20
16.60000000000013
 30
0.0
 11
-0.0000000000001705
 21
17.40000000000009
 31
0.0
  0
ARC
  5
3473
330
3165
100
AcDbEntity
  8
Visible Edges(ISO)
100
AcDbCircle
 10
-0.0000000000000568
 20
50.0
 30
0.0
 40
32.6
100
AcDbArc
 50
270.0
 51
90.0
  0
LINE
  5
3474
330
3165
100
AcDbEntity
  8
Visible Edges(ISO)
100
AcDbLine
 10
0.0000000000000284
 20
82.60000000000012
 30
0.0
 11
0.0000000000000284
 21
83.40000000000008
 31
0.0
  0
ARC
  5
3475
330
3165
100
AcDbEntity
  8
Visible Edges(ISO)
100
AcDbCircle
 10
-0.0000000000000568
 20
50.0
 30
0.0
 40
33.40000000000002
100
AcDbArc
 50
270.0
 51
90.0
  0
LINE
  5
3476
330
3165
100
AcDbEntity
  8
Visible Edges(ISO)
100
AcDbLine
 10
-72.22651867562188
 20
-41.69999999999982
 30
0.0
 11
-71.53369835259434
 21
-41.29999999999995
 31
0.0
  0
ARC
  5
3477
330
3165
100
AcDbEntity
  8
Visible Edges(ISO)
100
AcDbCircle
 10
-43.30127018922192
 20
-25.0
 30
0.0
 40
32.59999999999969
100
AcDbArc
 50
209.9999999999997
 51
29.99999999999972
  0
LINE
  5
3478
330
3165
100
AcDbEntity
  8
Visible Edges(ISO)
100
AcDbLine
 10
-15.06884202584953
 20
-8.699999999999818
 30
0.0
 11
-14.37602170282201
 21
-8.299999999999952
 31
0.0
  0
ARC
  5
3479
330
3165
100
AcDbEntity
  8
Visible Edges(ISO)
100
AcDbCircle
 10
-43.30127018922192
 20
-25.0
 30
0.0
 40
33.3999999999997
100
AcDbArc
 50
209.9999999999997
 51
29.99999999999972
  0
LINE
  5
347A
330
3165
100
AcDbEntity
  8
Visible Edges(ISO)
100
AcDbLine
 10
14.37602170282182
 20
-8.299999999999952
 30
0.0
 11
15.06884202584933
 21
-8.699999999999818
 31
0.0
  0
ARC
  5
347B
330
3165
100
AcDbEntity
  8
Visible Edges(ISO)
100
AcDbCircle
 10
43.30127018922204
 20
-25.0
 30
0.0
 40
32.6
100
AcDbArc
 50
150.0000000000003
 51
330.0000000000003
  0
LINE
  5
347C
330
3165
100
AcDbEntity
  8
Visible Edges(ISO)
100
AcDbLine
 10
71.53369835259463
 20
-41.29999999999995
 30
0.0
 11
72.22651867562223
 21
-41.69999999999982
 31
0.0
  0
ARC
  5
347D
330
3165
100
AcDbEntity
  8
Visible Edges(ISO)
100
AcDbCircle
 10
43.30127018922204
 20
-25.0
 30
0.0
 40
33.40000000000002
100
AcDbArc
 50
150.0000000000003
 51
330.0000000000003
  0
LINE
  5
347E
330
3165
100
AcDbEntity
  8
Visible Edges(ISO)
100
AcDbLine
 10
0.0000000000000568
 20
83.39999999999895
 30
0.0
 11
0.0000000000000568
 21
82.60000000000012
 31
0.0
  0
ARC
  5
347F
330
3165
100
AcDbEntity
  8
Visible Edges(ISO)
100
AcDbCircle
 10
0.0000000000001137
 20
50.0
 30
0.0
 40
32.59999999999969
100
AcDbArc
 50
90.0
 51
270.0
  0
LINE
  5
3480
330
3165
100
AcDbEntity
  8
Visible Edges(ISO)
100
AcDbLine
 10
0.0000000000001421
 20
17.40000000000009
 30
0.0
 11
0.0000000000001421
 21
16.60000000000013
 31
0.0
  0
ARC
  5
3481
330
3165
100
AcDbEntity
  8
Visible Edges(ISO)
100
AcDbCircle
 10
0.0000000000001137
 20
50.0
 30
0.0
 40
33.3999999999997
100
AcDbArc
 50
90.0
 51
270.0
  0
LINE
  5
3482
330
3165
100
AcDbEntity
  8
Visible Edges(ISO)
100
AcDbLine
 10
-14.37602170282167
 20
-8.299999999999952
 30
0.0
 11
-15.06884202584922
 21
-8.699999999999818
 31
0.0
  0
ARC
  5
3483
330
3165
100
AcDbEntity
  8
Visible Edges(ISO)
100
AcDbCircle
 10
-43.30127018922195
 20
-25.0
 30
0.0
 40
32.60000000000001
100
AcDbArc
 50
29.99999999999972
 51
209.9999999999997
  0
LINE
  5
3484
330
3165
100
AcDbEntity
  8
Visible Edges(ISO)
100
AcDbLine
 10
-71.53369835259474
 20
-41.29999999999995
 30
0.0
 11
-72.22651867562226
 21
-41.69999999999982
 31
0.0
  0
ARC
  5
3485
330
3165
100
AcDbEntity
  8
Visible Edges(ISO)
100
AcDbCircle
 10
-43.30127018922195
 20
-25.0
 30
0.0
 40
33.40000000000002
100
AcDbArc
 50
29.99999999999972
 51
209.9999999999997
  0
LINE
  5
3486
330
3165
100
AcDbEntity
  8
Visible Edges(ISO)
100
AcDbLine
 10
72.91933899864938
 20
-42.0999999999999
 30
0.0
 11
72.22651867562182
 21
-41.69999999999982
 31
0.0
  0
ARC
  5
3487
330
3165
100
AcDbEntity
  8
Visible Edges(ISO)
100
AcDbCircle
 10
43.30127018922181
 20
-25.0
 30
0.0
 40
33.39999999999965
100
AcDbArc
 50
330.0000000000003
 51
150.0000000000003
  0
LINE
  5
3488
330
3165
100
AcDbEntity
  8
Visible Edges(ISO)
100
AcDbLine
 10
14.37602170282182
 20
-8.299999999999952
 30
0.0
 11
13.68320137979432
 21
-7.899999999999861
 31
0.0
  0
ARC
  5
3489
330
3165
100
AcDbEntity
  8
Visible Edges(ISO)
100
AcDbCircle
 10
43.30127018922181
 20
-25.0
 30
0.0
 40
34.19999999999965
100
AcDbArc
 50
330.0000000000003
 51
150.0000000000003
  0
LINE
  5
348A
330
3165
100
AcDbEntity
  8
Visible Edges(ISO)
100
AcDbLine
 10
-0.0000000000001137
 20
15.80000000000018
 30
0.0
 11
-0.0000000000001137
 21
16.60000000000013
 31
0.0
  0
ARC
  5
348B
330
3165
100
AcDbEntity
  8
Visible Edges(ISO)
100
AcDbCircle
 10
-0.0000000000000284
 20
50.0
 30
0.0
 40
33.39999999999998
100
AcDbArc
 50
270.0
 51
90.0
  0
LINE
  5
348C
330
3165
100
AcDbEntity
  8
Visible Edges(ISO)
100
AcDbLine
 10
0.0000000000000853
 20
83.40000000000008
 30
0.0
 11
0.0000000000000853
 21
84.20000000000005
 31
0.0
  0
ARC
  5
348D
330
3165
100
AcDbEntity
  8
Visible Edges(ISO)
100
AcDbCircle
 10
-0.0000000000000284
 20
50.0
 30
0.0
 40
34.19999999999998
100
AcDbArc
 50
270.0
 51
90.0
  0
LINE
  5
348E
330
3165
100
AcDbEntity
  8
Visible Edges(ISO)
100
AcDbLine
 10
-72.91933899864938
 20
-42.0999999999999
 30
0.0
 11
-72.22651867562184
 21
-41.69999999999982
 31
0.0
  0
ARC
  5
348F
330
3165
100
AcDbEntity
  8
Visible Edges(ISO)
100
AcDbCircle
 10
-43.3012701892219
 20
-25.0
 30
0.0
 40
33.39999999999966
100
AcDbArc
 50
209.9999999999997
 51
29.99999999999972
  0
LINE
  5
3490
330
3165
100
AcDbEntity
  8
Visible Edges(ISO)
100
AcDbLine
 10
-14.37602170282199
 20
-8.299999999999952
 30
0.0
 11
-13.68320137979441
 21
-7.899999999999861
 31
0.0
  0
ARC
  5
3491
330
3165
100
AcDbEntity
  8
Visible Edges(ISO)
100
AcDbCircle
 10
-43.3012701892219
 20
-25.0
 30
0.0
 40
34.19999999999966
100
AcDbArc
 50
209.9999999999997
 51
29.99999999999972
  0
LINE
  5
3492
330
3165
100
AcDbEntity
  8
Visible Edges(ISO)
100
AcDbLine
 10
13.68320137979424
 20
-7.899999999999861
 30
0.0
 11
14.37602170282182
 21
-8.299999999999952
 31
0.0
  0
ARC
  5
3493
330
3165
100
AcDbEntity
  8
Visible Edges(ISO)
100
AcDbCircle
 10
43.30127018922204
 20
-25.0
 30
0.0
 40
33.39999999999998
100
AcDbArc
 50
150.0000000000003
 51
330.0000000000003
  0
LINE
  5
3494
330
3165
100
AcDbEntity
  8
Visible Edges(ISO)
100
AcDbLine
 10
72.22651867562223
 20
-41.69999999999982
 30
0.0
 11
72.91933899864972
 21
-42.0999999999999
 31
0.0
  0
ARC
  5
3495
330
3165
100
AcDbEntity
  8
Visible Edges(ISO)
100
AcDbCircle
 10
43.30127018922204
 20
-25.0
 30
0.0
 40
34.19999999999999
100
AcDbArc
 50
150.0000000000003
 51
330.0000000000003
  0
LINE
  5
3496
330
3165
100
AcDbEntity
  8
Visible Edges(ISO)
100
AcDbLine
 10
0.0000000000000284
 20
84.20000000000005
 30
0.0
 11
0.0000000000000284
 21
83.39999999999895
 31
0.0
  0
ARC
  5
3497
330
3165
100
AcDbEntity
  8
Visible Edges(ISO)
100
AcDbCircle
 10
0.0000000000000568
 20
50.0
 30
0.0
 40
33.39999999999966
100
AcDbArc
 50
90.0
 51
270.0
  0
LINE
  5
3498
330
3165
100
AcDbEntity
  8
Visible Edges(ISO)
100
AcDbLine
 10
0.0000000000001137
 20
16.60000000000013
 30
0.0
 11
0.0000000000001137
 21
15.80000000000018
 31
0.0
  0
ARC
  5
3499
330
3165
100
AcDbEntity
  8
Visible Edges(ISO)
100
AcDbCircle
 10
0.0000000000000568
 20
50.0
 30
0.0
 40
34.19999999999966
100
AcDbArc
 50
90.0
 51
270.0
  0
LINE
  5
349A
330
3165
100
AcDbEntity
  8
Visible Edges(ISO)
100
AcDbLine
 10
-13.68320137979418
 20
-7.899999999999861
 30
0.0
 11
-14.37602170282169
 21
-8.299999999999952
 31
0.0
  0
ARC
  5
349B
330
3165
100
AcDbEntity
  8
Visible Edges(ISO)
100
AcDbCircle
 10
-43.301270189222
 20
-25.0
 30
0.0
 40
33.39999999999998
100
AcDbArc
 50
29.99999999999972
 51
209.9999999999997
  0
LINE
  5
349C
330
3165
100
AcDbEntity
  8
Visible Edges(ISO)
100
AcDbLine
 10
-72.2265186756223
 20
-41.69999999999982
 30
0.0
 11
-72.91933899864985
 21
-42.0999999999999
 31
0.0
  0
ARC
  5
349D
330
3165
100
AcDbEntity
  8
Visible Edges(ISO)
100
AcDbCircle
 10
-43.301270189222
 20
-25.0
 30
0.0
 40
34.19999999999999
100
AcDbArc
 50
29.99999999999972
 51
209.9999999999997
  0
LINE
  5
349E
330
3165
100
AcDbEntity
  8
Visible Edges(ISO)
100
AcDbLine
 10
73.61215932167704
 20
-42.5
 30
0.0
 11
72.91933899864943
 21
-42.0999999999999
 31
0.0
  0
ARC
  5
349F
330
3165
100
AcDbEntity
  8
Visible Edges(ISO)
100
AcDbCircle
 10
43.30127018922181
 20
-25.0
 30
0.0
 40
34.19999999999975
100
AcDbArc
 50
330.0000000000003
 51
150.0000000000003
  0
LINE
  5
34A0
330
3165
100
AcDbEntity
  8
Visible Edges(ISO)
100
AcDbLine
 10
13.68320137979424
 20
-7.899999999999861
 30
0.0
 11
12.99038105676664
 21
-7.5
 31
0.0
  0
ARC
  5
34A1
330
3165
100
AcDbEntity
  8
Visible Edges(ISO)
100
AcDbCircle
 10
43.30127018946869
 20
-25.00000000014393
 30
0.0
 40
35.00000000028555
100
AcDbArc
 50
149.5130611679126
 51
149.9999999999994
  0
ARC
  5
34A2
330
3165
100
AcDbEntity
  8
Visible Edges(ISO)
100
AcDbCircle
 10
43.30127018896373
 20
-24.99999999985312
 30
0.0
 40
35.00000000029712
100
AcDbArc
 50
330.0000000000003
 51
330.4869388320822
  0
LINE
  5
34A3
330
3165
100
AcDbEntity
  8
Visible Edges(ISO)
100
AcDbLine
 10
-0.0000000000001705
 20
15.0
 30
0.0
 11
-0.0000000000001705
 21
15.80000000000018
 31
0.0
  0
ARC
  5
34A4
330
3165
100
AcDbEntity
  8
Visible Edges(ISO)
100
AcDbCircle
 10
-0.0000000000000568
 20
50.0
 30
0.0
 40
34.20000000000007
100
AcDbArc
 50
270.0
 51
90.0
  0
LINE
  5
34A5
330
3165
100
AcDbEntity
  8
Visible Edges(ISO)
100
AcDbLine
 10
0.0000000000000853
 20
84.20000000000005
 30
0.0
 11
0.0000000000000853
 21
85.0
 31
0.0
  0
ARC
  5
34A6
330
3165
100
AcDbEntity
  8
Visible Edges(ISO)
100
AcDbCircle
 10
-0.0000000000012506
 20
49.99999999978013
 30
0.0
 40
35.00000000022005
100
AcDbArc
 50
89.51306116791442
 51
89.99999999999673
  0
ARC
  5
34A7
330
3165
100
AcDbEntity
  8
Visible Edges(ISO)
100
AcDbCircle
 10
-0.0000000000012506
 20
50.00000000029785
 30
0.0
 40
35.00000000029789
100
AcDbArc
 50
270.0000000000017
 51
270.4869388320839
  0
LINE
  5
34A8
330
3165
100
AcDbEntity
  8
Visible Edges(ISO)
100
AcDbLine
 10
-73.61215932167701
 20
-42.5
 30
0.0
 11
-72.91933899864948
 21
-42.0999999999999
 31
0.0
  0
ARC
  5
34A9
330
3165
100
AcDbEntity
  8
Visible Edges(ISO)
100
AcDbCircle
 10
-43.3012701892219
 20
-25.0
 30
0.0
 40
34.19999999999975
100
AcDbArc
 50
209.9999999999997
 51
29.99999999999972
  0
LINE
  5
34AA
330
3165
100
AcDbEntity
  8
Visible Edges(ISO)
100
AcDbLine
 10
-13.68320137979435
 20
-7.899999999999861
 30
0.0
 11
-12.99038105676681
 21
-7.5
 31
0.0
  0
ARC
  5
34AB
330
3165
100
AcDbEntity
  8
Visible Edges(ISO)
100
AcDbCircle
 10
-43.30127018947638
 20
-25.00000000014598
 30
0.0
 40
35.00000000029287
100
AcDbArc
 50
29.5130611679179
 51
29.99999999999972
  0
ARC
  5
34AC
330
3165
100
AcDbEntity
  8
Visible Edges(ISO)
100
AcDbCircle
 10
-43.30127018896765
 20
-24.99999999985198
 30
0.0
 40
35.00000000029408
100
AcDbArc
 50
210.0000000000005
 51
210.4869388320874
  0
LINE
  5
34AD
330
3165
100
AcDbEntity
  8
Visible Edges(ISO)
100
AcDbLine
 10
12.99038105676664
 20
-7.5
 30
0.0
 11
13.68320137979412
 21
-7.899999999999861
 31
0.0
  0
ARC
  5
34AE
330
3165
100
AcDbEntity
  8
Visible Edges(ISO)
100
AcDbCircle
 10
43.30127018922204
 20
-25.0
 30
0.0
 40
34.20000000000007
100
AcDbArc
 50
150.0000000000003
 51
330.0000000000003
  0
LINE
  5
34AF
330
3165
100
AcDbEntity
  8
Visible Edges(ISO)
100
AcDbLine
 10
72.91933899864982
 20
-42.0999999999999
 30
0.0
 11
73.61215932167744
 21
-42.5
 31
0.0
  0
ARC
  5
34B0
330
3165
100
AcDbEntity
  8
Visible Edges(ISO)
100
AcDbCircle
 10
43.30127018901942
 20
-24.99999999988222
 30
0.0
 40
35.0000000002347
100
AcDbArc
 50
329.5130611679126
 51
329.9999999999995
  0
ARC
  5
34B1
330
3165
100
AcDbEntity
  8
Visible Edges(ISO)
100
AcDbCircle
 10
43.30127018947972
 20
-25.00000000014711
 30
0.0
 40
35.00000000029699
100
AcDbArc
 50
150.0000000000003
 51
150.4869388320821
  0
LINE
  5
34B2
330
3165
100
AcDbEntity
  8
Visible Edges(ISO)
100
AcDbLine
 10
0.0000000000000284
 20
85.0
 30
0.0
 11
0.0000000000000284
 21
84.20000000000005
 31
0.0
  0
ARC
  5
34B3
330
3165
100
AcDbEntity
  8
Visible Edges(ISO)
100
AcDbCircle
 10
0.0000000000000568
 20
50.0
 30
0.0
 40
34.19999999999975
100
AcDbArc
 50
90.0
 51
270.0
  0
LINE
  5
34B4
330
3165
100
AcDbEntity
  8
Visible Edges(ISO)
100
AcDbLine
 10
0.0000000000001137
 20
15.80000000000018
 30
0.0
 11
0.0000000000001137
 21
15.0
 31
0.0
  0
ARC
  5
34B5
330
3165
100
AcDbEntity
  8
Visible Edges(ISO)
100
AcDbCircle
 10
0.0000000000013074
 20
50.00000000029307
 30
0.0
 40
35.00000000029287
100
AcDbArc
 50
269.5130611679161
 51
269.9999999999984
  0
ARC
  5
34B6
330
3165
100
AcDbEntity
  8
Visible Edges(ISO)
100
AcDbCircle
 10
0.0000000000013358
 20
49.99999999970191
 30
0.0
 40
35.00000000029756
100
AcDbArc
 50
90.00000000000325
 51
90.48693883208557
  0
LINE
  5
34B7
330
3165
100
AcDbEntity
  8
Visible Edges(ISO)
100
AcDbLine
 10
-12.99038105676649
 20
-7.5
 30
0.0
 11
-13.68320137979404
 21
-7.899999999999861
 31
0.0
  0
ARC
  5
34B8
330
3165
100
AcDbEntity
  8
Visible Edges(ISO)
100
AcDbCircle
 10
-43.30127018922197
 20
-25.0
 30
0.0
 40
34.20000000000007
100
AcDbArc
 50
29.99999999999972
 51
209.9999999999997
  0
LINE
  5
34B9
330
3165
100
AcDbEntity
  8
Visible Edges(ISO)
100
AcDbLine
 10
-72.91933899864993
 20
-42.0999999999999
 30
0.0
 11
-73.61215932167747
 21
-42.5
 31
0.0
  0
ARC
  5
34BA
330
3165
100
AcDbEntity
  8
Visible Edges(ISO)
100
AcDbCircle
 10
-43.30127018901818
 20
-24.99999999988404
 30
0.0
 40
35.0000000002347
100
AcDbArc
 50
209.5130611679179
 51
209.9999999999997
  0
ARC
  5
34BB
330
3165
100
AcDbEntity
  8
Visible Edges(ISO)
100
AcDbCircle
 10
-43.30127018927231
 20
-25.00000000003002
 30
0.0
 40
35.00000000005863
100
AcDbArc
 50
29.99999999999972
 51
30.48693883208742
  0
LINE
  5
34BC
330
3165
100
AcDbEntity
  8
Visible Edges(ISO)
100
AcDbLine
 10
66.68395609140151
 20
-38.5
 30
0.0
 11
65.99113576837402
 21
-38.0999999999999
 31
0.0
  0
ARC
  5
34BD
330
3165
100
AcDbEntity
  8
Visible Edges(ISO)
100
AcDbCircle
 10
43.30127018922181
 20
-25.0
 30
0.0
 40
26.19999999999989
100
AcDbArc
 50
330.0000000000003
 51
150.0000000000003
  0
LINE
  5
34BE
330
3165
100
AcDbEntity
  8
Visible Edges(ISO)
100
AcDbLine
 10
20.6114046100696
 20
-11.89999999999986
 30
0.0
 11
19.91858428704211
 21
-11.5
 31
0.0
  0
ARC
  5
34BF
330
3165
100
AcDbEntity
  8
Visible Edges(ISO)
100
AcDbCircle
 10
43.30127018922181
 20
-25.0
 30
0.0
 40
26.99999999999989
100
AcDbArc
 50
330.0000000000003
 51
150.0000000000003
  0
LINE
  5
34C0
330
3165
100
AcDbEntity
  8
Visible Edges(ISO)
100
AcDbLine
 10
-0.0000000000002274
 20
23.0
 30
0.0
 11
-0.0000000000002274
 21
23.80000000000018
 31
0.0
  0
ARC
  5
34C1
330
3165
100
AcDbEntity
  8
Visible Edges(ISO)
100
AcDbCircle
 10
-0.0000000000000568
 20
50.0
 30
0.0
 40
26.20000000000014
100
AcDbArc
 50
270.0
 51
90.0
  0
LINE
  5
34C2
330
3165
100
AcDbEntity
  8
Visible Edges(ISO)
100
AcDbLine
 10
0.0000000000001137
 20
76.20000000000004
 30
0.0
 11
0.0000000000001137
 21
77.0
 31
0.0
  0
ARC
  5
34C3
330
3165
100
AcDbEntity
  8
Visible Edges(ISO)
100
AcDbCircle
 10
-0.0000000000000568
 20
50.0
 30
0.0
 40
27.00000000000014
100
AcDbArc
 50
270.0
 51
90.0
  0
LINE
  5
34C4
330
3165
100
AcDbEntity
  8
Visible Edges(ISO)
100
AcDbLine
 10
-66.68395609140171
 20
-38.5
 30
0.0
 11
-65.99113576837415
 21
-38.0999999999999
 31
0.0
  0
ARC
  5
34C5
330
3165
100
AcDbEntity
  8
Visible Edges(ISO)
100
AcDbCircle
 10
-43.30127018922195
 20
-25.0
 30
0.0
 40
26.19999999999989
100
AcDbArc
 50
209.9999999999997
 51
29.99999999999972
  0
LINE
  5
34C6
330
3165
100
AcDbEntity
  8
Visible Edges(ISO)
100
AcDbLine
 10
-20.61140461006974
 20
-11.89999999999986
 30
0.0
 11
-19.91858428704216
 21
-11.5
 31
0.0
  0
ARC
  5
34C7
330
3165
100
AcDbEntity
  8
Visible Edges(ISO)
100
AcDbCircle
 10
-43.30127018922192
 20
-25.0
 30
0.0
 40
26.99999999999989
100
AcDbArc
 50
209.9999999999997
 51
29.99999999999972
  0
LINE
  5
34C8
330
3165
100
AcDbEntity
  8
Visible Edges(ISO)
100
AcDbLine
 10
19.91858428704211
 20
-11.5
 30
0.0
 11
20.61140461006971
 21
-11.89999999999986
 31
0.0
  0
ARC
  5
34C9
330
3165
100
AcDbEntity
  8
Visible Edges(ISO)
100
AcDbCircle
 10
43.30127018922204
 20
-25.0
 30
0.0
 40
26.20000000000015
100
AcDbArc
 50
150.0000000000003
 51
330.0000000000003
  0
LINE
  5
34CA
330
3165
100
AcDbEntity
  8
Visible Edges(ISO)
100
AcDbLine
 10
65.99113576837433
 20
-38.0999999999999
 30
0.0
 11
66.68395609140194
 21
-38.5
 31
0.0
  0
ARC
  5
34CB
330
3165
100
AcDbEntity
  8
Visible Edges(ISO)
100
AcDbCircle
 10
43.30127018922204
 20
-25.0
 30
0.0
 40
27.00000000000015
100
AcDbArc
 50
150.0000000000003
 51
330.0000000000003
  0
LINE
  5
34CC
330
3165
100
AcDbEntity
  8
Visible Edges(ISO)
100
AcDbLine
 10
0.0000000000001705
 20
77.0
 30
0.0
 11
0.0000000000001705
 21
76.20000000000004
 31
0.0
  0
ARC
  5
34CD
330
3165
100
AcDbEntity
  8
Visible Edges(ISO)
100
AcDbCircle
 10
0.0000000000001137
 20
50.0
 30
0.0
 40
26.19999999999989
100
AcDbArc
 50
90.0
 51
270.0
  0
LINE
  5
34CE
330
3165
100
AcDbEntity
  8
Visible Edges(ISO)
100
AcDbLine
 10
0.0000000000000284
 20
23.80000000000018
 30
0.0
 11
0.0000000000000284
 21
23.0
 31
0.0
  0
ARC
  5
34CF
330
3165
100
AcDbEntity
  8
Visible Edges(ISO)
100
AcDbCircle
 10
0.0000000000001137
 20
50.0
 30
0.0
 40
26.99999999999989
100
AcDbArc
 50
90.0
 51
270.0
  0
LINE
  5
34D0
330
3165
100
AcDbEntity
  8
Visible Edges(ISO)
100
AcDbLine
 10
-19.91858428704194
 20
-11.5
 30
0.0
 11
-20.61140461006946
 21
-11.89999999999986
 31
0.0
  0
ARC
  5
34D1
330
3165
100
AcDbEntity
  8
Visible Edges(ISO)
100
AcDbCircle
 10
-43.30127018922195
 20
-25.0
 30
0.0
 40
26.20000000000015
100
AcDbArc
 50
29.99999999999972
 51
209.9999999999997
  0
LINE
  5
34D2
330
3165
100
AcDbEntity
  8
Visible Edges(ISO)
100
AcDbLine
 10
-65.99113576837446
 20
-38.0999999999999
 30
0.0
 11
-66.68395609140202
 21
-38.5
 31
0.0
  0
ARC
  5
34D3
330
3165
100
AcDbEntity
  8
Visible Edges(ISO)
100
AcDbCircle
 10
-43.30127018922195
 20
-25.0
 30
0.0
 40
27.00000000000015
100
AcDbArc
 50
29.99999999999972
 51
209.9999999999997
  0
LINE
  5
34D4
330
3165
100
AcDbEntity
  8
Visible Edges(ISO)
100
AcDbLine
 10
65.99113576837392
 20
-38.0999999999999
 30
0.0
 11
65.29831544534641
 21
-37.69999999999982
 31
0.0
  0
ARC
  5
34D5
330
3165
100
AcDbEntity
  8
Visible Edges(ISO)
100
AcDbCircle
 10
43.30127018922181
 20
-25.0
 30
0.0
 40
25.39999999999981
100
AcDbArc
 50
330.0000000000003
 51
150.0000000000003
  0
LINE
  5
34D6
330
3165
100
AcDbEntity
  8
Visible Edges(ISO)
100
AcDbLine
 10
21.30422493309723
 20
-12.29999999999995
 30
0.0
 11
20.61140461006971
 21
-11.89999999999986
 31
0.0
  0
ARC
  5
34D7
330
3165
100
AcDbEntity
  8
Visible Edges(ISO)
100
AcDbCircle
 10
43.30127018922181
 20
-25.0
 30
0.0
 40
26.19999999999981
100
AcDbArc
 50
330.0000000000003
 51
150.0000000000003
  0
LINE
  5
34D8
330
3165
100
AcDbEntity
  8
Visible Edges(ISO)
100
AcDbLine
 10
-0.0000000000001705
 20
23.80000000000018
 30
0.0
 11
-0.0000000000001705
 21
24.60000000000014
 31
0.0
  0
ARC
  5
34D9
330
3165
100
AcDbEntity
  8
Visible Edges(ISO)
100
AcDbCircle
 10
-0.0000000000000568
 20
50.0
 30
0.0
 40
25.40000000000006
100
AcDbArc
 50
270.0
 51
90.0
  0
LINE
  5
34DA
330
3165
100
AcDbEntity
  8
Visible Edges(ISO)
100
AcDbLine
 10
0.0
 20
75.40000000000009
 30
0.0
 11
0.0
 21
76.20000000000004
 31
0.0
  0
ARC
  5
34DB
330
3165
100
AcDbEntity
  8
Visible Edges(ISO)
100
AcDbCircle
 10
-0.0000000000001137
 20
50.0
 30
0.0
 40
26.20000000000006
100
AcDbArc
 50
270.0
 51
90.0
  0
LINE
  5
34DC
330
3165
100
AcDbEntity
  8
Visible Edges(ISO)
100
AcDbLine
 10
-65.99113576837403
 20
-38.0999999999999
 30
0.0
 11
-65.29831544534649
 21
-37.69999999999982
 31
0.0
  0
ARC
  5
34DD
330
3165
100
AcDbEntity
  8
Visible Edges(ISO)
100
AcDbCircle
 10
-43.30127018922195
 20
-25.0
 30
0.0
 40
25.39999999999981
100
AcDbArc
 50
209.9999999999997
 51
29.99999999999972
  0
LINE
  5
34DE
330
3165
100
AcDbEntity
  8
Visible Edges(ISO)
100
AcDbLine
 10
-21.30422493309737
 20
-12.29999999999995
 30
0.0
 11
-20.61140461006983
 21
-11.89999999999986
 31
0.0
  0
ARC
  5
34DF
330
3165
100
AcDbEntity
  8
Visible Edges(ISO)
100
AcDbCircle
 10
-43.30127018922192
 20
-25.0
 30
0.0
 40
26.19999999999981
100
AcDbArc
 50
209.9999999999997
 51
29.99999999999972
  0
LINE
  5
34E0
330
3165
100
AcDbEntity
  8
Visible Edges(ISO)
100
AcDbLine
 10
20.61140461006971
 20
-11.89999999999986
 30
0.0
 11
21.30422493309731
 21
-12.29999999999904
 31
0.0
  0
ARC
  5
34E1
330
3165
100
AcDbEntity
  8
Visible Edges(ISO)
100
AcDbCircle
 10
43.30127018922204
 20
-25.0
 30
0.0
 40
25.40000000000006
100
AcDbArc
 50
150.0000000000003
 51
330.0000000000003
  0
LINE
  5
34E2
330
3165
100
AcDbEntity
  8
Visible Edges(ISO)
100
AcDbLine
 10
65.29831544534681
 20
-37.69999999999982
 30
0.0
 11
65.99113576837433
 21
-38.0999999999999
 31
0.0
  0
ARC
  5
34E3
330
3165
100
AcDbEntity
  8
Visible Edges(ISO)
100
AcDbCircle
 10
43.30127018922204
 20
-25.0
 30
0.0
 40
26.20000000000008
100
AcDbArc
 50
150.0000000000003
 51
330.0000000000003
  0
LINE
  5
34E4
330
3165
100
AcDbEntity
  8
Visible Edges(ISO)
100
AcDbLine
 10
0.0000000000000853
 20
76.20000000000004
 30
0.0
 11
0.0000000000000853
 21
75.40000000000009
 31
0.0
  0
ARC
  5
34E5
330
3165
100
AcDbEntity
  8
Visible Edges(ISO)
100
AcDbCircle
 10
0.0000000000001137
 20
50.0
 30
0.0
 40
25.39999999999982
100
AcDbArc
 50
90.0
 51
270.0
  0
LINE
  5
34E6
330
3165
100
AcDbEntity
  8
Visible Edges(ISO)
100
AcDbLine
 10
0.0000000000001705
 20
24.60000000000014
 30
0.0
 11
0.0000000000001705
 21
23.80000000000018
 31
0.0
  0
ARC
  5
34E7
330
3165
100
AcDbEntity
  8
Visible Edges(ISO)
100
AcDbCircle
 10
0.0000000000001137
 20
50.0
 30
0.0
 40
26.19999999999982
100
AcDbArc
 50
90.0
 51
270.0
  0
LINE
  5
34E8
330
3165
100
AcDbEntity
  8
Visible Edges(ISO)
100
AcDbLine
 10
-20.61140461006957
 20
-11.89999999999986
 30
0.0
 11
-21.30422493309712
 21
-12.29999999999995
 31
0.0
  0
ARC
  5
34E9
330
3165
100
AcDbEntity
  8
Visible Edges(ISO)
100
AcDbCircle
 10
-43.30127018922195
 20
-25.0
 30
0.0
 40
25.40000000000006
100
AcDbArc
 50
29.99999999999972
 51
209.9999999999997
  0
LINE
  5
34EA
330
3165
100
AcDbEntity
  8
Visible Edges(ISO)
100
AcDbLine
 10
-65.29831544534679
 20
-37.69999999999982
 30
0.0
 11
-65.99113576837436
 21
-38.0999999999999
 31
0.0
  0
ARC
  5
34EB
330
3165
100
AcDbEntity
  8
Visible Edges(ISO)
100
AcDbCircle
 10
-43.30127018922195
 20
-25.0
 30
0.0
 40
26.20000000000008
100
AcDbArc
 50
29.99999999999972
 51
209.9999999999997
  0
LINE
  5
34EC
330
3165
100
AcDbEntity
  8
Visible Edges(ISO)
100
AcDbLine
 10
65.29831544534641
 20
-37.69999999999982
 30
0.0
 11
64.60549512231884
 21
-37.29999999999995
 31
0.0
  0
ARC
  5
34ED
330
3165
100
AcDbEntity
  8
Visible Edges(ISO)
100
AcDbCircle
 10
43.30127018922181
 20
-25.0
 30
0.0
 40
24.59999999999976
100
AcDbArc
 50
330.0000000000003
 51
150.0000000000003
  0
LINE
  5
34EE
330
3165
100
AcDbEntity
  8
Visible Edges(ISO)
100
AcDbLine
 10
21.99704525612472
 20
-12.69999999999982
 30
0.0
 11
21.30422493309723
 21
-12.29999999999995
 31
0.0
  0
ARC
  5
34EF
330
3165
100
AcDbEntity
  8
Visible Edges(ISO)
100
AcDbCircle
 10
43.30127018922181
 20
-25.0
 30
0.0
 40
25.39999999999976
100
AcDbArc
 50
330.0000000000003
 51
150.0000000000003
  0
LINE
  5
34F0
330
3165
100
AcDbEntity
  8
Visible Edges(ISO)
100
AcDbLine
 10
-0.0000000000001137
 20
24.60000000000014
 30
0.0
 11
-0.0000000000001137
 21
25.40000000000009
 31
0.0
  0
ARC
  5
34F1
330
3165
100
AcDbEntity
  8
Visible Edges(ISO)
100
AcDbCircle
 10
-0.0000000000000568
 20
50.0
 30
0.0
 40
24.60000000000001
100
AcDbArc
 50
270.0
 51
90.0
  0
LINE
  5
34F2
330
3165
100
AcDbEntity
  8
Visible Edges(ISO)
100
AcDbLine
 10
-0.0000000000000568
 20
74.60000000000014
 30
0.0
 11
-0.0000000000000568
 21
75.40000000000009
 31
0.0
  0
ARC
  5
34F3
330
3165
100
AcDbEntity
  8
Visible Edges(ISO)
100
AcDbCircle
 10
-0.0000000000000568
 20
50.0
 30
0.0
 40
25.4
100
AcDbArc
 50
270.0
 51
90.0
  0
LINE
  5
34F4
330
3165
100
AcDbEntity
  8
Visible Edges(ISO)
100
AcDbLine
 10
-65.29831544534641
 20
-37.69999999999982
 30
0.0
 11
-64.60549512231889
 21
-37.29999999999995
 31
0.0
  0
ARC
  5
34F5
330
3165
100
AcDbEntity
  8
Visible Edges(ISO)
100
AcDbCircle
 10
-43.30127018922195
 20
-25.0
 30
0.0
 40
24.59999999999976
100
AcDbArc
 50
209.9999999999997
 51
29.99999999999972
  0
LINE
  5
34F6
330
3165
100
AcDbEntity
  8
Visible Edges(ISO)
100
AcDbLine
 10
-21.99704525612501
 20
-12.69999999999982
 30
0.0
 11
-21.30422493309749
 21
-12.29999999999995
 31
0.0
  0
ARC
  5
34F7
330
3165
100
AcDbEntity
  8
Visible Edges(ISO)
100
AcDbCircle
 10
-43.30127018922195
 20
-25.0
 30
0.0
 40
25.39999999999976
100
AcDbArc
 50
209.9999999999997
 51
29.99999999999972
  0
LINE
  5
34F8
330
3165
100
AcDbEntity
  8
Visible Edges(ISO)
100
AcDbLine
 10
21.30422493309731
 20
-12.29999999999995
 30
0.0
 11
21.99704525612481
 21
-12.69999999999982
 31
0.0
  0
ARC
  5
34F9
330
3165
100
AcDbEntity
  8
Visible Edges(ISO)
100
AcDbCircle
 10
43.30127018922204
 20
-25.0
 30
0.0
 40
24.60000000000001
100
AcDbArc
 50
150.0000000000003
 51
330.0000000000003
  0
LINE
  5
34FA
330
3165
100
AcDbEntity
  8
Visible Edges(ISO)
100
AcDbLine
 10
64.60549512231921
 20
-37.29999999999995
 30
0.0
 11
65.29831544534681
 21
-37.69999999999982
 31
0.0
  0
ARC
  5
34FB
330
3165
100
AcDbEntity
  8
Visible Edges(ISO)
100
AcDbCircle
 10
43.30127018922204
 20
-25.0
 30
0.0
 40
25.4
100
AcDbArc
 50
150.0000000000003
 51
330.0000000000003
  0
LINE
  5
34FC
330
3165
100
AcDbEntity
  8
Visible Edges(ISO)
100
AcDbLine
 10
0.0000000000000284
 20
75.40000000000009
 30
0.0
 11
0.0000000000000284
 21
74.60000000000014
 31
0.0
  0
ARC
  5
34FD
330
3165
100
AcDbEntity
  8
Visible Edges(ISO)
100
AcDbCircle
 10
0.0000000000001421
 20
50.0
 30
0.0
 40
24.59999999999977
100
AcDbArc
 50
90.0
 51
270.0
  0
LINE
  5
34FE
330
3165
100
AcDbEntity
  8
Visible Edges(ISO)
100
AcDbLine
 10
0.0000000000002274
 20
25.40000000000009
 30
0.0
 11
0.0000000000002274
 21
24.60000000000014
 31
0.0
  0
ARC
  5
34FF
330
3165
100
AcDbEntity
  8
Visible Edges(ISO)
100
AcDbCircle
 10
0.0000000000001421
 20
50.0
 30
0.0
 40
25.39999999999976
100
AcDbArc
 50
90.0
 51
270.0
  0
LINE
  5
3500
330
3165
100
AcDbEntity
  8
Visible Edges(ISO)
100
AcDbLine
 10
-21.3042249330972
 20
-12.29999999999995
 30
0.0
 11
-21.99704525612475
 21
-12.69999999999982
 31
0.0
  0
ARC
  5
3501
330
3165
100
AcDbEntity
  8
Visible Edges(ISO)
100
AcDbCircle
 10
-43.30127018922195
 20
-25.0
 30
0.0
 40
24.60000000000001
100
AcDbArc
 50
29.99999999999972
 51
209.9999999999997
  0
LINE
  5
3502
330
3165
100
AcDbEntity
  8
Visible Edges(ISO)
100
AcDbLine
 10
-64.60549512231914
 20
-37.29999999999995
 30
0.0
 11
-65.2983154453467
 21
-37.69999999999982
 31
0.0
  0
ARC
  5
3503
330
3165
100
AcDbEntity
  8
Visible Edges(ISO)
100
AcDbCircle
 10
-43.30127018922195
 20
-25.0
 30
0.0
 40
25.4
100
AcDbArc
 50
29.99999999999972
 51
209.9999999999997
  0
LINE
  5
3504
330
3165
100
AcDbEntity
  8
Visible Edges(ISO)
100
AcDbLine
 10
68.06959673745672
 20
-39.29999999999996
 30
0.0
 11
67.37677641442911
 21
-38.89999999999986
 31
0.0
  0
ARC
  5
3505
330
3165
100
AcDbEntity
  8
Visible Edges(ISO)
100
AcDbCircle
 10
43.30127018922192
 20
-25.0
 30
0.0
 40
27.79999999999982
100
AcDbArc
 50
330.0000000000003
 51
150.0000000000003
  0
LINE
  5
3506
330
3165
100
AcDbEntity
  8
Visible Edges(ISO)
100
AcDbLine
 10
19.22576396401473
 20
-11.09999999999991
 30
0.0
 11
18.53294364098713
 21
-10.69999999999982
 31
0.0
  0
ARC
  5
3507
330
3165
100
AcDbEntity
  8
Visible Edges(ISO)
100
AcDbCircle
 10
43.30127018922192
 20
-25.0
 30
0.0
 40
28.59999999999981
100
AcDbArc
 50
330.0000000000003
 51
150.0000000000003
  0
LINE
  5
3508
330
3165
100
AcDbEntity
  8
Visible Edges(ISO)
100
AcDbLine
 10
-0.0000000000002274
 20
21.40000000000009
 30
0.0
 11
-0.0000000000002274
 21
22.20000000000005
 31
0.0
  0
ARC
  5
3509
330
3165
100
AcDbEntity
  8
Visible Edges(ISO)
100
AcDbCircle
 10
-0.0000000000001137
 20
50.0
 30
0.0
 40
27.80000000000008
100
AcDbArc
 50
270.0
 51
90.0
  0
LINE
  5
350A
330
3165
100
AcDbEntity
  8
Visible Edges(ISO)
100
AcDbLine
 10
0.0000000000000284
 20
77.80000000000019
 30
0.0
 11
0.0000000000000284
 21
78.60000000000012
 31
0.0
  0
ARC
  5
350B
330
3165
100
AcDbEntity
  8
Visible Edges(ISO)
100
AcDbCircle
 10
-0.0000000000001137
 20
50.0
 30
0.0
 40
28.60000000000009
100
AcDbArc
 50
270.0
 51
90.0
  0
LINE
  5
350C
330
3165
100
AcDbEntity
  8
Visible Edges(ISO)
100
AcDbLine
 10
-68.0695967374568
 20
-39.29999999999996
 30
0.0
 11
-67.37677641442926
 21
-38.89999999999986
 31
0.0
  0
ARC
  5
350D
330
3165
100
AcDbEntity
  8
Visible Edges(ISO)
100
AcDbCircle
 10
-43.30127018922204
 20
-25.0
 30
0.0
 40
27.79999999999982
100
AcDbArc
 50
209.9999999999997
 51
29.99999999999972
  0
LINE
  5
350E
330
3165
100
AcDbEntity
  8
Visible Edges(ISO)
100
AcDbLine
 10
-19.22576396401479
 20
-11.09999999999991
 30
0.0
 11
-18.53294364098724
 21
-10.69999999999982
 31
0.0
  0
ARC
  5
350F
330
3165
100
AcDbEntity
  8
Visible Edges(ISO)
100
AcDbCircle
 10
-43.30127018922204
 20
-25.0
 30
0.0
 40
28.59999999999982
100
AcDbArc
 50
209.9999999999997
 51
29.99999999999972
  0
LINE
  5
3510
330
3165
100
AcDbEntity
  8
Visible Edges(ISO)
100
AcDbLine
 10
18.53294364098701
 20
-10.69999999999982
 30
0.0
 11
19.2257639640145
 21
-11.09999999999991
 31
0.0
  0
ARC
  5
3511
330
3165
100
AcDbEntity
  8
Visible Edges(ISO)
100
AcDbCircle
 10
43.30127018922192
 20
-25.0
 30
0.0
 40
27.80000000000009
100
AcDbArc
 50
150.0000000000003
 51
330.0000000000003
  0
LINE
  5
3512
330
3165
100
AcDbEntity
  8
Visible Edges(ISO)
100
AcDbLine
 10
67.37677641442934
 20
-38.89999999999986
 30
0.0
 11
68.06959673745692
 21
-39.29999999999996
 31
0.0
  0
ARC
  5
3513
330
3165
100
AcDbEntity
  8
Visible Edges(ISO)
100
AcDbCircle
 10
43.30127018922192
 20
-25.0
 30
0.0
 40
28.6000000000001
100
AcDbArc
 50
150.0000000000003
 51
330.0000000000003
  0
LINE
  5
3514
330
3165
100
AcDbEntity
  8
Visible Edges(ISO)
100
AcDbLine
 10
0.0000000000001137
 20
78.60000000000012
 30
0.0
 11
0.0000000000001137
 21
77.80000000000019
 31
0.0
  0
ARC
  5
3515
330
3165
100
AcDbEntity
  8
Visible Edges(ISO)
100
AcDbCircle
 10
0.0000000000001137
 20
50.0
 30
0.0
 40
27.79999999999982
100
AcDbArc
 50
90.0
 51
270.0
  0
LINE
  5
3516
330
3165
100
AcDbEntity
  8
Visible Edges(ISO)
100
AcDbLine
 10
0.0000000000001137
 20
22.20000000000005
 30
0.0
 11
0.0000000000001137
 21
21.40000000000009
 31
0.0
  0
ARC
  5
3517
330
3165
100
AcDbEntity
  8
Visible Edges(ISO)
100
AcDbCircle
 10
0.0000000000001137
 20
50.0
 30
0.0
 40
28.59999999999982
100
AcDbArc
 50
90.0
 51
270.0
  0
LINE
  5
3518
330
3165
100
AcDbEntity
  8
Visible Edges(ISO)
100
AcDbLine
 10
-18.53294364098679
 20
-10.69999999999982
 30
0.0
 11
-19.22576396401433
 21
-11.09999999999991
 31
0.0
  0
ARC
  5
3519
330
3165
100
AcDbEntity
  8
Visible Edges(ISO)
100
AcDbCircle
 10
-43.30127018922186
 20
-25.0
 30
0.0
 40
27.80000000000009
100
AcDbArc
 50
29.99999999999972
 51
209.9999999999997
  0
LINE
  5
351A
330
3165
100
AcDbEntity
  8
Visible Edges(ISO)
100
AcDbLine
 10
-67.37677641442942
 20
-38.89999999999986
 30
0.0
 11
-68.06959673745696
 21
-39.29999999999996
 31
0.0
  0
ARC
  5
351B
330
3165
100
AcDbEntity
  8
Visible Edges(ISO)
100
AcDbCircle
 10
-43.30127018922186
 20
-25.0
 30
0.0
 40
28.6000000000001
100
AcDbArc
 50
29.99999999999972
 51
209.9999999999997
  0
LINE
  5
351C
330
3165
100
AcDbEntity
  8
Visible Edges(ISO)
100
AcDbLine
 10
67.37677641442911
 20
-38.89999999999986
 30
0.0
 11
66.68395609140159
 21
-38.5
 31
0.0
  0
ARC
  5
351D
330
3165
100
AcDbEntity
  8
Visible Edges(ISO)
100
AcDbCircle
 10
43.30127018922192
 20
-25.0
 30
0.0
 40
26.99999999999982
100
AcDbArc
 50
330.0000000000003
 51
150.0000000000003
  0
LINE
  5
351E
330
3165
100
AcDbEntity
  8
Visible Edges(ISO)
100
AcDbLine
 10
19.91858428704222
 20
-11.5
 30
0.0
 11
19.22576396401462
 21
-11.09999999999991
 31
0.0
  0
ARC
  5
351F
330
3165
100
AcDbEntity
  8
Visible Edges(ISO)
100
AcDbCircle
 10
43.30127018922192
 20
-25.0
 30
0.0
 40
27.79999999999982
100
AcDbArc
 50
330.0000000000003
 51
150.0000000000003
  0
LINE
  5
3520
330
3165
100
AcDbEntity
  8
Visible Edges(ISO)
100
AcDbLine
 10
-0.000000000000199
 20
22.20000000000005
 30
0.0
 11
-0.000000000000199
 21
23.0
 31
0.0
  0
ARC
  5
3521
330
3165
100
AcDbEntity
  8
Visible Edges(ISO)
100
AcDbCircle
 10
-0.0000000000001137
 20
50.0
 30
0.0
 40
27.00000000000008
100
AcDbArc
 50
270.0
 51
90.0
  0
LINE
  5
3522
330
3165
100
AcDbEntity
  8
Visible Edges(ISO)
100
AcDbLine
 10
0.0000000000000284
 20
77.0
 30
0.0
 11
0.0000000000000284
 21
77.80000000000019
 31
0.0
  0
ARC
  5
3523
330
3165
100
AcDbEntity
  8
Visible Edges(ISO)
100
AcDbCircle
 10
-0.0000000000001137
 20
50.0
 30
0.0
 40
27.80000000000008
100
AcDbArc
 50
270.0
 51
90.0
  0
LINE
  5
3524
330
3165
100
AcDbEntity
  8
Visible Edges(ISO)
100
AcDbLine
 10
-67.37677641442926
 20
-38.89999999999986
 30
0.0
 11
-66.68395609140171
 21
-38.5
 31
0.0
  0
ARC
  5
3525
330
3165
100
AcDbEntity
  8
Visible Edges(ISO)
100
AcDbCircle
 10
-43.301270189222
 20
-25.0
 30
0.0
 40
26.99999999999982
100
AcDbArc
 50
209.9999999999997
 51
29.99999999999972
  0
LINE
  5
3526
330
3165
100
AcDbEntity
  8
Visible Edges(ISO)
100
AcDbLine
 10
-19.91858428704233
 20
-11.5
 30
0.0
 11
-19.22576396401479
 21
-11.09999999999991
 31
0.0
  0
ARC
  5
3527
330
3165
100
AcDbEntity
  8
Visible Edges(ISO)
100
AcDbCircle
 10
-43.301270189222
 20
-25.0
 30
0.0
 40
27.79999999999982
100
AcDbArc
 50
209.9999999999997
 51
29.99999999999972
  0
LINE
  5
3528
330
3165
100
AcDbEntity
  8
Visible Edges(ISO)
100
AcDbLine
 10
19.2257639640145
 20
-11.09999999999991
 30
0.0
 11
19.91858428704211
 21
-11.5
 31
0.0
  0
ARC
  5
3529
330
3165
100
AcDbEntity
  8
Visible Edges(ISO)
100
AcDbCircle
 10
43.30127018922192
 20
-25.0
 30
0.0
 40
27.00000000000009
100
AcDbArc
 50
150.0000000000003
 51
330.0000000000003
  0
LINE
  5
352A
330
3165
100
AcDbEntity
  8
Visible Edges(ISO)
100
AcDbLine
 10
66.68395609140185
 20
-38.5
 30
0.0
 11
67.37677641442934
 21
-38.89999999999986
 31
0.0
  0
ARC
  5
352B
330
3165
100
AcDbEntity
  8
Visible Edges(ISO)
100
AcDbCircle
 10
43.30127018922192
 20
-25.0
 30
0.0
 40
27.80000000000008
100
AcDbArc
 50
150.0000000000003
 51
330.0000000000003
  0
LINE
  5
352C
330
3165
100
AcDbEntity
  8
Visible Edges(ISO)
100
AcDbLine
 10
0.0000000000001137
 20
77.80000000000019
 30
0.0
 11
0.0000000000001137
 21
77.0
 31
0.0
  0
ARC
  5
352D
330
3165
100
AcDbEntity
  8
Visible Edges(ISO)
100
AcDbCircle
 10
0.0000000000001137
 20
50.0
 30
0.0
 40
26.99999999999982
100
AcDbArc
 50
90.0
 51
270.0
  0
LINE
  5
352E
330
3165
100
AcDbEntity
  8
Visible Edges(ISO)
100
AcDbLine
 10
0.0000000000001137
 20
23.0
 30
0.0
 11
0.0000000000001137
 21
22.20000000000005
 31
0.0
  0
ARC
  5
352F
330
3165
100
AcDbEntity
  8
Visible Edges(ISO)
100
AcDbCircle
 10
0.0000000000001137
 20
50.0
 30
0.0
 40
27.79999999999982
100
AcDbArc
 50
90.0
 51
270.0
  0
LINE
  5
3530
330
3165
100
AcDbEntity
  8
Visible Edges(ISO)
100
AcDbLine
 10
-19.22576396401433
 20
-11.09999999999991
 30
0.0
 11
-19.91858428704188
 21
-11.5
 31
0.0
  0
ARC
  5
3531
330
3165
100
AcDbEntity
  8
Visible Edges(ISO)
100
AcDbCircle
 10
-43.30127018922186
 20
-25.0
 30
0.0
 40
27.00000000000009
100
AcDbArc
 50
29.99999999999972
 51
209.9999999999997
  0
LINE
  5
3532
330
3165
100
AcDbEntity
  8
Visible Edges(ISO)
100
AcDbLine
 10
-66.68395609140187
 20
-38.5
 30
0.0
 11
-67.37677641442942
 21
-38.89999999999986
 31
0.0
  0
ARC
  5
3533
330
3165
100
AcDbEntity
  8
Visible Edges(ISO)
100
AcDbCircle
 10
-43.30127018922186
 20
-25.0
 30
0.0
 40
27.80000000000009
100
AcDbArc
 50
29.99999999999972
 51
209.9999999999997
  0
LINE
  5
3534
330
3165
100
AcDbEntity
  8
Visible Edges(ISO)
100
AcDbLine
 10
64.60549512231892
 20
-37.29999999999995
 30
0.0
 11
63.91267479929144
 21
-36.89999999999987
 31
0.0
  0
ARC
  5
3535
330
3165
100
AcDbEntity
  8
Visible Edges(ISO)
100
AcDbCircle
 10
43.30127018922192
 20
-25.0
 30
0.0
 40
23.79999999999984
100
AcDbArc
 50
330.0000000000003
 51
150.0000000000003
  0
LINE
  5
3536
330
3165
100
AcDbEntity
  8
Visible Edges(ISO)
100
AcDbLine
 10
22.6898655791523
 20
-13.09999999999991
 30
0.0
 11
21.99704525612481
 21
-12.69999999999982
 31
0.0
  0
ARC
  5
3537
330
3165
100
AcDbEntity
  8
Visible Edges(ISO)
100
AcDbCircle
 10
43.30127018922192
 20
-25.0
 30
0.0
 40
24.59999999999983
100
AcDbArc
 50
330.0000000000003
 51
150.0000000000003
  0
LINE
  5
3538
330
3165
100
AcDbEntity
  8
Visible Edges(ISO)
100
AcDbLine
 10
-0.0000000000001705
 20
25.40000000000009
 30
0.0
 11
-0.0000000000001705
 21
26.20000000000004
 31
0.0
  0
ARC
  5
3539
330
3165
100
AcDbEntity
  8
Visible Edges(ISO)
100
AcDbCircle
 10
-0.0000000000000568
 20
50.0
 30
0.0
 40
23.80000000000007
100
AcDbArc
 50
270.0
 51
90.0
  0
LINE
  5
353A
330
3165
100
AcDbEntity
  8
Visible Edges(ISO)
100
AcDbLine
 10
0.0000000000000568
 20
73.8000000000002
 30
0.0
 11
0.0000000000000568
 21
74.60000000000014
 31
0.0
  0
ARC
  5
353B
330
3165
100
AcDbEntity
  8
Visible Edges(ISO)
100
AcDbCircle
 10
-0.0000000000000568
 20
50.0
 30
0.0
 40
24.60000000000007
100
AcDbArc
 50
270.0
 51
90.0
  0
LINE
  5
353C
330
3165
100
AcDbEntity
  8
Visible Edges(ISO)
100
AcDbLine
 10
-64.60549512231897
 20
-37.29999999999995
 30
0.0
 11
-63.91267479929147
 21
-36.89999999999987
 31
0.0
  0
ARC
  5
353D
330
3165
100
AcDbEntity
  8
Visible Edges(ISO)
100
AcDbCircle
 10
-43.30127018922195
 20
-25.0
 30
0.0
 40
23.79999999999984
100
AcDbArc
 50
209.9999999999997
 51
29.99999999999972
  0
LINE
  5
353E
330
3165
100
AcDbEntity
  8
Visible Edges(ISO)
100
AcDbLine
 10
-22.68986557915247
 20
-13.09999999999991
 30
0.0
 11
-21.99704525612492
 21
-12.69999999999982
 31
0.0
  0
ARC
  5
353F
330
3165
100
AcDbEntity
  8
Visible Edges(ISO)
100
AcDbCircle
 10
-43.30127018922195
 20
-25.0
 30
0.0
 40
24.59999999999983
100
AcDbArc
 50
209.9999999999997
 51
29.99999999999972
  0
LINE
  5
3540
330
3165
100
AcDbEntity
  8
Visible Edges(ISO)
100
AcDbLine
 10
21.99704525612481
 20
-12.69999999999982
 30
0.0
 11
22.6898655791523
 21
-13.09999999999991
 31
0.0
  0
ARC
  5
3541
330
3165
100
AcDbEntity
  8
Visible Edges(ISO)
100
AcDbCircle
 10
43.30127018922204
 20
-25.0
 30
0.0
 40
23.80000000000007
100
AcDbArc
 50
150.0000000000003
 51
330.0000000000003
  0
LINE
  5
3542
330
3165
100
AcDbEntity
  8
Visible Edges(ISO)
100
AcDbLine
 10
63.91267479929163
 20
-36.89999999999987
 30
0.0
 11
64.60549512231921
 21
-37.29999999999995
 31
0.0
  0
ARC
  5
3543
330
3165
100
AcDbEntity
  8
Visible Edges(ISO)
100
AcDbCircle
 10
43.30127018922204
 20
-25.0
 30
0.0
 40
24.60000000000008
100
AcDbArc
 50
150.0000000000003
 51
330.0000000000003
  0
LINE
  5
3544
330
3165
100
AcDbEntity
  8
Visible Edges(ISO)
100
AcDbLine
 10
0.0000000000000568
 20
74.60000000000014
 30
0.0
 11
0.0000000000000568
 21
73.8000000000002
 31
0.0
  0
ARC
  5
3545
330
3165
100
AcDbEntity
  8
Visible Edges(ISO)
100
AcDbCircle
 10
0.0000000000000568
 20
50.0
 30
0.0
 40
23.79999999999984
100
AcDbArc
 50
90.0
 51
270.0
  0
LINE
  5
3546
330
3165
100
AcDbEntity
  8
Visible Edges(ISO)
100
AcDbLine
 10
0.0000000000000568
 20
26.20000000000004
 30
0.0
 11
0.0000000000000568
 21
25.40000000000009
 31
0.0
  0
ARC
  5
3547
330
3165
100
AcDbEntity
  8
Visible Edges(ISO)
100
AcDbCircle
 10
0.0000000000000568
 20
50.0
 30
0.0
 40
24.59999999999983
100
AcDbArc
 50
90.0
 51
270.0
  0
LINE
  5
3548
330
3165
100
AcDbEntity
  8
Visible Edges(ISO)
100
AcDbLine
 10
-21.99704525612464
 20
-12.69999999999982
 30
0.0
 11
-22.68986557915218
 21
-13.09999999999991
 31
0.0
  0
ARC
  5
3549
330
3165
100
AcDbEntity
  8
Visible Edges(ISO)
100
AcDbCircle
 10
-43.30127018922195
 20
-25.0
 30
0.0
 40
23.80000000000007
100
AcDbArc
 50
29.99999999999972
 51
209.9999999999997
  0
LINE
  5
354A
330
3165
100
AcDbEntity
  8
Visible Edges(ISO)
100
AcDbLine
 10
-63.91267479929171
 20
-36.89999999999987
 30
0.0
 11
-64.60549512231927
 21
-37.29999999999995
 31
0.0
  0
ARC
  5
354B
330
3165
100
AcDbEntity
  8
Visible Edges(ISO)
100
AcDbCircle
 10
-43.30127018922195
 20
-25.0
 30
0.0
 40
24.60000000000008
100
AcDbArc
 50
29.99999999999972
 51
209.9999999999997
  0
CIRCLE
  5
354C
330
3165
100
AcDbEntity
  8
Visible Edges(ISO)
100
AcDbCircle
 10
-64.9519052838329
 20
37.5
 30
0.0
 40
12.5
  0
ARC
  5
354D
330
3165
100
AcDbEntity
  8
Visible Edges(ISO)
100
AcDbCircle
 10
-90.66277250063505
 20
-48.88007449358202
 30
0.0
 40
1.999999999999988
100
AcDbArc
 50
208.3309548459574
 51
300.0000000000079
  0
ARC
  5
354E
330
3165
100
AcDbEntity
  8
Visible Edges(ISO)
100
AcDbCircle
 10
-78.5231590200313
 20
-41.87126538269693
 30
0.0
 40
1.999999999999991
100
AcDbArc
 50
299.9999999999947
 51
27.0604655135604
  0
ARC
  5
354F
330
3165
100
AcDbEntity
  8
Visible Edges(ISO)
100
AcDbCircle
 10
-11.06205911793955
 20
-2.922581194395888
 30
0.0
 40
1.999999999999998
100
AcDbArc
 50
212.9395344864316
 51
299.9999999999947
  0
ARC
  5
3550
330
3165
100
AcDbEntity
  8
Visible Edges(ISO)
100
AcDbCircle
 10
-3.0
 20
1.732050807569065
 30
0.0
 40
2.0
100
AcDbArc
 50
299.9999999999961
 51
0.0
  0
ARC
  5
3551
330
3165
100
AcDbEntity
  8
Visible Edges(ISO)
100
AcDbCircle
 10
-3.0
 20
11.0413148114992
 30
0.0
 40
2.000000000000003
100
AcDbArc
 50
0.0
 51
87.06046551356605
  0
ARC
  5
3552
330
3165
100
AcDbEntity
  8
Visible Edges(ISO)
100
AcDbCircle
 10
-3.000000000000055
 20
88.9386831881011
 30
0.0
 40
2.0
100
AcDbArc
 50
272.9395344864339
 51
0.0
  0
ARC
  5
3553
330
3165
100
AcDbEntity
  8
Visible Edges(ISO)
100
AcDbCircle
 10
-3.000000000000055
 20
102.9563014098701
 30
0.0
 40
1.999999999999985
100
AcDbArc
 50
0.0
 51
91.66904515404844
  0
LINE
  5
3554
330
3165
100
AcDbEntity
  8
Visible Edges(ISO)
100
AcDbLine
 10
-77.5231590200313
 20
-43.60331619026601
 30
0.0
 11
-89.66277250063502
 21
-50.61212530115017
 31
0.0
  0
LINE
  5
3555
330
3165
100
AcDbEntity
  8
Visible Edges(ISO)
100
AcDbLine
 10
-2.0
 20
0.0
 30
0.0
 11
-10.06205911793955
 21
-4.654632001964955
 31
0.0
  0
LINE
  5
3556
330
3165
100
AcDbEntity
  8
Visible Edges(ISO)
100
AcDbLine
 10
-1.000000000000027
 20
11.0413148114992
 30
0.0
 11
-1.0
 21
1.732050807569065
 31
0.0
  0
LINE
  5
3557
330
3165
100
AcDbEntity
  8
Visible Edges(ISO)
100
AcDbLine
 10
-1.000000000000055
 20
102.9563014098701
 30
0.0
 11
-1.000000000000055
 21
88.9386831881011
 31
0.0
  0
ARC
  5
3558
330
3165
100
AcDbEntity
  8
Visible Edges(ISO)
100
AcDbCircle
 10
0.0000000000000284
 20
0.0
 30
0.0
 40
105.0
100
AcDbArc
 50
91.66904515404844
 51
208.3309548459545
  0
ARC
  5
3559
330
3165
100
AcDbEntity
  8
Visible Edges(ISO)
100
AcDbCircle
 10
-43.79260906898545
 20
-24.12897409611583
 30
0.0
 40
37.0
100
AcDbArc
 50
32.93953448643164
 51
207.0604655135604
  0
ARC
  5
355A
330
3165
100
AcDbEntity
  8
Visible Edges(ISO)
100
AcDbCircle
 10
-1.000000000000055
 20
49.98999899979981
 30
0.0
 40
37.00000000000001
100
AcDbArc
 50
92.93953448643398
 51
267.060465513566
  0
CIRCLE
  5
355B
330
3165
100
AcDbEntity
  8
Visible Edges(ISO)
100
AcDbCircle
 10
64.95190528383284
 20
37.5
 30
0.0
 40
12.5
  0
ARC
  5
355C
330
3165
100
AcDbEntity
  8
Visible Edges(ISO)
100
AcDbCircle
 10
2.999999999999943
 20
102.9563014098701
 30
0.0
 40
1.999999999999988
100
AcDbArc
 50
88.33095484595153
 51
180.0
  0
ARC
  5
355D
330
3165
100
AcDbEntity
  8
Visible Edges(ISO)
100
AcDbCircle
 10
2.999999999999943
 20
88.9386831881011
 30
0.0
 40
1.999999999999991
100
AcDbArc
 50
180.0
 51
267.0604655135677
  0
ARC
  5
355E
330
3165
100
AcDbEntity
  8
Visible Edges(ISO)
100
AcDbCircle
 10
3.0
 20
11.0413148114992
 30
0.0
 40
1.999999999999998
100
AcDbArc
 50
92.93953448643398
 51
180.0
  0
ARC
  5
355F
330
3165
100
AcDbEntity
  8
Visible Edges(ISO)
100
AcDbCircle
 10
3.0
 20
1.732050807569065
 30
0.0
 40
2.0
100
AcDbArc
 50
180.0
 51
240.0000000000039
  0
ARC
  5
3560
330
3165
100
AcDbEntity
  8
Visible Edges(ISO)
100
AcDbCircle
 10
11.06205911793952
 20
-2.922581194395888
 30
0.0
 40
2.000000000000003
100
AcDbArc
 50
240.0000000000039
 51
327.0604655135684
  0
ARC
  5
3561
330
3165
100
AcDbEntity
  8
Visible Edges(ISO)
100
AcDbCircle
 10
78.5231590200313
 20
-41.87126538269693
 30
0.0
 40
2.0
100
AcDbArc
 50
152.9395344864395
 51
240.0000000000039
  0
ARC
  5
3562
330
3165
100
AcDbEntity
  8
Visible Edges(ISO)
100
AcDbCircle
 10
90.66277250063507
 20
-48.8800744935811
 30
0.0
 40
1.999999999999985
100
AcDbArc
 50
240.0000000000025
 51
331.6690451540426
  0
LINE
  5
3563
330
3165
100
AcDbEntity
  8
Visible Edges(ISO)
100
AcDbLine
 10
0.9999999999999431
 20
88.9386831881011
 30
0.0
 11
0.9999999999999431
 21
102.9563014098701
 31
0.0
  0
LINE
  5
3564
330
3165
100
AcDbEntity
  8
Visible Edges(ISO)
100
AcDbLine
 10
1.0
 20
1.732050807569065
 30
0.0
 11
1.0
 21
11.0413148114992
 31
0.0
  0
LINE
  5
3565
330
3165
100
AcDbEntity
  8
Visible Edges(ISO)
100
AcDbLine
 10
10.06205911793952
 20
-4.654632001964955
 30
0.0
 11
2.0
 21
0.0
 31
0.0
  0
LINE
  5
3566
330
3165
100
AcDbEntity
  8
Visible Edges(ISO)
100
AcDbLine
 10
89.66277250063507
 20
-50.61212530115017
 30
0.0
 11
77.5231590200313
 21
-43.60331619026601
 31
0.0
  0
ARC
  5
3567
330
3165
100
AcDbEntity
  8
Visible Edges(ISO)
100
AcDbCircle
 10
0.0
 20
0.0
 30
0.0
 40
105.0
100
AcDbArc
 50
331.6690451540426
 51
88.33095484595153
  0
ARC
  5
3568
330
3165
100
AcDbEntity
  8
Visible Edges(ISO)
100
AcDbCircle
 10
0.9999999999999431
 20
49.98999899979981
 30
0.0
 40
37.00000000000001
100
AcDbArc
 50
272.9395344864339
 51
87.06046551356605
  0
ARC
  5
3569
330
3165
100
AcDbEntity
  8
Visible Edges(ISO)
100
AcDbCircle
 10
43.79260906898543
 20
-24.12897409611583
 30
0.0
 40
37.00000000000001
100
AcDbArc
 50
332.9395344864396
 51
147.0604655135683
  0
CIRCLE
  5
356A
330
3165
100
AcDbEntity
  8
Visible Edges(ISO)
100
AcDbCircle
 10
0.0000000000001137
 20
-75.0
 30
0.0
 40
12.5
  0
ARC
  5
356B
330
3165
100
AcDbEntity
  8
Visible Edges(ISO)
100
AcDbCircle
 10
87.66277250063508
 20
-54.07622691628808
 30
0.0
 40
1.999999999999988
100
AcDbArc
 50
328.330954845951
 51
60.00000000000532
  0
ARC
  5
356C
330
3165
100
AcDbEntity
  8
Visible Edges(ISO)
100
AcDbCircle
 10
75.5231590200313
 20
-47.067417805403
 30
0.0
 40
1.999999999999991
100
AcDbArc
 50
60.00000000000532
 51
147.0604655135683
  0
ARC
  5
356D
330
3165
100
AcDbEntity
  8
Visible Edges(ISO)
100
AcDbCircle
 10
8.062059117939611
 20
-8.118733617102861
 30
0.0
 40
1.999999999999998
100
AcDbArc
 50
332.9395344864396
 51
60.00000000000532
  0
ARC
  5
356E
330
3165
100
AcDbEntity
  8
Visible Edges(ISO)
100
AcDbCircle
 10
0.0000000000000284
 20
-3.464101615138133
 30
0.0
 40
2.0
100
AcDbArc
 50
59.99999999999217
 51
119.9999999999946
  0
ARC
  5
356F
330
3165
100
AcDbEntity
  8
Visible Edges(ISO)
100
AcDbCircle
 10
-8.062059117939552
 20
-8.118733617102861
 30
0.0
 40
2.000000000000003
100
AcDbArc
 50
119.9999999999946
 51
207.0604655135604
  0
ARC
  5
3570
330
3165
100
AcDbEntity
  8
Visible Edges(ISO)
100
AcDbCircle
 10
-75.52315902003122
 20
-47.06741780540392
 30
0.0
 40
2.0
100
AcDbArc
 50
32.93953448643164
 51
119.9999999999946
  0
ARC
  5
3571
330
3165
100
AcDbEntity
  8
Visible Edges(ISO)
100
AcDbCircle
 10
-87.66277250063497
 20
-54.07622691628898
 30
0.0
 40
1.999999999999985
100
AcDbArc
 50
120.0000000000064
 51
211.669045154049
  0
LINE
  5
3572
330
3165
100
AcDbEntity
  8
Visible Edges(ISO)
100
AcDbLine
 10
76.5231590200313
 20
-45.33536699783507
 30
0.0
 11
88.66277250063507
 21
-52.34417610871901
 31
0.0
  0
LINE
  5
3573
330
3165
100
AcDbEntity
  8
Visible Edges(ISO)
100
AcDbLine
 10
1.0
 20
-1.732050807568839
 30
0.0
 11
9.062059117939526
 21
-6.386682809533795
 31
0.0
  0
LINE
  5
3574
330
3165
100
AcDbEntity
  8
Visible Edges(ISO)
100
AcDbLine
 10
-9.062059117939554
 20
-6.386682809533795
 30
0.0
 11
-1.0
 21
-1.732050807568839
 31
0.0
  0
LINE
  5
3575
330
3165
100
AcDbEntity
  8
Visible Edges(ISO)
100
AcDbLine
 10
-88.66277250063497
 20
-52.34417610871992
 30
0.0
 11
-76.52315902003123
 21
-45.33536699783507
 31
0.0
  0
ARC
  5
3576
330
3165
100
AcDbEntity
  8
Visible Edges(ISO)
100
AcDbCircle
 10
0.0
 20
0.0
 30
0.0
 40
105.0
100
AcDbArc
 50
211.669045154049
 51
328.330954845951
  0
ARC
  5
3577
330
3165
100
AcDbEntity
  8
Visible Edges(ISO)
100
AcDbCircle
 10
42.79260906898541
 20
-25.86102490368399
 30
0.0
 40
37.0
100
AcDbArc
 50
152.9395344864395
 51
327.0604655135684
  0
ARC
  5
3578
330
3165
100
AcDbEntity
  8
Visible Edges(ISO)
100
AcDbCircle
 10
-42.7926090689854
 20
-25.86102490368489
 30
0.0
 40
37.00000000000001
100
AcDbArc
 50
212.9395344864316
 51
27.0604655135604
  0
CIRCLE
  5
3579
330
3165
100
AcDbEntity
  8
Visible Edges(ISO)
100
AcDbCircle
 10
89.78076452338422
 20
-6.278082636971022
 30
0.0
 40
6.5
  0
LINE
  5
357A
330
3165
100
AcDbEntity
  8
Visible Edges(ISO)
100
AcDbLine
 10
92.78076452338408
 20
-4.546031829401953
 30
0.0
 11
92.78076452338408
 21
-8.010133444540088
 31
0.0
  0
LINE
  5
357B
330
3165
100
AcDbEntity
  8
Visible Edges(ISO)
100
AcDbLine
 10
92.78076452338408
 20
-8.010133444540088
 30
0.0
 11
89.78076452338422
 21
-9.742184252108927
 31
0.0
  0
LINE
  5
357C
330
3165
100
AcDbEntity
  8
Visible Edges(ISO)
100
AcDbLine
 10
89.78076452338422
 20
-9.742184252108927
 30
0.0
 11
86.78076452338411
 21
-8.010133444540088
 31
0.0
  0
LINE
  5
357D
330
3165
100
AcDbEntity
  8
Visible Edges(ISO)
100
AcDbLine
 10
86.78076452338411
 20
-8.010133444540088
 30
0.0
 11
86.78076452338411
 21
-4.546031829401953
 31
0.0
  0
LINE
  5
357E
330
3165
100
AcDbEntity
  8
Visible Edges(ISO)
100
AcDbLine
 10
86.78076452338411
 20
-4.546031829401953
 30
0.0
 11
89.78076452338422
 21
-2.813981021833114
 31
0.0
  0
LINE
  5
357F
330
3165
100
AcDbEntity
  8
Visible Edges(ISO)
100
AcDbLine
 10
89.78076452338422
 20
-2.813981021833114
 30
0.0
 11
92.78076452338408
 21
-4.546031829401953
 31
0.0
  0
CIRCLE
  5
3580
330
3165
100
AcDbEntity
  8
Visible Edges(ISO)
100
AcDbCircle
 10
34.64101615137753
 20
20.0
 30
0.0
 40
6.5
  0
LINE
  5
3581
330
3165
100
AcDbEntity
  8
Visible Edges(ISO)
100
AcDbLine
 10
37.64101615137753
 20
21.73205080756907
 30
0.0
 11
37.64101615137753
 21
18.26794919243116
 31
0.0
  0
LINE
  5
3582
330
3165
100
AcDbEntity
  8
Visible Edges(ISO)
100
AcDbLine
 10
37.64101615137753
 20
18.26794919243116
 30
0.0
 11
34.64101615137753
 21
16.53589838486186
 31
0.0
  0
LINE
  5
3583
330
3165
100
AcDbEntity
  8
Visible Edges(ISO)
100
AcDbLine
 10
34.64101615137753
 20
16.53589838486186
 30
0.0
 11
31.64101615137753
 21
18.26794919243116
 31
0.0
  0
LINE
  5
3584
330
3165
100
AcDbEntity
  8
Visible Edges(ISO)
100
AcDbLine
 10
31.64101615137753
 20
18.26794919243116
 30
0.0
 11
31.64101615137753
 21
21.73205080756907
 31
0.0
  0
LINE
  5
3585
330
3165
100
AcDbEntity
  8
Visible Edges(ISO)
100
AcDbLine
 10
31.64101615137753
 20
21.73205080756907
 30
0.0
 11
34.64101615137753
 21
23.46410161513813
 31
0.0
  0
LINE
  5
3586
330
3165
100
AcDbEntity
  8
Visible Edges(ISO)
100
AcDbLine
 10
34.64101615137753
 20
23.46410161513813
 30
0.0
 11
37.64101615137753
 21
21.73205080756907
 31
0.0
  0
CIRCLE
  5
3587
330
3165
100
AcDbEntity
  8
Visible Edges(ISO)
100
AcDbCircle
 10
39.45340321101694
 20
80.89146416692484
 30
0.0
 40
6.5
  0
LINE
  5
3588
330
3165
100
AcDbEntity
  8
Visible Edges(ISO)
100
AcDbLine
 10
42.45340321101693
 20
82.62351497449413
 30
0.0
 11
42.45340321101693
 21
79.15941335935577
 31
0.0
  0
LINE
  5
3589
330
3165
100
AcDbEntity
  8
Visible Edges(ISO)
100
AcDbLine
 10
42.45340321101693
 20
79.15941335935577
 30
0.0
 11
39.45340321101694
 21
77.42736255178694
 31
0.0
  0
LINE
  5
358A
330
3165
100
AcDbEntity
  8
Visible Edges(ISO)
100
AcDbLine
 10
39.45340321101694
 20
77.42736255178694
 30
0.0
 11
36.45340321101682
 21
79.15941335935577
 31
0.0
  0
LINE
  5
358B
330
3165
100
AcDbEntity
  8
Visible Edges(ISO)
100
AcDbLine
 10
36.45340321101694
 20
79.15941335935577
 30
0.0
 11
36.45340321101682
 21
82.62351497449413
 31
0.0
  0
LINE
  5
358C
330
3165
100
AcDbEntity
  8
Visible Edges(ISO)
100
AcDbLine
 10
36.45340321101682
 20
82.62351497449413
 30
0.0
 11
39.45340321101694
 21
84.35556578206321
 31
0.0
  0
LINE
  5
358D
330
3165
100
AcDbEntity
  8
Visible Edges(ISO)
100
AcDbLine
 10
39.45340321101694
 20
84.35556578206321
 30
0.0
 11
42.45340321101693
 21
82.62351497449413
 31
0.0
  0
CIRCLE
  5
358E
330
3165
100
AcDbEntity
  8
Visible Edges(ISO)
100
AcDbCircle
 10
-39.45340321101696
 20
80.89146416692484
 30
0.0
 40
6.5
  0
LINE
  5
358F
330
3165
100
AcDbEntity
  8
Visible Edges(ISO)
100
AcDbLine
 10
-36.45340321101696
 20
82.62351497449413
 30
0.0
 11
-36.45340321101696
 21
79.15941335935577
 31
0.0
  0
LINE
  5
3590
330
3165
100
AcDbEntity
  8
Visible Edges(ISO)
100
AcDbLine
 10
-36.45340321101696
 20
79.15941335935577
 30
0.0
 11
-39.45340321101696
 21
77.42736255178694
 31
0.0
  0
LINE
  5
3591
330
3165
100
AcDbEntity
  8
Visible Edges(ISO)
100
AcDbLine
 10
-39.45340321101696
 20
77.42736255178694
 30
0.0
 11
-42.45340321101696
 21
79.15941335935577
 31
0.0
  0
LINE
  5
3592
330
3165
100
AcDbEntity
  8
Visible Edges(ISO)
100
AcDbLine
 10
-42.45340321101696
 20
79.15941335935577
 30
0.0
 11
-42.45340321101696
 21
82.62351497449413
 31
0.0
  0
LINE
  5
3593
330
3165
100
AcDbEntity
  8
Visible Edges(ISO)
100
AcDbLine
 10
-42.45340321101696
 20
82.62351497449413
 30
0.0
 11
-39.45340321101696
 21
84.35556578206321
 31
0.0
  0
LINE
  5
3594
330
3165
100
AcDbEntity
  8
Visible Edges(ISO)
100
AcDbLine
 10
-39.45340321101696
 20
84.35556578206321
 30
0.0
 11
-36.45340321101696
 21
82.62351497449413
 31
0.0
  0
CIRCLE
  5
3595
330
3165
100
AcDbEntity
  8
Visible Edges(ISO)
100
AcDbCircle
 10
-34.64101615137753
 20
20.0
 30
0.0
 40
6.5
  0
LINE
  5
3596
330
3165
100
AcDbEntity
  8
Visible Edges(ISO)
100
AcDbLine
 10
-31.64101615137753
 20
21.73205080756907
 30
0.0
 11
-31.64101615137753
 21
18.26794919243116
 31
0.0
  0
LINE
  5
3597
330
3165
100
AcDbEntity
  8
Visible Edges(ISO)
100
AcDbLine
 10
-31.64101615137753
 20
18.26794919243116
 30
0.0
 11
-34.64101615137753
 21
16.53589838486186
 31
0.0
  0
LINE
  5
3598
330
3165
100
AcDbEntity
  8
Visible Edges(ISO)
100
AcDbLine
 10
-34.64101615137753
 20
16.53589838486186
 30
0.0
 11
-37.64101615137753
 21
18.26794919243116
 31
0.0
  0
LINE
  5
3599
330
3165
100
AcDbEntity
  8
Visible Edges(ISO)
100
AcDbLine
 10
-37.64101615137753
 20
18.26794919243116
 30
0.0
 11
-37.64101615137753
 21
21.73205080756907
 31
0.0
  0
LINE
  5
359A
330
3165
100
AcDbEntity
  8
Visible Edges(ISO)
100
AcDbLine
 10
-37.64101615137756
 20
21.73205080756907
 30
0.0
 11
-34.64101615137756
 21
23.46410161513813
 31
0.0
  0
LINE
  5
359B
330
3165
100
AcDbEntity
  8
Visible Edges(ISO)
100
AcDbLine
 10
-34.64101615137753
 20
23.46410161513813
 30
0.0
 11
-31.64101615137753
 21
21.73205080756907
 31
0.0
  0
CIRCLE
  5
359C
330
3165
100
AcDbEntity
  8
Visible Edges(ISO)
100
AcDbCircle
 10
-89.78076452338417
 20
-6.278082636971022
 30
0.0
 40
6.5
  0
LINE
  5
359D
330
3165
100
AcDbEntity
  8
Visible Edges(ISO)
100
AcDbLine
 10
-86.78076452338419
 20
-4.546031829401953
 30
0.0
 11
-86.78076452338414
 21
-8.010133444540088
 31
0.0
  0
LINE
  5
359E
330
3165
100
AcDbEntity
  8
Visible Edges(ISO)
100
AcDbLine
 10
-86.78076452338414
 20
-8.010133444540088
 30
0.0
 11
-89.78076452338417
 21
-9.742184252108927
 31
0.0
  0
LINE
  5
359F
330
3165
100
AcDbEntity
  8
Visible Edges(ISO)
100
AcDbLine
 10
-89.78076452338417
 20
-9.742184252108927
 30
0.0
 11
-92.78076452338416
 21
-8.010133444540088
 31
0.0
  0
LINE
  5
35A0
330
3165
100
AcDbEntity
  8
Visible Edges(ISO)
100
AcDbLine
 10
-92.78076452338416
 20
-8.010133444540088
 30
0.0
 11
-92.78076452338416
 21
-4.546031829401953
 31
0.0
  0
LINE
  5
35A1
330
3165
100
AcDbEntity
  8
Visible Edges(ISO)
100
AcDbLine
 10
-92.78076452338416
 20
-4.546031829401953
 30
0.0
 11
-89.78076452338417
 21
-2.813981021833114
 31
0.0
  0
LINE
  5
35A2
330
3165
100
AcDbEntity
  8
Visible Edges(ISO)
100
AcDbLine
 10
-89.78076452338417
 20
-2.813981021833114
 30
0.0
 11
-86.78076452338419
 21
-4.546031829401953
 31
0.0
  0
CIRCLE
  5
35A3
330
3165
100
AcDbEntity
  8
Visible Edges(ISO)
100
AcDbCircle
 10
-50.32736131236706
 20
-74.6133815299529
 30
0.0
 40
6.5
  0
LINE
  5
35A4
330
3165
100
AcDbEntity
  8
Visible Edges(ISO)
100
AcDbLine
 10
-47.32736131236706
 20
-72.8813307223852
 30
0.0
 11
-47.32736131236706
 21
-76.34543233752197
 31
0.0
  0
LINE
  5
35A5
330
3165
100
AcDbEntity
  8
Visible Edges(ISO)
100
AcDbLine
 10
-47.32736131236707
 20
-76.34543233752197
 30
0.0
 11
-50.32736131236706
 21
-78.07748314509126
 31
0.0
  0
LINE
  5
35A6
330
3165
100
AcDbEntity
  8
Visible Edges(ISO)
100
AcDbLine
 10
-50.32736131236706
 20
-78.07748314509126
 30
0.0
 11
-53.32736131236706
 21
-76.34543233752197
 31
0.0
  0
LINE
  5
35A7
330
3165
100
AcDbEntity
  8
Visible Edges(ISO)
100
AcDbLine
 10
-53.32736131236706
 20
-76.34543233752197
 30
0.0
 11
-53.32736131236706
 21
-72.8813307223852
 31
0.0
  0
LINE
  5
35A8
330
3165
100
AcDbEntity
  8
Visible Edges(ISO)
100
AcDbLine
 10
-53.32736131236706
 20
-72.8813307223852
 30
0.0
 11
-50.32736131236706
 21
-71.1492799148159
 31
0.0
  0
LINE
  5
35A9
330
3165
100
AcDbEntity
  8
Visible Edges(ISO)
100
AcDbLine
 10
-50.32736131236706
 20
-71.1492799148159
 30
0.0
 11
-47.32736131236707
 21
-72.8813307223852
 31
0.0
  0
CIRCLE
  5
35AA
330
3165
100
AcDbEntity
  8
Visible Edges(ISO)
100
AcDbCircle
 10
0.0000000000000284
 20
-40.0
 30
0.0
 40
6.5
  0
LINE
  5
35AB
330
3165
100
AcDbEntity
  8
Visible Edges(ISO)
100
AcDbLine
 10
3.000000000000028
 20
-38.26794919243094
 30
0.0
 11
3.000000000000028
 21
-41.73205080756885
 31
0.0
  0
LINE
  5
35AC
330
3165
100
AcDbEntity
  8
Visible Edges(ISO)
100
AcDbLine
 10
3.000000000000028
 20
-41.73205080756885
 30
0.0
 11
0.0000000000000284
 21
-43.46410161513813
 31
0.0
  0
LINE
  5
35AD
330
3165
100
AcDbEntity
  8
Visible Edges(ISO)
100
AcDbLine
 10
0.0000000000000284
 20
-43.46410161513813
 30
0.0
 11
-2.999999999999971
 21
-41.73205080756885
 31
0.0
  0
LINE
  5
35AE
330
3165
100
AcDbEntity
  8
Visible Edges(ISO)
100
AcDbLine
 10
-2.999999999999971
 20
-41.73205080756885
 30
0.0
 11
-2.999999999999971
 21
-38.26794919243094
 31
0.0
  0
LINE
  5
35AF
330
3165
100
AcDbEntity
  8
Visible Edges(ISO)
100
AcDbLine
 10
-2.999999999999971
 20
-38.26794919243094
 30
0.0
 11
0.0000000000000284
 21
-36.53589838486187
 31
0.0
  0
LINE
  5
35B0
330
3165
100
AcDbEntity
  8
Visible Edges(ISO)
100
AcDbLine
 10
0.0000000000000284
 20
-36.53589838486187
 30
0.0
 11
3.000000000000028
 21
-38.26794919243094
 31
0.0
  0
CIRCLE
  5
35B1
330
3165
100
AcDbEntity
  8
Visible Edges(ISO)
100
AcDbCircle
 10
50.3273613123672
 20
-74.6133815299529
 30
0.0
 40
6.5
  0
LINE
  5
35B2
330
3165
100
AcDbEntity
  8
Visible Edges(ISO)
100
AcDbLine
 10
53.3273613123672
 20
-72.8813307223852
 30
0.0
 11
53.3273613123672
 21
-76.34543233752197
 31
0.0
  0
LINE
  5
35B3
330
3165
100
AcDbEntity
  8
Visible Edges(ISO)
100
AcDbLine
 10
53.3273613123672
 20
-76.34543233752197
 30
0.0
 11
50.3273613123672
 21
-78.07748314509126
 31
0.0
  0
LINE
  5
35B4
330
3165
100
AcDbEntity
  8
Visible Edges(ISO)
100
AcDbLine
 10
50.3273613123672
 20
-78.07748314509126
 30
0.0
 11
47.32736131236722
 21
-76.34543233752197
 31
0.0
  0
LINE
  5
35B5
330
3165
100
AcDbEntity
  8
Visible Edges(ISO)
100
AcDbLine
 10
47.32736131236722
 20
-76.34543233752197
 30
0.0
 11
47.32736131236722
 21
-72.8813307223852
 31
0.0
  0
LINE
  5
35B6
330
3165
100
AcDbEntity
  8
Visible Edges(ISO)
100
AcDbLine
 10
47.32736131236722
 20
-72.8813307223852
 30
0.0
 11
50.3273613123672
 21
-71.1492799148159
 31
0.0
  0
LINE
  5
35B7
330
3165
100
AcDbEntity
  8
Visible Edges(ISO)
100
AcDbLine
 10
50.3273613123672
 20
-71.1492799148159
 30
0.0
 11
53.3273613123672
 21
-72.8813307223852
 31
0.0
  0
CIRCLE
  5
35B8
330
3165
100
AcDbEntity
  8
Visible Edges(ISO)
100
AcDbCircle
 10
43.30127018922192
 20
-25.0
 30
0.0
 40
24.0
  0
CIRCLE
  5
35B9
330
3165
100
AcDbEntity
  8
Visible Edges(ISO)
100
AcDbCircle
 10
0.0000000000000284
 20
50.0
 30
0.0
 40
24.0
  0
CIRCLE
  5
35BA
330
3165
100
AcDbEntity
  8
Visible Edges(ISO)
100
AcDbCircle
 10
-43.3012701892219
 20
-25.0
 30
0.0
 40
24.0
  0
LINE
  5
3608
330
3165
100
AcDbEntity
  8
DIM
100
AcDbLine
 10
20.69143510029461
 20
66.5564040023882
 30
0.0
 11
60.41893342002128
 21
98.34465401972169
 31
0.0
  0
LINE
  5
3609
330
3165
100
AcDbEntity
  8
DIM
100
AcDbLine
 10
60.41893342002128
 20
98.34465401972169
 30
0.0
 11
88.88116357675121
 21
98.34465401972169
 31
0.0
  0
SOLID
  5
360A
330
3165
100
AcDbEntity
  8
DIM
100
AcDbTrace
 10
20.43111428264699
 20
66.88174103226706
 30
0.0
 11
20.95175591794222
 21
66.23106697250936
 31
0.0
 12
18.73941292102153
 22
64.99447909650253
 32
0.0
 13
18.73941292102153
 23
64.99447909650253
 33
0.0
  0
MTEXT
  5
360B
330
3165
100
AcDbEntity
  8
DIM
 62
     2
100
AcDbMText
 10
75.40004849838625
 20
101.7704998980061
 30
0.0
 40
3.5
 41
0.0
 46
0.0
 71
     5
 72
     1
  1
∅48 [∅1.890"]
 73
     1
 44
1.0
  0
LINE
  5
360D
330
3165
100
AcDbEntity
  8
DIM
100
AcDbLine
 10
26.72887085166571
 20
76.30242313922756
 30
0.0
 11
59.88491477759531
 21
108.9294765528314
 31
0.0
  0
LINE
  5
360E
330
3165
100
AcDbEntity
  8
DIM
100
AcDbLine
 10
59.88491477759531
 20
108.9294765528314
 30
0.0
 11
88.68491477759532
 21
108.9294765528314
 31
0.0
  0
SOLID
  5
360F
330
3165
100
AcDbEntity
  8
DIM
100
AcDbTrace
 10
26.43662170567428
 20
76.59941059313496
 30
0.0
 11
27.02111999765711
 21
76.00543568532017
 31
0.0
 12
24.94694612822132
 22
74.54892826327906
 32
0.0
 13
24.94694612822132
 23
74.54892826327906
 33
0.0
  0
MTEXT
  5
3610
330
3165
100
AcDbEntity
  8
DIM
 62
     2
100
AcDbMText
 10
75.0349147775953
 20
112.3544765528314
 30
0.0
 40
3.5
 41
0.0
 46
0.0
 71
     5
 72
     1
  1
∅70 [∅2.756"]
 73
     1
 44
1.0
  0
LINE
  5
3611
330
3165
100
AcDbEntity
  8
DIM
100
AcDbLine
 10
-105.0
 20
-0.9999999999999404
 30
0.0
 11
-105.0
 21
-116.5417706992597
 31
0.0
  0
LINE
  5
3612
330
3165
100
AcDbEntity
  8
DIM
100
AcDbLine
 10
105.0
 20
-0.9999999999999404
 30
0.0
 11
105.0
 21
-116.5417706992597
 31
0.0
  0
LINE
  5
3613
330
3165
100
AcDbEntity
  8
DIM
100
AcDbLine
 10
-102.4999999999999
 20
-115.5417706992597
 30
0.0
 11
102.5
 21
-115.5417706992597
 31
0.0
  0
SOLID
  5
3614
330
3165
100
AcDbEntity
  8
DIM
100
AcDbTrace
 10
-102.4999999999999
 20
-115.125104032593
 30
0.0
 11
-102.4999999999999
 21
-115.9584373659263
 31
0.0
 12
-105.0
 22
-115.5417706992597
 32
0.0
 13
-105.0
 23
-115.5417706992597
 33
0.0
  0
SOLID
  5
3615
330
3165
100
AcDbEntity
  8
DIM
100
AcDbTrace
 10
102.5
 20
-115.125104032593
 30
0.0
 11
102.5
 21
-115.9584373659263
 31
0.0
 12
105.0
 22
-115.5417706992597
 32
0.0
 13
105.0
 23
-115.5417706992597
 33
0.0
  0
MTEXT
  5
3616
330
3165
100
AcDbEntity
  8
DIM
 62
     2
100
AcDbMText
 10
0.0000000000000286
 20
-112.1167706992597
 30
0.0
 40
3.5
 41
0.0
 46
0.0
 71
     5
 72
     1
  1
Ø210 [8.268"]
 73
     1
 44
1.0
  0
ENDBLK
  5
3362
330
3165
100
AcDbEntity
  8
0
100
AcDbBlockEnd
  0
ENDSEC
  0
SECTION
  2
ENTITIES
  0
INSERT
  5
336F
330
1A
100
AcDbEntity
  8
AM_0
100
AcDbBlockReference
  2
H3200UG
 10
104.9999991063727
 20
124.5362624593451
 30
0.0
  0
VIEWPORT
  5
2CAA
102
{ACAD_XDICTIONARY
360
2CAB
102
}
330
2CA3
100
AcDbEntity
 67
     1
  8
0
348
A55
100
AcDbViewport
 10
128.5
 20
97.5
 30
0.0
 40
349.2069620253165
 41
222.18
 68
     1
 69
     1
 12
128.5
 22
97.5
 13
0.0
 23
0.0
 14
10.0
 24
10.0
 15
10.0
 25
10.0
 16
0.0
 26
0.0
 36
1.0
 17
0.0
 27
0.0
 37
0.0
 42
50.0
 43
0.0
 44
0.0
 45
222.18
 50
0.0
 51
0.0
 72
   100
 90
   819232
  1

281
     0
 71
     1
 74
     0
110
0.0
120
0.0
130
0.0
111
1.0
121
0.0
131
0.0
112
0.0
122
1.0
132
0.0
 79
     0
146
0.0
170
     0
 61
     5
292
     1
282
     1
141
0.0
142
0.0
 63
   250
421
  3355443
1001
GENIUS_GENSCREG_15
1000
PF
1040
1.0
1000
DF
1040
1.0
1000
MIN
1011
-46.10348101265822
1021
-13.59
1031
0.0
1000
MAX
1011
303.1034810126582
1021
208.59
1031
0.0
1000
FLAGS
1070
     4
1001
GENIUS_GENOBJ-N-SDF_13
1002
{
1000
OWNER
1000
GEN
1002
}
1001
GENIUS_GENODEF_13
1002
{
1000
HIER
1070
     0
1002
}
1002
{
1000
MANEDIT
1070
     0
1002
}
1002
{
1000
NOSEL
1070
     0
1002
}
1002
{
1000
BEHIND
1070
     0
1002
}
1002
{
1000
OTHER
1070
     0
1002
}
1002
{
1000
REACTOR
1002
}
  0
ENDSEC
  0
SECTION
  2
OBJECTS
  0
DICTIONARY
  5
C
330
0
100
AcDbDictionary
281
     1
  3
ACAD_CIP_PREVIOUS_PRODUCT_INFO
350
CD7
  3
ACAD_COLOR
350
3CA
  3
ACAD_DETAILVIEWSTYLE
350
CCB
  3
ACAD_FIELDLIST
350
D6A
  3
ACAD_GROUP
350
D
  3
ACAD_LAYOUT
350
167
  3
ACAD_MATERIAL
350
3C9
  3
ACAD_MLEADERSTYLE
350
A72
  3
ACAD_MLINESTYLE
350
E
  3
ACAD_PLOTSETTINGS
350
168
  3
ACAD_PLOTSTYLENAME
350
165
  3
ACAD_SCALELIST
350
A60
  3
ACAD_SECTIONVIEWSTYLE
350
CC9
  3
ACAD_TABLESTYLE
350
650
  3
ACAD_VISUALSTYLE
350
A4F
  3
ACASAPPOBJECT
350
EE
  3
ACASGREF_MASTER
350
9B
  3
ACDB_RECOMPOSE_DATA
350
3619
  3
ACDBVARIABLEDICTIONARY
350
5D
  3
ACMDICTIONARY
350
142
  3
AD_GREF_MODULE
350
AF
  3
AD_MAPI_MODULE
350
18E
  3
AMG
350
171
  3
AMGSNAPSETTINGS
350
1F2
  3
ASE_INDEX_DICTIONARY
350
849
  3
coolorange
350
13F2
  3
MAPISURF_MODULE
350
2E8
  0
DICTIONARY
  5
592
330
2
100
AcDbDictionary
280
     1
281
     1
  3
ACAD_LAYERFILTERS
360
C7C
  3
ACAD_LAYERSTATES
360
822
  3
ACLYDICTIONARY
360
C7B
  3
AMLAYER_GROUPCOLORS
360
593
  0
DICTIONARY
  5
AB7
330
F
100
AcDbDictionary
280
     1
281
     1
  3
ADSK_XREC_LAYER_RECONCILED
360
3370
  0
DICTIONARY
  5
AB9
330
5CF
100
AcDbDictionary
280
     1
281
     1
  3
ADSK_XREC_LAYER_RECONCILED
360
3371
  0
DICTIONARY
  5
3372
330
3363
100
AcDbDictionary
280
     1
281
     1
  3
ADSK_XREC_LAYER_RECONCILED
360
3373
  0
DICTIONARY
  5
3374
330
3365
100
AcDbDictionary
280
     1
281
     1
  3
ADSK_XREC_LAYER_RECONCILED
360
3375
  0
DICTIONARY
  5
12A
330
1A
100
AcDbDictionary
280
     1
281
     1
  3
ACAD_INDEX
360
30C4
  0
DICTIONARY
  5
35C4
330
3165
100
AcDbDictionary
280
     1
281
     1
  3
ACAD_SORTENTS
360
360C
  0
DICTIONARY
  5
2CAB
330
2CAA
100
AcDbDictionary
280
     1
281
     1
  3
ASDK_XREC_ANNOTATION_SCALE_INFO
360
2CAC
  0
XRECORD
  5
CD7
102
{ACAD_REACTORS
330
C
102
}
330
C
100
AcDbXrecord
280
     1
300
AMECH_PP
300
2013
300
85963PDSU_2013_0F
  0
DICTIONARY
  5
3CA
102
{ACAD_REACTORS
330
C
102
}
330
C
100
AcDbDictionary
281
     1
  0
DICTIONARY
  5
CCB
102
{ACAD_REACTORS
330
C
102
}
330
C
100
AcDbDictionary
281
     1
  3
ISO 128-34_2001
350
10B9
  3
Metric50
350
CCC
  0
FIELDLIST
  5
D6A
102
{ACAD_REACTORS
330
C
102
}
330
C
100
AcDbIdSet
 90
        3
330
10BD
330
10BE
330
10BF
100
AcDbFieldList
  0
DICTIONARY
  5
D
102
{ACAD_REACTORS
330
C
102
}
330
C
100
AcDbDictionary
281
     1
  0
DICTIONARY
  5
167
102
{ACAD_REACTORS
330
C
102
}
330
C
100
AcDbDictionary
281
     1
  3
Layout1
350
2CA4
  3
Model
350
169
  0
DICTIONARY
  5
3C9
102
{ACAD_REACTORS
330
C
102
}
330
C
100
AcDbDictionary
281
     1
  3
ByBlock
350
A3F
  3
ByLayer
350
A37
  3
Global
350
A47
  0
DICTIONARY
  5
A72
102
{ACAD_REACTORS
330
C
102
}
330
C
100
AcDbDictionary
281
     1
  3
Standard
350
A73
  0
DICTIONARY
  5
E
102
{ACAD_REACTORS
330
C
102
}
330
C
100
AcDbDictionary
281
     1
  3
STANDARD
350
13
  0
DICTIONARY
  5
168
102
{ACAD_REACTORS
330
C
102
}
330
C
100
AcDbDictionary
281
     1
  3
Setup1
350
2C89
  0
ACDBDICTIONARYWDFLT
  5
165
102
{ACAD_REACTORS
330
C
102
}
330
C
100
AcDbDictionary
281
     1
  3
Normal
350
166
100
AcDbDictionaryWithDefault
340
166
  0
DICTIONARY
  5
A60
102
{ACAD_REACTORS
330
C
102
}
330
C
100
AcDbDictionary
281
     1
  3
A0
350
A61
  3
A1
350
A62
  3
A2
350
A63
  3
A3
350
A64
  3
A4
350
A65
  3
A5
350
A66
  3
A6
350
A67
  3
A7
350
A68
  3
A8
350
A69
  3
A9
350
A6A
  3
B0
350
A6B
  3
B1
350
A6C
  3
B2
350
A6D
  3
B3
350
A6E
  3
B4
350
A6F
  3
B5
350
A70
  3
B6
350
A71
  0
DICTIONARY
  5
CC9
102
{ACAD_REACTORS
330
C
102
}
330
C
100
AcDbDictionary
281
     1
  3
ISO 128_1982
350
10BA
  3
Metric50
350
CCA
  0
DICTIONARY
  5
650
102
{ACAD_REACTORS
330
C
102
}
330
C
100
AcDbDictionary
281
     1
  3
Standard
350
651
  0
DICTIONARY
  5
A4F
102
{ACAD_REACTORS
330
C
102
}
330
C
100
AcDbDictionary
281
     1
  3
2dWireframe
350
A55
  3
3D Hidden
350
A57
  3
3dWireframe
350
A56
  3
Basic
350
A54
  3
Brighten
350
A5B
  3
ColorChange
350
A5F
  3
Conceptual
350
A58
  3
Dim
350
A5A
  3
EdgeColorOff
350
CC8
  3
Facepattern
350
A5E
  3
Flat
350
A50
  3
FlatWithEdges
350
A51
  3
Gouraud
350
A52
  3
GouraudWithEdges
350
A53
  3
Hidden
350
CC0
  3
JitterOff
350
CC6
  3
Linepattern
350
A5D
  3
OverhangOff
350
CC7
  3
Realistic
350
A59
  3
Shaded
350
CC5
  3
Shaded with edges
350
CC4
  3
Shades of Gray
350
CC1
  3
Sketchy
350
CC2
  3
Thicken
350
A5C
  3
Wireframe
350
CBF
  3
X-Ray
350
CC3
  0
ACAD_PROXY_OBJECT
  5
EE
102
{ACAD_REACTORS
330
C
102
}
330
C
100
AcDbProxyObject
 90
      499
 91
      544
 95
  3276827
 70
     0
162
                 0
161
                10
310
404C
 94
        0
  0
ACAD_PROXY_OBJECT
  5
9B
102
{ACAD_REACTORS
330
C
102
}
330
C
100
AcDbProxyObject
 90
      499
 91
      514
 95
  3276827
 70
     0
162
                 0
161
                34
310
010000404C
 94
        0
  0
XRECORD
  5
3619
102
{ACAD_REACTORS
330
C
102
}
330
C
100
AcDbXrecord
280
     1
 90
        1
330
651
  0
DICTIONARY
  5
5D
102
{ACAD_REACTORS
330
C
102
}
330
C
100
AcDbDictionary
281
     1
  3
CANNOSCALE
350
AF4
  3
CMLEADERSTYLE
350
AF2
  3
CTABLESTYLE
350
66F
  3
CVIEWDETAILSTYLE
350
FFA
  3
CVIEWSECTIONSTYLE
350
FFB
  3
DIMADEC
350
5E
  3
DIMASSOC
350
3C7
  3
INDEXCTL
350
128
  3
LAYEREVAL
350
AF6
  3
LAYERNOTIFY
350
AF7
  3
LIGHTINGUNITS
350
AF5
  3
MSLTSCALE
350
AF3
  0
DICTIONARY
  5
142
102
{ACAD_REACTORS
330
C
102
}
330
C
100
AcDbDictionary
281
     1
  3
ACMSTDDICTIONARY
350
143
  3
AMDTSECTSYM_ARROWCOLOR
350
47D
  0
ACAD_PROXY_OBJECT
  5
AF
102
{ACAD_REACTORS
330
C
102
}
330
C
100
AcDbProxyObject
 90
      499
 91
      526
 95
  3276827
 70
     0
162
                 0
161
               114
310
00000043800000000000000000000C
 94
        0
  0
ACAD_PROXY_OBJECT
  5
18E
102
{ACAD_REACTORS
330
C
102
}
330
C
100
AcDbProxyObject
 90
      499
 91
      570
 95
  3276827
 70
     0
162
                 0
161
                34
310
05000044CC
 94
        0
  0
DICTIONARY
  5
171
102
{ACAD_REACTORS
330
C
102
}
330
C
100
AcDbDictionary
281
     1
  0
DICTIONARY
  5
1F2
102
{ACAD_REACTORS
330
C
102
}
330
C
100
AcDbDictionary
281
     1
  0
DICTIONARY
  5
849
102
{ACAD_REACTORS
330
C
102
}
330
C
100
AcDbDictionary
281
     1
  3
ASEBlockHierarchyIndexRecord
350
84B
1001
DCO15
1040
1524370329.156
  0
DICTIONARY
  5
13F2
102
{ACAD_REACTORS
330
C
102
}
330
C
100
AcDbDictionary
281
     1
  3
myviewproperty
350
13F3
  0
ACAD_PROXY_OBJECT
  5
2E8
102
{ACAD_REACTORS
330
C
102
}
330
C
100
AcDbProxyObject
 90
      499
 91
      610
 95
  3276827
 70
     0
162
                 0
161
                 8
310
0439
 94
        0
  0
DICTIONARY
  5
C7C
102
{ACAD_REACTORS
330
592
102
}
330
592
100
AcDbDictionary
281
     1
  0
DICTIONARY
  5
822
102
{ACAD_REACTORS
330
592
102
}
330
592
100
AcDbDictionary
281
     1
  0
DICTIONARY
  5
C7B
102
{ACAD_REACTORS
330
592
102
}
330
592
100
AcDbDictionary
281
     1
1001
ACAD
1000
<All
  0
DICTIONARY
  5
593
102
{ACAD_REACTORS
330
592
102
}
330
592
100
AcDbDictionary
280
     1
281
     1
  0
XRECORD
  5
3370
102
{ACAD_REACTORS
330
AB7
102
}
330
AB7
100
AcDbXrecord
280
     1
290
     1
  0
XRECORD
  5
3371
102
{ACAD_REACTORS
330
AB9
102
}
330
AB9
100
AcDbXrecord
280
     1
290
     1
  0
XRECORD
  5
3373
102
{ACAD_REACTORS
330
3372
102
}
330
3372
100
AcDbXrecord
280
     1
290
     1
  0
XRECORD
  5
3375
102
{ACAD_REACTORS
330
3374
102
}
330
3374
100
AcDbXrecord
280
     1
290
     1
  0
DICTIONARY
  5
30C4
102
{ACAD_REACTORS
330
12A
102
}
330
12A
100
AcDbDictionary
281
     1
  3
*A1
350
30C5
  0
SORTENTSTABLE
  5
360C
102
{ACAD_REACTORS
330
35C4
102
}
330
35C4
100
AcDbSortentsTable
330
3165
331
34B1
  5
34B1
331
3612
  5
3609
331
34C2
  5
34C2
331
34D3
  5
34D3
331
34E4
  5
34E4
331
355E
  5
355E
331
356F
  5
356F
331
34E8
  5
34E8
331
3580
  5
3580
331
34F9
  5
34F9
331
3591
  5
3591
331
350A
  5
350A
331
35A2
  5
35A2
331
351B
  5
351B
331
35B3
  5
35B3
331
352C
  5
352C
331
354E
  5
354E
331
353D
  5
353D
331
34A4
  5
34A4
331
3493
  5
3493
331
3482
  5
3482
331
3471
  5
3471
331
3460
  5
3460
331
344F
  5
344F
331
343D
  5
343D
331
342C
  5
342C
331
341B
  5
341B
331
340A
  5
340A
331
33F9
  5
33F9
331
33E8
  5
33E8
331
33D7
  5
33D7
331
34B2
  5
34B2
331
3613
  5
360A
331
34C3
  5
34C3
331
34D4
  5
34D4
331
34E5
  5
34E5
331
355F
  5
355F
331
3570
  5
3570
331
34E9
  5
34E9
331
3581
  5
3581
331
34FA
  5
34FA
331
3592
  5
3592
331
350B
  5
350B
331
35A3
  5
35A3
331
351C
  5
351C
331
35B4
  5
35B4
331
352D
  5
352D
331
354F
  5
354F
331
353E
  5
353E
331
34A5
  5
34A5
331
3494
  5
3494
331
3483
  5
3483
331
3472
  5
3472
331
3461
  5
3461
331
3450
  5
3450
331
343E
  5
343E
331
342D
  5
342D
331
341C
  5
341C
331
340B
  5
340B
331
33FA
  5
33FA
331
33E9
  5
33E9
331
33D8
  5
33D8
331
3550
  5
3550
331
34B3
  5
34B3
331
3614
  5
360B
331
34C4
  5
34C4
331
34D5
  5
34D5
331
34E6
  5
34E6
331
3560
  5
3560
331
3571
  5
3571
331
34EA
  5
34EA
331
3582
  5
3582
331
34FB
  5
34FB
331
3593
  5
3593
331
350C
  5
350C
331
35A4
  5
35A4
331
351D
  5
351D
331
35B5
  5
35B5
331
352E
  5
352E
331
353F
  5
353F
331
34A6
  5
34A6
331
3495
  5
3495
331
3484
  5
3484
331
3473
  5
3473
331
3462
  5
3462
331
3451
  5
3451
331
3440
  5
3440
331
343F
  5
343F
331
342E
  5
342E
331
341D
  5
341D
331
340C
  5
340C
331
33FB
  5
33FB
331
33EA
  5
33EA
331
33D9
  5
33D9
331
3551
  5
3551
331
3540
  5
3540
331
34B4
  5
34B4
331
3615
  5
360D
331
34C5
  5
34C5
331
34D6
  5
34D6
331
34E7
  5
34E7
331
3561
  5
3561
331
3572
  5
3572
331
34EB
  5
34EB
331
3583
  5
3583
331
34FC
  5
34FC
331
3594
  5
3594
331
350D
  5
350D
331
35A5
  5
35A5
331
351E
  5
351E
331
35B6
  5
35B6
331
352F
  5
352F
331
34A7
  5
34A7
331
3496
  5
3496
331
3485
  5
3485
331
3474
  5
3474
331
3463
  5
3463
331
3452
  5
3452
331
3441
  5
3441
331
342F
  5
342F
331
341E
  5
341E
331
340D
  5
340D
331
33FC
  5
33FC
331
33EB
  5
33EB
331
33DA
  5
33DA
331
3530
  5
3530
331
3541
  5
3541
331
34A8
  5
34A8
331
3552
  5
3552
331
34B5
  5
34B5
331
3616
  5
360E
331
34C6
  5
34C6
331
34D7
  5
34D7
331
3562
  5
3562
331
3573
  5
3573
331
34EC
  5
34EC
331
3584
  5
3584
331
34FD
  5
34FD
331
3595
  5
3595
331
350E
  5
350E
331
35A6
  5
35A6
331
351F
  5
351F
331
35B7
  5
35B7
331
3497
  5
3497
331
3486
  5
3486
331
3475
  5
3475
331
3464
  5
3464
331
3453
  5
3453
331
3442
  5
3442
331
3430
  5
3430
331
341F
  5
341F
331
340E
  5
340E
331
33FD
  5
33FD
331
33EC
  5
33EC
331
33DB
  5
33DB
331
33C9
  5
33C9
331
3520
  5
3520
331
35B8
  5
35B8
331
3531
  5
3531
331
3542
  5
3542
331
34A9
  5
34A9
331
3498
  5
3498
331
3553
  5
3553
331
34B6
  5
34B6
331
34C7
  5
34C7
331
34D8
  5
34D8
331
3563
  5
3563
331
3574
  5
3574
331
34ED
  5
34ED
331
3585
  5
3585
331
34FE
  5
34FE
331
3596
  5
3596
331
350F
  5
350F
331
35A7
  5
35A7
331
3487
  5
3487
331
3476
  5
3476
331
3465
  5
3465
331
3454
  5
3454
331
3443
  5
3443
331
3431
  5
3431
331
3420
  5
3420
331
340F
  5
340F
331
33FE
  5
33FE
331
33ED
  5
33ED
331
33DC
  5
33DC
331
33CA
  5
33CA
331
3510
  5
3510
331
35A8
  5
35A8
331
3521
  5
3521
331
35B9
  5
35B9
331
3532
  5
3532
331
3543
  5
3543
331
34AA
  5
34AA
331
3499
  5
3499
331
3488
  5
3488
331
3554
  5
3554
331
34B7
  5
34B7
331
34C8
  5
34C8
331
34D9
  5
34D9
331
3564
  5
3564
331
3575
  5
3575
331
34EE
  5
34EE
331
3586
  5
3586
331
34FF
  5
34FF
331
3597
  5
3597
331
3477
  5
3477
331
3466
  5
3466
331
3455
  5
3455
331
3444
  5
3444
331
3432
  5
3432
331
3421
  5
3421
331
3410
  5
3410
331
33FF
  5
33FF
331
33EE
  5
33EE
331
33DD
  5
33DD
331
33CB
  5
33CB
331
3500
  5
3500
331
3598
  5
3598
331
3511
  5
3511
331
35A9
  5
35A9
331
3522
  5
3522
331
35BA
  5
35BA
331
3533
  5
3533
331
3544
  5
3544
331
34AB
  5
34AB
331
349A
  5
349A
331
3489
  5
3489
331
3478
  5
3478
331
3555
  5
3555
331
3608
  5
3613
331
34B8
  5
34B8
331
34C9
  5
34C9
331
34DA
  5
34DA
331
3565
  5
3565
331
3576
  5
3576
331
34EF
  5
34EF
331
3587
  5
3587
331
3467
  5
3467
331
3456
  5
3456
331
3445
  5
3445
331
3433
  5
3433
331
3422
  5
3422
331
3411
  5
3411
331
3400
  5
3400
331
33EF
  5
33EF
331
33DE
  5
33DE
331
33CC
  5
33CC
331
34F0
  5
34F0
331
3588
  5
3588
331
3501
  5
3501
331
3599
  5
3599
331
3512
  5
3512
331
35AA
  5
35AA
331
3523
  5
3523
331
3534
  5
3534
331
3545
  5
3545
331
34AC
  5
34AC
331
349B
  5
349B
331
348A
  5
348A
331
3479
  5
3479
331
3468
  5
3468
331
3556
  5
3556
331
3609
  5
3614
331
34B9
  5
34B9
331
34CA
  5
34CA
331
34DB
  5
34DB
331
3566
  5
3566
331
3577
  5
3577
331
3457
  5
3457
331
3446
  5
3446
331
3434
  5
3434
331
3423
  5
3423
331
3412
  5
3412
331
3401
  5
3401
331
33F0
  5
33F0
331
33DF
  5
33DF
331
33CD
  5
33CD
331
3578
  5
3578
331
34F1
  5
34F1
331
3589
  5
3589
331
3502
  5
3502
331
359A
  5
359A
331
3513
  5
3513
331
35AB
  5
35AB
331
3524
  5
3524
331
3535
  5
3535
331
3546
  5
3546
331
34AD
  5
34AD
331
349C
  5
349C
331
348B
  5
348B
331
347A
  5
347A
331
3469
  5
3469
331
3458
  5
3458
331
3557
  5
3557
331
360A
  5
3615
331
34BA
  5
34BA
331
34CB
  5
34CB
331
34DC
  5
34DC
331
3567
  5
3567
331
3447
  5
3447
331
3435
  5
3435
331
3424
  5
3424
331
3413
  5
3413
331
3402
  5
3402
331
33F1
  5
33F1
331
33E0
  5
33E0
331
33CE
  5
33CE
331
3568
  5
3568
331
3579
  5
3579
331
34F2
  5
34F2
331
358A
  5
358A
331
3503
  5
3503
331
359B
  5
359B
331
3514
  5
3514
331
35AC
  5
35AC
331
3525
  5
3525
331
3536
  5
3536
331
3547
  5
3547
331
34AE
  5
34AE
331
349D
  5
349D
331
348C
  5
348C
331
347B
  5
347B
331
346A
  5
346A
331
3459
  5
3459
331
3448
  5
3448
331
360B
  5
3616
331
34BB
  5
34BB
331
34CC
  5
34CC
331
34DD
  5
34DD
331
3436
  5
3436
331
3425
  5
3425
331
3414
  5
3414
331
3403
  5
3403
331
33F2
  5
33F2
331
33E1
  5
33E1
331
33D0
  5
33D0
331
33CF
  5
33CF
331
3558
  5
3558
331
3569
  5
3569
331
357A
  5
357A
331
34F3
  5
34F3
331
358B
  5
358B
331
3504
  5
3504
331
359C
  5
359C
331
3515
  5
3515
331
35AD
  5
35AD
331
3526
  5
3526
331
3537
  5
3537
331
3548
  5
3548
331
34AF
  5
34AF
331
349E
  5
349E
331
348D
  5
348D
331
347C
  5
347C
331
346B
  5
346B
331
345A
  5
345A
331
3449
  5
3449
331
34BC
  5
34BC
331
34CD
  5
34CD
331
34DE
  5
34DE
331
3437
  5
3437
331
3426
  5
3426
331
3415
  5
3415
331
3404
  5
3404
331
33F3
  5
33F3
331
33E2
  5
33E2
331
33D1
  5
33D1
331
3559
  5
3559
331
356A
  5
356A
331
357B
  5
357B
331
34F4
  5
34F4
331
358C
  5
358C
331
3505
  5
3505
331
359D
  5
359D
331
3516
  5
3516
331
35AE
  5
35AE
331
3527
  5
3527
331
3549
  5
3549
331
3538
  5
3538
331
349F
  5
349F
331
348E
  5
348E
331
347D
  5
347D
331
346C
  5
346C
331
345B
  5
345B
331
344A
  5
344A
331
3438
  5
3438
331
360D
  5
360F
331
34BD
  5
34BD
331
34CE
  5
34CE
331
34DF
  5
34DF
331
3427
  5
3427
331
3416
  5
3416
331
3405
  5
3405
331
33F4
  5
33F4
331
33E3
  5
33E3
331
33D2
  5
33D2
331
34E0
  5
34E0
331
355A
  5
355A
331
356B
  5
356B
331
357C
  5
357C
331
34F5
  5
34F5
331
358D
  5
358D
331
3506
  5
3506
331
359E
  5
359E
331
3517
  5
3517
331
35AF
  5
35AF
331
3528
  5
3528
331
354A
  5
354A
331
3539
  5
3539
331
34A0
  5
34A0
331
348F
  5
348F
331
347E
  5
347E
331
346D
  5
346D
331
345C
  5
345C
331
344B
  5
344B
331
3439
  5
3439
331
3428
  5
3428
331
360E
  5
3610
331
34BE
  5
34BE
331
34CF
  5
34CF
331
3417
  5
3417
331
3406
  5
3406
331
33F5
  5
33F5
331
33E4
  5
33E4
331
33D3
  5
33D3
331
34D0
  5
34D0
331
34E1
  5
34E1
331
355B
  5
355B
331
356C
  5
356C
331
357D
  5
357D
331
34F6
  5
34F6
331
358E
  5
358E
331
3507
  5
3507
331
359F
  5
359F
331
3518
  5
3518
331
35B0
  5
35B0
331
3529
  5
3529
331
354B
  5
354B
331
353A
  5
353A
331
34A1
  5
34A1
331
3490
  5
3490
331
347F
  5
347F
331
346E
  5
346E
331
345D
  5
345D
331
344C
  5
344C
331
343A
  5
343A
331
3429
  5
3429
331
3418
  5
3418
331
360F
  5
3611
331
34BF
  5
34BF
331
3407
  5
3407
331
33F6
  5
33F6
331
33E5
  5
33E5
331
33D4
  5
33D4
331
3610
  5
3612
331
34C0
  5
34C0
331
34D1
  5
34D1
331
34E2
  5
34E2
331
355C
  5
355C
331
356D
  5
356D
331
357E
  5
357E
331
34F7
  5
34F7
331
358F
  5
358F
331
3508
  5
3508
331
35A0
  5
35A0
331
3519
  5
3519
331
35B1
  5
35B1
331
352A
  5
352A
331
354C
  5
354C
331
353B
  5
353B
331
34A2
  5
34A2
331
3491
  5
3491
331
3480
  5
3480
331
346F
  5
346F
331
345E
  5
345E
331
344D
  5
344D
331
343B
  5
343B
331
342A
  5
342A
331
3419
  5
3419
331
3408
  5
3408
331
33F7
  5
33F7
331
33E6
  5
33E6
331
33D5
  5
33D5
331
34B0
  5
34B0
331
3611
  5
3608
331
34C1
  5
34C1
331
34D2
  5
34D2
331
34E3
  5
34E3
331
355D
  5
355D
331
356E
  5
356E
331
357F
  5
357F
331
34F8
  5
34F8
331
3590
  5
3590
331
3509
  5
3509
331
35A1
  5
35A1
331
351A
  5
351A
331
35B2
  5
35B2
331
352B
  5
352B
331
354D
  5
354D
331
353C
  5
353C
331
34A3
  5
34A3
331
3492
  5
3492
331
3481
  5
3481
331
3470
  5
3470
331
345F
  5
345F
331
344E
  5
344E
331
343C
  5
343C
331
342B
  5
342B
331
341A
  5
341A
331
3409
  5
3409
331
33F8
  5
33F8
331
33E7
  5
33E7
331
33D6
  5
33D6
  0
XRECORD
  5
2CAC
102
{ACAD_REACTORS
330
2CAB
102
}
330
2CAB
100
AcDbXrecord
280
     1
 90
        1
340
A61
  0
ACDBDETAILVIEWSTYLE
  5
10B9
102
{ACAD_XDICTIONARY
360
13FE
102
}
102
{ACAD_REACTORS
330
CCB
102
}
330
CCB
100
AcDbModelDocViewStyle
 70
     0
  3

290
     0
100
AcDbDetailViewStyle
 70
     0
 71
     0
 90
        3
 71
     1
340
159
 62
     7
 40
5.0
340
D74
 62
   256
 40
5.0
300

 40
0.0
280
     0
 71
     2
340
16
 90
       25
 62
   256
 71
     3
340
159
 62
     7
 40
5.0
 90
        1
 40
15.0
 90
        1
300
%<\AcVar ViewDetailId>% (%<\AcVar ViewScale \f "%sn">%)
 71
     4
340
16
 90
       25
 62
   256
340
16
 90
       25
 62
   256
280
     1
  0
ACDBDETAILVIEWSTYLE
  5
CCC
102
{ACAD_XDICTIONARY
360
13FC
102
}
102
{ACAD_REACTORS
330
CCB
102
}
330
CCB
100
AcDbModelDocViewStyle
 70
     0
  3
Metric50
290
     0
100
AcDbDetailViewStyle
 70
     0
 71
     0
 90
        3
 71
     1
340
10
 62
   256
 40
5.0
340
0
 62
   256
 40
5.0
300

 40
0.0
280
     1
 71
     2
340
16
 90
       25
 62
   256
 71
     3
340
10
 62
   256
 40
5.0
 90
        0
 40
15.0
 90
        1
300
%<\AcVar ViewDetailId>% (%<\AcVar ViewScale \f "%sn">%)
 71
     4
340
16
 90
       25
 62
   256
340
16
 90
       25
 62
   256
280
     0
  0
LAYOUT
  5
2CA4
102
{ACAD_REACTORS
330
167
102
}
330
167
100
AcDbPlotSettings
  1

  2
none_device
  4
ISO_A4_(210.00_x_297.00_MM)
  6

 40
7.5
 41
20.0
 42
7.5
 43
20.0
 44
210.0
 45
297.0
 46
0.0
 47
0.0
 48
0.0
 49
0.0
140
0.0
141
0.0
142
1.0
143
2.0
 70
   688
 72
     1
 73
     1
 74
     5
  7
@Layout.ctb
 75
    17
147
0.5
 76
     0
 77
     2
 78
   300
148
0.0
149
0.0
100
AcDbLayout
  1
Layout1
 70
     1
 71
     1
 10
0.0
 20
0.0
 11
12.0
 21
9.0
 12
0.0
 22
0.0
 32
0.0
 14
1.000000000000000E+20
 24
1.000000000000000E+20
 34
1.000000000000000E+20
 15
-1.000000000000000E+20
 25
-1.000000000000000E+20
 35
-1.000000000000000E+20
146
0.0
 13
0.0
 23
0.0
 33
0.0
 16
1.0
 26
0.0
 36
0.0
 17
0.0
 27
1.0
 37
0.0
 76
     0
330
2CA3
331
2CAA
1001
ACAD_PSEXT
1000
None
1000
None
1000
Not applicable
1000
The layout will not be plotted unless a new plotter configuration name is selected.
1070
     0
  0
LAYOUT
  5
169
102
{ACAD_XDICTIONARY
360
1474
102
}
102
{ACAD_REACTORS
330
167
102
}
330
167
100
AcDbPlotSettings
  1

  2
none_device
  4
Letter_(8.50_x_11.00_Inches)
  6

 40
6.349999904632567
 41
6.349999904632567
 42
6.350006103515625
 43
6.350006103515625
 44
215.8999938964844
 45
279.3999938964844
 46
38.1308720290886
 47
0.0
 48
0.0
 49
0.0
140
0.0
141
0.0
142
1.0
143
24.24127445441686
 70
 11956
 72
     0
 73
     1
 74
     0
  7
@Layout.ctb
 75
     0
147
0.0412519565289521
 76
     0
 77
     2
 78
   300
148
8019.824937415057
149
-189.2331007602539
100
AcDbLayout
  1
Model
 70
     1
 71
     0
 10
0.0
 20
0.0
 11
12.0
 21
9.0
 12
0.0
 22
0.0
 32
0.0
 14
0.0
 24
0.0
 34
0.0
 15
0.0
 25
0.0
 35
0.0
146
0.0
 13
0.0
 23
0.0
 33
0.0
 16
1.0
 26
0.0
 36
0.0
 17
0.0
 27
1.0
 37
0.0
 76
     0
330
1A
331
A35
1001
ACAD_PSEXT
1000
None
1000
None
1000
Not applicable
1000
The layout will not be plotted unless a new plotter configuration name is selected.
1070
     0
  0
MATERIAL
  5
A3F
102
{ACAD_XDICTIONARY
360
A40
102
}
102
{ACAD_REACTORS
330
3C9
102
}
330
3C9
100
AcDbMaterial
  1
ByBlock
 72
     0
 43
0.0008202099737533
 43
0.0
 43
0.0
 43
0.0
 43
0.0
 43
0.0008202099737533
 43
0.0
 43
0.0
 43
0.0
 43
0.0
 43
1.0
 43
0.0
 43
0.0
 43
0.0
 43
0.0
 43
1.0
 77
     0
 47
0.0008202099737533
 47
0.0
 47
0.0
 47
0.0
 47
0.0
 47
0.0008202099737533
 47
0.0
 47
0.0
 47
0.0
 47
0.0
 47
1.0
 47
0.0
 47
0.0
 47
0.0
 47
0.0
 47
1.0
171
     0
 49
0.0008202099737533
 49
0.0
 49
0.0
 49
0.0
 49
0.0
 49
0.0008202099737533
 49
0.0
 49
0.0
 49
0.0
 49
0.0
 49
1.0
 49
0.0
 49
0.0
 49
0.0
 49
0.0
 49
1.0
175
     0
142
0.0008202099737533
142
0.0
142
0.0
142
0.0
142
0.0
142
0.0008202099737533
142
0.0
142
0.0
142
0.0
142
0.0
142
1.0
142
0.0
142
0.0
142
0.0
142
0.0
142
1.0
179
     0
144
0.0008202099737533
144
0.0
144
0.0
144
0.0
144
0.0
144
0.0008202099737533
144
0.0
144
0.0
144
0.0
144
0.0
144
1.0
144
0.0
144
0.0
144
0.0
144
0.0
144
1.0
147
0.0008202099737533
147
0.0
147
0.0
147
0.0
147
0.0
147
0.0008202099737533
147
0.0
147
0.0
147
0.0
147
0.0
147
1.0
147
0.0
147
0.0
147
0.0
147
0.0
147
1.0
  0
MATERIAL
  5
A37
102
{ACAD_XDICTIONARY
360
A38
102
}
102
{ACAD_REACTORS
330
3C9
102
}
330
3C9
100
AcDbMaterial
  1
ByLayer
 72
     0
 43
0.0008202099737533
 43
0.0
 43
0.0
 43
0.0
 43
0.0
 43
0.0008202099737533
 43
0.0
 43
0.0
 43
0.0
 43
0.0
 43
1.0
 43
0.0
 43
0.0
 43
0.0
 43
0.0
 43
1.0
 77
     0
 47
0.0008202099737533
 47
0.0
 47
0.0
 47
0.0
 47
0.0
 47
0.0008202099737533
 47
0.0
 47
0.0
 47
0.0
 47
0.0
 47
1.0
 47
0.0
 47
0.0
 47
0.0
 47
0.0
 47
1.0
171
     0
 49
0.0008202099737533
 49
0.0
 49
0.0
 49
0.0
 49
0.0
 49
0.0008202099737533
 49
0.0
 49
0.0
 49
0.0
 49
0.0
 49
1.0
 49
0.0
 49
0.0
 49
0.0
 49
0.0
 49
1.0
175
     0
142
0.0008202099737533
142
0.0
142
0.0
142
0.0
142
0.0
142
0.0008202099737533
142
0.0
142
0.0
142
0.0
142
0.0
142
1.0
142
0.0
142
0.0
142
0.0
142
0.0
142
1.0
179
     0
144
0.0008202099737533
144
0.0
144
0.0
144
0.0
144
0.0
144
0.0008202099737533
144
0.0
144
0.0
144
0.0
144
0.0
144
1.0
144
0.0
144
0.0
144
0.0
144
0.0
144
1.0
147
0.0008202099737533
147
0.0
147
0.0
147
0.0
147
0.0
147
0.0008202099737533
147
0.0
147
0.0
147
0.0
147
0.0
147
1.0
147
0.0
147
0.0
147
0.0
147
0.0
147
1.0
  0
MATERIAL
  5
A47
102
{ACAD_XDICTIONARY
360
A48
102
}
102
{ACAD_REACTORS
330
3C9
102
}
330
3C9
100
AcDbMaterial
  1
Global
 72
     0
 43
0.0008202099737533
 43
0.0
 43
0.0
 43
0.0
 43
0.0
 43
0.0008202099737533
 43
0.0
 43
0.0
 43
0.0
 43
0.0
 43
1.0
 43
0.0
 43
0.0
 43
0.0
 43
0.0
 43
1.0
 77
     0
 47
0.0008202099737533
 47
0.0
 47
0.0
 47
0.0
 47
0.0
 47
0.0008202099737533
 47
0.0
 47
0.0
 47
0.0
 47
0.0
 47
1.0
 47
0.0
 47
0.0
 47
0.0
 47
0.0
 47
1.0
171
     0
 49
0.0008202099737533
 49
0.0
 49
0.0
 49
0.0
 49
0.0
 49
0.0008202099737533
 49
0.0
 49
0.0
 49
0.0
 49
0.0
 49
1.0
 49
0.0
 49
0.0
 49
0.0
 49
0.0
 49
1.0
175
     0
142
0.0008202099737533
142
0.0
142
0.0
142
0.0
142
0.0
142
0.0008202099737533
142
0.0
142
0.0
142
0.0
142
0.0
142
1.0
142
0.0
142
0.0
142
0.0
142
0.0
142
1.0
179
     0
144
0.0008202099737533
144
0.0
144
0.0
144
0.0
144
0.0
144
0.0008202099737533
144
0.0
144
0.0
144
0.0
144
0.0
144
1.0
144
0.0
144
0.0
144
0.0
144
0.0
144
1.0
147
0.0008202099737533
147
0.0
147
0.0
147
0.0
147
0.0
147
0.0008202099737533
147
0.0
147
0.0
147
0.0
147
0.0
147
1.0
147
0.0
147
0.0
147
0.0
147
0.0
147
1.0
  0
MLEADERSTYLE
  5
A73
102
{ACAD_XDICTIONARY
360
1497
102
}
102
{ACAD_REACTORS
330
A72
102
}
330
A72
100
AcDbMLeaderStyle
179
     2
170
     2
171
     1
172
     0
 90
        2
 40
0.0
 41
0.0
173
     1
 91
-1056964608
340
14
 92
       -2
290
     1
 42
2.0
291
     1
 43
0.36
  3
Standard
 44
4.0
300

342
10
174
     1
178
     6
175
     1
176
     0
 93
-1056964608
 45
4.0
292
     0
297
     0
 46
4.0
 94
-1056964608
 47
1.0
 49
1.0
140
1.0
293
     1
141
0.0
294
     1
177
     0
142
1.0
295
     0
296
     0
143
0.125
271
     0
272
     9
273
     9
298
     1
  0
MLINESTYLE
  5
13
102
{ACAD_REACTORS
330
E
102
}
330
E
100
AcDbMlineStyle
  2
STANDARD
 70
     0
  3

 62
     0
 51
90.0
 52
90.0
 71
     2
 49
0.5
 62
   256
  6
BYLAYER
 49
-0.5
 62
   256
  6
BYLAYER
  0
PLOTSETTINGS
  5
2C89
102
{ACAD_REACTORS
330
168
102
}
330
168
100
AcDbPlotSettings
  1
Setup1
  2
none_device
  4
ISO_A4_(210.00_x_297.00_MM)
  6

 40
7.5
 41
20.0
 42
7.5
 43
20.0
 44
210.0
 45
297.0
 46
0.0
 47
0.0
 48
0.0
 49
0.0
140
0.0
141
0.0
142
1.0
143
2.0
 70
   688
 72
     1
 73
     1
 74
     5
  7
@Layout.ctb
 75
    17
147
0.5
 76
     0
 77
     2
 78
   300
148
0.0
149
0.0
1001
ACAD_PSEXT
1000
None
1000
None
1000
Not applicable
1000
The layout will not be plotted unless a new plotter configuration name is selected.
1070
     0
  0
ACDBPLACEHOLDER
  5
166
102
{ACAD_REACTORS
330
165
102
}
330
165
  0
SCALE
  5
A61
102
{ACAD_REACTORS
330
A60
102
}
330
A60
100
AcDbScale
 70
     0
300
1:1
140
1.0
141
1.0
290
     1
  0
SCALE
  5
A62
102
{ACAD_REACTORS
330
A60
102
}
330
A60
100
AcDbScale
 70
     0
300
1:2
140
1.0
141
2.0
290
     0
  0
SCALE
  5
A63
102
{ACAD_REACTORS
330
A60
102
}
330
A60
100
AcDbScale
 70
     0
300
1:4
140
1.0
141
4.0
290
     0
  0
SCALE
  5
A64
102
{ACAD_REACTORS
330
A60
102
}
330
A60
100
AcDbScale
 70
     0
300
1:5
140
1.0
141
5.0
290
     0
  0
SCALE
  5
A65
102
{ACAD_REACTORS
330
A60
102
}
330
A60
100
AcDbScale
 70
     0
300
1:8
140
1.0
141
8.0
290
     0
  0
SCALE
  5
A66
102
{ACAD_REACTORS
330
A60
102
}
330
A60
100
AcDbScale
 70
     0
300
1:10
140
1.0
141
10.0
290
     0
  0
SCALE
  5
A67
102
{ACAD_REACTORS
330
A60
102
}
330
A60
100
AcDbScale
 70
     0
300
1:16
140
1.0
141
16.0
290
     0
  0
SCALE
  5
A68
102
{ACAD_REACTORS
330
A60
102
}
330
A60
100
AcDbScale
 70
     0
300
1:20
140
1.0
141
20.0
290
     0
  0
SCALE
  5
A69
102
{ACAD_REACTORS
330
A60
102
}
330
A60
100
AcDbScale
 70
     0
300
1:30
140
1.0
141
30.0
290
     0
  0
SCALE
  5
A6A
102
{ACAD_REACTORS
330
A60
102
}
330
A60
100
AcDbScale
 70
     0
300
1:40
140
1.0
141
40.0
290
     0
  0
SCALE
  5
A6B
102
{ACAD_REACTORS
330
A60
102
}
330
A60
100
AcDbScale
 70
     0
300
1:50
140
1.0
141
50.0
290
     0
  0
SCALE
  5
A6C
102
{ACAD_REACTORS
330
A60
102
}
330
A60
100
AcDbScale
 70
     0
300
1:100
140
1.0
141
100.0
290
     0
  0
SCALE
  5
A6D
102
{ACAD_REACTORS
330
A60
102
}
330
A60
100
AcDbScale
 70
     0
300
2:1
140
2.0
141
1.0
290
     0
  0
SCALE
  5
A6E
102
{ACAD_REACTORS
330
A60
102
}
330
A60
100
AcDbScale
 70
     0
300
4:1
140
4.0
141
1.0
290
     0
  0
SCALE
  5
A6F
102
{ACAD_REACTORS
330
A60
102
}
330
A60
100
AcDbScale
 70
     0
300
8:1
140
8.0
141
1.0
290
     0
  0
SCALE
  5
A70
102
{ACAD_REACTORS
330
A60
102
}
330
A60
100
AcDbScale
 70
     0
300
10:1
140
10.0
141
1.0
290
     0
  0
SCALE
  5
A71
102
{ACAD_REACTORS
330
A60
102
}
330
A60
100
AcDbScale
 70
     0
300
100:1
140
100.0
141
1.0
290
     0
  0
ACDBSECTIONVIEWSTYLE
  5
10BA
102
{ACAD_XDICTIONARY
360
10BB
102
}
102
{ACAD_REACTORS
330
CC9
102
}
330
CC9
100
AcDbModelDocViewStyle
 70
     0
  3

290
     0
100
AcDbSectionViewStyle
 70
     0
 71
     0
 90
      110
 71
     1
340
159
 62
     7
 40
5.0
340
D78
340
D78
 62
     0
 40
7.0
300
I,O,Q,S,X,Z
 40
10.0
 90
        4
 40
2.5
 90
        0
 71
     2
340
176
 90
       -1
 62
     1
340
176
 90
       -1
 62
     4
 40
10.0
 40
5.0
 40
10.0
 71
     3
340
159
 62
     7
 40
5.0
 90
        1
 40
5.25
 90
        1
300
%<\AcVar ViewSectionStartId>%-%<\AcVar ViewSectionEndId>%
 71
     4
 62
   256
 62
   257
300
ANSI31
 40
1.0
 90
        0
290
     0
290
     0
 90
        6
 40
0.0
 40
1.570796326794896
 40
0.2617993877991494
 40
1.308996938995747
 40
-0.2617993877991494
 40
1.832595714594045
  0
ACDBSECTIONVIEWSTYLE
  5
CCA
102
{ACAD_XDICTIONARY
360
13FA
102
}
102
{ACAD_REACTORS
330
CC9
102
}
330
CC9
100
AcDbModelDocViewStyle
 70
     0
  3
Metric50
290
     0
100
AcDbSectionViewStyle
 70
     0
 71
     0
 90
      102
 71
     1
340
10
 62
   256
 40
5.0
340
0
340
0
 62
   256
 40
5.0
300
I, O, Q, S, X, Z
 40
10.0
 90
        0
 40
2.5
 90
        0
 71
     2
340
16
 90
       25
 62
   256
340
16
 90
       50
 62
   256
 40
5.0
 40
2.5
 40
5.0
 71
     3
340
10
 62
   256
 40
5.0
 90
        0
 40
15.0
 90
        1
300
%<\AcVar ViewSectionStartId>%-%<\AcVar ViewSectionEndId>% (%<\AcVar ViewScale \f "%sn">%)
 71
     4
 62
   256
 62
   257
300
ANSI31
 40
1.0
 90
        0
290
     0
290
     0
 90
        6
 40
0.0
 40
1.570796326794896
 40
0.2617993877991494
 40
1.308996938995747
 40
-0.2617993877991494
 40
1.832595714594045
  0
TABLESTYLE
  5
651
102
{ACAD_XDICTIONARY
360
AED
102
}
102
{ACAD_REACTORS
330
650
102
}
330
650
100
AcDbTableStyle
280
     0
  3
Standard
 70
     0
 71
     0
 40
1.5
 41
1.5
280
     0
281
     0
  7
STANDARD
140
4.5
170
     2
 62
     0
 63
     7
283
     0
 90
        4
 91
        0
  1

274
    -2
284
     1
 64
     0
275
    -2
285
     1
 65
     0
276
    -2
286
     1
 66
     0
277
    -2
287
     1
 67
     0
278
    -2
288
     1
 68
     0
279
    -2
289
     1
 69
     0
  7
STANDARD
140
6.0
170
     5
 62
     0
 63
     7
283
     0
 90
        4
 91
        0
  1

274
    -2
284
     1
 64
     0
275
    -2
285
     1
 65
     0
276
    -2
286
     1
 66
     0
277
    -2
287
     1
 67
     0
278
    -2
288
     1
 68
     0
279
    -2
289
     1
 69
     0
  7
STANDARD
140
4.5
170
     5
 62
     0
 63
     7
283
     0
 90
        4
 91
        0
  1

274
    -2
284
     1
 64
     0
275
    -2
285
     1
 65
     0
276
    -2
286
     1
 66
     0
277
    -2
287
     1
 67
     0
278
    -2
288
     1
 68
     0
279
    -2
289
     1
 69
     0
  0
VISUALSTYLE
  5
A55
102
{ACAD_REACTORS
330
A4F
102
}
330
A4F
100
AcDbVisualStyle
  2
2dWireframe
 70
     4
177
     3
291
     0
 70
    58
 90
        0
176
     1
 90
        2
176
     1
 90
        0
176
     1
 90
        0
176
     1
 40
0.6
176
     1
 40
30.0
176
     1
 62
     7
420
 16777215
176
     1
 90
        1
176
     1
 90
        4
176
     1
 62
     7
176
     1
 62
   257
176
     1
 90
        1
176
     1
 90
        1
176
     1
 40
1.0
176
     1
 90
        0
176
     1
 62
   257
176
     1
 40
1.0
176
     1
 90
        1
176
     1
 90
        6
176
     1
 90
        2
176
     1
 62
     7
176
     1
 90
        5
176
     1
 90
        0
176
     1
 90
        0
176
     1
290
     0
176
     1
 90
        1
176
     1
 40
0.0
176
     1
 90
        0
176
     1
290
     1
176
     1
290
     1
176
     1
290
     0
176
     1
290
     0
176
     1
290
     0
176
     1
290
     0
176
     1
290
     0
176
     1
290
     0
176
     1
290
     0
176
     1
 90
       50
176
     1
 40
0.0
176
     1
 40
1.0
176
     1
 90
        0
176
     1
 62
    18
176
     1
 90
       50
176
     1
 90
        3
176
     1
 62
     5
420
      255
176
     1
290
     0
176
     1
 90
       50
176
     1
 90
       50
176
     1
 90
       50
176
     1
290
     0
176
     1
 90
       50
176
     1
 62
   256
176
     0
 40
1.0
176
     0
 90
        2
176
     1
  1
strokes_ogs.tif
176
     1
290
     0
176
     1
 40
1.0
176
     1
 40
1.0
176
     1
  0
VISUALSTYLE
  5
A57
102
{ACAD_REACTORS
330
A4F
102
}
330
A4F
100
AcDbVisualStyle
  2
3D Hidden
 70
     6
177
     3
291
     0
 70
    58
 90
        1
176
     1
 90
        2
176
     1
 90
        2
176
     1
 90
        0
176
     1
 40
0.6
176
     1
 40
30.0
176
     1
 62
     7
420
 16777215
176
     1
 90
        2
176
     1
 90
        2
176
     1
 62
     7
176
     1
 62
   257
176
     1
 90
        2
176
     1
 90
        1
176
     1
 40
40.0
176
     1
 90
        0
176
     1
 62
   257
176
     1
 40
1.0
176
     1
 90
        1
176
     1
 90
        6
176
     1
 90
        2
176
     1
 62
     7
176
     1
 90
        3
176
     1
 90
        0
176
     1
 90
        0
176
     1
290
     0
176
     1
 90
        1
176
     1
 40
0.0
176
     1
 90
        0
176
     1
290
     0
176
     1
290
     1
176
     1
290
     1
176
     1
290
     0
176
     1
290
     0
176
     1
290
     0
176
     1
290
     0
176
     1
290
     0
176
     1
290
     0
176
     1
 90
       50
176
     1
 40
0.0
176
     1
 40
1.0
176
     1
 90
        0
176
     1
 62
    18
176
     1
 90
       50
176
     1
 90
        3
176
     1
 62
     5
420
      255
176
     1
290
     0
176
     1
 90
       50
176
     1
 90
       50
176
     1
 90
       50
176
     1
290
     0
176
     1
 90
       50
176
     1
 62
   256
176
     0
 40
1.0
176
     0
 90
        2
176
     1
  1
strokes_ogs.tif
176
     1
290
     0
176
     1
 40
1.0
176
     1
 40
1.0
176
     1
  0
VISUALSTYLE
  5
A56
102
{ACAD_REACTORS
330
A4F
102
}
330
A4F
100
AcDbVisualStyle
  2
3dWireframe
 70
     5
177
     3
291
     0
 70
    58
 90
        0
176
     1
 90
        2
176
     1
 90
        0
176
     1
 90
        0
176
     1
 40
0.6
176
     1
 40
30.0
176
     1
 62
     7
420
 16777215
176
     1
 90
        1
176
     1
 90
        4
176
     1
 62
     7
176
     1
 62
   257
176
     1
 90
        1
176
     1
 90
        1
176
     1
 40
1.0
176
     1
 90
        0
176
     1
 62
   257
176
     1
 40
1.0
176
     1
 90
        1
176
     1
 90
        6
176
     1
 90
        2
176
     1
 62
     7
176
     1
 90
        5
176
     1
 90
        0
176
     1
 90
        0
176
     1
290
     0
176
     1
 90
        1
176
     1
 40
0.0
176
     1
 90
        0
176
     1
290
     0
176
     1
290
     1
176
     1
290
     1
176
     1
290
     0
176
     1
290
     0
176
     1
290
     0
176
     1
290
     0
176
     1
290
     0
176
     1
290
     0
176
     1
 90
       50
176
     1
 40
0.0
176
     1
 40
1.0
176
     1
 90
        0
176
     1
 62
    18
176
     1
 90
       50
176
     1
 90
        3
176
     1
 62
     5
420
      255
176
     1
290
     0
176
     1
 90
       50
176
     1
 90
       50
176
     1
 90
       50
176
     1
290
     0
176
     1
 90
       50
176
     1
 62
   256
176
     0
 40
1.0
176
     0
 90
        2
176
     1
  1
strokes_ogs.tif
176
     1
290
     0
176
     1
 40
1.0
176
     1
 40
1.0
176
     1
  0
VISUALSTYLE
  5
A54
102
{ACAD_REACTORS
330
A4F
102
}
330
A4F
100
AcDbVisualStyle
  2
Basic
 70
     7
177
     3
291
     1
 70
    58
 90
        1
176
     1
 90
        0
176
     1
 90
        1
176
     1
 90
        0
176
     1
 40
0.6
176
     1
 40
30.0
176
     1
 62
     7
420
 16777215
176
     1
 90
        0
176
     1
 90
        4
176
     1
 62
     7
176
     1
 62
   257
176
     1
 90
        1
176
     1
 90
        1
176
     1
 40
1.0
176
     1
 90
        8
176
     1
 62
     7
176
     1
 40
1.0
176
     1
 90
        1
176
     1
 90
        6
176
     1
 90
        2
176
     1
 62
     7
176
     1
 90
        5
176
     1
 90
        0
176
     1
 90
        0
176
     1
290
     0
176
     1
 90
        1
176
     1
 40
0.0
176
     1
 90
        0
176
     1
290
     0
176
     1
290
     1
176
     1
290
     1
176
     1
290
     0
176
     1
290
     0
176
     1
290
     0
176
     1
290
     0
176
     1
290
     0
176
     1
290
     0
176
     1
 90
       50
176
     1
 40
0.0
176
     1
 40
1.0
176
     1
 90
        0
176
     1
 62
    18
176
     1
 90
       50
176
     1
 90
        3
176
     1
 62
     5
420
      255
176
     1
290
     0
176
     1
 90
       50
176
     1
 90
       50
176
     1
 90
       50
176
     1
290
     0
176
     1
 90
       50
176
     1
 62
   256
176
     0
 40
1.0
176
     0
 90
        2
176
     1
  1
strokes_ogs.tif
176
     1
290
     0
176
     1
 40
1.0
176
     1
 40
1.0
176
     1
  0
VISUALSTYLE
  5
A5B
102
{ACAD_REACTORS
330
A4F
102
}
330
A4F
100
AcDbVisualStyle
  2
Brighten
 70
    12
177
     3
291
     1
 70
    58
 90
        2
176
     1
 90
        2
176
     1
 90
        0
176
     1
 90
        0
176
     1
 40
0.6
176
     1
 40
30.0
176
     1
 62
     7
420
 16777215
176
     1
 90
        1
176
     1
 90
        4
176
     1
 62
     7
176
     1
 62
   257
176
     1
 90
        1
176
     1
 90
        1
176
     1
 40
1.0
176
     1
 90
        8
176
     1
 62
     7
176
     1
 40
1.0
176
     1
 90
        1
176
     1
 90
        6
176
     1
 90
        2
176
     1
 62
     7
176
     1
 90
        5
176
     1
 90
        0
176
     1
 90
        0
176
     1
290
     0
176
     1
 90
        1
176
     1
 40
50.0
176
     1
 90
        0
176
     1
290
     0
176
     1
290
     1
176
     1
290
     1
176
     1
290
     0
176
     1
290
     0
176
     1
290
     0
176
     1
290
     0
176
     1
290
     0
176
     1
290
     0
176
     1
 90
       50
176
     1
 40
0.0
176
     1
 40
1.0
176
     1
 90
        0
176
     1
 62
    18
176
     1
 90
       50
176
     1
 90
        3
176
     1
 62
     5
420
      255
176
     1
290
     0
176
     1
 90
       50
176
     1
 90
       50
176
     1
 90
       50
176
     1
290
     0
176
     1
 90
       50
176
     1
 62
   256
176
     0
 40
1.0
176
     0
 90
        2
176
     1
  1
strokes_ogs.tif
176
     1
290
     0
176
     1
 40
1.0
176
     1
 40
1.0
176
     1
  0
VISUALSTYLE
  5
A5F
102
{ACAD_REACTORS
330
A4F
102
}
330
A4F
100
AcDbVisualStyle
  2
ColorChange
 70
    16
177
     3
291
     1
 70
    58
 90
        2
176
     1
 90
        2
176
     1
 90
        3
176
     1
 90
        0
176
     1
 40
0.6
176
     1
 40
30.0
176
     1
 62
     8
420
  8421504
176
     1
 90
        1
176
     1
 90
        4
176
     1
 62
     7
176
     1
 62
   257
176
     1
 90
        1
176
     1
 90
        1
176
     1
 40
1.0
176
     1
 90
        8
176
     1
 62
     8
420
  8421504
176
     1
 40
1.0
176
     1
 90
        1
176
     1
 90
        6
176
     1
 90
        2
176
     1
 62
     7
176
     1
 90
        5
176
     1
 90
        0
176
     1
 90
        0
176
     1
290
     0
176
     1
 90
        1
176
     1
 40
0.0
176
     1
 90
        0
176
     1
290
     0
176
     1
290
     1
176
     1
290
     1
176
     1
290
     0
176
     1
290
     0
176
     1
290
     0
176
     1
290
     0
176
     1
290
     0
176
     1
290
     0
176
     1
 90
       50
176
     1
 40
0.0
176
     1
 40
1.0
176
     1
 90
        0
176
     1
 62
    18
176
     1
 90
       50
176
     1
 90
        3
176
     1
 62
     5
420
      255
176
     1
290
     0
176
     1
 90
       50
176
     1
 90
       50
176
     1
 90
       50
176
     1
290
     0
176
     1
 90
       50
176
     1
 62
   256
176
     0
 40
1.0
176
     0
 90
        2
176
     1
  1
strokes_ogs.tif
176
     1
290
     0
176
     1
 40
1.0
176
     1
 40
1.0
176
     1
  0
VISUALSTYLE
  5
A58
102
{ACAD_REACTORS
330
A4F
102
}
330
A4F
100
AcDbVisualStyle
  2
Conceptual
 70
     9
177
     3
291
     0
 70
    58
 90
        3
176
     1
 90
        2
176
     1
 90
        0
176
     1
 90
        0
176
     1
 40
0.6
176
     1
 40
30.0
176
     1
 62
     7
420
 16777215
176
     1
 90
        2
176
     1
 90
        2
176
     1
 62
     7
176
     1
 62
   257
176
     1
 90
        1
176
     1
 90
        1
176
     1
 40
40.0
176
     1
 90
        8
176
     1
 62
     7
176
     1
 40
1.0
176
     1
 90
        1
176
     1
 90
        6
176
     1
 90
        2
176
     1
 62
     7
176
     1
 90
        3
176
     1
 90
        0
176
     1
 90
        0
176
     1
290
     0
176
     1
 90
        1
176
     1
 40
0.0
176
     1
 90
        0
176
     1
290
     0
176
     1
290
     1
176
     1
290
     1
176
     1
290
     0
176
     1
290
     0
176
     1
290
     0
176
     1
290
     0
176
     1
290
     0
176
     1
290
     0
176
     1
 90
       50
176
     1
 40
0.0
176
     1
 40
1.0
176
     1
 90
        0
176
     1
 62
    18
176
     1
 90
       50
176
     1
 90
        3
176
     1
 62
     5
420
      255
176
     1
290
     0
176
     1
 90
       50
176
     1
 90
       50
176
     1
 90
       50
176
     1
290
     0
176
     1
 90
       50
176
     1
 62
   256
176
     0
 40
1.0
176
     0
 90
        2
176
     1
  1
strokes_ogs.tif
176
     1
290
     0
176
     1
 40
1.0
176
     1
 40
1.0
176
     1
  0
VISUALSTYLE
  5
A5A
102
{ACAD_REACTORS
330
A4F
102
}
330
A4F
100
AcDbVisualStyle
  2
Dim
 70
    11
177
     3
291
     1
 70
    58
 90
        2
176
     1
 90
        2
176
     1
 90
        0
176
     1
 90
        0
176
     1
 40
0.6
176
     1
 40
30.0
176
     1
 62
     7
420
 16777215
176
     1
 90
        1
176
     1
 90
        4
176
     1
 62
     7
176
     1
 62
   257
176
     1
 90
        1
176
     1
 90
        1
176
     1
 40
1.0
176
     1
 90
        8
176
     1
 62
     7
176
     1
 40
1.0
176
     1
 90
        1
176
     1
 90
        6
176
     1
 90
        2
176
     1
 62
     7
176
     1
 90
        5
176
     1
 90
        0
176
     1
 90
        0
176
     1
290
     0
176
     1
 90
        1
176
     1
 40
-50.0
176
     1
 90
        0
176
     1
290
     0
176
     1
290
     1
176
     1
290
     1
176
     1
290
     0
176
     1
290
     0
176
     1
290
     0
176
     1
290
     0
176
     1
290
     0
176
     1
290
     0
176
     1
 90
       50
176
     1
 40
0.0
176
     1
 40
1.0
176
     1
 90
        0
176
     1
 62
    18
176
     1
 90
       50
176
     1
 90
        3
176
     1
 62
     5
420
      255
176
     1
290
     0
176
     1
 90
       50
176
     1
 90
       50
176
     1
 90
       50
176
     1
290
     0
176
     1
 90
       50
176
     1
 62
   256
176
     0
 40
1.0
176
     0
 90
        2
176
     1
  1
strokes_ogs.tif
176
     1
290
     0
176
     1
 40
1.0
176
     1
 40
1.0
176
     1
  0
VISUALSTYLE
  5
CC8
102
{ACAD_REACTORS
330
A4F
102
}
330
A4F
100
AcDbVisualStyle
  2
EdgeColorOff
 70
    22
177
     3
291
     1
 70
    58
 90
        2
176
     0
 90
        2
176
     0
 90
        0
176
     0
 90
        0
176
     0
 40
0.6
176
     0
 40
30.0
176
     0
 62
     7
420
 16777215
176
     0
 90
        1
176
     0
 90
        4
176
     0
 62
     7
176
     0
 62
   257
176
     0
 90
        1
176
     0
 90
        1
176
     0
 40
1.0
176
     0
 90
        8
176
     2
 62
     7
176
     0
 40
1.0
176
     0
 90
        1
176
     0
 90
        6
176
     0
 90
        2
176
     0
 62
     7
176
     0
 90
        5
176
     0
 90
        0
176
     0
 90
        0
176
     0
290
     0
176
     0
 90
        1
176
     0
 40
0.0
176
     0
 90
        0
176
     0
290
     0
176
     0
290
     1
176
     0
290
     1
176
     0
290
     0
176
     0
290
     0
176
     0
290
     0
176
     0
290
     0
176
     0
290
     0
176
     0
290
     0
176
     0
 90
       50
176
     0
 40
0.0
176
     0
 40
1.0
176
     0
 90
        0
176
     0
 62
    18
176
     0
 90
       50
176
     0
 90
        3
176
     0
 62
     5
420
      255
176
     0
290
     0
176
     0
 90
       50
176
     0
 90
       50
176
     0
 90
       50
176
     0
290
     0
176
     0
 90
       50
176
     0
 62
   256
176
     0
 40
1.0
176
     0
 90
        2
176
     0
  1
strokes_ogs.tif
176
     0
290
     0
176
     0
 40
1.0
176
     0
 40
1.0
176
     0
  0
VISUALSTYLE
  5
A5E
102
{ACAD_REACTORS
330
A4F
102
}
330
A4F
100
AcDbVisualStyle
  2
Facepattern
 70
    15
177
     3
291
     1
 70
    58
 90
        2
176
     1
 90
        2
176
     1
 90
        0
176
     1
 90
        0
176
     1
 40
0.6
176
     1
 40
30.0
176
     1
 62
     7
420
 16777215
176
     1
 90
        1
176
     1
 90
        4
176
     1
 62
     7
176
     1
 62
   257
176
     1
 90
        1
176
     1
 90
        1
176
     1
 40
1.0
176
     1
 90
        8
176
     1
 62
     7
176
     1
 40
1.0
176
     1
 90
        1
176
     1
 90
        6
176
     1
 90
        2
176
     1
 62
     7
176
     1
 90
        5
176
     1
 90
        0
176
     1
 90
        0
176
     1
290
     0
176
     1
 90
        1
176
     1
 40
0.0
176
     1
 90
        0
176
     1
290
     0
176
     1
290
     1
176
     1
290
     1
176
     1
290
     0
176
     1
290
     0
176
     1
290
     0
176
     1
290
     0
176
     1
290
     0
176
     1
290
     0
176
     1
 90
       50
176
     1
 40
0.0
176
     1
 40
1.0
176
     1
 90
        0
176
     1
 62
    18
176
     1
 90
       50
176
     1
 90
        3
176
     1
 62
     5
420
      255
176
     1
290
     0
176
     1
 90
       50
176
     1
 90
       50
176
     1
 90
       50
176
     1
290
     0
176
     1
 90
       50
176
     1
 62
   256
176
     0
 40
1.0
176
     0
 90
        2
176
     1
  1
strokes_ogs.tif
176
     1
290
     0
176
     1
 40
1.0
176
     1
 40
1.0
176
     1
  0
VISUALSTYLE
  5
A50
102
{ACAD_REACTORS
330
A4F
102
}
330
A4F
100
AcDbVisualStyle
  2
Flat
 70
     0
177
     3
291
     1
 70
    58
 90
        2
176
     1
 90
        1
176
     1
 90
        1
176
     1
 90
        2
176
     1
 40
0.6
176
     1
 40
30.0
176
     1
 62
     7
420
 16777215
176
     1
 90
        0
176
     1
 90
        4
176
     1
 62
     7
176
     1
 62
   257
176
     1
 90
        1
176
     1
 90
        1
176
     1
 40
1.0
176
     1
 90
        8
176
     1
 62
     7
176
     1
 40
1.0
176
     1
 90
        1
176
     1
 90
        6
176
     1
 90
        2
176
     1
 62
     7
176
     1
 90
        5
176
     1
 90
        0
176
     1
 90
        0
176
     1
290
     0
176
     1
 90
       13
176
     1
 40
0.0
176
     1
 90
        0
176
     1
290
     0
176
     1
290
     1
176
     1
290
     1
176
     1
290
     0
176
     1
290
     0
176
     1
290
     0
176
     1
290
     0
176
     1
290
     0
176
     1
290
     0
176
     1
 90
       50
176
     1
 40
0.0
176
     1
 40
1.0
176
     1
 90
        0
176
     1
 62
    18
176
     1
 90
       50
176
     1
 90
        3
176
     1
 62
     5
420
      255
176
     1
290
     0
176
     1
 90
       50
176
     1
 90
       50
176
     1
 90
       50
176
     1
290
     0
176
     1
 90
       50
176
     1
 62
   256
176
     0
 40
1.0
176
     0
 90
        2
176
     1
  1
strokes_ogs.tif
176
     1
290
     0
176
     1
 40
1.0
176
     1
 40
1.0
176
     1
  0
VISUALSTYLE
  5
A51
102
{ACAD_REACTORS
330
A4F
102
}
330
A4F
100
AcDbVisualStyle
  2
FlatWithEdges
 70
     1
177
     3
291
     1
 70
    58
 90
        2
176
     1
 90
        1
176
     1
 90
        1
176
     1
 90
        2
176
     1
 40
0.6
176
     1
 40
30.0
176
     1
 62
     7
420
 16777215
176
     1
 90
        1
176
     1
 90
        4
176
     1
 62
     7
176
     1
 62
   257
176
     1
 90
        1
176
     1
 90
        1
176
     1
 40
1.0
176
     1
 90
        0
176
     1
 62
   257
176
     1
 40
1.0
176
     1
 90
        1
176
     1
 90
        6
176
     1
 90
        2
176
     1
 62
     7
176
     1
 90
        5
176
     1
 90
        0
176
     1
 90
        0
176
     1
290
     0
176
     1
 90
       13
176
     1
 40
0.0
176
     1
 90
        0
176
     1
290
     0
176
     1
290
     1
176
     1
290
     1
176
     1
290
     0
176
     1
290
     0
176
     1
290
     0
176
     1
290
     0
176
     1
290
     0
176
     1
290
     0
176
     1
 90
       50
176
     1
 40
0.0
176
     1
 40
1.0
176
     1
 90
        0
176
     1
 62
    18
176
     1
 90
       50
176
     1
 90
        3
176
     1
 62
     5
420
      255
176
     1
290
     0
176
     1
 90
       50
176
     1
 90
       50
176
     1
 90
       50
176
     1
290
     0
176
     1
 90
       50
176
     1
 62
   256
176
     0
 40
1.0
176
     0
 90
        2
176
     1
  1
strokes_ogs.tif
176
     1
290
     0
176
     1
 40
1.0
176
     1
 40
1.0
176
     1
  0
VISUALSTYLE
  5
A52
102
{ACAD_REACTORS
330
A4F
102
}
330
A4F
100
AcDbVisualStyle
  2
Gouraud
 70
     2
177
     3
291
     1
 70
    58
 90
        2
176
     1
 90
        2
176
     1
 90
        1
176
     1
 90
        2
176
     1
 40
0.6
176
     1
 40
30.0
176
     1
 62
     7
420
 16777215
176
     1
 90
        0
176
     1
 90
        4
176
     1
 62
     7
176
     1
 62
   257
176
     1
 90
        1
176
     1
 90
        1
176
     1
 40
1.0
176
     1
 90
        0
176
     1
 62
     7
176
     1
 40
1.0
176
     1
 90
        1
176
     1
 90
        6
176
     1
 90
        2
176
     1
 62
     7
176
     1
 90
        5
176
     1
 90
        0
176
     1
 90
        0
176
     1
290
     0
176
     1
 90
       13
176
     1
 40
0.0
176
     1
 90
        0
176
     1
290
     0
176
     1
290
     1
176
     1
290
     1
176
     1
290
     0
176
     1
290
     0
176
     1
290
     0
176
     1
290
     0
176
     1
290
     0
176
     1
290
     0
176
     1
 90
       50
176
     1
 40
0.0
176
     1
 40
1.0
176
     1
 90
        0
176
     1
 62
    18
176
     1
 90
       50
176
     1
 90
        3
176
     1
 62
     5
420
      255
176
     1
290
     0
176
     1
 90
       50
176
     1
 90
       50
176
     1
 90
       50
176
     1
290
     0
176
     1
 90
       50
176
     1
 62
   256
176
     0
 40
1.0
176
     0
 90
        2
176
     1
  1
strokes_ogs.tif
176
     1
290
     0
176
     1
 40
1.0
176
     1
 40
1.0
176
     1
  0
VISUALSTYLE
  5
A53
102
{ACAD_REACTORS
330
A4F
102
}
330
A4F
100
AcDbVisualStyle
  2
GouraudWithEdges
 70
     3
177
     3
291
     1
 70
    58
 90
        2
176
     1
 90
        2
176
     1
 90
        1
176
     1
 90
        2
176
     1
 40
0.6
176
     1
 40
30.0
176
     1
 62
     7
420
 16777215
176
     1
 90
        1
176
     1
 90
        4
176
     1
 62
     7
176
     1
 62
   257
176
     1
 90
        1
176
     1
 90
        1
176
     1
 40
1.0
176
     1
 90
        0
176
     1
 62
   257
176
     1
 40
1.0
176
     1
 90
        1
176
     1
 90
        6
176
     1
 90
        2
176
     1
 62
     7
176
     1
 90
        5
176
     1
 90
        0
176
     1
 90
        0
176
     1
290
     0
176
     1
 90
       13
176
     1
 40
0.0
176
     1
 90
        0
176
     1
290
     0
176
     1
290
     1
176
     1
290
     1
176
     1
290
     0
176
     1
290
     0
176
     1
290
     0
176
     1
290
     0
176
     1
290
     0
176
     1
290
     0
176
     1
 90
       50
176
     1
 40
0.0
176
     1
 40
1.0
176
     1
 90
        0
176
     1
 62
    18
176
     1
 90
       50
176
     1
 90
        3
176
     1
 62
     5
420
      255
176
     1
290
     0
176
     1
 90
       50
176
     1
 90
       50
176
     1
 90
       50
176
     1
290
     0
176
     1
 90
       50
176
     1
 62
   256
176
     0
 40
1.0
176
     0
 90
        2
176
     1
  1
strokes_ogs.tif
176
     1
290
     0
176
     1
 40
1.0
176
     1
 40
1.0
176
     1
  0
VISUALSTYLE
  5
CC0
102
{ACAD_REACTORS
330
A4F
102
}
330
A4F
100
AcDbVisualStyle
  2
Hidden
 70
     6
177
     3
291
     0
 70
    58
 90
        1
176
     1
 90
        2
176
     1
 90
        2
176
     1
 90
        0
176
     1
 40
0.6
176
     1
 40
30.0
176
     1
 62
     7
420
 16777215
176
     1
 90
        2
176
     1
 90
        2
176
     1
 62
     7
176
     1
 62
   257
176
     1
 90
        2
176
     1
 90
        1
176
     1
 40
40.0
176
     1
 90
        0
176
     1
 62
   257
176
     1
 40
1.0
176
     1
 90
        1
176
     1
 90
        6
176
     1
 90
        2
176
     1
 62
     7
176
     1
 90
        3
176
     1
 90
        0
176
     1
 90
        0
176
     1
290
     0
176
     1
 90
        1
176
     1
 40
0.0
176
     1
 90
        0
176
     1
290
     0
176
     1
290
     1
176
     1
290
     1
176
     1
290
     0
176
     1
290
     0
176
     1
290
     0
176
     1
290
     0
176
     1
290
     0
176
     1
290
     0
176
     1
 90
       50
176
     1
 40
0.0
176
     1
 40
1.0
176
     1
 90
        0
176
     1
 62
    18
176
     1
 90
       50
176
     1
 90
        3
176
     1
 62
     5
420
      255
176
     1
290
     0
176
     1
 90
       50
176
     1
 90
       50
176
     1
 90
       50
176
     1
290
     0
176
     1
 90
       50
176
     1
 62
   256
176
     0
 40
1.0
176
     0
 90
        2
176
     1
  1
strokes_ogs.tif
176
     1
290
     0
176
     1
 40
1.0
176
     1
 40
1.0
176
     1
  0
VISUALSTYLE
  5
CC6
102
{ACAD_REACTORS
330
A4F
102
}
330
A4F
100
AcDbVisualStyle
  2
JitterOff
 70
    20
177
     3
291
     1
 70
    58
 90
        2
176
     0
 90
        2
176
     0
 90
        0
176
     0
 90
        0
176
     0
 40
0.6
176
     0
 40
30.0
176
     0
 62
     7
420
 16777215
176
     0
 90
        1
176
     0
 90
        4
176
     0
 62
     7
176
     0
 62
   257
176
     0
 90
        1
176
     0
 90
        1
176
     0
 40
1.0
176
     0
 90
       10
176
     2
 62
     7
176
     0
 40
1.0
176
     0
 90
        1
176
     0
 90
        6
176
     0
 90
        2
176
     0
 62
     7
176
     0
 90
        5
176
     0
 90
        0
176
     0
 90
        0
176
     0
290
     0
176
     0
 90
        1
176
     0
 40
0.0
176
     0
 90
        0
176
     0
290
     0
176
     0
290
     1
176
     0
290
     1
176
     0
290
     0
176
     0
290
     0
176
     0
290
     0
176
     0
290
     0
176
     0
290
     0
176
     0
290
     0
176
     0
 90
       50
176
     0
 40
0.0
176
     0
 40
1.0
176
     0
 90
        0
176
     0
 62
    18
176
     0
 90
       50
176
     0
 90
        3
176
     0
 62
     5
420
      255
176
     0
290
     0
176
     0
 90
       50
176
     0
 90
       50
176
     0
 90
       50
176
     0
290
     0
176
     0
 90
       50
176
     0
 62
   256
176
     0
 40
1.0
176
     0
 90
        2
176
     0
  1
strokes_ogs.tif
176
     0
290
     0
176
     0
 40
1.0
176
     0
 40
1.0
176
     0
  0
VISUALSTYLE
  5
A5D
102
{ACAD_REACTORS
330
A4F
102
}
330
A4F
100
AcDbVisualStyle
  2
Linepattern
 70
    14
177
     3
291
     1
 70
    58
 90
        2
176
     1
 90
        2
176
     1
 90
        0
176
     1
 90
        0
176
     1
 40
0.6
176
     1
 40
30.0
176
     1
 62
     7
420
 16777215
176
     1
 90
        1
176
     1
 90
        4
176
     1
 62
     7
176
     1
 62
   257
176
     1
 90
        7
176
     1
 90
        7
176
     1
 40
1.0
176
     1
 90
        8
176
     1
 62
     7
176
     1
 40
1.0
176
     1
 90
        1
176
     1
 90
        6
176
     1
 90
        2
176
     1
 62
     7
176
     1
 90
        5
176
     1
 90
        0
176
     1
 90
        0
176
     1
290
     0
176
     1
 90
        1
176
     1
 40
0.0
176
     1
 90
        0
176
     1
290
     0
176
     1
290
     1
176
     1
290
     1
176
     1
290
     0
176
     1
290
     0
176
     1
290
     0
176
     1
290
     0
176
     1
290
     0
176
     1
290
     0
176
     1
 90
       50
176
     1
 40
0.0
176
     1
 40
1.0
176
     1
 90
        0
176
     1
 62
    18
176
     1
 90
       50
176
     1
 90
        3
176
     1
 62
     5
420
      255
176
     1
290
     0
176
     1
 90
       50
176
     1
 90
       50
176
     1
 90
       50
176
     1
290
     0
176
     1
 90
       50
176
     1
 62
   256
176
     0
 40
1.0
176
     0
 90
        2
176
     1
  1
strokes_ogs.tif
176
     1
290
     0
176
     1
 40
1.0
176
     1
 40
1.0
176
     1
  0
VISUALSTYLE
  5
CC7
102
{ACAD_REACTORS
330
A4F
102
}
330
A4F
100
AcDbVisualStyle
  2
OverhangOff
 70
    21
177
     3
291
     1
 70
    58
 90
        2
176
     0
 90
        2
176
     0
 90
        0
176
     0
 90
        0
176
     0
 40
0.6
176
     0
 40
30.0
176
     0
 62
     7
420
 16777215
176
     0
 90
        1
176
     0
 90
        4
176
     0
 62
     7
176
     0
 62
   257
176
     0
 90
        1
176
     0
 90
        1
176
     0
 40
1.0
176
     0
 90
        9
176
     2
 62
     7
176
     0
 40
1.0
176
     0
 90
        1
176
     0
 90
        6
176
     0
 90
        2
176
     0
 62
     7
176
     0
 90
        5
176
     0
 90
        0
176
     0
 90
        0
176
     0
290
     0
176
     0
 90
        1
176
     0
 40
0.0
176
     0
 90
        0
176
     0
290
     0
176
     0
290
     1
176
     0
290
     1
176
     0
290
     0
176
     0
290
     0
176
     0
290
     0
176
     0
290
     0
176
     0
290
     0
176
     0
290
     0
176
     0
 90
       50
176
     0
 40
0.0
176
     0
 40
1.0
176
     0
 90
        0
176
     0
 62
    18
176
     0
 90
       50
176
     0
 90
        3
176
     0
 62
     5
420
      255
176
     0
290
     0
176
     0
 90
       50
176
     0
 90
       50
176
     0
 90
       50
176
     0
290
     0
176
     0
 90
       50
176
     0
 62
   256
176
     0
 40
1.0
176
     0
 90
        2
176
     0
  1
strokes_ogs.tif
176
     0
290
     0
176
     0
 40
1.0
176
     0
 40
1.0
176
     0
  0
VISUALSTYLE
  5
A59
102
{ACAD_REACTORS
330
A4F
102
}
330
A4F
100
AcDbVisualStyle
  2
Realistic
 70
     8
177
     3
291
     0
 70
    58
 90
        2
176
     1
 90
        2
176
     1
 90
        0
176
     1
 90
        0
176
     1
 40
0.6
176
     1
 40
30.0
176
     1
 62
     7
420
 16777215
176
     1
 90
        1
176
     1
 90
        0
176
     1
 62
     7
176
     1
 62
   257
176
     1
 90
        1
176
     1
 90
        1
176
     1
 40
1.0
176
     1
 90
        8
176
     1
 62
     8
420
  7895160
176
     1
 40
1.0
176
     1
 90
        1
176
     1
 90
        6
176
     1
 90
        2
176
     1
 62
     7
176
     1
 90
        5
176
     1
 90
        0
176
     1
 90
        0
176
     1
290
     0
176
     1
 90
       13
176
     1
 40
0.0
176
     1
 90
        0
176
     1
290
     0
176
     1
290
     1
176
     1
290
     1
176
     1
290
     0
176
     1
290
     0
176
     1
290
     0
176
     1
290
     0
176
     1
290
     0
176
     1
290
     0
176
     1
 90
       50
176
     1
 40
0.0
176
     1
 40
1.0
176
     1
 90
        0
176
     1
 62
    18
176
     1
 90
       50
176
     1
 90
        3
176
     1
 62
     5
420
      255
176
     1
290
     0
176
     1
 90
       50
176
     1
 90
       50
176
     1
 90
       50
176
     1
290
     0
176
     1
 90
       50
176
     1
 62
   256
176
     0
 40
1.0
176
     0
 90
        2
176
     1
  1
strokes_ogs.tif
176
     1
290
     0
176
     1
 40
1.0
176
     1
 40
1.0
176
     1
  0
VISUALSTYLE
  5
CC5
102
{ACAD_REACTORS
330
A4F
102
}
330
A4F
100
AcDbVisualStyle
  2
Shaded
 70
    27
177
     3
291
     0
 70
    58
 90
        2
176
     1
 90
        2
176
     1
 90
        1
176
     1
 90
        2
176
     1
 40
0.6
176
     1
 40
30.0
176
     1
 62
     7
420
 16777215
176
     1
 90
        0
176
     1
 90
        4
176
     1
 62
     7
176
     1
 62
   257
176
     1
 90
        1
176
     1
 90
        1
176
     1
 40
1.0
176
     1
 90
        8
176
     1
 62
   257
176
     1
 40
1.0
176
     1
 90
        1
176
     1
 90
        6
176
     1
 90
        2
176
     1
 62
     8
420
  7895160
176
     1
 90
        3
176
     1
 90
        0
176
     1
 90
        0
176
     1
290
     0
176
     1
 90
        5
176
     1
 40
0.0
176
     1
 90
        0
176
     1
290
     0
176
     1
290
     1
176
     1
290
     1
176
     1
290
     0
176
     1
290
     0
176
     1
290
     0
176
     1
290
     0
176
     1
290
     0
176
     1
290
     0
176
     1
 90
       50
176
     1
 40
0.0
176
     1
 40
1.0
176
     1
 90
        0
176
     1
 62
    18
176
     1
 90
       50
176
     1
 90
        3
176
     1
 62
     5
420
      255
176
     1
290
     0
176
     1
 90
       50
176
     1
 90
       50
176
     1
 90
       50
176
     1
290
     0
176
     1
 90
       50
176
     1
 62
   256
176
     0
 40
1.0
176
     0
 90
        2
176
     1
  1
strokes_ogs.tif
176
     1
290
     0
176
     1
 40
1.0
176
     1
 40
1.0
176
     1
  0
VISUALSTYLE
  5
CC4
102
{ACAD_REACTORS
330
A4F
102
}
330
A4F
100
AcDbVisualStyle
  2
Shaded with edges
 70
    26
177
     3
291
     0
 70
    58
 90
        2
176
     1
 90
        2
176
     1
 90
        1
176
     1
 90
        2
176
     1
 40
0.6
176
     1
 40
30.0
176
     1
 62
     7
420
 16777215
176
     1
 90
        1
176
     1
 90
       10
176
     1
 62
     7
176
     1
 62
   257
176
     1
 90
        2
176
     1
 90
        1
176
     1
 40
1.0
176
     1
 90
        8
176
     1
 62
   257
176
     1
 40
1.0
176
     1
 90
        1
176
     1
 90
        6
176
     1
 90
        2
176
     1
 62
     7
176
     1
 90
        3
176
     1
 90
        0
176
     1
 90
        0
176
     1
290
     0
176
     1
 90
        5
176
     1
 40
0.0
176
     1
 90
        0
176
     1
290
     0
176
     1
290
     1
176
     1
290
     1
176
     1
290
     0
176
     1
290
     0
176
     1
290
     0
176
     1
290
     0
176
     1
290
     0
176
     1
290
     0
176
     1
 90
       50
176
     1
 40
0.0
176
     1
 40
1.0
176
     1
 90
        0
176
     1
 62
    18
176
     1
 90
       50
176
     1
 90
        3
176
     1
 62
     5
420
      255
176
     1
290
     0
176
     1
 90
       50
176
     1
 90
       50
176
     1
 90
       50
176
     1
290
     0
176
     1
 90
       50
176
     1
 62
   256
176
     0
 40
1.0
176
     0
 90
        2
176
     1
  1
strokes_ogs.tif
176
     1
290
     0
176
     1
 40
1.0
176
     1
 40
1.0
176
     1
  0
VISUALSTYLE
  5
CC1
102
{ACAD_REACTORS
330
A4F
102
}
330
A4F
100
AcDbVisualStyle
  2
Shades of Gray
 70
    23
177
     3
291
     0
 70
    58
 90
        2
176
     1
 90
        2
176
     1
 90
        3
176
     1
 90
        0
176
     1
 40
0.6
176
     1
 40
30.0
176
     1
 62
     7
420
 16777215
176
     1
 90
        2
176
     1
 90
        2
176
     1
 62
     7
176
     1
 62
     7
176
     1
 90
        1
176
     1
 90
        1
176
     1
 40
40.0
176
     1
 90
        8
176
     1
 62
     7
176
     1
 40
1.0
176
     1
 90
        1
176
     1
 90
        6
176
     1
 90
        2
176
     1
 62
     7
176
     1
 90
        3
176
     1
 90
        0
176
     1
 90
        0
176
     1
290
     0
176
     1
 90
        1
176
     1
 40
0.0
176
     1
 90
        0
176
     1
290
     0
176
     1
290
     1
176
     1
290
     1
176
     1
290
     0
176
     1
290
     0
176
     1
290
     0
176
     1
290
     0
176
     1
290
     0
176
     1
290
     0
176
     1
 90
       50
176
     1
 40
0.0
176
     1
 40
1.0
176
     1
 90
        0
176
     1
 62
    18
176
     1
 90
       50
176
     1
 90
        3
176
     1
 62
     5
420
      255
176
     1
290
     0
176
     1
 90
       50
176
     1
 90
       50
176
     1
 90
       50
176
     1
290
     0
176
     1
 90
       50
176
     1
 62
   256
176
     0
 40
1.0
176
     0
 90
        2
176
     1
  1
strokes_ogs.tif
176
     1
290
     0
176
     1
 40
1.0
176
     1
 40
1.0
176
     1
  0
VISUALSTYLE
  5
CC2
102
{ACAD_REACTORS
330
A4F
102
}
330
A4F
100
AcDbVisualStyle
  2
Sketchy
 70
    24
177
     3
291
     0
 70
    58
 90
        1
176
     1
 90
        2
176
     1
 90
        2
176
     1
 90
        0
176
     1
 40
0.6
176
     1
 40
30.0
176
     1
 62
     7
420
 16777215
176
     1
 90
        2
176
     1
 90
        2
176
     1
 62
     7
176
     1
 62
     7
176
     1
 90
        1
176
     1
 90
        1
176
     1
 40
40.0
176
     1
 90
       11
176
     1
 62
     7
176
     1
 40
1.0
176
     1
 90
        1
176
     1
 90
        6
176
     1
 90
        2
176
     1
 62
     7
176
     1
 90
        6
176
     1
 90
        0
176
     1
 90
        0
176
     1
290
     0
176
     1
 90
        1
176
     1
 40
0.0
176
     1
 90
        0
176
     1
290
     0
176
     1
290
     1
176
     1
290
     1
176
     1
290
     0
176
     1
290
     0
176
     1
290
     0
176
     1
290
     0
176
     1
290
     0
176
     1
290
     0
176
     1
 90
       50
176
     1
 40
0.0
176
     1
 40
1.0
176
     1
 90
        0
176
     1
 62
    18
176
     1
 90
       50
176
     1
 90
        3
176
     1
 62
     5
420
      255
176
     1
290
     0
176
     1
 90
       50
176
     1
 90
       50
176
     1
 90
       50
176
     1
290
     0
176
     1
 90
       50
176
     1
 62
   256
176
     0
 40
1.0
176
     0
 90
        2
176
     1
  1
strokes_ogs.tif
176
     1
290
     0
176
     1
 40
1.0
176
     1
 40
1.0
176
     1
  0
VISUALSTYLE
  5
A5C
102
{ACAD_REACTORS
330
A4F
102
}
330
A4F
100
AcDbVisualStyle
  2
Thicken
 70
    13
177
     3
291
     1
 70
    58
 90
        2
176
     1
 90
        2
176
     1
 90
        0
176
     1
 90
        0
176
     1
 40
0.6
176
     1
 40
30.0
176
     1
 62
     7
420
 16777215
176
     1
 90
        1
176
     1
 90
        4
176
     1
 62
     7
176
     1
 62
   257
176
     1
 90
        1
176
     1
 90
        1
176
     1
 40
1.0
176
     1
 90
       12
176
     1
 62
     7
176
     1
 40
1.0
176
     1
 90
        1
176
     1
 90
        6
176
     1
 90
        2
176
     1
 62
     7
176
     1
 90
        5
176
     1
 90
        0
176
     1
 90
        0
176
     1
290
     0
176
     1
 90
        1
176
     1
 40
0.0
176
     1
 90
        0
176
     1
290
     0
176
     1
290
     1
176
     1
290
     1
176
     1
290
     0
176
     1
290
     0
176
     1
290
     0
176
     1
290
     0
176
     1
290
     0
176
     1
290
     0
176
     1
 90
       50
176
     1
 40
0.0
176
     1
 40
1.0
176
     1
 90
        0
176
     1
 62
    18
176
     1
 90
       50
176
     1
 90
        3
176
     1
 62
     5
420
      255
176
     1
290
     0
176
     1
 90
       50
176
     1
 90
       50
176
     1
 90
       50
176
     1
290
     0
176
     1
 90
       50
176
     1
 62
   256
176
     0
 40
1.0
176
     0
 90
        2
176
     1
  1
strokes_ogs.tif
176
     1
290
     0
176
     1
 40
1.0
176
     1
 40
1.0
176
     1
  0
VISUALSTYLE
  5
CBF
102
{ACAD_REACTORS
330
A4F
102
}
330
A4F
100
AcDbVisualStyle
  2
Wireframe
 70
     5
177
     3
291
     0
 70
    58
 90
        0
176
     1
 90
        2
176
     1
 90
        0
176
     1
 90
        0
176
     1
 40
0.6
176
     1
 40
30.0
176
     1
 62
     7
420
 16777215
176
     1
 90
        1
176
     1
 90
        4
176
     1
 62
     7
176
     1
 62
   257
176
     1
 90
        1
176
     1
 90
        1
176
     1
 40
1.0
176
     1
 90
        0
176
     1
 62
   257
176
     1
 40
1.0
176
     1
 90
        1
176
     1
 90
        6
176
     1
 90
        2
176
     1
 62
     7
176
     1
 90
        3
176
     1
 90
        0
176
     1
 90
        0
176
     1
290
     0
176
     1
 90
        1
176
     1
 40
0.0
176
     1
 90
        0
176
     1
290
     0
176
     1
290
     1
176
     1
290
     1
176
     1
290
     0
176
     1
290
     0
176
     1
290
     0
176
     1
290
     0
176
     1
290
     0
176
     1
290
     0
176
     1
 90
       50
176
     1
 40
0.0
176
     1
 40
1.0
176
     1
 90
        0
176
     1
 62
    18
176
     1
 90
       50
176
     1
 90
        3
176
     1
 62
     5
420
      255
176
     1
290
     0
176
     1
 90
       50
176
     1
 90
       50
176
     1
 90
       50
176
     1
290
     0
176
     1
 90
       50
176
     1
 62
   256
176
     0
 40
1.0
176
     0
 90
        2
176
     1
  1
strokes_ogs.tif
176
     1
290
     0
176
     1
 40
1.0
176
     1
 40
1.0
176
     1
  0
VISUALSTYLE
  5
CC3
102
{ACAD_REACTORS
330
A4F
102
}
330
A4F
100
AcDbVisualStyle
  2
X-Ray
 70
    25
177
     3
291
     0
 70
    58
 90
        2
176
     1
 90
        2
176
     1
 90
        1
176
     1
 90
        1
176
     1
 40
0.5
176
     1
 40
30.0
176
     1
 62
     7
420
 16777215
176
     1
 90
        1
176
     1
 90
        0
176
     1
 62
     7
176
     1
 62
   257
176
     1
 90
        1
176
     1
 90
        1
176
     1
 40
1.0
176
     1
 90
        8
176
     1
 62
     7
176
     1
 40
1.0
176
     1
 90
        1
176
     1
 90
        6
176
     1
 90
        2
176
     1
 62
     7
176
     1
 90
        3
176
     1
 90
        0
176
     1
 90
        0
176
     1
290
     0
176
     1
 90
       13
176
     1
 40
0.0
176
     1
 90
        0
176
     1
290
     0
176
     1
290
     1
176
     1
290
     1
176
     1
290
     0
176
     1
290
     0
176
     1
290
     0
176
     1
290
     0
176
     1
290
     0
176
     1
290
     0
176
     1
 90
       50
176
     1
 40
0.0
176
     1
 40
1.0
176
     1
 90
        0
176
     1
 62
    18
176
     1
 90
       50
176
     1
 90
        3
176
     1
 62
     5
420
      255
176
     1
290
     0
176
     1
 90
       50
176
     1
 90
       50
176
     1
 90
       50
176
     1
290
     0
176
     1
 90
       50
176
     1
 62
   256
176
     0
 40
1.0
176
     0
 90
        2
176
     1
  1
strokes_ogs.tif
176
     1
290
     0
176
     1
 40
1.0
176
     1
 40
1.0
176
     1
  0
DICTIONARYVAR
  5
AF4
102
{ACAD_REACTORS
330
5D
102
}
330
5D
100
DictionaryVariables
280
     0
  1
1:1
  0
DICTIONARYVAR
  5
AF2
102
{ACAD_REACTORS
330
5D
102
}
330
5D
100
DictionaryVariables
280
     0
  1
STANDARD
  0
DICTIONARYVAR
  5
66F
102
{ACAD_REACTORS
330
5D
102
}
330
5D
100
DictionaryVariables
280
     0
  1
STANDARD
  0
DICTIONARYVAR
  5
FFA
102
{ACAD_REACTORS
330
5D
102
}
330
5D
100
DictionaryVariables
280
     0
  1
ISO 128-34_2001
  0
DICTIONARYVAR
  5
FFB
102
{ACAD_REACTORS
330
5D
102
}
330
5D
100
DictionaryVariables
280
     0
  1
ISO 128_1982
  0
DICTIONARYVAR
  5
5E
102
{ACAD_REACTORS
330
5D
102
}
330
5D
100
DictionaryVariables
280
     0
  1
0
  0
DICTIONARYVAR
  5
3C7
102
{ACAD_REACTORS
330
5D
102
}
330
5D
100
DictionaryVariables
280
     0
  1
1
  0
DICTIONARYVAR
  5
128
102
{ACAD_REACTORS
330
5D
102
}
330
5D
100
DictionaryVariables
280
     0
  1
1
  0
DICTIONARYVAR
  5
AF6
102
{ACAD_REACTORS
330
5D
102
}
330
5D
100
DictionaryVariables
280
     0
  1
1
  0
DICTIONARYVAR
  5
AF7
102
{ACAD_REACTORS
330
5D
102
}
330
5D
100
DictionaryVariables
280
     0
  1
15
  0
DICTIONARYVAR
  5
AF5
102
{ACAD_REACTORS
330
5D
102
}
330
5D
100
DictionaryVariables
280
     0
  1
0
  0
DICTIONARYVAR
  5
AF3
102
{ACAD_REACTORS
330
5D
102
}
330
5D
100
DictionaryVariables
280
     0
  1
0
  0
DICTIONARY
  5
143
102
{ACAD_REACTORS
330
142
102
}
330
142
100
AcDbDictionary
281
     1
  0
XRECORD
  5
47D
102
{ACAD_REACTORS
330
142
102
}
330
142
100
AcDbXrecord
280
     1
 90
-1056964608
  0
XRECORD
  5
84B
102
{ACAD_REACTORS
330
849
102
}
330
849
100
AcDbXrecord
280
     1
  0
DICTIONARY
  5
13F3
102
{ACAD_REACTORS
330
13F2
102
}
330
13F2
100
AcDbDictionary
281
     1
  3
_HasBOM
350
13F9
  3
Comment
350
13F8
  3
Folder
350
13F7
  3
GEN-TITLE-DES1
350
13F5
  3
GEN-TITLE-DES2
350
13F6
  3
GEN-TITLE-NR
350
13F4
  0
LAYER_INDEX
  5
30C5
102
{ACAD_REACTORS
330
30C4
102
}
330
30C4
100
AcDbIndex
 40
2457357.713029317
100
AcDbLayerIndex
  8
0
360
30C6
 90
        0
  8
AM_0
360
30C7
 90
        1
  8
Visible Edges(ISO)
360
30C8
 90
        0
  8
Defpoints
360
30C9
 90
        0
  8
DIM
360
30CA
 90
        0
  0
DICTIONARY
  5
13FE
330
10B9
100
AcDbDictionary
280
     1
281
     1
  3
ACAD_XREC_ROUNDTRIP
360
14B0
  0
DICTIONARY
  5
13FC
330
CCC
100
AcDbDictionary
280
     1
281
     1
  3
ACAD_XREC_ROUNDTRIP
360
14AE
  0
DICTIONARY
  5
1474
330
169
100
AcDbDictionary
280
     1
281
     1
  0
DICTIONARY
  5
A40
330
A3F
100
AcDbDictionary
280
     1
281
     1
  3
BUMPTILE
360
A42
  3
DIFFUSETILE
360
A41
  3
OPACITYTILE
360
A45
  3
REFLECTIONTILE
360
A44
  3
REFRACTIONTILE
360
A46
  3
SPECULARTILE
360
A43
  0
DICTIONARY
  5
A38
330
A37
100
AcDbDictionary
280
     1
281
     1
  3
BUMPTILE
360
A3A
  3
DIFFUSETILE
360
A39
  3
OPACITYTILE
360
A3D
  3
REFLECTIONTILE
360
A3C
  3
REFRACTIONTILE
360
A3E
  3
SPECULARTILE
360
A3B
  0
DICTIONARY
  5
A48
330
A47
100
AcDbDictionary
280
     1
281
     1
  3
BUMPTILE
360
A4A
  3
DIFFUSETILE
360
A49
  3
OPACITYTILE
360
A4D
  3
REFLECTIONTILE
360
A4C
  3
REFRACTIONTILE
360
A4E
  3
SPECULARTILE
360
A4B
  0
DICTIONARY
  5
1497
330
A73
100
AcDbDictionary
280
     1
281
     1
  3
ACAD_XREC_ROUNDTRIP
360
1498
  0
DICTIONARY
  5
10BB
330
10BA
100
AcDbDictionary
280
     1
281
     1
  3
ACAD_FIELD
360
10BC
  3
ACAD_XREC_ROUNDTRIP
360
14B1
  0
DICTIONARY
  5
13FA
330
CCA
100
AcDbDictionary
280
     1
281
     1
  3
ACAD_XREC_ROUNDTRIP
360
14AD
  0
DICTIONARY
  5
AED
330
651
100
AcDbDictionary
280
     1
281
     1
  3
ACAD_ROUNDTRIP_2008_TABLESTYLE_CELLSTYLEMAP
360
3618
  0
XRECORD
  5
13F9
102
{ACAD_REACTORS
330
13F3
102
}
330
13F3
100
AcDbXrecord
280
     1
  1
_HasBOM
  1
False
  0
XRECORD
  5
13F8
102
{ACAD_REACTORS
330
13F3
102
}
330
13F3
100
AcDbXrecord
280
     1
  1
Comment
  1

  0
XRECORD
  5
13F7
102
{ACAD_REACTORS
330
13F3
102
}
330
13F3
100
AcDbXrecord
280
     1
  1
Folder
  1

  0
XRECORD
  5
13F5
102
{ACAD_REACTORS
330
13F3
102
}
330
13F3
100
AcDbXrecord
280
     1
  1
GEN-TITLE-DES1
  1

  0
XRECORD
  5
13F6
102
{ACAD_REACTORS
330
13F3
102
}
330
13F3
100
AcDbXrecord
280
     1
  1
GEN-TITLE-DES2
  1

  0
XRECORD
  5
13F4
102
{ACAD_REACTORS
330
13F3
102
}
330
13F3
100
AcDbXrecord
280
     1
  1
GEN-TITLE-NR
  1

  0
IDBUFFER
  5
30C6
330
0
100
AcDbIdBuffer
  0
IDBUFFER
  5
30C7
330
0
100
AcDbIdBuffer
330
336F
  0
IDBUFFER
  5
30C8
330
0
100
AcDbIdBuffer
  0
IDBUFFER
  5
30C9
330
0
100
AcDbIdBuffer
  0
IDBUFFER
  5
30CA
330
0
100
AcDbIdBuffer
  0
XRECORD
  5
14B0
102
{ACAD_REACTORS
330
13FE
102
}
330
13FE
100
AcDbXrecord
280
     1
102
DISPLAYNAME
  1
ISO 128-34:2001
102
FLAGS
 90
        1
  0
XRECORD
  5
14AE
102
{ACAD_REACTORS
330
13FC
102
}
330
13FC
100
AcDbXrecord
280
     1
102
DISPLAYNAME
  1
Metric50
102
FLAGS
 90
        0
  0
XRECORD
  5
A42
102
{ACAD_REACTORS
330
A40
102
}
330
A40
100
AcDbXrecord
280
     1
270
     1
271
     1
  0
XRECORD
  5
A41
102
{ACAD_REACTORS
330
A40
102
}
330
A40
100
AcDbXrecord
280
     1
270
     1
271
     1
  0
XRECORD
  5
A45
102
{ACAD_REACTORS
330
A40
102
}
330
A40
100
AcDbXrecord
280
     1
270
     1
271
     1
  0
XRECORD
  5
A44
102
{ACAD_REACTORS
330
A40
102
}
330
A40
100
AcDbXrecord
280
     1
270
     1
271
     1
  0
XRECORD
  5
A46
102
{ACAD_REACTORS
330
A40
102
}
330
A40
100
AcDbXrecord
280
     1
270
     1
271
     1
  0
XRECORD
  5
A43
102
{ACAD_REACTORS
330
A40
102
}
330
A40
100
AcDbXrecord
280
     1
270
     1
271
     1
  0
XRECORD
  5
A3A
102
{ACAD_REACTORS
330
A38
102
}
330
A38
100
AcDbXrecord
280
     1
270
     1
271
     1
  0
XRECORD
  5
A39
102
{ACAD_REACTORS
330
A38
102
}
330
A38
100
AcDbXrecord
280
     1
270
     1
271
     1
  0
XRECORD
  5
A3D
102
{ACAD_REACTORS
330
A38
102
}
330
A38
100
AcDbXrecord
280
     1
270
     1
271
     1
  0
XRECORD
  5
A3C
102
{ACAD_REACTORS
330
A38
102
}
330
A38
100
AcDbXrecord
280
     1
270
     1
271
     1
  0
XRECORD
  5
A3E
102
{ACAD_REACTORS
330
A38
102
}
330
A38
100
AcDbXrecord
280
     1
270
     1
271
     1
  0
XRECORD
  5
A3B
102
{ACAD_REACTORS
330
A38
102
}
330
A38
100
AcDbXrecord
280
     1
270
     1
271
     1
  0
XRECORD
  5
A4A
102
{ACAD_REACTORS
330
A48
102
}
330
A48
100
AcDbXrecord
280
     1
270
     1
271
     1
  0
XRECORD
  5
A49
102
{ACAD_REACTORS
330
A48
102
}
330
A48
100
AcDbXrecord
280
     1
270
     1
271
     1
  0
XRECORD
  5
A4D
102
{ACAD_REACTORS
330
A48
102
}
330
A48
100
AcDbXrecord
280
     1
270
     1
271
     1
  0
XRECORD
  5
A4C
102
{ACAD_REACTORS
330
A48
102
}
330
A48
100
AcDbXrecord
280
     1
270
     1
271
     1
  0
XRECORD
  5
A4E
102
{ACAD_REACTORS
330
A48
102
}
330
A48
100
AcDbXrecord
280
     1
270
     1
271
     1
  0
XRECORD
  5
A4B
102
{ACAD_REACTORS
330
A48
102
}
330
A48
100
AcDbXrecord
280
     1
270
     1
271
     1
  0
XRECORD
  5
1498
102
{ACAD_REACTORS
330
1497
102
}
330
1497
100
AcDbXrecord
280
     1
102
ACAD_ROUNDTRIP_2012_MLEADER_STYLE
298
     1
  0
DICTIONARY
  5
10BC
102
{ACAD_REACTORS
330
10BB
102
}
330
10BB
100
AcDbDictionary
280
     1
281
     1
  3
TEXT
360
10BD
  0
XRECORD
  5
14B1
102
{ACAD_REACTORS
330
10BB
102
}
330
10BB
100
AcDbXrecord
280
     1
102
DISPLAYNAME
  1
ISO 128:1982
102
FLAGS
 90
        1
  0
XRECORD
  5
14AD
102
{ACAD_REACTORS
330
13FA
102
}
330
13FA
100
AcDbXrecord
280
     1
102
DISPLAYNAME
  1
Metric50
102
FLAGS
 90
        0
  0
CELLSTYLEMAP
  5
3618
102
{ACAD_REACTORS
330
AED
102
}
330
AED
100
AcDbCellStyleMap
 90
        3
300
CELLSTYLE
  1
TABLEFORMAT_BEGIN
 90
        5
170
     1
 91
        0
 92
    32768
 62
   257
 93
        1
300
CONTENTFORMAT
  1
CONTENTFORMAT_BEGIN
 90
        0
 91
        0
 92
        4
 93
        0
300

 40
0.0
140
1.0
 94
        5
 62
     0
340
10
144
6.0
309
CONTENTFORMAT_END
171
     1
301
MARGIN
  1
CELLMARGIN_BEGIN
 40
1.5
 40
1.5
 40
1.5
 40
1.5
 40
0.18
 40
0.18
309
CELLMARGIN_END
 94
        6
 95
        1
302
GRIDFORMAT
  1
GRIDFORMAT_BEGIN
 90
        0
 91
        1
 62
     0
 92
       -2
340
0
 93
        0
 40
0.045
309
GRIDFORMAT_END
 95
        2
302
GRIDFORMAT
  1
GRIDFORMAT_BEGIN
 90
        0
 91
        1
 62
     0
 92
       -2
340
0
 93
        0
 40
0.045
309
GRIDFORMAT_END
 95
        4
302
GRIDFORMAT
  1
GRIDFORMAT_BEGIN
 90
        0
 91
        1
 62
     0
 92
       -2
340
0
 93
        0
 40
0.045
309
GRIDFORMAT_END
 95
        8
302
GRIDFORMAT
  1
GRIDFORMAT_BEGIN
 90
        0
 91
        1
 62
     0
 92
       -2
340
0
 93
        0
 40
0.045
309
GRIDFORMAT_END
 95
       16
302
GRIDFORMAT
  1
GRIDFORMAT_BEGIN
 90
        0
 91
        1
 62
     0
 92
       -2
340
0
 93
        0
 40
0.045
309
GRIDFORMAT_END
 95
       32
302
GRIDFORMAT
  1
GRIDFORMAT_BEGIN
 90
        0
 91
        1
 62
     0
 92
       -2
340
0
 93
        0
 40
0.045
309
GRIDFORMAT_END
309
TABLEFORMAT_END
  1
CELLSTYLE_BEGIN
 90
        1
 91
        1
300
_TITLE
309
CELLSTYLE_END
300
CELLSTYLE
  1
TABLEFORMAT_BEGIN
 90
        5
170
     1
 91
        0
 92
        0
 62
   257
 93
        1
300
CONTENTFORMAT
  1
CONTENTFORMAT_BEGIN
 90
        0
 91
        0
 92
        4
 93
        0
300

 40
0.0
140
1.0
 94
        5
 62
     0
340
10
144
4.5
309
CONTENTFORMAT_END
171
     1
301
MARGIN
  1
CELLMARGIN_BEGIN
 40
1.5
 40
1.5
 40
1.5
 40
1.5
 40
0.18
 40
0.18
309
CELLMARGIN_END
 94
        6
 95
        1
302
GRIDFORMAT
  1
GRIDFORMAT_BEGIN
 90
        0
 91
        1
 62
     0
 92
       -2
340
0
 93
        0
 40
0.045
309
GRIDFORMAT_END
 95
        2
302
GRIDFORMAT
  1
GRIDFORMAT_BEGIN
 90
        0
 91
        1
 62
     0
 92
       -2
340
0
 93
        0
 40
0.045
309
GRIDFORMAT_END
 95
        4
302
GRIDFORMAT
  1
GRIDFORMAT_BEGIN
 90
        0
 91
        1
 62
     0
 92
       -2
340
0
 93
        0
 40
0.045
309
GRIDFORMAT_END
 95
        8
302
GRIDFORMAT
  1
GRIDFORMAT_BEGIN
 90
        0
 91
        1
 62
     0
 92
       -2
340
0
 93
        0
 40
0.045
309
GRIDFORMAT_END
 95
       16
302
GRIDFORMAT
  1
GRIDFORMAT_BEGIN
 90
        0
 91
        1
 62
     0
 92
       -2
340
0
 93
        0
 40
0.045
309
GRIDFORMAT_END
 95
       32
302
GRIDFORMAT
  1
GRIDFORMAT_BEGIN
 90
        0
 91
        1
 62
     0
 92
       -2
340
0
 93
        0
 40
0.045
309
GRIDFORMAT_END
309
TABLEFORMAT_END
  1
CELLSTYLE_BEGIN
 90
        2
 91
        1
300
_HEADER
309
CELLSTYLE_END
300
CELLSTYLE
  1
TABLEFORMAT_BEGIN
 90
        5
170
     1
 91
        0
 92
        0
 62
   257
 93
        1
300
CONTENTFORMAT
  1
CONTENTFORMAT_BEGIN
 90
        0
 91
        0
 92
        4
 93
        0
300

 40
0.0
140
1.0
 94
        2
 62
     0
340
10
144
4.5
309
CONTENTFORMAT_END
171
     1
301
MARGIN
  1
CELLMARGIN_BEGIN
 40
1.5
 40
1.5
 40
1.5
 40
1.5
 40
0.18
 40
0.18
309
CELLMARGIN_END
 94
        6
 95
        1
302
GRIDFORMAT
  1
GRIDFORMAT_BEGIN
 90
        0
 91
        1
 62
     0
 92
       -2
340
0
 93
        0
 40
0.045
309
GRIDFORMAT_END
 95
        2
302
GRIDFORMAT
  1
GRIDFORMAT_BEGIN
 90
        0
 91
        1
 62
     0
 92
       -2
340
0
 93
        0
 40
0.045
309
GRIDFORMAT_END
 95
        4
302
GRIDFORMAT
  1
GRIDFORMAT_BEGIN
 90
        0
 91
        1
 62
     0
 92
       -2
340
0
 93
        0
 40
0.045
309
GRIDFORMAT_END
 95
        8
302
GRIDFORMAT
  1
GRIDFORMAT_BEGIN
 90
        0
 91
        1
 62
     0
 92
       -2
340
0
 93
        0
 40
0.045
309
GRIDFORMAT_END
 95
       16
302
GRIDFORMAT
  1
GRIDFORMAT_BEGIN
 90
        0
 91
        1
 62
     0
 92
       -2
340
0
 93
        0
 40
0.045
309
GRIDFORMAT_END
 95
       32
302
GRIDFORMAT
  1
GRIDFORMAT_BEGIN
 90
        0
 91
        1
 62
     0
 92
       -2
340
0
 93
        0
 40
0.045
309
GRIDFORMAT_END
309
TABLEFORMAT_END
  1
CELLSTYLE_BEGIN
 90
        3
 91
        2
300
_DATA
309
CELLSTYLE_END
  0
FIELD
  5
10BD
102
{ACAD_REACTORS
330
10BC
102
}
330
10BC
100
AcDbField
  1
_text
  2
%<\_FldIdx 0>%-%<\_FldIdx 1>%
 90
        2
360
10BE
360
10BF
 97
        0
 91
       63
 92
        0
 94
        9
 95
        2
 96
        0
300

 93
        0
  7
ACFD_FIELD_VALUE
 93
        3
 90
        0
 94
        0
300

302

304
ACVALUE_END
301

 98
        0
  0
FIELD
  5
10BE
330
10BD
100
AcDbField
  1
AcVar
  2
\AcVar ViewSectionStartId
 90
        0
 97
        0
 91
       63
 92
        0
 94
       43
 95
        2
 96
        0
300

 93
        1
  6
Variable
 93
        2
 90
        4
  1
ViewSectionStartId
 94
        0
300

302

304
ACVALUE_END
  7
ACFD_FIELD_VALUE
 93
        1
 90
        0
 94
        0
300

302

304
ACVALUE_END
301
----
 98
        4
  0
FIELD
  5
10BF
330
10BD
100
AcDbField
  1
AcVar
  2
\AcVar ViewSectionEndId
 90
        0
 97
        0
 91
       63
 92
        0
 94
       43
 95
        2
 96
        0
300

 93
        1
  6
Variable
 93
        2
 90
        4
  1
ViewSectionEndId
 94
        0
300

302

304
ACVALUE_END
  7
ACFD_FIELD_VALUE
 93
        1
 90
        0
 94
        0
300

302

304
ACVALUE_END
301
----
 98
        4
  0
ENDSEC
  0
SECTION
  2
ACDSDATA
 70
     2
 71
     7
  0
ACDSSCHEMA
 90
        0
  1
AcDb_Thumbnail_Schema
  2
AcDbDs::ID
280
    10
 91
        8
  2
Thumbnail_Data
280
    15
 91
        0
101
ACDSRECORD
 95
        0
 90
        1
  2
AcDbDs::TreatedAsObjectData
280
     1
291
     1
101
ACDSRECORD
 95
        0
 90
        2
  2
AcDbDs::Legacy
280
     1
291
     1
101
ACDSRECORD
  1
AcDbDs::ID
 90
        3
  2
AcDs:Indexable
280
     1
291
     1
101
ACDSRECORD
  1
AcDbDs::ID
 90
        4
  2
AcDbDs::HandleAttribute
280
     7
282
     1
  0
ACDSSCHEMA
 90
        1
  1
AcDbDs::TreatedAsObjectDataSchema
  2
AcDbDs::TreatedAsObjectData
280
     1
 91
        0
  0
ACDSSCHEMA
 90
        2
  1
AcDbDs::LegacySchema
  2
AcDbDs::Legacy
280
     1
 91
        0
  0
ACDSSCHEMA
 90
        3
  1
AcDbDs::IndexedPropertySchema
  2
AcDs:Indexable
280
     1
 91
        0
  0
ACDSSCHEMA
 90
        4
  1
AcDbDs::HandleAttributeSchema
  2
AcDbDs::HandleAttribute
280
     7
 91
        1
284
     1
  0
ACDSRECORD
 90
        0
  2
AcDbDs::ID
280
    10
320
2CA4
  2
Thumbnail_Data
280
    15
 94
      907
310
89504E470D0A1A0A0000000D4948445200000100000000BF08030000002647F24000000300504C5445212830000000C8C8C80000000000000000000000000000000000000000000000000000330000660000990000CC0000FF0033000033330033660033990033CC0033FF0066000066330066660066990066CC0066FF0099
310
000099330099660099990099CC0099FF00CC0000CC3300CC6600CC9900CCCC00CCFF00FF0000FF3300FF6600FF9900FFCC00FFFF3300003300333300663300993300CC3300FF3333003333333333663333993333CC3333FF3366003366333366663366993366CC3366FF3399003399333399663399993399CC3399FF33CC00
310
33CC3333CC6633CC9933CCCC33CCFF33FF0033FF3333FF6633FF9933FFCC33FFFF6600006600336600666600996600CC6600FF6633006633336633666633996633CC6633FF6666006666336666666666996666CC6666FF6699006699336699666699996699CC6699FF66CC0066CC3366CC6666CC9966CCCC66CCFF66FF0066
310
FF3366FF6666FF9966FFCC66FFFF9900009900339900669900999900CC9900FF9933009933339933669933999933CC9933FF9966009966339966669966999966CC9966FF9999009999339999669999999999CC9999FF99CC0099CC3399CC6699CC9999CCCC99CCFF99FF0099FF3399FF6699FF9999FFCC99FFFFCC0000CC00
310
33CC0066CC0099CC00CCCC00FFCC3300CC3333CC3366CC3399CC33CCCC33FFCC6600CC6633CC6666CC6699CC66CCCC66FFCC9900CC9933CC9966CC9999CC99CCCC99FFCCCC00CCCC33CCCC66CCCC99CCCCCCCCCCFFCCFF00CCFF33CCFF66CCFF99CCFFCCCCFFFFFF0000FF0033FF0066FF0099FF00CCFF00FFFF3300FF3333
310
FF3366FF3399FF33CCFF33FFFF6600FF6633FF6666FF6699FF66CCFF66FFFF9900FF9933FF9966FF9999FF99CCFF99FFFFCC00FFCC33FFCC66FFCC99FFCCCCFFCCFFFFFF00FFFF33FFFF66FFFF99FFFFCCFFFFFF0000000D0D0D1A1A1A2828283535354343435050505D5D5D6B6B6B787878868686939393A1A1A1AEAEAEBB
310
BBBBC9C9C9D6D6D6E4E4E4F1F1F1FFFFFF000000000000000000000000000000000000000000000000000000000000B21171F6000000464944415478DAEDC13101000000C2A0F54F6D085FA00000000000000000000000000000000000000000000000000000000000000000000000000000000000000000000000E036BFBF
310
000103F617CF0000000049454E44AE426082
  0
ACDSRECORD
 90
        0
  2
AcDbDs::ID
280
    10
320
169
  2
Thumbnail_Data
280
    15
 94
     1332
310
89504E470D0A1A0A0000000D4948445200000100000000A20803000000990FE30500000300504C5445212830000000C8C8C80000000000000000000000000000000000000000000000000000330000660000990000CC0000FF0033000033330033660033990033CC0033FF0066000066330066660066990066CC0066FF0099
310
000099330099660099990099CC0099FF00CC0000CC3300CC6600CC9900CCCC00CCFF00FF0000FF3300FF6600FF9900FFCC00FFFF3300003300333300663300993300CC3300FF3333003333333333663333993333CC3333FF3366003366333366663366993366CC3366FF3399003399333399663399993399CC3399FF33CC00
310
33CC3333CC6633CC9933CCCC33CCFF33FF0033FF3333FF6633FF9933FFCC33FFFF6600006600336600666600996600CC6600FF6633006633336633666633996633CC6633FF6666006666336666666666996666CC6666FF6699006699336699666699996699CC6699FF66CC0066CC3366CC6666CC9966CCCC66CCFF66FF0066
310
FF3366FF6666FF9966FFCC66FFFF9900009900339900669900999900CC9900FF9933009933339933669933999933CC9933FF9966009966339966669966999966CC9966FF9999009999339999669999999999CC9999FF99CC0099CC3399CC6699CC9999CCCC99CCFF99FF0099FF3399FF6699FF9999FFCC99FFFFCC0000CC00
310
33CC0066CC0099CC00CCCC00FFCC3300CC3333CC3366CC3399CC33CCCC33FFCC6600CC6633CC6666CC6699CC66CCCC66FFCC9900CC9933CC9966CC9999CC99CCCC99FFCCCC00CCCC33CCCC66CCCC99CCCCCCCCCCFFCCFF00CCFF33CCFF66CCFF99CCFFCCCCFFFFFF0000FF0033FF0066FF0099FF00CCFF00FFFF3300FF3333
310
FF3366FF3399FF33CCFF33FFFF6600FF6633FF6666FF6699FF66CCFF66FFFF9900FF9933FF9966FF9999FF99CCFF99FFFFCC00FFCC33FFCC66FFCC99FFCCCCFFCCFFFFFF00FFFF33FFFF66FFFF99FFFFCCFFFFFF0000000D0D0D1A1A1A2828283535354343435050505D5D5D6B6B6B787878868686939393A1A1A1AEAEAEBB
310
BBBBC9C9C9D6D6D6E4E4E4F1F1F1FFFFFF000000000000000000000000000000000000000000000000000000000000B21171F60000011D4944415478DAEDDD4B0AC2301440D16E28FBDFCC5B42270E32B7FE8B1F106BFA023977D28A8AE6D05290F29C26499224E9A74A5765006C7FC9F27C7CF7A6B2FDCBB400A8DD9405D0
310
CBE908000000000000000000000000000000000000000000000000000000000000000000000000000000000000000000000000000000FC0D206AF4B1FE7004A400D40A00000000000000000000000000000000180DC04F620000000000000000000000000000000000000000000000000080262B1C7DB2742925CE43D4E3A9
310
65F1A7CD28008F851F96AEDB4C80DD86DEDF3FE9CDEDD931CF69A7407CB85D3C2E73F35B00AC5A3DEC75BC7ED323E0B61B35EF2AB07FF1BA1B595781D1FF624392244992244992244992244992244992244952571D0111E7C5CED53675980000000049454E44AE42608286631967407D672966C07D078AE71F77D26C02F3E1
310
7CE5C0FD5480885D42802542791DC06E5FB4454680CB5E03B0DB36406C7B06ECB7FFDDE1B25D80549F04FFFE28901EA0FCD967A52C0051C6738932FD9723FA9DF5BF062F5A79789D7E9C65069CACF144315D3FBC09AC70250588F9ED2F67EF61FDF146FE21FB805F0E680B00B53E19A0FF6FC00C7805C00BBEBEA8CF7D7CCD
310
F5C548820000D838FF9B01CAB6014AFC3780F281852449922449922449922449922449922449926EF70DAF1801257F9AFF7A0000000049454E44AE426082
  0
ENDSEC
  0
EOF
