  0
SECTION
  2
HEADER
  9
$ACADVER
  1
AC1015
  9
$ACADMAINTVER
 70
    20
  9
$DWGCODEPAGE
  3
ANSI_1252
  9
$INSBASE
 10
0.0
 20
0.0
 30
0.0
  9
$EXTMIN
 10
1166.593809053213
 20
860.6231412358251
 30
0.0
  9
$EXTMAX
 10
1289.096156888406
 20
981.623141235825
 30
0.0
  9
$LIMMIN
 10
0.0
 20
0.0
  9
$LIMMAX
 10
420.0
 20
297.0
  9
$ORTHOMODE
 70
     0
  9
$REGENMODE
 70
     1
  9
$FILLMODE
 70
     1
  9
$QTEXTMODE
 70
     0
  9
$MIRRTEXT
 70
     0
  9
$LTSCALE
 40
1.0
  9
$ATTMODE
 70
     1
  9
$TEXTSIZE
 40
3.5
  9
$TRACEWID
 40
1.0
  9
$TEXTSTYLE
  7
STANDARD
  9
$CLAYER
  8
AM_0
  9
$CELTYPE
  6
BYLAYER
  9
$CECOLOR
 62
   256
  9
$CELTSCALE
 40
1.0
  9
$DISPSILH
 70
     0
  9
$DIMSCALE
 40
1.0
  9
$DIMASZ
 40
2.5
  9
$DIMEXO
 40
1.0
  9
$DIMDLI
 40
10.0
  9
$DIMRND
 40
0.0
  9
$DIMDLE
 40
0.0
  9
$DIMEXE
 40
1.0
  9
$DIMTP
 40
0.1
  9
$DIMTM
 40
0.1
  9
$DIMTXT
 40
3.5
  9
$DIMCEN
 40
0.0
  9
$DIMTSZ
 40
0.0
  9
$DIMTOL
 70
     0
  9
$DIMLIM
 70
     0
  9
$DIMTIH
 70
     0
  9
$DIMTOH
 70
     0
  9
$DIMSE1
 70
     0
  9
$DIMSE2
 70
     0
  9
$DIMTAD
 70
     1
  9
$DIMZIN
 70
     8
  9
$DIMBLK
  1

  9
$DIMASO
 70
     1
  9
$DIMSHO
 70
     1
  9
$DIMPOST
  1

  9
$DIMAPOST
  1
"
  9
$DIMALT
 70
     0
  9
$DIMALTD
 70
     3
  9
$DIMALTF
 40
0.0393701
  9
$DIMLFAC
 40
1.0
  9
$DIMTOFL
 70
     1
  9
$DIMTVP
 40
0.0
  9
$DIMTIX
 70
     0
  9
$DIMSOXD
 70
     0
  9
$DIMSAH
 70
     0
  9
$DIMBLK1
  1

  9
$DIMBLK2
  1

  9
$DIMSTYLE
  2
AM_ISO
  9
$DIMCLRD
 70
   256
  9
$DIMCLRE
 70
   256
  9
$DIMCLRT
 70
     2
  9
$DIMTFAC
 40
0.71
  9
$DIMGAP
 40
1.5
  9
$DIMJUST
 70
     0
  9
$DIMSD1
 70
     0
  9
$DIMSD2
 70
     0
  9
$DIMTOLJ
 70
     0
  9
$DIMTZIN
 70
     8
  9
$DIMALTZ
 70
     0
  9
$DIMALTTZ
 70
     0
  9
$DIMUPT
 70
     0
  9
$DIMDEC
 70
     2
  9
$DIMTDEC
 70
     2
  9
$DIMALTU
 70
     2
  9
$DIMALTTD
 70
     3
  9
$DIMTXSTY
  7
STANDARD
  9
$DIMAUNIT
 70
     0
  9
$DIMADEC
 70
     0
  9
$DIMALTRND
 40
0.0
  9
$DIMAZIN
 70
     2
  9
$DIMDSEP
 70
    46
  9
$DIMATFIT
 70
     3
  9
$DIMFRAC
 70
     0
  9
$DIMLDRBLK
  1

  9
$DIMLUNIT
 70
     2
  9
$DIMLWD
 70
    -1
  9
$DIMLWE
 70
    -1
  9
$DIMTMOVE
 70
     0
  9
$LUNITS
 70
     2
  9
$LUPREC
 70
     2
  9
$SKETCHINC
 40
1.0
  9
$FILLETRAD
 40
0.0
  9
$AUNITS
 70
     0
  9
$AUPREC
 70
     0
  9
$MENU
  1
.
  9
$ELEVATION
 40
0.0
  9
$PELEVATION
 40
0.0
  9
$THICKNESS
 40
0.0
  9
$LIMCHECK
 70
     0
  9
$CHAMFERA
 40
2.5
  9
$CHAMFERB
 40
2.5
  9
$CHAMFERC
 40
20.0
  9
$CHAMFERD
 40
0.0
  9
$SKPOLY
 70
     1
  9
$TDCREATE
 40
2456346.541351968
  9
$TDUCREATE
 40
2456346.499685301
  9
$TDUPDATE
 40
2456359.451175949
  9
$TDUUPDATE
 40
2456359.409509283
  9
$TDINDWG
 40
0.0629380093
  9
$TDUSRTIMER
 40
0.0629376852
  9
$USRTIMER
 70
     1
  9
$ANGBASE
 50
0.0
  9
$ANGDIR
 70
     0
  9
$PDMODE
 70
     0
  9
$PDSIZE
 40
0.0
  9
$PLINEWID
 40
0.0
  9
$SPLFRAME
 70
     0
  9
$SPLINETYPE
 70
     6
  9
$SPLINESEGS
 70
     8
  9
$HANDSEED
  5
26C4
  9
$SURFTAB1
 70
     6
  9
$SURFTAB2
 70
     6
  9
$SURFTYPE
 70
     6
  9
$SURFU
 70
     6
  9
$SURFV
 70
     6
  9
$UCSBASE
  2

  9
$UCSNAME
  2

  9
$UCSORG
 10
0.0
 20
0.0
 30
0.0
  9
$UCSXDIR
 10
1.0
 20
0.0
 30
0.0
  9
$UCSYDIR
 10
0.0
 20
1.0
 30
0.0
  9
$UCSORTHOREF
  2

  9
$UCSORTHOVIEW
 70
     0
  9
$UCSORGTOP
 10
0.0
 20
0.0
 30
0.0
  9
$UCSORGBOTTOM
 10
0.0
 20
0.0
 30
0.0
  9
$UCSORGLEFT
 10
0.0
 20
0.0
 30
0.0
  9
$UCSORGRIGHT
 10
0.0
 20
0.0
 30
0.0
  9
$UCSORGFRONT
 10
0.0
 20
0.0
 30
0.0
  9
$UCSORGBACK
 10
0.0
 20
0.0
 30
0.0
  9
$PUCSBASE
  2

  9
$PUCSNAME
  2

  9
$PUCSORG
 10
0.0
 20
0.0
 30
0.0
  9
$PUCSXDIR
 10
1.0
 20
0.0
 30
0.0
  9
$PUCSYDIR
 10
0.0
 20
1.0
 30
0.0
  9
$PUCSORTHOREF
  2

  9
$PUCSORTHOVIEW
 70
     0
  9
$PUCSORGTOP
 10
0.0
 20
0.0
 30
0.0
  9
$PUCSORGBOTTOM
 10
0.0
 20
0.0
 30
0.0
  9
$PUCSORGLEFT
 10
0.0
 20
0.0
 30
0.0
  9
$PUCSORGRIGHT
 10
0.0
 20
0.0
 30
0.0
  9
$PUCSORGFRONT
 10
0.0
 20
0.0
 30
0.0
  9
$PUCSORGBACK
 10
0.0
 20
0.0
 30
0.0
  9
$USERI1
 70
     0
  9
$USERI2
 70
     0
  9
$USERI3
 70
     0
  9
$USERI4
 70
     0
  9
$USERI5
 70
     0
  9
$USERR1
 40
0.0
  9
$USERR2
 40
0.0
  9
$USERR3
 40
0.0
  9
$USERR4
 40
0.0
  9
$USERR5
 40
0.0
  9
$WORLDVIEW
 70
     1
  9
$SHADEDGE
 70
     3
  9
$SHADEDIF
 70
    70
  9
$TILEMODE
 70
     1
  9
$MAXACTVP
 70
    48
  9
$PINSBASE
 10
0.0
 20
0.0
 30
0.0
  9
$PLIMCHECK
 70
     0
  9
$PEXTMIN
 10
1.000000000000000E+20
 20
1.000000000000000E+20
 30
1.000000000000000E+20
  9
$PEXTMAX
 10
-1.000000000000000E+20
 20
-1.000000000000000E+20
 30
-1.000000000000000E+20
  9
$PLIMMIN
 10
-0.2500002402958907
 20
-0.2499999962453767
  9
$PLIMMAX
 10
10.74999951940821
 20
8.249999763458731
  9
$UNITMODE
 70
     0
  9
$VISRETAIN
 70
     1
  9
$PLINEGEN
 70
     0
  9
$PSLTSCALE
 70
     1
  9
$TREEDEPTH
 70
  3020
  9
$CMLSTYLE
  2
STANDARD
  9
$CMLJUST
 70
     0
  9
$CMLSCALE
 40
1.0
  9
$PROXYGRAPHICS
 70
     1
  9
$MEASUREMENT
 70
     1
  9
$CELWEIGHT
370
    -1
  9
$ENDCAPS
280
     0
  9
$JOINSTYLE
280
     0
  9
$LWDISPLAY
290
     0
  9
$INSUNITS
 70
     4
  9
$HYPERLINKBASE
  1

  9
$STYLESHEET
  1
@LAYOUT.CTB
  9
$XEDIT
290
     1
  9
$CEPSNTYPE
380
     0
  9
$PSTYLEMODE
290
     1
  9
$FINGERPRINTGUID
  2
{61A492F6-44E0-461B-964C-7B9C22B17FA0}
  9
$VERSIONGUID
  2
{ACCD513E-D798-4F06-8779-C3EB24214B3F}
  9
$EXTNAMES
290
     1
  9
$PSVPSCALE
 40
0.0
  9
$OLESTARTUP
290
     0
  0
ENDSEC
  0
SECTION
  2
CLASSES
  0
CLASS
  1
DICTIONARYVAR
  2
AcDbDictionaryVar
  3
ObjectDBX Classes
 90
        0
280
     0
281
     0
  0
CLASS
  1
ACMESTATEMGR
  2
AcMeStateMgr
  3
AcMeServices
 90
     1024
280
     0
281
     0
  0
CLASS
  1
ACMESCOPE
  2
AcMeScope
  3
AcMeServices
 90
     1024
280
     0
281
     0
  0
CLASS
  1
ACMECOMMANDHISTORY
  2
AcMeCommandHistory
  3
AcMeServices
 90
     1024
280
     0
281
     0
  0
CLASS
  1
ACRFINSADJUSTERMGR
  2
AcRfInsAdjusterMgr
  3
AcMeServices
 90
     1024
280
     0
281
     0
  0
CLASS
  1
ACMEDRAWINGMAN
  2
AcMeDrawingMan
  3
AcMeServices
 90
     1024
280
     0
281
     0
  0
CLASS
  1
AMATTR
  2
AcMeAttribute
  3
AcMeServices
 90
    33792
280
     0
281
     0
  0
CLASS
  1
ACMEBOMCOLUMN
  2
AcMeBOMColumn
  3
AcMeServices
 90
    33792
280
     0
281
     0
  0
CLASS
  1
ACMEBOMCONF
  2
AcMeBOMConf
  3
AcMeServices
 90
    33792
280
     0
281
     0
  0
CLASS
  1
ACMEBOMTABLE
  2
AcMeBOMTable
  3
AcMeServices
 90
    33792
280
     0
281
     0
  0
CLASS
  1
ACMEBOMENTRY
  2
AcMeBOMEntry
  3
AcMeServices
 90
    33792
280
     0
281
     0
  0
CLASS
  1
ACMEVIEW
  2
AcMeView
  3
AcMeServices
 90
     1024
280
     0
281
     0
  0
CLASS
  1
ACGREFMASTER
  2
AcGrefMaster
  3
AcAttribServices
 90
     1024
280
     0
281
     0
  0
CLASS
  1
AMIMASTER
  2
AmiMaster
  3
AmiServices
 90
     1024
280
     0
281
     0
  0
CLASS
  1
ACASGREFMASTER
  2
AcAsGrefMaster
  3
AutoSurfResolverServices
 90
     1024
280
     0
281
     0
  0
CLASS
  1
ADAPPL
  2
AcAdAppl
  3
DesignerServices
 90
     1024
280
     0
281
     0
  0
CLASS
  1
DEPMGR
  2
AcAdDepMgr
  3
DesignerServices
 90
     1024
280
     0
281
     0
  0
CLASS
  1
PARAMMGR
  2
AcAdParamMgr
  3
DesignerServices
 90
     1024
280
     0
281
     0
  0
CLASS
  1
PARAMSCOPE
  2
AcAdParamScope
  3
DesignerServices
 90
     1024
280
     0
281
     0
  0
CLASS
  1
ACIMSYSVARMAN
  2
AcImSysVarManager
  3
AcMeServices
 90
     1024
280
     0
281
     0
  0
CLASS
  1
ACIMINTSYSVAR
  2
AcImIntSysVar
  3
AcMeServices
 90
     1024
280
     0
281
     0
  0
CLASS
  1
ACIMREALSYSVAR
  2
AcImRealSysVar
  3
AcMeServices
 90
     1024
280
     0
281
     0
  0
CLASS
  1
ACIMSTRSYSVAR
  2
AcImStrSysVar
  3
AcMeServices
 90
     1024
280
     0
281
     0
  0
CLASS
  1
NAMEDAPPL
  2
AcAdNamedAppl
  3
DesignerServices
 90
     1024
280
     0
281
     0
  0
CLASS
  1
ADHNTMPLT
  2
AdHoleNoteTemplateMgr
  3
DesignerServices
 90
    33792
280
     0
281
     0
  0
CLASS
  1
AM_HNTEMPLATE_MGR_NAME
  2
AdHoleNoteTemplateMgrName
  3
DesignerServices
 90
    33792
280
     0
281
     0
  0
CLASS
  1
ACADGREFMODULE
  2
AcAdGrefModule
  3
AdGrefServices
 90
     1024
280
     0
281
     0
  0
CLASS
  1
AM_DRAWING_MGR
  2
AcDmDwgMgr
  3
AcMechDwgViewMgmt
 90
     1024
280
     0
281
     0
  0
CLASS
  1
AM_DWG_DOCUMENT
  2
AcDmDwgDocument
  3
AcMechDwgViewMgmt
 90
     1024
280
     0
281
     0
  0
CLASS
  1
AM_DWG_SHEET
  2
AcDmSheet
  3
AcMechDwgViewMgmt
 90
     1024
280
     0
281
     0
  0
CLASS
  1
AM_VIEWDIMPARMAP
  2
AcDmViewDimParMap
  3
AcMechDwgViewMgmt
 90
     1024
280
     0
281
     0
  0
CLASS
  1
AM_DWGMGR_NAME
  2
AcDmDwgMgrName
  3
AcMechDwgViewMgmt
 90
     1024
280
     0
281
     0
  0
CLASS
  1
ACAMPROJECT
  2
AcAmProject
  3
DesignerAssemblies
 90
     1024
280
     0
281
     0
  0
CLASS
  1
ACAMGRCOMPSET
  2
AcAmGrCompSet
  3
DesignerAssemblies
 90
    32768
280
     0
281
     0
  0
CLASS
  1
ACAMGRCOMPDEFSET
  2
AcAmGrCompDefSet
  3
DesignerAssemblies
 90
     1024
280
     0
281
     0
  0
CLASS
  1
ACAMGRCOMPDEF
  2
AcAmGrCompDef
  3
DesignerAssemblies
 90
     1024
280
     0
281
     0
  0
CLASS
  1
ACCMCONTEXT
  2
AcCmContext
  3
DesignerAssemblies
 90
     1024
280
     0
281
     0
  0
CLASS
  1
ACAMCOMPDEF
  2
AcAmCompDef
  3
DesignerAssemblies
 90
     1024
280
     0
281
     0
  0
CLASS
  1
ACAMCOMPDEFMGR
  2
AcAmCompDefMgr
  3
DesignerAssemblies
 90
     1024
280
     0
281
     0
  0
CLASS
  1
AMCONTEXTMGR
  2
AcAmContextMgr
  3
DesignerAssemblies
 90
     1024
280
     0
281
     0
  0
CLASS
  1
ACAMCONTEXTMODELER
  2
AcAmContextModeler
  3
DesignerAssemblies
 90
     1024
280
     0
281
     0
  0
CLASS
  1
ACDMVIEWGEOM
  2
AcDmViewGeometry
  3
AcMechDwgViewMgmt
 90
    33792
280
     0
281
     1
  0
CLASS
  1
CBROWSERAPPOBJECT
  2
CBrowserAppObject
  3
McadcomServices
 90
     1024
280
     0
281
     0
  0
CLASS
  1
IM_STATIC_MAN
  2
AcImStaticVarManager
  3
AcMeServices
 90
     1024
280
     0
281
     0
  0
CLASS
  1
ASAPP
  2
AcAsAppObject
  3
AutoSurfServices
 90
     1024
280
     0
281
     0
  0
CLASS
  1
ACIMDBLSTATICVAR
  2
AcImDblStaticVar
  3
AcMeServices
 90
     1024
280
     0
281
     0
  0
CLASS
  1
ACIMSTRSTATICVAR
  2
AcImStrStaticVar
  3
AcMeServices
 90
     1024
280
     0
281
     0
  0
CLASS
  1
ACIMINTSTATICVAR
  2
AcImIntStaticVar
  3
AcMeServices
 90
     1024
280
     0
281
     0
  0
CLASS
  1
CATALOGSTATE
  2
AcAmCatalogState
  3
DesignerAssemblies
 90
     1024
280
     0
281
     0
  0
CLASS
  1
DM_PLACEHOLDER
  2
AcDmSelsetPlaceholder
  3
AcMechDwgViewMgmt
 90
     1024
280
     0
281
     0
  0
CLASS
  1
LAYER_INDEX
  2
AcDbLayerIndex
  3
ObjectDBX Classes
 90
        0
280
     0
281
     0
  0
CLASS
  1
IDBUFFER
  2
AcDbIdBuffer
  3
ObjectDBX Classes
 90
        0
280
     0
281
     0
  0
CLASS
  1
ACMSTANDARDJIS
  2
AcmStandardJIS
  3
"Amdt_StdImp|Product Description: AutoCAD Mechanical|Company: Autodesk, Inc."
 90
    33792
280
     0
281
     0
  0
CLASS
  1
ACMSTANDARDANSI
  2
AcmStandardANSI
  3
"Amdt_StdImp|Product Description: AutoCAD Mechanical|Company: Autodesk, Inc."
 90
     1024
280
     0
281
     0
  0
CLASS
  1
ACMSTANDARDBSI
  2
AcmStandardBSI
  3
"Amdt_StdImp|Product Description: AutoCAD Mechanical|Company: Autodesk, Inc."
 90
    33792
280
     0
281
     0
  0
CLASS
  1
ACMSTANDARDDIN
  2
AcmStandardDIN
  3
"Amdt_StdImp|Product Description: AutoCAD Mechanical|Company: Autodesk, Inc."
 90
    33792
280
     0
281
     0
  0
CLASS
  1
ACMSTANDARDISO
  2
AcmStandardISO
  3
"Amdt_StdImp|Product Description: AutoCAD Mechanical|Company: Autodesk, Inc."
 90
     1024
280
     0
281
     0
  0
CLASS
  1
ACDBDICTIONARYWDFLT
  2
AcDbDictionaryWithDefault
  3
ObjectDBX Classes
 90
        0
280
     0
281
     0
  0
CLASS
  1
ACDBPLACEHOLDER
  2
AcDbPlaceHolder
  3
ObjectDBX Classes
 90
        0
280
     0
281
     0
  0
CLASS
  1
LAYOUT
  2
AcDbLayout
  3
ObjectDBX Classes
 90
        0
280
     0
281
     0
  0
CLASS
  1
ACME_DOCUMENT
  2
AcMeDbDoc
  3
AcMeServices
 90
     1024
280
     0
281
     0
  0
CLASS
  1
AMGSETTINGSOBJ
  2
AmgSettingsObj
  3
"AcadM|Product Description: AutoCAD Mechanical|Company: Autodesk, Inc."
 90
     1024
280
     0
281
     0
  0
CLASS
  1
AMGOBJPROPCFG
  2
AmgObjPropCfg
  3
"AmgLay|Product Description: AutoCAD Mechanical|Company: Autodesk, Inc."
 90
     1025
280
     0
281
     0
  0
CLASS
  1
ACDBENTITYCACHE
  2
AcMeEntityCache
  3
AcMeServices
 90
     1024
280
     0
281
     0
  0
CLASS
  1
GSMANAGER
  2
AcMeGSManager
  3
AcMeServices
 90
     1024
280
     0
281
     0
  0
CLASS
  1
AMDTINTERNALREACTOR
  2
AmdtInternalReactor
  3
AcMeServices
 90
     1024
280
     0
281
     0
  0
CLASS
  1
ACME_DATABASE
  2
AcMeDbDatabase
  3
AcMeServices
 90
     1024
280
     0
281
     0
  0
CLASS
  1
ACGREFACADMASTER
  2
AcGrefacadMaster
  3
AcGrefServices
 90
     1024
280
     0
281
     0
  0
CLASS
  1
AMDTMENUSTATEMGR
  2
AmdtMenuStateMgr
  3
McadcomServices
 90
     1024
280
     0
281
     0
  0
CLASS
  1
AMDTMCOMMENUSTATE
  2
AmdtMcomMenuState
  3
McadcomServices
 90
     1024
280
     0
281
     0
  0
CLASS
  1
MAPIADMODULE
  2
MApiAdModule
  3
MApiAdServices
 90
     1024
280
     0
281
     0
  0
CLASS
  1
AMDTDMMENUSTATE
  2
AmdtDmMenuState
  3
AcMechDwgViewMgmt
 90
     1024
280
     0
281
     0
  0
CLASS
  1
AMDTADMENUSTATE
  2
AmdtAdMenuState
  3
DesignerServices
 90
     1024
280
     0
281
     0
  0
CLASS
  1
AMDTAMMENUSTATE
  2
AmdtAmMenuState
  3
DesignerAssemblies
 90
     1024
280
     0
281
     0
  0
CLASS
  1
ACMDATADICTIONARY
  2
AcmDataDictionary
  3
"AcmSymBB|Product Description: AutoCAD Mechanical|Company: Autodesk, Inc."
 90
     1024
280
     0
281
     0
  0
CLASS
  1
ACMDATAENTRYBLOCK
  2
AcmDataEntryBlock
  3
AcmSymBB|Product Description: AutoCAD Mechanical|Company: Autodesk, Inc.
 90
     1024
280
     0
281
     0
  0
CLASS
  1
ACMSURFSTANDARDJIS
  2
AcmSurfTextStdJIS
  3
"Amdt_StdImp|Product Description: AutoCAD Mechanical|Company: Autodesk, Inc."
 90
    33792
280
     0
281
     0
  0
CLASS
  1
ACMFCFSTANDARDJIS
  2
AcmFCFStdJIS
  3
"Amdt_StdImp|Product Description: AutoCAD Mechanical|Company: Autodesk, Inc."
 90
    33792
280
     0
281
     0
  0
CLASS
  1
ACMWELDSTANDARDJIS
  2
AcmWeldingStdJIS
  3
"Amdt_StdImp|Product Description: AutoCAD Mechanical|Company: Autodesk, Inc."
 90
    33792
280
     0
281
     0
  0
CLASS
  1
ACMIDSTANDARDJIS
  2
AcmIdStdJIS
  3
"Amdt_StdImp|Product Description: AutoCAD Mechanical|Company: Autodesk, Inc."
 90
    33792
280
     0
281
     0
  0
CLASS
  1
ACMDATUMSTANDARDJIS
  2
AcmDatumStdJIS
  3
"Amdt_StdImp|Product Description: AutoCAD Mechanical|Company: Autodesk, Inc."
 90
    33792
280
     0
281
     0
  0
CLASS
  1
ACMBOMSTANDARDJIS
  2
AcmBOMStdJIS
  3
"Amdt_StdImp|Product Description: AutoCAD Mechanical|Company: Autodesk, Inc."
 90
    33792
280
     0
281
     0
  0
CLASS
  1
ACMSURFSTANDARDANSI
  2
AcmSurfTextStdANSI
  3
"Amdt_StdImp|Product Description: AutoCAD Mechanical|Company: Autodesk, Inc."
 90
     1024
280
     0
281
     0
  0
CLASS
  1
ACMFCFSTANDARDANSI
  2
AcmFCFStdANSI
  3
"Amdt_StdImp|Product Description: AutoCAD Mechanical|Company: Autodesk, Inc."
 90
     1024
280
     0
281
     0
  0
CLASS
  1
ACMWELDSTANDARDANSI
  2
AcmWeldingStdANSI
  3
"Amdt_StdImp|Product Description: AutoCAD Mechanical|Company: Autodesk, Inc."
 90
     1024
280
     0
281
     0
  0
CLASS
  1
ACMIDSTANDARDANSI
  2
AcmIdStdANSI
  3
"Amdt_StdImp|Product Description: AutoCAD Mechanical|Company: Autodesk, Inc."
 90
     1024
280
     0
281
     0
  0
CLASS
  1
ACMDATUMSTANDARDANSI
  2
AcmDatumStdANSI
  3
"Amdt_StdImp|Product Description: AutoCAD Mechanical|Company: Autodesk, Inc."
 90
     1024
280
     0
281
     0
  0
CLASS
  1
ACMBOMSTANDARDANSI
  2
AcmBOMStdANSI
  3
"Amdt_StdImp|Product Description: AutoCAD Mechanical|Company: Autodesk, Inc."
 90
     1024
280
     0
281
     0
  0
CLASS
  1
ACMSURFSTANDARDBSI
  2
AcmSurfTextStdBSI
  3
"Amdt_StdImp|Product Description: AutoCAD Mechanical|Company: Autodesk, Inc."
 90
    33792
280
     0
281
     0
  0
CLASS
  1
ACMFCFSTANDARDBSI
  2
AcmFCFStdBSI
  3
"Amdt_StdImp|Product Description: AutoCAD Mechanical|Company: Autodesk, Inc."
 90
    33792
280
     0
281
     0
  0
CLASS
  1
ACMWELDSTANDARDBSI
  2
AcmWeldingStdBSI
  3
"Amdt_StdImp|Product Description: AutoCAD Mechanical|Company: Autodesk, Inc."
 90
    33792
280
     0
281
     0
  0
CLASS
  1
ACMIDSTANDARDBSI
  2
AcmIdStdBSI
  3
"Amdt_StdImp|Product Description: AutoCAD Mechanical|Company: Autodesk, Inc."
 90
    33792
280
     0
281
     0
  0
CLASS
  1
ACMDATUMSTANDARDBSI
  2
AcmDatumStdBSI
  3
"Amdt_StdImp|Product Description: AutoCAD Mechanical|Company: Autodesk, Inc."
 90
    33792
280
     0
281
     0
  0
CLASS
  1
ACMBOMSTANDARDBSI
  2
AcmBOMStdBSI
  3
"Amdt_StdImp|Product Description: AutoCAD Mechanical|Company: Autodesk, Inc."
 90
    33792
280
     0
281
     0
  0
CLASS
  1
AMDTEDGESTANDARDDIN
  2
AmdtEdgeStdDIN
  3
"Amdt_StdImp|Product Description: AutoCAD Mechanical|Company: Autodesk, Inc."
 90
    33792
280
     0
281
     0
  0
CLASS
  1
ACMSURFSTANDARDDIN
  2
AcmSurfTextStdDIN
  3
"Amdt_StdImp|Product Description: AutoCAD Mechanical|Company: Autodesk, Inc."
 90
    33792
280
     0
281
     0
  0
CLASS
  1
ACMFCFSTANDARDDIN
  2
AcmFCFStdDIN
  3
"Amdt_StdImp|Product Description: AutoCAD Mechanical|Company: Autodesk, Inc."
 90
    33792
280
     0
281
     0
  0
CLASS
  1
ACMWELDSTANDARDDIN
  2
AcmWeldingStdDIN
  3
"Amdt_StdImp|Product Description: AutoCAD Mechanical|Company: Autodesk, Inc."
 90
    33792
280
     0
281
     0
  0
CLASS
  1
ACMIDSTANDARDDIN
  2
AcmIdStdDIN
  3
"Amdt_StdImp|Product Description: AutoCAD Mechanical|Company: Autodesk, Inc."
 90
    33792
280
     0
281
     0
  0
CLASS
  1
ACMDATUMSTANDARDDIN
  2
AcmDatumStdDIN
  3
"Amdt_StdImp|Product Description: AutoCAD Mechanical|Company: Autodesk, Inc."
 90
    33792
280
     0
281
     0
  0
CLASS
  1
ACMBOMSTANDARDDIN
  2
AcmBOMStdDIN
  3
"Amdt_StdImp|Product Description: AutoCAD Mechanical|Company: Autodesk, Inc."
 90
    33792
280
     0
281
     0
  0
CLASS
  1
ACMSURFSTANDARDISO
  2
AcmSurfTextStdISO
  3
"Amdt_StdImp|Product Description: AutoCAD Mechanical|Company: Autodesk, Inc."
 90
     1024
280
     0
281
     0
  0
CLASS
  1
ACMFCFSTANDARDISO
  2
AcmFCFStdISO
  3
"Amdt_StdImp|Product Description: AutoCAD Mechanical|Company: Autodesk, Inc."
 90
     1024
280
     0
281
     0
  0
CLASS
  1
ACMWELDSTANDARDISO
  2
AcmWeldingStdISO
  3
"Amdt_StdImp|Product Description: AutoCAD Mechanical|Company: Autodesk, Inc."
 90
     1024
280
     0
281
     0
  0
CLASS
  1
ACMIDSTANDARDISO
  2
AcmIdStdISO
  3
"Amdt_StdImp|Product Description: AutoCAD Mechanical|Company: Autodesk, Inc."
 90
     1024
280
     0
281
     0
  0
CLASS
  1
ACMDATUMSTANDARDISO
  2
AcmDatumStdISO
  3
"Amdt_StdImp|Product Description: AutoCAD Mechanical|Company: Autodesk, Inc."
 90
     1024
280
     0
281
     0
  0
CLASS
  1
ACMBOMSTANDARDISO
  2
AcmBOMStdISO
  3
"Amdt_StdImp|Product Description: AutoCAD Mechanical|Company: Autodesk, Inc."
 90
     1024
280
     0
281
     0
  0
CLASS
  1
AMDTBROWSERDBTAB
  2
AmdtBrowserDbTab
  3
McadcomServices
 90
     1024
280
     0
281
     0
  0
CLASS
  1
ACAMGFILTERDAT
  2
AcAmgFilterDat
  3
"AcadM|Product Description: AutoCAD Mechanical|Company: Autodesk, Inc."
 90
     1024
280
     0
281
     0
  0
CLASS
  1
MAPIAMMOUDLE
  2
MApiAmModule
  3
MApiAmServices
 90
     1024
280
     0
281
     0
  0
CLASS
  1
AMDTMAPISURFMOUDULE
  2
AmdtMApiSurfModule
  3
MApiSurfServices
 90
     1024
280
     0
281
     0
  0
CLASS
  1
ACAMGLAYSTD
  2
AcAmgLayStd
  3
"AmgLay|Product Description: AutoCAD Mechanical|Company: Autodesk, Inc."
 90
     1024
280
     0
281
     0
  0
CLASS
  1
ACAMGDIMSTD
  2
AcAmgDimStd
  3
"AmgDim|Product Description: AutoCAD Mechanical|Company: Autodesk, Inc."
 90
     1024
280
     0
281
     0
  0
CLASS
  1
ACAMGTITLESTD
  2
AcAmgTitleStd
  3
"AmgTitle|Product Description: AutoCAD Mechanical|Company: Autodesk, Inc."
 90
     4095
280
     0
281
     0
  0
CLASS
  1
ACMDETAILSTANDARDJIS
  2
AmdtDetailSymStdJIS
  3
"Amdt_StdImp|Product Description: AutoCAD Mechanical|Company: Autodesk, Inc."
 90
    33792
280
     0
281
     0
  0
CLASS
  1
ACMSECTIONSTANDARDJIS
  2
AmdtSectionSymStdJIS
  3
"Amdt_StdImp|Product Description: AutoCAD Mechanical|Company: Autodesk, Inc."
 90
    33792
280
     0
281
     0
  0
CLASS
  1
ACMCENTERLINESTANDARDJIS
  2
AmdtCenterLineStdJIS
  3
"Amdt_StdImp|Product Description: AutoCAD Mechanical|Company: Autodesk, Inc."
 90
    33792
280
     0
281
     0
  0
CLASS
  1
ACMTHREADLINESTANDARDJIS
  2
AmdtThreadLineStdJIS
  3
"Amdt_StdImp|Product Description: AutoCAD Mechanical|Company: Autodesk, Inc."
 90
    33792
280
     0
281
     0
  0
CLASS
  1
ACMDETAILSTANDARDANSI
  2
AmdtDetailSymStdANSI
  3
"Amdt_StdImp|Product Description: AutoCAD Mechanical|Company: Autodesk, Inc."
 90
     1024
280
     0
281
     0
  0
CLASS
  1
ACMSECTIONSTANDARDANSI
  2
AmdtSectionSymStdANSI
  3
"Amdt_StdImp|Product Description: AutoCAD Mechanical|Company: Autodesk, Inc."
 90
     1024
280
     0
281
     0
  0
CLASS
  1
ACMCENTERLINESTANDARDANSI
  2
AmdtCenterLineStdANSI
  3
"Amdt_StdImp|Product Description: AutoCAD Mechanical|Company: Autodesk, Inc."
 90
     1024
280
     0
281
     0
  0
CLASS
  1
ACMTHREADLINESTANDARDANSI
  2
AmdtThreadLineStdANSI
  3
"Amdt_StdImp|Product Description: AutoCAD Mechanical|Company: Autodesk, Inc."
 90
     1024
280
     0
281
     0
  0
CLASS
  1
ACMDETAILSTANDARDBSI
  2
AmdtDetailSymStdBSI
  3
"Amdt_StdImp|Product Description: AutoCAD Mechanical|Company: Autodesk, Inc."
 90
    33792
280
     0
281
     0
  0
CLASS
  1
ACMSECTIONSTANDARDBSI
  2
AmdtSectionSymStdBSI
  3
"Amdt_StdImp|Product Description: AutoCAD Mechanical|Company: Autodesk, Inc."
 90
    33792
280
     0
281
     0
  0
CLASS
  1
ACMCENTERLINESTANDARDBSI
  2
AmdtCenterLineStdBSI
  3
"Amdt_StdImp|Product Description: AutoCAD Mechanical|Company: Autodesk, Inc."
 90
    33792
280
     0
281
     0
  0
CLASS
  1
ACMTHREADLINESTANDARDBSI
  2
AmdtThreadLineStdBSI
  3
"Amdt_StdImp|Product Description: AutoCAD Mechanical|Company: Autodesk, Inc."
 90
    33792
280
     0
281
     0
  0
CLASS
  1
ACMDETAILSTANDARDDIN
  2
AmdtDetailSymStdDIN
  3
"Amdt_StdImp|Product Description: AutoCAD Mechanical|Company: Autodesk, Inc."
 90
    33792
280
     0
281
     0
  0
CLASS
  1
ACMSECTIONSTANDARDDIN
  2
AmdtSectionSymStdDIN
  3
"Amdt_StdImp|Product Description: AutoCAD Mechanical|Company: Autodesk, Inc."
 90
    33792
280
     0
281
     0
  0
CLASS
  1
ACMCENTERLINESTANDARDDIN
  2
AmdtCenterLineStdDIN
  3
"Amdt_StdImp|Product Description: AutoCAD Mechanical|Company: Autodesk, Inc."
 90
    33792
280
     0
281
     0
  0
CLASS
  1
ACMTHREADLINESTANDARDDIN
  2
AmdtThreadLineStdDIN
  3
"Amdt_StdImp|Product Description: AutoCAD Mechanical|Company: Autodesk, Inc."
 90
    33792
280
     0
281
     0
  0
CLASS
  1
AMDTEDGESTANDARDISO
  2
AmdtEdgeStdISO
  3
"Amdt_StdImp|Product Description: AutoCAD Mechanical|Company: Autodesk, Inc."
 90
     1024
280
     0
281
     0
  0
CLASS
  1
ACMDETAILSTANDARDISO
  2
AmdtDetailSymStdISO
  3
"Amdt_StdImp|Product Description: AutoCAD Mechanical|Company: Autodesk, Inc."
 90
     1024
280
     0
281
     0
  0
CLASS
  1
ACMSECTIONSTANDARDISO
  2
AmdtSectionSymStdISO
  3
"Amdt_StdImp|Product Description: AutoCAD Mechanical|Company: Autodesk, Inc."
 90
     1024
280
     0
281
     0
  0
CLASS
  1
ACMCENTERLINESTANDARDISO
  2
AmdtCenterLineStdISO
  3
"Amdt_StdImp|Product Description: AutoCAD Mechanical|Company: Autodesk, Inc."
 90
     1024
280
     0
281
     0
  0
CLASS
  1
ACMTHREADLINESTANDARDISO
  2
AmdtThreadLineStdISO
  3
"Amdt_StdImp|Product Description: AutoCAD Mechanical|Company: Autodesk, Inc."
 90
     1024
280
     0
281
     0
  0
CLASS
  1
ACMNOTESTANDARDISO
  2
AmdtNoteStdISO
  3
"Amdt_StdImp|Product Description: AutoCAD Mechanical|Company: Autodesk, Inc."
 90
     1024
280
     0
281
     0
  0
CLASS
  1
ACAMGHOLECHARTSTDISO
  2
AcAmgHoleChartStdISO
  3
AmgDim|Product Description: AutoCAD Mechanical|Company: Autodesk, Inc.
 90
     1024
280
     0
281
     0
  0
CLASS
  1
ACMNOTESTANDARDANSI
  2
AmdtNoteStdANSI
  3
"Amdt_StdImp|Product Description: AutoCAD Mechanical|Company: Autodesk, Inc."
 90
     1024
280
     0
281
     0
  0
CLASS
  1
AMDTNOTETEMPLATEDB
  2
AmdtNoteTemplateDB
  3
AcmSymBB|Product Description: AutoCAD Mechanical|Company: Autodesk, Inc.
 90
     1024
280
     0
281
     0
  0
CLASS
  1
ACAMGHOLECHARTSTDANSI
  2
AcAmgHoleChartStdANSI
  3
AmgDim|Product Description: AutoCAD Mechanical|Company: Autodesk, Inc.
 90
     1024
280
     0
281
     0
  0
CLASS
  1
TABLESTYLE
  2
AcDbTableStyle
  3
ObjectDBX Classes
 90
     4095
280
     0
281
     0
  0
CLASS
  1
ACAD_TABLE
  2
AcDbTable
  3
ObjectDBX Classes
 90
    33793
280
     0
281
     1
  0
CLASS
  1
MATERIAL
  2
AcDbMaterial
  3
ObjectDBX Classes
 90
     1153
280
     0
281
     0
  0
CLASS
  1
VISUALSTYLE
  2
AcDbVisualStyle
  3
ObjectDBX Classes
 90
     4095
280
     0
281
     0
  0
CLASS
  1
SCALE
  2
AcDbScale
  3
ObjectDBX Classes
 90
     1153
280
     0
281
     0
  0
CLASS
  1
MLEADERSTYLE
  2
AcDbMLeaderStyle
  3
ACDB_MLEADERSTYLE_CLASS
 90
     4095
280
     0
281
     0
  0
CLASS
  1
ACRFATTGENMGR
  2
AcRfAttGeneralMgr
  3
AcAttribServices
 90
     1024
280
     0
281
     0
  0
CLASS
  1
ACRFOBJATTMGR
  2
AcRfObjAttGroupMgr
  3
AcAttribServices
 90
     1024
280
     0
281
     0
  0
CLASS
  1
ACRFMCADAPIATTHOLDER
  2
AcRfMCADAPIAttHolder
  3
AcAttribServices
 90
     1024
280
     0
281
     0
  0
CLASS
  1
AMDTSYSATTR
  2
AmdtSystemAttribute
  3
AcAttribServices
 90
     1024
280
     0
281
     0
  0
CLASS
  1
ACMTAPERSTANDARDISO
  2
AcmTaperStdISO
  3
"Amdt_StdImp|Product Description: AutoCAD Mechanical|Company: Autodesk, Inc."
 90
     1024
280
     0
281
     0
  0
CLASS
  1
ACMANOOTATIONVIEWSTANDARDISO
  2
AmdtAnViewStdISO
  3
"Amdt_StdImp|Product Description: AutoCAD Mechanical|Company: Autodesk, Inc."
 90
     1024
280
     0
281
     0
  0
CLASS
  1
ACMTAPERSTANDARDANSI
  2
AcmTaperStdANSI
  3
"Amdt_StdImp|Product Description: AutoCAD Mechanical|Company: Autodesk, Inc."
 90
     1024
280
     0
281
     0
  0
CLASS
  1
ACMANOOTATIONVIEWSTANDARDANSI
  2
AmdtAnViewStdANSI
  3
"Amdt_StdImp|Product Description: AutoCAD Mechanical|Company: Autodesk, Inc."
 90
     1024
280
     0
281
     0
  0
CLASS
  1
CELLSTYLEMAP
  2
AcDbCellStyleMap
  3
ObjectDBX Classes
 90
     1152
280
     0
281
     0
  0
CLASS
  1
CAMSSTRUCTBTNSTATE
  2
StructBtnState
  3
DesignerAssemblies
 90
    33792
280
     0
281
     0
  0
CLASS
  1
DIMASSOC
  2
AcDbDimAssoc
  3
"AcDbDimAssoc|Product Desc:     AcDim ARX App For Dimension|Company:          Autodesk, Inc.|WEB Address:      www.autodesk.com"
 90
    32768
280
     0
281
     0
  0
CLASS
  1
SORTENTSTABLE
  2
AcDbSortentsTable
  3
ObjectDBX Classes
 90
        0
280
     0
281
     0
  0
CLASS
  1
AEC_REFEDIT_STATUS_TRACKER
  2
AecDbRefEditStatusTracker
  3
AecArchBase50|Product Desc: Autodesk Architectural Desktop 2007 |Company: Autodesk,Inc. |WEB Address: www.autodesk.com
 90
      129
280
     0
281
     0
  0
CLASS
  1
NPOCOLLECTION
  2
AcDbImpNonPersistentObjectsCollection
  3
ObjectDBX Classes
 90
     1153
280
     0
281
     0
  0
ENDSEC
  0
SECTION
  2
TABLES
  0
TABLE
  2
VPORT
  5
8
330
0
100
AcDbSymbolTable
 70
     1
  0
VPORT
  5
A35
330
8
100
AcDbSymbolTableRecord
100
AcDbViewportTableRecord
  2
*Active
 70
     0
 10
0.0
 20
0.0
 11
1.0
 21
1.0
 12
-35.05833821656699
 22
-39.08802225038477
 13
0.0
 23
0.0
 14
2.5
 24
2.5
 15
10.0
 25
10.0
 16
0.0
 26
0.0
 36
1.0
 17
1264.831807146505
 27
976.2671347334793
 37
0.0
 40
170.9032620088843
 41
1.572010869565217
 42
50.0
 43
0.0
 44
0.0
 50
0.0
 51
0.0
 71
     0
 72
   100
 73
     1
 74
     1
 75
     0
 76
     0
 77
     0
 78
     0
281
     0
 65
     0
110
0.0
120
0.0
130
0.0
111
1.0
121
0.0
131
0.0
112
0.0
122
1.0
132
0.0
 79
     0
146
0.0
  0
ENDTAB
  0
TABLE
  2
LTYPE
  5
5
330
0
100
AcDbSymbolTable
 70
    22
  0
LTYPE
  5
14
330
5
100
AcDbSymbolTableRecord
100
AcDbLinetypeTableRecord
  2
BYBLOCK
 70
     0
  3

 72
    65
 73
     0
 40
0.0
  0
LTYPE
  5
15
330
5
100
AcDbSymbolTableRecord
100
AcDbLinetypeTableRecord
  2
BYLAYER
 70
     0
  3

 72
    65
 73
     0
 40
0.0
  0
LTYPE
  5
16
330
5
100
AcDbSymbolTableRecord
100
AcDbLinetypeTableRecord
  2
CONTINUOUS
 70
     0
  3
Solid line
 72
    65
 73
     0
 40
0.0
  0
LTYPE
  5
BD
330
5
100
AcDbSymbolTableRecord
100
AcDbLinetypeTableRecord
  2
HIDDEN
 70
     0
  3
__ __ __ __ __ __ __ __ __ __ __ __ __ __ __ __
 72
    65
 73
     2
 40
0.375
 49
0.25
 74
     0
 49
-0.125
 74
     0
  0
LTYPE
  5
BF
330
5
100
AcDbSymbolTableRecord
100
AcDbLinetypeTableRecord
  2
PHANTOM2
 70
     0
  3
___ _ _ ___ _ _ ___ _ _ ___ _ _ ___ _ _ ___ _ _
 72
    65
 73
     6
 40
1.25
 49
0.625
 74
     0
 49
-0.125
 74
     0
 49
0.125
 74
     0
 49
-0.125
 74
     0
 49
0.125
 74
     0
 49
-0.125
 74
     0
  0
LTYPE
  5
CA
330
5
100
AcDbSymbolTableRecord
100
AcDbLinetypeTableRecord
  2
CENTER
 70
     0
  3
____ _ ____ _ ____ _ ____ _ ____ _ ____ _ ____ 
 72
    65
 73
     4
 40
2.0
 49
1.25
 74
     0
 49
-0.25
 74
     0
 49
0.25
 74
     0
 49
-0.25
 74
     0
  0
LTYPE
  5
14D
330
5
100
AcDbSymbolTableRecord
100
AcDbLinetypeTableRecord
  2
ACANSTGB
 70
     0
  3
__ . . __ . .
 72
    65
 73
     6
 40
0.35433070866
 49
0.15748031496
 74
     0
 49
-0.03937007874
 74
     0
 49
0.03937007874
 74
     0
 49
-0.03937007874
 74
     0
 49
0.03937007874
 74
     0
 49
-0.03937007874
 74
     0
  0
LTYPE
  5
14E
330
5
100
AcDbSymbolTableRecord
100
AcDbLinetypeTableRecord
  2
ACANSTGL
 70
     0
  3
_ _ _ _ _
 72
    65
 73
     2
 40
0.11811023622
 49
0.07874015748
 74
     0
 49
-0.03937007874
 74
     0
  0
LTYPE
  5
15B
330
5
100
AcDbSymbolTableRecord
100
AcDbLinetypeTableRecord
  2
ACISOWELD
 70
     0
  3
_ _ _ _ _
 72
    65
 73
     2
 40
2.0
 49
2.0
 74
     0
 49
-1.0
 74
     0
  0
LTYPE
  5
15C
330
5
100
AcDbSymbolTableRecord
100
AcDbLinetypeTableRecord
  2
ACISOTGB
 70
     0
  3
__ . . __ . .
 72
    65
 73
     6
 40
9.0
 49
4.0
 74
     0
 49
-1.0
 74
     0
 49
1.0
 74
     0
 49
-1.0
 74
     0
 49
1.0
 74
     0
 49
-1.0
 74
     0
  0
LTYPE
  5
15D
330
5
100
AcDbSymbolTableRecord
100
AcDbLinetypeTableRecord
  2
ACISOTGL
 70
     0
  3
_ _ _ _ _
 72
    65
 73
     2
 40
3.0
 49
2.0
 74
     0
 49
-1.0
 74
     0
  0
LTYPE
  5
175
330
5
100
AcDbSymbolTableRecord
100
AcDbLinetypeTableRecord
  2
AM_ISO02W050
 70
     0
  3
__ __ __ __ __ __ __ __ __ __ __ __ __ __ __
 72
    65
 73
     2
 40
7.5
 49
6.0
 74
     0
 49
-1.5
 74
     0
  0
LTYPE
  5
176
330
5
100
AcDbSymbolTableRecord
100
AcDbLinetypeTableRecord
  2
AM_ISO08W050
 70
     0
  3
____ . ____ . ____ . ____ . ____ . ____ . ____
 72
    65
 73
     4
 40
18.0
 49
12.0
 74
     0
 49
-1.5
 74
     0
 49
3.0
 74
     0
 49
-1.5
 74
     0
  0
LTYPE
  5
177
330
5
100
AcDbSymbolTableRecord
100
AcDbLinetypeTableRecord
  2
AM_ISO09W050
 70
     0
  3
_____ . . _____ . . _____ . . ____ .. ____
 72
    65
 73
     6
 40
22.5
 49
12.0
 74
     0
 49
-1.5
 74
     0
 49
3.0
 74
     0
 49
-1.5
 74
     0
 49
3.0
 74
     0
 49
-1.5
 74
     0
  0
LTYPE
  5
178
330
5
100
AcDbSymbolTableRecord
100
AcDbLinetypeTableRecord
  2
AM_ISO02W050x2
 70
     0
  3
 _ _ _ _ _ _ _ _ _ _ _ _
 72
    65
 73
     2
 40
3.75
 49
3.0
 74
     0
 49
-0.75
 74
     0
  0
LTYPE
  5
179
330
5
100
AcDbSymbolTableRecord
100
AcDbLinetypeTableRecord
  2
AM_ISO08W050x2
 70
     0
  3
__ . __ . __ . __ . __ . __
 72
    65
 73
     4
 40
9.0
 49
6.0
 74
     0
 49
-0.75
 74
     0
 49
1.5
 74
     0
 49
-0.75
 74
     0
  0
LTYPE
  5
17C
330
5
100
AcDbSymbolTableRecord
100
AcDbLinetypeTableRecord
  2
Amzigzag
 70
     0
  3
/\/-/\/-/\/-/\/-/\/-/\/
 72
    65
 73
     2
 40
11.0001
 49
0.0001
 74
     4
 75
   135
340
17B
 46
0.04
 50
0.0
 44
0.0
 45
0.0
 49
-11.0
 74
     0
  0
LTYPE
  5
2ED
330
5
100
AcDbSymbolTableRecord
100
AcDbLinetypeTableRecord
  2
Amconstr
 70
     0
  3
_______________________
 72
    65
 73
     2
 40
9999.0
 49
9999.0
 74
     0
 49
0.0
 74
     0
  0
LTYPE
  5
2F8
330
5
100
AcDbSymbolTableRecord
100
AcDbLinetypeTableRecord
  2
CENTER2
 70
     0
  3
Center (.5x) ___ _ ___ _ ___ _ ___ _ ___ _ ___
 72
    65
 73
     4
 40
1.125
 49
0.75
 74
     0
 49
-0.125
 74
     0
 49
0.125
 74
     0
 49
-0.125
 74
     0
  0
LTYPE
  5
2F9
330
5
100
AcDbSymbolTableRecord
100
AcDbLinetypeTableRecord
  2
HIDDEN2
 70
     0
  3
Hidden (.5x) _ _ _ _ _ _ _ _ _ _ _ _ _ _ _ _ _
 72
    65
 73
     2
 40
0.1875
 49
0.125
 74
     0
 49
-0.0625
 74
     0
  0
LTYPE
  5
2FA
330
5
100
AcDbSymbolTableRecord
100
AcDbLinetypeTableRecord
  2
Amzigzag2
 70
     0
  3
/\/-/\/-/\/-/\/-/\/-/\/
 72
    65
 73
     2
 40
0.4401
 49
0.0001
 74
     4
 75
   135
340
17B
 46
0.0016
 50
0.0
 44
0.0
 45
0.0
 49
-0.4400000000000001
 74
     0
  0
ENDTAB
  0
TABLE
  2
LAYER
  5
2
102
{ACAD_XDICTIONARY
360
592
102
}
330
0
100
AcDbSymbolTable
 70
     6
  0
LAYER
  5
F
102
{ACAD_XDICTIONARY
360
AB7
102
}
330
2
100
AcDbSymbolTableRecord
100
AcDbLayerTableRecord
  2
0
 70
     0
 62
     7
  6
CONTINUOUS
370
    -3
390
166
  0
LAYER
  5
5CF
102
{ACAD_XDICTIONARY
360
AB9
102
}
330
2
100
AcDbSymbolTableRecord
100
AcDbLayerTableRecord
  2
AM_0
 70
     0
 62
     7
  6
CONTINUOUS
370
    50
390
166
  0
LAYER
  5
CF6
102
{ACAD_XDICTIONARY
360
16AC
102
}
330
2
100
AcDbSymbolTableRecord
100
AcDbLayerTableRecord
  2
Visible Edges(ISO)
 70
     0
 62
     7
  6
CONTINUOUS
370
    35
390
166
  0
LAYER
  5
CF7
330
2
100
AcDbSymbolTableRecord
100
AcDbLayerTableRecord
  2
Defpoints
 70
     0
 62
     7
  6
CONTINUOUS
290
     0
370
    -3
390
166
  0
LAYER
  5
EFB
102
{ACAD_XDICTIONARY
360
16AE
102
}
330
2
100
AcDbSymbolTableRecord
100
AcDbLayerTableRecord
  2
Sketch Geometry(ISO)
 70
     0
 62
     7
  6
CONTINUOUS
370
    35
390
166
  0
LAYER
  5
1E64
330
2
100
AcDbSymbolTableRecord
100
AcDbLayerTableRecord
  2
AM_5
 70
     0
 62
     3
  6
CONTINUOUS
370
    25
390
166
1001
AcAecLayerStandard
1000

1000

  0
ENDTAB
  0
TABLE
  2
STYLE
  5
3
330
0
100
AcDbSymbolTable
 70
     6
  0
STYLE
  5
10
330
3
100
AcDbSymbolTableRecord
100
AcDbTextStyleTableRecord
  2
STANDARD
 70
     0
 40
0.0
 41
1.0
 50
0.0
 71
     0
 42
3.5
  3
ISOCP.SHX
  4

  0
STYLE
  5
14C
330
3
100
AcDbSymbolTableRecord
100
AcDbTextStyleTableRecord
  2
ACANSGDT
 70
     0
 40
0.0
 41
1.0
 50
0.0
 71
     0
 42
3.5
  3
amgdt.shx
  4

  0
STYLE
  5
159
330
3
100
AcDbSymbolTableRecord
100
AcDbTextStyleTableRecord
  2
ACISOTS
 70
     0
 40
1.0
 41
1.0
 50
0.0
 71
     0
 42
2.5
  3
isocp.shx
  4

  0
STYLE
  5
15A
330
3
100
AcDbSymbolTableRecord
100
AcDbTextStyleTableRecord
  2
ACISOGDT
 70
     0
 40
0.0
 41
1.0
 50
0.0
 71
     0
 42
2.5
  3
amgdt.shx
  4

  0
STYLE
  5
17B
330
3
100
AcDbSymbolTableRecord
100
AcDbTextStyleTableRecord
  2

 70
     1
 40
0.0
 41
1.0
 50
0.0
 71
     0
 42
3.5
  3
ltypeshp.shx
  4

  0
STYLE
  5
425
330
3
100
AcDbSymbolTableRecord
100
AcDbTextStyleTableRecord
  2
ACANSTS
 70
     0
 40
1.0
 41
1.0
 50
0.0
 71
     0
 42
3.5
  3
romans.shx
  4

  0
ENDTAB
  0
TABLE
  2
VIEW
  5
6
330
0
100
AcDbSymbolTable
 70
     3
  0
VIEW
  5
1C8
330
6
100
AcDbSymbolTableRecord
100
AcDbViewTableRecord
  2
AMDTVIEW1
 70
     0
 40
329.0721649484536
 10
210.0
 20
164.5360824742268
 41
420.0
 11
0.0
 21
0.0
 31
1.0
 12
0.0
 22
0.0
 32
0.0
 42
50.0
 43
0.0
 44
0.0
 50
0.0
 71
     0
281
     0
 72
     0
  0
VIEW
  5
1C9
330
6
100
AcDbSymbolTableRecord
100
AcDbViewTableRecord
  2
AMDTVIEW2
 70
     0
 40
329.0721649484536
 10
210.0
 20
164.5360824742268
 41
420.0
 11
0.0
 21
0.0
 31
1.0
 12
0.0
 22
0.0
 32
0.0
 42
50.0
 43
0.0
 44
0.0
 50
0.0
 71
     0
281
     0
 72
     0
  0
VIEW
  5
1CA
330
6
100
AcDbSymbolTableRecord
100
AcDbViewTableRecord
  2
AMDTVIEW3
 70
     0
 40
329.0721649484536
 10
210.0
 20
164.5360824742268
 41
420.0
 11
0.0
 21
0.0
 31
1.0
 12
0.0
 22
0.0
 32
0.0
 42
50.0
 43
0.0
 44
0.0
 50
0.0
 71
     0
281
     0
 72
     0
  0
ENDTAB
  0
TABLE
  2
UCS
  5
7
330
0
100
AcDbSymbolTable
 70
     0
  0
ENDTAB
  0
TABLE
  2
APPID
  5
9
330
0
100
AcDbSymbolTable
 70
    24
  0
APPID
  5
11
330
9
100
AcDbSymbolTableRecord
100
AcDbRegAppTableRecord
  2
ACAD
 70
     0
  0
APPID
  5
CD
330
9
100
AcDbSymbolTableRecord
100
AcDbRegAppTableRecord
  2
AD_DRAW
 70
     0
  0
APPID
  5
E7
330
9
100
AcDbSymbolTableRecord
100
AcDbRegAppTableRecord
  2
DESIGNERASSEMBLIES
 70
     0
  0
APPID
  5
EB
330
9
100
AcDbSymbolTableRecord
100
AcDbRegAppTableRecord
  2
MCAD_NO_VIS
 70
     0
  0
APPID
  5
122
330
9
100
AcDbSymbolTableRecord
100
AcDbRegAppTableRecord
  2
ASURF_PCURVE_APPNAME
 70
     0
  0
APPID
  5
17F
330
9
100
AcDbSymbolTableRecord
100
AcDbRegAppTableRecord
  2
ACAD_TEMP_GRAPHIC
 70
     0
  0
APPID
  5
189
330
9
100
AcDbSymbolTableRecord
100
AcDbRegAppTableRecord
  2
ACATTRIBSERVICES
 70
     0
  0
APPID
  5
1C4
330
9
100
AcDbSymbolTableRecord
100
AcDbRegAppTableRecord
  2
ACADM_DIM_EDIT
 70
     0
  0
APPID
  5
1D5
330
9
100
AcDbSymbolTableRecord
100
AcDbRegAppTableRecord
  2
GENIUS_GENDIM_13
 70
     0
  0
APPID
  5
1D6
330
9
100
AcDbSymbolTableRecord
100
AcDbRegAppTableRecord
  2
GENIUS_GENDTOL_13
 70
     0
  0
APPID
  5
1D7
330
9
100
AcDbSymbolTableRecord
100
AcDbRegAppTableRecord
  2
GENIUS_GE3DTOL_13
 70
     0
  0
APPID
  5
2E9
330
9
100
AcDbSymbolTableRecord
100
AcDbRegAppTableRecord
  2
AMG_3D2D_5.0
 70
     0
  0
APPID
  5
3C0
330
9
100
AcDbSymbolTableRecord
100
AcDbRegAppTableRecord
  2
AMDT_DM_ADJ
 70
     0
  0
APPID
  5
82F
330
9
100
AcDbSymbolTableRecord
100
AcDbRegAppTableRecord
  2
ACAD_PSEXT
 70
     0
  0
APPID
  5
84A
330
9
100
AcDbSymbolTableRecord
100
AcDbRegAppTableRecord
  2
DCO15
 70
     0
  0
APPID
  5
892
330
9
100
AcDbSymbolTableRecord
100
AcDbRegAppTableRecord
  2
ACAD_DSTYLE_DIMTEXT_FILL
 70
     0
  0
APPID
  5
A74
330
9
100
AcDbSymbolTableRecord
100
AcDbRegAppTableRecord
  2
ACAD_MLEADERVER
 70
     0
  0
APPID
  5
AB1
330
9
100
AcDbSymbolTableRecord
100
AcDbRegAppTableRecord
  2
AcAecLayerStandard
 70
     0
  0
APPID
  5
CFB
330
9
100
AcDbSymbolTableRecord
100
AcDbRegAppTableRecord
  2
ACAD_DSTYLE_DIMRADIAL_EXTENSION
 70
     0
  0
APPID
  5
17D6
330
9
100
AcDbSymbolTableRecord
100
AcDbRegAppTableRecord
  2
GENIUS_GENSCREG_15
 70
     0
  0
APPID
  5
17D7
330
9
100
AcDbSymbolTableRecord
100
AcDbRegAppTableRecord
  2
GENIUS_GENODEF_13
 70
     0
  0
APPID
  5
17D8
330
9
100
AcDbSymbolTableRecord
100
AcDbRegAppTableRecord
  2
GENIUS_GENOBJ-N-SDF_13
 70
     0
  0
APPID
  5
1E77
330
9
100
AcDbSymbolTableRecord
100
AcDbRegAppTableRecord
  2
ACAD_DSTYLE_DIMINSPECT
 70
     0
  0
APPID
  5
2006
330
9
100
AcDbSymbolTableRecord
100
AcDbRegAppTableRecord
  2
ACAD_EXEMPT_FROM_CAD_STANDARDS
 70
     0
  0
ENDTAB
  0
TABLE
  2
DIMSTYLE
  5
A
330
0
100
AcDbSymbolTable
 70
    14
100
AcDbDimStyleTable
 71
     2
340
344
340
31B
  0
DIMSTYLE
105
31C
330
A
100
AcDbSymbolTableRecord
100
AcDbDimStyleTableRecord
  2
AM_ANSI$3
 70
     0
  4
mm
 41
0.1
 42
0.05
 43
0.5
 44
0.1
 47
0.1
 48
0.1
 78
     7
 79
     2
140
0.12
141
0.0
146
0.71
147
0.06
176
   256
177
   256
178
     2
274
     4
284
     7
288
     1
289
     0
340
10
371
    -1
372
    -1
  0
DIMSTYLE
105
31D
330
A
100
AcDbSymbolTableRecord
100
AcDbDimStyleTableRecord
  2
AM_ANSI$4
 70
     0
  4
mm
 41
0.1
 42
0.05
 43
0.5
 44
0.1
 47
0.1
 48
0.1
 78
     7
 79
     2
140
0.12
141
0.0
146
0.71
147
0.06
176
   256
177
   256
178
     2
274
     4
284
     7
288
     1
289
     0
340
10
371
    -1
372
    -1
  0
DIMSTYLE
105
31E
330
A
100
AcDbSymbolTableRecord
100
AcDbDimStyleTableRecord
  2
AM_ANSI$7
 70
     0
  4
mm
 41
0.1
 42
0.05
 43
0.5
 44
0.1
 47
0.1
 48
0.1
 78
     7
 79
     2
140
0.24
141
0.0
146
0.71
147
0.06
176
   256
177
   256
178
     2
274
     4
284
     7
340
10
371
    -1
372
    -1
  0
DIMSTYLE
105
31F
330
A
100
AcDbSymbolTableRecord
100
AcDbDimStyleTableRecord
  2
AM_ANSI$SF
 70
     0
  4
mm
 41
0.1
 42
0.05
 43
0.5
 44
0.1
 47
0.1
 48
0.1
 75
     1
 76
     1
 78
     7
 79
     2
140
0.12
141
0.0
146
0.71
147
0.06
176
   256
177
   256
178
     2
274
     4
284
     7
340
10
371
    -1
372
    -1
  0
DIMSTYLE
105
320
330
A
100
AcDbSymbolTableRecord
100
AcDbDimStyleTableRecord
  2
AM_ANSI$SH
 70
     0
  4
mm
 41
0.1
 42
0.05
 43
0.5
 44
0.1
 47
0.1
 48
0.1
 75
     1
 76
     1
 78
     7
 79
     2
140
0.12
141
0.0
146
0.71
147
0.06
173
     1
176
   256
177
   256
178
     2
274
     4
284
     7
340
10
343
2F4
371
    -1
372
    -1
  0
DIMSTYLE
105
344
330
A
100
AcDbSymbolTableRecord
100
AcDbDimStyleTableRecord
  2
AM_ISO
 70
     0
  4
"
 41
2.5
 42
1.0
 43
10.0
 44
1.0
 47
0.1
 48
0.1
 73
     0
 74
     0
 77
     1
 78
     8
 79
     2
140
3.5
141
0.0
143
0.0393701
146
0.71
147
1.5
171
     3
172
     1
176
   256
177
   256
178
     2
271
     2
272
     2
274
     3
283
     0
284
     8
340
10
371
    -1
372
    -1
  0
DIMSTYLE
105
345
330
A
100
AcDbSymbolTableRecord
100
AcDbDimStyleTableRecord
  2
AM_ISO$3
 70
     0
  4
"
 41
2.5
 42
1.0
 43
10.0
 44
1.0
 47
0.1
 48
0.1
 73
     0
 77
     1
 78
     8
 79
     2
140
3.5
141
0.0
143
0.0393701
146
0.71
147
1.5
176
   256
177
   256
178
     2
271
     2
272
     3
274
     4
283
     0
284
     8
288
     1
289
     0
340
10
371
    -1
372
    -1
  0
DIMSTYLE
105
346
330
A
100
AcDbSymbolTableRecord
100
AcDbDimStyleTableRecord
  2
AM_ISO$4
 70
     0
  4
"
 41
2.5
 42
1.0
 43
10.0
 44
1.0
 47
0.1
 48
0.1
 73
     0
 77
     1
 78
     8
 79
     2
140
3.5
141
0.0
143
0.0393701
146
0.71
147
1.5
176
   256
177
   256
178
     2
271
     2
272
     3
274
     4
283
     0
284
     8
288
     1
289
     0
340
10
371
    -1
372
    -1
  0
DIMSTYLE
105
347
330
A
100
AcDbSymbolTableRecord
100
AcDbDimStyleTableRecord
  2
AM_ISO$6
 70
     0
  4
"
 41
2.5
 42
1.0
 43
10.0
 44
1.0
 47
0.1
 48
0.1
 73
     0
 74
     0
 78
     8
 79
     2
140
3.5
141
0.0
143
0.0393701
146
0.71
147
1.5
172
     1
176
   256
177
   256
178
     2
271
     2
272
     3
274
     4
283
     0
284
     8
340
10
371
    -1
372
    -1
  0
DIMSTYLE
105
348
330
A
100
AcDbSymbolTableRecord
100
AcDbDimStyleTableRecord
  2
AM_ISO$7
 70
     0
  4
"
 41
2.5
 42
1.0
 43
10.0
 44
1.0
 47
0.1
 48
0.1
 73
     0
 74
     0
 77
     1
 78
     8
 79
     2
140
5.0
141
0.0
143
0.0393701
146
0.71
147
1.5
172
     1
176
   256
177
   256
178
     2
271
     2
272
     3
274
     4
283
     0
284
     8
340
10
371
    -1
372
    -1
  0
DIMSTYLE
105
349
330
A
100
AcDbSymbolTableRecord
100
AcDbDimStyleTableRecord
  2
AM_ISO$SF
 70
     0
  4
"
 41
2.5
 42
1.0
 43
10.0
 44
1.0
 47
0.1
 48
0.1
 73
     0
 74
     0
 75
     1
 76
     1
 77
     1
 78
     8
 79
     2
140
3.5
141
0.0
143
0.0393701
146
0.71
147
1.5
172
     1
176
   256
177
   256
178
     2
271
     2
272
     3
274
     4
283
     0
284
     8
340
10
371
    -1
372
    -1
  0
DIMSTYLE
105
34A
330
A
100
AcDbSymbolTableRecord
100
AcDbDimStyleTableRecord
  2
AM_ISO$SH
 70
     0
  4
"
 41
2.5
 42
1.0
 43
10.0
 44
1.0
 47
0.1
 48
0.1
 73
     0
 74
     0
 75
     1
 76
     1
 77
     1
 78
     8
 79
     2
140
3.5
141
0.0
143
0.0393701
144
2.0
146
0.71
147
1.5
172
     1
173
     1
176
   256
177
   256
178
     2
271
     2
272
     3
274
     4
283
     0
284
     8
340
10
343
2F4
371
    -1
372
    -1
  0
DIMSTYLE
105
31B
330
A
100
AcDbSymbolTableRecord
100
AcDbDimStyleTableRecord
  2
AM_ANSI
 70
     0
  4
mm
 41
0.1
 42
0.05
 43
0.5
 44
0.1
 47
0.1
 48
0.1
 78
     7
 79
     2
140
0.12
141
0.0
146
0.71
147
0.06
176
   256
177
   256
178
     2
274
     4
284
     7
340
10
371
    -1
372
    -1
  0
DIMSTYLE
105
CF9
330
A
100
AcDbSymbolTableRecord
100
AcDbDimStyleTableRecord
  2
Standard
 70
     0
340
10
  0
ENDTAB
  0
TABLE
  2
BLOCK_RECORD
  5
1
330
0
100
AcDbSymbolTable
 70
     4
  0
BLOCK_RECORD
  5
1A
102
{ACAD_XDICTIONARY
360
12A
102
}
330
1
100
AcDbSymbolTableRecord
100
AcDbBlockTableRecord
  2
*MODEL_SPACE
340
169
  0
BLOCK_RECORD
  5
17
330
1
100
AcDbSymbolTableRecord
100
AcDbBlockTableRecord
  2
*PAPER_SPACE
340
16A
  0
BLOCK_RECORD
  5
2F4
330
1
100
AcDbSymbolTableRecord
100
AcDbBlockTableRecord
  2
GENAXEH
340
0
  0
BLOCK_RECORD
  5
24DC
330
1
100
AcDbSymbolTableRecord
100
AcDbBlockTableRecord
  2
SLEEV-IT_WT169
340
0
310
2800000020000000200000000100080000000000000400000000000000000000000000000000000000000000000080000080000000808000800000008000800080800000C0C0C000C0DCC000F0CAA6000020400000206000002080000020A0000020C0000020E00000400000004020000040400000406000004080000040A0
310
000040C0000040E00000600000006020000060400000606000006080000060A0000060C0000060E00000800000008020000080400000806000008080000080A0000080C0000080E00000A0000000A0200000A0400000A0600000A0800000A0A00000A0C00000A0E00000C0000000C0200000C0400000C0600000C0800000C0
310
A00000C0C00000C0E00000E0000000E0200000E0400000E0600000E0800000E0A00000E0C00000E0E00040000000400020004000400040006000400080004000A0004000C0004000E00040200000402020004020400040206000402080004020A0004020C0004020E000404000004040200040404000404060004040800040
310
40A0004040C0004040E00040600000406020004060400040606000406080004060A0004060C0004060E00040800000408020004080400040806000408080004080A0004080C0004080E00040A0000040A0200040A0400040A0600040A0800040A0A00040A0C00040A0E00040C0000040C0200040C0400040C0600040C08000
310
40C0A00040C0C00040C0E00040E0000040E0200040E0400040E0600040E0800040E0A00040E0C00040E0E00080000000800020008000400080006000800080008000A0008000C0008000E00080200000802020008020400080206000802080008020A0008020C0008020E00080400000804020008040400080406000804080
310
008040A0008040C0008040E00080600000806020008060400080606000806080008060A0008060C0008060E00080800000808020008080400080806000808080008080A0008080C0008080E00080A0000080A0200080A0400080A0600080A0800080A0A00080A0C00080A0E00080C0000080C0200080C0400080C0600080C0
310
800080C0A00080C0C00080C0E00080E0000080E0200080E0400080E0600080E0800080E0A00080E0C00080E0E000C0000000C0002000C0004000C0006000C0008000C000A000C000C000C000E000C0200000C0202000C0204000C0206000C0208000C020A000C020C000C020E000C0400000C0402000C0404000C0406000C0
310
408000C040A000C040C000C040E000C0600000C0602000C0604000C0606000C0608000C060A000C060C000C060E000C0800000C0802000C0804000C0806000C0808000C080A000C080C000C080E000C0A00000C0A02000C0A04000C0A06000C0A08000C0A0A000C0A0C000C0A0E000C0C00000C0C02000C0C04000C0C06000
310
C0C08000C0C0A000F0FBFF00A4A0A000808080000000FF0000FF000000FFFF00FF000000FF00FF00FFFF0000FFFFFF000000000000000000000000000000000000000000000000000000000000000000000000000000000000000000000000000000000000000000000000000000000000000000000000000000FFFFFFFFFF
310
FFFFFFFFFFFF00000000000000000000000000000000000000FFFF00000000FF00FF00000000FFFF00000000000000000000000000000000FF000000000000FF00FF000000000000FFFF00000000000000000000000000FF00000000000000FF00FF0000000000000000FF0000000000000000000000FF000000000000FFFF
310
FFFFFFFFFF00000000000000FF000000000000000000FF0000000000FFFFFFFFFFFFFFFFFFFFFF000000000000FF0000000000000000FF00000000FF00FFFFFFFFFFFFFFFFFFFFFFFF00000000FF00000000000000FF00000000FFFFFF00FFFFFFFFFFFFFFFF00FFFFFF00000000FF000000000000FF00000000FFFFFFFFFF
310
FF0000000000FFFFFFFFFF00000000FF000000000000FF000000FF00FFFFFF000000000000000000FFFFFFFF000000FF0000000000FF00000000FFFFFFFF00000000000000000000FFFFFFFF00000000FF00000000FF000000FFFFFFFF000000000000000000000000FFFFFFFF000000FF00000000FFFFFFFFFFFFFFFF0000
310
00000000000000000000FFFF00FFFFFFFFFF000000FFFF000000FFFFFFFA000000000000000000000000FAFFFFFF0000FFFF000000FFFF000000FF00FFFAFAFAFBFBFBFBFBFBFBFAFAFAFAFF00FF0000FFFF00000000FFFFFFFFFFFFFFFF0000FBFBFBFBFBFBFB000000FFFFFFFFFFFFFFFF00000000FF000000FFFFFFFF00
310
0000000000000000000000FFFFFFFF000000FF00000000FF000000FFFF00FFFF00000000000000000000FFFFFFFF00000000FF0000000000FF000000FFFFFFFF00000000000000000000FFFFFFFF000000FF000000000000FF000000FFFFFFFFFFFF00000000000000FFFFFFFF00000000FF000000000000FF00000000FFFF
310
FFFFFFFFFFFFFFFFFFFFFF00FF0000000000FF00000000000000FF0000000000FF00FFFFFFFFFFFFFFFFFFFF0000000000FF0000000000000000FF0000000000FFFFFFFFFFFFFFFF00FFFFFF0000000000FF000000000000000000FF00000000000000FFFFFFFFFFFF00000000000000FF0000000000000000000000FF0000
310
0000000000FF00FF00000000000000FAFF00000000000000000000000000FF000000000000FF00FF000000000000FBFBFBFBFBFBFBFB000000000000000000FFFF00000000FF00FF0000000000FFFBFBFBFBFBFBFBFB0000000000000000000000FFFFFFFFFFFFFFFFFFFFFFFF000000000000000000000000000000000000
310
0000000000000000000000000000000000000000000000000000000000000000000000000000000000000000000000000000000000000000
102
{BLKREFS
331
26B1
102
}
1001
ACAD
1000
DesignCenter Data
1002
{
1070
     1
1070
     4
1002
}
  0
ENDTAB
  0
ENDSEC
  0
SECTION
  2
BLOCKS
  0
BLOCK
  5
1B
330
1A
100
AcDbEntity
  8
0
100
AcDbBlockBegin
  2
*MODEL_SPACE
 70
     0
 10
0.0
 20
0.0
 30
0.0
  3
*MODEL_SPACE
  1

  0
ENDBLK
  5
1C
330
1A
100
AcDbEntity
  8
0
100
AcDbBlockEnd
  0
BLOCK
  5
18
330
17
100
AcDbEntity
 67
     1
  8
0
100
AcDbBlockBegin
  2
*PAPER_SPACE
 70
     0
 10
0.0
 20
0.0
 30
0.0
  3
*PAPER_SPACE
  1

  0
ENDBLK
  5
19
330
17
100
AcDbEntity
 67
     1
  8
0
100
AcDbBlockEnd
  0
BLOCK
  5
22A7
330
2F4
100
AcDbEntity
  8
0
100
AcDbBlockBegin
  2
GENAXEH
 70
     0
 10
0.0
 20
0.0
 30
0.0
  3
GENAXEH
  1

  0
LINE
  5
22A8
330
2F4
100
AcDbEntity
  8
0
100
AcDbLine
 10
-1.0
 20
0.0
 30
0.0
 11
1.0
 21
0.0
 31
0.0
  0
ENDBLK
  5
22A9
330
2F4
100
AcDbEntity
  8
0
100
AcDbBlockEnd
  0
BLOCK
  5
24DD
330
24DC
100
AcDbEntity
  8
0
100
AcDbBlockBegin
  2
SLEEV-IT_WT169
 70
     0
 10
0.0
 20
0.0
 30
0.0
  3
SLEEV-IT_WT169
  1

  0
CIRCLE
  5
24DF
330
24DC
100
AcDbEntity
  8
Visible Edges(ISO)
100
AcDbCircle
 10
-0.0000000000118234
 20
-0.0000000000031832
 30
0.0
 40
60.5
  0
ARC
  5
24E0
330
24DC
100
AcDbEntity
  8
Visible Edges(ISO)
100
AcDbCircle
 10
53.74999999998817
 20
1.99999999999693
 30
0.0
 40
2.999999999999986
100
AcDbArc
 50
0.0
 51
90.0
  0
LINE
  5
24E1
330
24DC
100
AcDbEntity
  8
Visible Edges(ISO)
100
AcDbLine
 10
56.74999999998817
 20
1.99999999999693
 30
0.0
 11
56.74999999998817
 21
-2.000000000003183
 31
0.0
  0
ARC
  5
24E2
330
24DC
100
AcDbEntity
  8
Visible Edges(ISO)
100
AcDbCircle
 10
53.74999999998817
 20
-2.000000000003183
 30
0.0
 40
2.999999999999986
100
AcDbArc
 50
270.0
 51
0.0
  0
LINE
  5
24E3
330
24DC
100
AcDbEntity
  8
Visible Edges(ISO)
100
AcDbLine
 10
53.74999999998817
 20
-5.000000000003069
 30
0.0
 11
41.44951748813196
 21
-5.000000000003069
 31
0.0
  0
LINE
  5
24E4
330
24DC
100
AcDbEntity
  8
Visible Edges(ISO)
100
AcDbLine
 10
41.44951748813196
 20
4.99999999999693
 30
0.0
 11
53.74999999998817
 21
4.99999999999693
 31
0.0
  0
ARC
  5
24E5
330
24DC
100
AcDbEntity
  8
Visible Edges(ISO)
100
AcDbCircle
 10
-2.000000000011823
 20
53.74999999999693
 30
0.0
 40
2.999999999999986
100
AcDbArc
 50
90.0
 51
180.0
  0
LINE
  5
24E6
330
24DC
100
AcDbEntity
  8
Visible Edges(ISO)
100
AcDbLine
 10
-2.000000000011823
 20
56.74999999999693
 30
0.0
 11
1.999999999988176
 21
56.74999999999693
 31
0.0
  0
ARC
  5
24E7
330
24DC
100
AcDbEntity
  8
Visible Edges(ISO)
100
AcDbCircle
 10
1.999999999988176
 20
53.74999999999693
 30
0.0
 40
2.999999999999986
100
AcDbArc
 50
0.0
 51
90.0
  0
LINE
  5
24E8
330
24DC
100
AcDbEntity
  8
Visible Edges(ISO)
100
AcDbLine
 10
4.999999999988176
 20
53.74999999999693
 30
0.0
 11
4.999999999988176
 21
41.44951748814128
 31
0.0
  0
LINE
  5
24E9
330
24DC
100
AcDbEntity
  8
Visible Edges(ISO)
100
AcDbLine
 10
-5.000000000011823
 20
41.44951748814128
 30
0.0
 11
-5.000000000011823
 21
53.74999999999693
 31
0.0
  0
ARC
  5
24EA
330
24DC
100
AcDbEntity
  8
Visible Edges(ISO)
100
AcDbCircle
 10
-53.75000000001296
 20
-2.000000000003183
 30
0.0
 40
2.999999999999986
100
AcDbArc
 50
180.0
 51
270.0
  0
LINE
  5
24EB
330
24DC
100
AcDbEntity
  8
Visible Edges(ISO)
100
AcDbLine
 10
-56.75000000001182
 20
-2.000000000003183
 30
0.0
 11
-56.75000000001182
 21
1.99999999999693
 31
0.0
  0
ARC
  5
24EC
330
24DC
100
AcDbEntity
  8
Visible Edges(ISO)
100
AcDbCircle
 10
-53.75000000001296
 20
1.99999999999693
 30
0.0
 40
2.999999999999986
100
AcDbArc
 50
90.0
 51
180.0
  0
LINE
  5
24ED
330
24DC
100
AcDbEntity
  8
Visible Edges(ISO)
100
AcDbLine
 10
-53.75000000001296
 20
4.99999999999693
 30
0.0
 11
-41.44951748815697
 21
4.99999999999693
 31
0.0
  0
LINE
  5
24EE
330
24DC
100
AcDbEntity
  8
Visible Edges(ISO)
100
AcDbLine
 10
-41.44951748815697
 20
-5.000000000003069
 30
0.0
 11
-53.75000000001296
 21
-5.000000000003069
 31
0.0
  0
ARC
  5
24EF
330
24DC
100
AcDbEntity
  8
Visible Edges(ISO)
100
AcDbCircle
 10
1.999999999988176
 20
-53.75000000000318
 30
0.0
 40
2.999999999999986
100
AcDbArc
 50
270.0
 51
0.0
  0
LINE
  5
24F0
330
24DC
100
AcDbEntity
  8
Visible Edges(ISO)
100
AcDbLine
 10
1.999999999988176
 20
-56.75000000000307
 30
0.0
 11
-2.000000000011823
 21
-56.75000000000307
 31
0.0
  0
ARC
  5
24F1
330
24DC
100
AcDbEntity
  8
Visible Edges(ISO)
100
AcDbCircle
 10
-2.000000000011823
 20
-53.75000000000318
 30
0.0
 40
2.999999999999986
100
AcDbArc
 50
180.0
 51
270.0
  0
LINE
  5
24F2
330
24DC
100
AcDbEntity
  8
Visible Edges(ISO)
100
AcDbLine
 10
-5.000000000011823
 20
-53.75000000000318
 30
0.0
 11
-5.000000000011823
 21
-41.44951748814776
 31
0.0
  0
LINE
  5
24F3
330
24DC
100
AcDbEntity
  8
Visible Edges(ISO)
100
AcDbLine
 10
4.999999999988176
 20
-41.44951748814776
 30
0.0
 11
4.999999999988176
 21
-53.75000000000318
 31
0.0
  0
SPLINE
  5
24F4
330
24DC
100
AcDbEntity
  8
Visible Edges(ISO)
100
AcDbSpline
210
0.0
220
0.0
230
1.0
 70
    24
 71
     3
 72
    14
 73
    10
 74
     0
 42
0.0000000001
 43
0.0000000001
 40
-0.148300345827217
 40
-0.148300345827217
 40
-0.148300345827217
 40
-0.148300345827217
 40
-0.1111400464675784
 40
-0.1111400464675784
 40
-0.0740345445691791
 40
-0.0740345445691791
 40
-0.0369919551001018
 40
-0.0369919551001018
 40
0.0
 40
0.0
 40
0.0
 40
0.0
 10
5.192339668358044
 20
-40.41784394012791
 30
0.0
 10
5.217274045915019
 20
-40.53917602628996
 30
0.0
 10
5.246622707473079
 20
-40.68198826713262
 30
0.0
 10
5.29267221085206
 20
-40.90606774531067
 30
0.0
 10
5.317529870510952
 20
-41.02702651785705
 30
0.0
 10
5.35273934064412
 20
-41.1983577834593
 30
0.0
 10
5.369333148800023
 20
-41.27910418895294
 30
0.0
 10
5.388368903821174
 20
-41.37173324548496
 30
0.0
 10
5.394190789860886
 20
-41.40006287099959
 30
0.0
 10
5.394190789860886
 20
-41.40006287099959
 30
0.0
  0
ARC
  5
24F5
330
24DC
100
AcDbEntity
  8
Visible Edges(ISO)
100
AcDbCircle
 10
-0.0000000000118234
 20
-0.0000000000022737
 30
0.0
 40
41.75000000000109
100
AcDbArc
 50
277.4234914828156
 51
285.8023149687818
  0
SPLINE
  5
24F6
330
24DC
100
AcDbEntity
  8
Visible Edges(ISO)
100
AcDbSpline
210
0.0
220
0.0
230
1.0
 70
    24
 71
     3
 72
    14
 73
    10
 74
     0
 42
0.0000000001
 43
0.0000000001
 40
0.0
 40
0.0
 40
0.0
 40
0.0
 40
0.0369919551001017
 40
0.0369919551001017
 40
0.0740345445691791
 40
0.0740345445691791
 40
0.1111400464675784
 40
0.1111400464675784
 40
0.1483003458272174
 40
0.1483003458272174
 40
0.1483003458272174
 40
0.1483003458272174
 10
11.36932343150101
 20
-40.17214189845856
 30
0.0
 10
11.36932343150101
 20
-40.17214189845856
 30
0.0
 10
11.36350154546107
 20
-40.14381227294416
 30
0.0
 10
11.34446579044015
 20
-40.05118321641202
 30
0.0
 10
11.32787198228402
 20
-39.97043681091838
 30
0.0
 10
11.29266251215108
 20
-39.79910554531637
 30
0.0
 10
11.26780485249196
 20
-39.67814677276965
 30
0.0
 10
11.22175534911298
 20
-39.45406729459148
 30
0.0
 10
11.19240668755515
 20
-39.31125505374928
 30
0.0
 10
11.16747230999795
 20
-39.189922967587
 30
0.0
  0
LINE
  5
24F7
330
24DC
100
AcDbEntity
  8
Visible Edges(ISO)
100
AcDbLine
 10
9.429118963644896
 20
-30.73099763381276
 30
0.0
 11
11.16747230999795
 21
-39.189922967587
 31
0.0
  0
ARC
  5
24F8
330
24DC
100
AcDbEntity
  8
Visible Edges(ISO)
100
AcDbCircle
 10
-0.0000000000118234
 20
-0.0000000000022737
 30
0.0
 40
41.75000000000095
100
AcDbArc
 50
254.1976850312182
 51
262.5765085171844
  0
ARC
  5
24F9
330
24DC
100
AcDbEntity
  8
Visible Edges(ISO)
100
AcDbCircle
 10
-0.0000000000118234
 20
-0.0000000000026148
 30
0.0
 40
41.75000000000081
100
AcDbArc
 50
242.5847818054098
 51
250.9636052913716
  0
ARC
  5
24FA
330
24DC
100
AcDbEntity
  8
Visible Edges(ISO)
100
AcDbCircle
 10
-0.0000000000129603
 20
-0.0000000000038654
 30
0.0
 40
41.74999999999918
100
AcDbArc
 50
230.9718785795957
 51
239.3507020655651
  0
ARC
  5
24FB
330
24DC
100
AcDbEntity
  8
Visible Edges(ISO)
100
AcDbCircle
 10
-0.0000000000129603
 20
-0.000000000003638
 30
0.0
 40
41.74999999999928
100
AcDbArc
 50
219.3589753537896
 51
227.7377988397548
  0
ARC
  5
24FC
330
24DC
100
AcDbEntity
  8
Visible Edges(ISO)
100
AcDbCircle
 10
-0.0000000000118234
 20
-0.0000000000031832
 30
0.0
 40
41.7500000000001
100
AcDbArc
 50
207.7460721279804
 51
216.1248956139508
  0
ARC
  5
24FD
330
24DC
100
AcDbEntity
  8
Visible Edges(ISO)
100
AcDbCircle
 10
-0.0000000000129603
 20
-0.000000000003638
 30
0.0
 40
41.74999999999885
100
AcDbArc
 50
196.1331689021743
 51
204.5119923881432
  0
ARC
  5
24FE
330
24DC
100
AcDbEntity
  8
Visible Edges(ISO)
100
AcDbCircle
 10
-0.0000000000100044
 20
-0.0000000000030695
 30
0.0
 40
41.75000000000241
100
AcDbArc
 50
184.5202656763722
 51
192.8990891623371
  0
ARC
  5
24FF
330
24DC
100
AcDbEntity
  8
Visible Edges(ISO)
100
AcDbCircle
 10
-0.0000000000138698
 20
-0.0000000000031832
 30
0.0
 40
41.74999999999863
100
AcDbArc
 50
172.9073624505687
 51
181.2861859365307
  0
ARC
  5
2500
330
24DC
100
AcDbEntity
  8
Visible Edges(ISO)
100
AcDbCircle
 10
-0.0000000000138698
 20
-0.0000000000026148
 30
0.0
 40
41.74999999999786
100
AcDbArc
 50
161.2944592247549
 51
169.6732827107276
  0
ARC
  5
2501
330
24DC
100
AcDbEntity
  8
Visible Edges(ISO)
100
AcDbCircle
 10
-0.0000000000129603
 20
-0.0000000000026148
 30
0.0
 40
41.74999999999896
100
AcDbArc
 50
149.6815559989558
 51
158.0603794849156
  0
ARC
  5
2502
330
24DC
100
AcDbEntity
  8
Visible Edges(ISO)
100
AcDbCircle
 10
-0.0000000000129603
 20
-0.0000000000026148
 30
0.0
 40
41.74999999999878
100
AcDbArc
 50
138.0686527731502
 51
146.4474762591124
  0
ARC
  5
2503
330
24DC
100
AcDbEntity
  8
Visible Edges(ISO)
100
AcDbCircle
 10
-0.0000000000118234
 20
-0.0000000000031832
 30
0.0
 40
41.74999999999999
100
AcDbArc
 50
126.4557495473473
 51
134.8345730333061
  0
ARC
  5
2504
330
24DC
100
AcDbEntity
  8
Visible Edges(ISO)
100
AcDbCircle
 10
-0.0000000000118234
 20
-0.0000000000038654
 30
0.0
 40
41.75000000000069
100
AcDbArc
 50
114.8428463215374
 51
123.2216698075041
  0
ARC
  5
2505
330
24DC
100
AcDbEntity
  8
Visible Edges(ISO)
100
AcDbCircle
 10
-0.0000000000118234
 20
-0.0000000000045475
 30
0.0
 40
41.75000000000154
100
AcDbArc
 50
103.2299430957217
 51
111.6087665816998
  0
ARC
  5
2506
330
24DC
100
AcDbEntity
  8
Visible Edges(ISO)
100
AcDbCircle
 10
-0.0000000000118234
 20
-0.0000000000043201
 30
0.0
 40
41.75000000000117
100
AcDbArc
 50
91.61703986991513
 51
99.99586335588411
  0
ARC
  5
2507
330
24DC
100
AcDbEntity
  8
Visible Edges(ISO)
100
AcDbCircle
 10
-0.0000000000118234
 20
-0.0000000000043201
 30
0.0
 40
41.75000000000109
100
AcDbArc
 50
80.0041366441159
 51
88.38296013007166
  0
ARC
  5
2508
330
24DC
100
AcDbEntity
  8
Visible Edges(ISO)
100
AcDbCircle
 10
-0.0000000000118234
 20
-0.0000000000038654
 30
0.0
 40
41.75000000000057
100
AcDbArc
 50
68.39123341830017
 51
76.77005690427829
  0
ARC
  5
2509
330
24DC
100
AcDbEntity
  8
Visible Edges(ISO)
100
AcDbCircle
 10
-0.0000000000118234
 20
-0.0000000000030695
 30
0.0
 40
41.74999999999982
100
AcDbArc
 50
56.77833019249591
 51
65.15715367846254
  0
ARC
  5
250A
330
24DC
100
AcDbEntity
  8
Visible Edges(ISO)
100
AcDbCircle
 10
-0.0000000000118234
 20
-0.0000000000026148
 30
0.0
 40
41.74999999999942
100
AcDbArc
 50
45.16542696669389
 51
53.54425045265266
  0
ARC
  5
250B
330
24DC
100
AcDbEntity
  8
Visible Edges(ISO)
100
AcDbCircle
 10
-0.0000000000109139
 20
-0.0000000000026148
 30
0.0
 40
41.74999999999878
100
AcDbArc
 50
33.55252374088756
 51
41.93134722684972
  0
ARC
  5
250C
330
24DC
100
AcDbEntity
  8
Visible Edges(ISO)
100
AcDbCircle
 10
-0.0000000000109139
 20
-0.0000000000026148
 30
0.0
 40
41.74999999999896
100
AcDbArc
 50
21.93962051508442
 51
30.31844400104422
  0
ARC
  5
250D
330
24DC
100
AcDbEntity
  8
Visible Edges(ISO)
100
AcDbCircle
 10
-0.0000000000109139
 20
-0.0000000000030695
 30
0.0
 40
41.74999999999861
100
AcDbArc
 50
10.32671728927238
 51
18.70554077524511
  0
ARC
  5
250E
330
24DC
100
AcDbEntity
  8
Visible Edges(ISO)
100
AcDbCircle
 10
-0.0000000000109139
 20
-0.0000000000031832
 30
0.0
 40
41.74999999999861
100
AcDbArc
 50
358.7138140634693
 51
7.0926375494313
  0
ARC
  5
250F
330
24DC
100
AcDbEntity
  8
Visible Edges(ISO)
100
AcDbCircle
 10
-0.0000000000118234
 20
-0.0000000000035243
 30
0.0
 40
41.74999999999911
100
AcDbArc
 50
347.1009108376629
 51
355.4797343236278
  0
ARC
  5
2510
330
24DC
100
AcDbEntity
  8
Visible Edges(ISO)
100
AcDbCircle
 10
-0.0000000000109139
 20
-0.000000000003638
 30
0.0
 40
41.74999999999861
100
AcDbArc
 50
335.4880076118567
 51
343.8668310978195
  0
ARC
  5
2511
330
24DC
100
AcDbEntity
  8
Visible Edges(ISO)
100
AcDbCircle
 10
-0.0000000000129603
 20
-0.0000000000030695
 30
0.0
 40
41.75000000000038
100
AcDbArc
 50
323.8751043860491
 51
332.2539278720196
  0
ARC
  5
2512
330
24DC
100
AcDbEntity
  8
Visible Edges(ISO)
100
AcDbCircle
 10
-0.0000000000118234
 20
-0.000000000003638
 30
0.0
 40
41.74999999999935
100
AcDbArc
 50
312.2622011602452
 51
320.6410246462104
  0
ARC
  5
2513
330
24DC
100
AcDbEntity
  8
Visible Edges(ISO)
100
AcDbCircle
 10
-0.0000000000129603
 20
-0.0000000000026148
 30
0.0
 40
41.75000000000053
100
AcDbArc
 50
300.6492979344349
 51
309.0281214204043
  0
ARC
  5
2514
330
24DC
100
AcDbEntity
  8
Visible Edges(ISO)
100
AcDbCircle
 10
-0.0000000000129603
 20
-0.0000000000022737
 30
0.0
 40
41.75000000000091
100
AcDbArc
 50
289.0363947086284
 51
297.4152181945901
  0
SPLINE
  5
2515
330
24DC
100
AcDbEntity
  8
Visible Edges(ISO)
100
AcDbSpline
210
0.0
220
0.0
230
1.0
 70
    24
 71
     3
 72
    14
 73
    10
 74
     0
 42
0.0000000001
 43
0.0000000001
 40
-0.1483003458272176
 40
-0.1483003458272176
 40
-0.1483003458272176
 40
-0.1483003458272176
 40
-0.111140046467578
 40
-0.111140046467578
 40
-0.0740345445691791
 40
-0.0740345445691791
 40
-0.0369919551001017
 40
-0.0369919551001017
 40
0.0
 40
0.0
 40
0.0
 40
0.0
 10
13.22210434063118
 20
-38.5452780091855
 30
0.0
 10
13.27095227939799
 20
-38.65910716711437
 30
0.0
 10
13.32844806486196
 20
-38.79308819085861
 30
0.0
 10
13.41866179954104
 20
-39.0033110520734
 30
0.0
 10
13.46735944335205
 20
-39.11678998133778
 30
0.0
 10
13.5363369037741
 20
-39.27752647163686
 30
0.0
 10
13.56884516762989
 20
-39.35327968444198
 30
0.0
 10
13.60613735162405
 20
-39.44018074943051
 30
0.0
 10
13.61754277500608
 20
-39.46675852880253
 30
0.0
 10
13.61754277500608
 20
-39.46675852880253
 30
0.0
  0
SPLINE
  5
2516
330
24DC
100
AcDbEntity
  8
Visible Edges(ISO)
100
AcDbSpline
210
0.0
220
0.0
230
1.0
 70
    24
 71
     3
 72
    14
 73
    10
 74
     0
 42
0.0000000001
 43
0.0000000001
 40
0.0
 40
0.0
 40
0.0
 40
0.0
 40
0.0369919551001015
 40
0.0369919551001015
 40
0.0740345445691791
 40
0.0740345445691791
 40
0.111140046467578
 40
0.111140046467578
 40
0.1483003458272176
 40
0.1483003458272176
 40
0.1483003458272176
 40
0.1483003458272176
 10
19.22318542588914
 20
-37.06118781261137
 30
0.0
 10
19.22318542588914
 20
-37.06118781261137
 30
0.0
 10
19.21178000250802
 20
-37.03461003323946
 30
0.0
 10
19.17448781851294
 20
-36.94770896825048
 30
0.0
 10
19.14197955465693
 20
-36.87195575544559
 30
0.0
 10
19.07300209423602
 20
-36.71121926514639
 30
0.0
 10
19.02430445042501
 20
-36.59774033588201
 30
0.0
 10
18.93409071574592
 20
-36.38751747466733
 30
0.0
 10
18.87659493028195
 20
-36.25353645092321
 30
0.0
 10
18.827746991514
 20
-36.13970729299422
 30
0.0
  0
LINE
  5
2517
330
24DC
100
AcDbEntity
  8
Visible Edges(ISO)
100
AcDbLine
 10
15.4222086890561
 20
-28.20386461375506
 30
0.0
 11
18.827746991514
 21
-36.13970729299422
 31
0.0
  0
SPLINE
  5
2518
330
24DC
100
AcDbEntity
  8
Visible Edges(ISO)
100
AcDbSpline
210
0.0
220
0.0
230
1.0
 70
    24
 71
     3
 72
    14
 73
    10
 74
     0
 42
0.0000000001
 43
0.0000000001
 40
-0.1483003458272178
 40
-0.1483003458272178
 40
-0.1483003458272178
 40
-0.1483003458272178
 40
-0.1111400464675787
 40
-0.1111400464675787
 40
-0.0740345445691791
 40
-0.0740345445691791
 40
-0.036991955100102
 40
-0.036991955100102
 40
0.0
 40
0.0
 40
0.0
 40
0.0
 10
20.71055450766607
 20
-35.0946638676694
 30
0.0
 10
20.78131616729206
 20
-35.19632991826495
 30
0.0
 10
20.86460519244906
 20
-35.31599452605679
 30
0.0
 10
20.99528979753109
 20
-35.50375422166997
 30
0.0
 10
21.06583373823401
 20
-35.60510746695468
 30
0.0
 10
21.16575524360996
 20
-35.7486686111522
 30
0.0
 10
21.21284707102518
 20
-35.81632728583588
 30
0.0
 10
21.26686893759893
 20
-35.89394261947007
 30
0.0
 10
21.28339095894808
 20
-35.91768045528932
 30
0.0
 10
21.28339095894808
 20
-35.91768045528932
 30
0.0
  0
SPLINE
  5
2519
330
24DC
100
AcDbEntity
  8
Visible Edges(ISO)
100
AcDbSpline
210
0.0
220
0.0
230
1.0
 70
    24
 71
     3
 72
    14
 73
    10
 74
     0
 42
0.0000000001
 43
0.0000000001
 40
0.0
 40
0.0
 40
0.0
 40
0.0
 40
0.0369919551001017
 40
0.0369919551001017
 40
0.0740345445691791
 40
0.0740345445691791
 40
0.111140046467578
 40
0.111140046467578
 40
0.1483003458272176
 40
0.1483003458272176
 40
0.1483003458272176
 40
0.1483003458272176
 10
26.29004795031301
 20
-32.43294434321104
 30
0.0
 10
26.29004795031301
 20
-32.43294434321104
 30
0.0
 10
26.27352592896296
 20
-32.40920650739179
 30
0.0
 10
26.21950406238989
 20
-32.33159117375749
 30
0.0
 10
26.17241223497399
 20
-32.26393249907392
 30
0.0
 10
26.07249072959803
 20
-32.12037135487651
 30
0.0
 10
26.00194678889489
 20
-32.01901810959157
 30
0.0
 10
25.871262183814
 20
-31.83125841397839
 30
0.0
 10
25.78797315865609
 20
-31.71159380618679
 30
0.0
 10
25.71721149903101
 20
-31.609927755591
 30
0.0
  0
LINE
  5
251A
330
24DC
100
AcDbEntity
  8
Visible Edges(ISO)
100
AcDbLine
 10
20.7839113787029
 20
-24.52206206259689
 30
0.0
 11
25.71721149903101
 21
-31.609927755591
 31
0.0
  0
SPLINE
  5
251B
330
24DC
100
AcDbEntity
  8
Visible Edges(ISO)
100
AcDbSpline
210
0.0
220
0.0
230
1.0
 70
    24
 71
     3
 72
    14
 73
    10
 74
     0
 42
0.0000000001
 43
0.0000000001
 40
-0.1483003458272181
 40
-0.1483003458272181
 40
-0.1483003458272181
 40
-0.1483003458272181
 40
-0.111140046467579
 40
-0.111140046467579
 40
-0.0740345445691801
 40
-0.0740345445691801
 40
-0.0369919551001009
 40
-0.0369919551001009
 40
0.0
 40
0.0
 40
0.0
 40
0.0
 10
27.3511121397712
 20
-30.20727006396305
 30
0.0
 10
27.44089052959498
 20
-30.29261078716888
 30
0.0
 10
27.54656293197013
 20
-30.39305989590537
 30
0.0
 10
27.71236816436704
 20
-30.55066952191726
 30
0.0
 10
27.80187032474214
 20
-30.63574766945203
 30
0.0
 10
27.92864507690206
 20
-30.75625605743687
 30
0.0
 10
27.98839252292896
 20
-30.81305023990797
 30
0.0
 10
28.05693241051609
 20
-30.87820226130953
 30
0.0
 10
28.07789461633911
 20
-30.89812832378811
 30
0.0
 10
28.07789461633911
 20
-30.89812832378811
 30
0.0
  0
SPLINE
  5
251C
330
24DC
100
AcDbEntity
  8
Visible Edges(ISO)
100
AcDbSpline
210
0.0
220
0.0
230
1.0
 70
    24
 71
     3
 72
    14
 73
    10
 74
     0
 42
0.0000000001
 43
0.0000000001
 40
0.0
 40
0.0
 40
0.0
 40
0.0
 40
0.0369919551001007
 40
0.0369919551001007
 40
0.0740345445691798
 40
0.0740345445691798
 40
0.1111400464675786
 40
0.1111400464675786
 40
0.148300345827218
 40
0.148300345827218
 40
0.148300345827218
 40
0.148300345827218
 10
32.2805928227001
 20
-26.47689232169069
 30
0.0
 10
32.2805928227001
 20
-26.47689232169069
 30
0.0
 10
32.25963061687799
 20
-26.45696625921187
 30
0.0
 10
32.19109072928996
 20
-26.39181423781054
 30
0.0
 10
32.13134328326396
 20
-26.33502005533955
 30
0.0
 10
32.00456853110404
 20
-26.21451166735449
 30
0.0
 10
31.91506637072917
 20
-26.1294335198196
 30
0.0
 10
31.74926113833203
 20
-25.97182389380771
 30
0.0
 10
31.64358873595711
 20
-25.87137478507111
 30
0.0
 10
31.55381034613311
 20
-25.7860340618654
 30
0.0
  0
LINE
  5
251D
330
24DC
100
AcDbEntity
  8
Visible Edges(ISO)
100
AcDbLine
 10
25.29471829450017
 20
-19.83632340937652
 30
0.0
 11
31.55381034613311
 21
-25.7860340618654
 31
0.0
  0
SPLINE
  5
251E
330
24DC
100
AcDbEntity
  8
Visible Edges(ISO)
100
AcDbSpline
210
0.0
220
0.0
230
1.0
 70
    24
 71
     3
 72
    14
 73
    10
 74
     0
 42
0.0000000001
 43
0.0000000001
 40
-0.1483003458272176
 40
-0.1483003458272176
 40
-0.1483003458272176
 40
-0.1483003458272176
 40
-0.1111400464675784
 40
-0.1111400464675784
 40
-0.0740345445691797
 40
-0.0740345445691797
 40
-0.0369919551001018
 40
-0.0369919551001018
 40
0.0
 40
0.0
 40
0.0
 40
0.0
 10
32.87191202725399
 20
-24.08318707463457
 30
0.0
 10
32.97703160944798
 20
-24.1487086112154
 30
0.0
 10
33.10076114847197
 20
-24.22582982258257
 30
0.0
 10
33.29489892248898
 20
-24.34683682238631
 30
0.0
 10
33.39969507357296
 20
-24.41215676281479
 30
0.0
 10
33.54813289926801
 20
-24.50467876702373
 30
0.0
 10
33.61808989644601
 20
-24.54828329677889
 30
0.0
 10
33.69834177399707
 20
-24.59830467453628
 30
0.0
 10
33.72288596912313
 20
-24.61360318833556
 30
0.0
 10
33.72288596912313
 20
-24.61360318833556
 30
0.0
  0
SPLINE
  5
251F
330
24DC
100
AcDbEntity
  8
Visible Edges(ISO)
100
AcDbSpline
210
0.0
220
0.0
230
1.0
 70
    24
 71
     3
 72
    14
 73
    10
 74
     0
 42
0.0000000001
 43
0.0000000001
 40
0.0
 40
0.0
 40
0.0
 40
0.0
 40
0.0369919551001014
 40
0.0369919551001014
 40
0.0740345445691794
 40
0.0740345445691794
 40
0.1111400464675788
 40
0.1111400464675788
 40
0.1483003458272173
 40
0.1483003458272173
 40
0.1483003458272173
 40
0.1483003458272173
 10
36.94956643211799
 20
-19.43687321761786
 30
0.0
 10
36.94956643211799
 20
-19.43687321761786
 30
0.0
 10
36.92502223699103
 20
-19.42157470381824
 30
0.0
 10
36.8447703594411
 20
-19.37155332606096
 30
0.0
 10
36.77481336226311
 20
-19.3279487963058
 30
0.0
 10
36.62637553656805
 20
-19.23542679209697
 30
0.0
 10
36.52157938548317
 20
-19.1701068516686
 30
0.0
 10
36.32744161146616
 20
-19.04909985186452
 30
0.0
 10
36.20371207244193
 20
-18.97197864049747
 30
0.0
 10
36.09859249024817
 20
-18.90645710391664
 30
0.0
  0
LINE
  5
2520
330
24DC
100
AcDbEntity
  8
Visible Edges(ISO)
100
AcDbLine
 10
28.76995647131707
 20
-14.33848334510696
 30
0.0
 11
36.09859249024817
 21
-18.90645710391664
 31
0.0
  0
SPLINE
  5
2521
330
24DC
100
AcDbEntity
  8
Visible Edges(ISO)
100
AcDbSpline
210
0.0
220
0.0
230
1.0
 70
    24
 71
     3
 72
    14
 73
    10
 74
     0
 42
0.0000000001
 43
0.0000000001
 40
-0.1483003458272175
 40
-0.1483003458272175
 40
-0.1483003458272175
 40
-0.1483003458272175
 40
-0.111140046467579
 40
-0.111140046467579
 40
-0.074034544569179
 40
-0.074034544569179
 40
-0.0369919551001019
 40
-0.0369919551001019
 40
0.0
 40
0.0
 40
0.0
 40
0.0
 10
37.04693197405414
 20
-16.97313557681662
 30
0.0
 10
37.16308914057299
 20
-17.01615546736604
 30
0.0
 10
37.29981031438001
 20
-17.06679142990924
 30
0.0
 10
37.51433260673912
 20
-17.14624176271502
 30
0.0
 10
37.63013238179496
 20
-17.18912929000123
 30
0.0
 10
37.79415621900012
 20
-17.24987704871125
 30
0.0
 10
37.8714587196439
 20
-17.27850675117895
 30
0.0
 10
37.96013706586314
 20
-17.31134960420945
 30
0.0
 10
37.98725840806105
 20
-17.32139424637694
 30
0.0
 10
37.98725840806105
 20
-17.32139424637694
 30
0.0
  0
SPLINE
  5
2522
330
24DC
100
AcDbEntity
  8
Visible Edges(ISO)
100
AcDbSpline
210
0.0
220
0.0
230
1.0
 70
    24
 71
     3
 72
    14
 73
    10
 74
     0
 42
0.0000000001
 43
0.0000000001
 40
0.0
 40
0.0
 40
0.0
 40
0.0
 40
0.0369919551001019
 40
0.0369919551001019
 40
0.0740345445691794
 40
0.0740345445691794
 40
0.1111400464675788
 40
0.1111400464675788
 40
0.1483003458272172
 40
0.1483003458272172
 40
0.1483003458272172
 40
0.1483003458272172
 10
40.10582045041405
 20
-11.60110624027982
 30
0.0
 10
40.10582045041405
 20
-11.60110624027982
 30
0.0
 10
40.07869910821614
 20
-11.59106159811222
 30
0.0
 10
39.99002076199804
 20
-11.5582187450816
 30
0.0
 10
39.91271826135403
 20
-11.52958904261379
 30
0.0
 10
39.7486944241482
 20
-11.46884128390422
 30
0.0
 10
39.63289464909212
 20
-11.4259537566179
 30
0.0
 10
39.41837235673302
 20
-11.34650342381201
 30
0.0
 10
39.28165118292714
 20
-11.29586746126892
 30
0.0
 10
39.16549401640805
 20
-11.25284757071927
 30
0.0
  0
LINE
  5
2523
330
24DC
100
AcDbEntity
  8
Visible Edges(ISO)
100
AcDbLine
 10
31.06734924987109
 20
-8.253624087988896
 30
0.0
 11
39.16549401640805
 21
-11.25284757071927
 31
0.0
  0
SPLINE
  5
2524
330
24DC
100
AcDbEntity
  8
Visible Edges(ISO)
100
AcDbSpline
210
0.0
220
0.0
230
1.0
 70
    24
 71
     3
 72
    14
 73
    10
 74
     0
 42
0.0000000001
 43
0.0000000001
 40
-0.1483003458272177
 40
-0.1483003458272177
 40
-0.1483003458272177
 40
-0.1483003458272177
 40
-0.1111400464675776
 40
-0.1111400464675776
 40
-0.074034544569179
 40
-0.074034544569179
 40
-0.036991955100102
 40
-0.036991955100102
 40
0.0
 40
0.0
 40
0.0
 40
0.0
 10
39.70524617300703
 20
-9.168201914224823
 30
0.0
 10
39.82768543580619
 20
-9.186958919369658
 30
0.0
 10
39.97180086347498
 20
-9.209036590832738
 30
0.0
 10
40.197925106321
 20
-9.243677550680672
 30
0.0
 10
40.31998764895206
 20
-9.262376844418668
 30
0.0
 10
40.49288234250115
 20
-9.288863337250063
 30
0.0
 10
40.57436557315305
 20
-9.301346109047585
 30
0.0
 10
40.66783988612496
 20
-9.315665847089576
 30
0.0
 10
40.6964280244581
 20
-9.320045388794596
 30
0.0
 10
40.6964280244581
 20
-9.320045388794596
 30
0.0
  0
SPLINE
  5
2525
330
24DC
100
AcDbEntity
  8
Visible Edges(ISO)
100
AcDbSpline
210
0.0
220
0.0
230
1.0
 70
    24
 71
     3
 72
    14
 73
    10
 74
     0
 42
0.0000000001
 43
0.0000000001
 40
0.0
 40
0.0
 40
0.0
 40
0.0
 40
0.0369919551001024
 40
0.0369919551001024
 40
0.0740345445691793
 40
0.0740345445691793
 40
0.1111400464675779
 40
0.1111400464675779
 40
0.1483003458272176
 40
0.1483003458272176
 40
0.1483003458272176
 40
0.1483003458272176
 10
41.62013746723596
 20
-3.290388610393051
 30
0.0
 10
41.62013746723596
 20
-3.290388610393051
 30
0.0
 10
41.59154932890305
 20
-3.286009068687917
 30
0.0
 10
41.49807501593113
 20
-3.271689330645926
 30
0.0
 10
41.41659178527902
 20
-3.259206558848632
 30
0.0
 10
41.24369709172992
 20
-3.232720066017009
 30
0.0
 10
41.12163454910001
 20
-3.214020772279241
 30
0.0
 10
40.89551030625307
 20
-3.179379812431193
 30
0.0
 10
40.75139487858314
 20
-3.15730214096834
 30
0.0
 10
40.62895561578511
 20
-3.138545135823505
 30
0.0
  0
LINE
  5
2526
330
24DC
100
AcDbEntity
  8
Visible Edges(ISO)
100
AcDbLine
 10
32.09284109987607
 20
-1.830860490948907
 30
0.0
 11
40.62895561578511
 21
-3.138545135823505
 31
0.0
  0
SPLINE
  5
2527
330
24DC
100
AcDbEntity
  8
Visible Edges(ISO)
100
AcDbSpline
210
0.0
220
0.0
230
1.0
 70
    24
 71
     3
 72
    14
 73
    10
 74
     0
 42
0.0000000001
 43
0.0000000001
 40
-0.148300345827217
 40
-0.148300345827217
 40
-0.148300345827217
 40
-0.148300345827217
 40
-0.1111400464675784
 40
-0.1111400464675784
 40
-0.074034544569179
 40
-0.074034544569179
 40
-0.0369919551001018
 40
-0.0369919551001018
 40
0.0
 40
0.0
 40
0.0
 40
0.0
 10
40.7380229284679
 20
-0.9879209880469943
 30
0.0
 10
40.86173160974112
 20
-0.9816471937925825
 30
0.0
 10
41.00734118873197
 20
-0.9742627117118445
 30
0.0
 10
41.23580982899489
 20
-0.9626760936355367
 30
0.0
 10
41.359137884363
 20
-0.9564216025422638
 30
0.0
 10
41.53382510518713
 20
-0.9475624693669715
 30
0.0
 10
41.61615313281117
 20
-0.9433872643497807
 30
0.0
 10
41.71059656318107
 20
-0.9385976356453511
 30
0.0
 10
41.73948109590606
 20
-0.9371327779363127
 30
0.0
 10
41.73948109590606
 20
-0.9371327779363127
 30
0.0
  0
SPLINE
  5
2528
330
24DC
100
AcDbEntity
  8
Visible Edges(ISO)
100
AcDbSpline
210
0.0
220
0.0
230
1.0
 70
    24
 71
     3
 72
    14
 73
    10
 74
     0
 42
0.0000000001
 43
0.0000000001
 40
0.0
 40
0.0
 40
0.0
 40
0.0
 40
0.0369919551001015
 40
0.0369919551001015
 40
0.0740345445691788
 40
0.0740345445691788
 40
0.1111400464675782
 40
0.1111400464675782
 40
0.1483003458272176
 40
0.1483003458272176
 40
0.1483003458272176
 40
0.1483003458272176
 10
41.43052116599005
 20
5.155037915807383
 30
0.0
 10
41.43052116599005
 20
5.155037915807383
 30
0.0
 10
41.40163663326506
 20
5.153573058098118
 30
0.0
 10
41.30719320289403
 20
5.148783429393802
 30
0.0
 10
41.2248651752709
 20
5.144608224376497
 30
0.0
 10
41.05017795444701
 20
5.135749091201319
 30
0.0
 10
40.92684989907889
 20
5.129494600107705
 30
0.0
 10
40.69838125881597
 20
5.117907982031738
 30
0.0
 10
40.5527716798249
 20
5.110523499951
 30
0.0
 10
40.42906299855212
 20
5.104249705696588
 30
0.0
  0
LINE
  5
2529
330
24DC
100
AcDbEntity
  8
Visible Edges(ISO)
100
AcDbLine
 10
31.80444826450298
 20
4.666858749707216
 30
0.0
 11
40.42906299855212
 21
5.104249705696588
 31
0.0
  0
SPLINE
  5
252A
330
24DC
100
AcDbEntity
  8
Visible Edges(ISO)
100
AcDbSpline
210
0.0
220
0.0
230
1.0
 70
    24
 71
     3
 72
    14
 73
    10
 74
     0
 42
0.0000000001
 43
0.0000000001
 40
-0.1483003458272175
 40
-0.1483003458272175
 40
-0.1483003458272175
 40
-0.1483003458272175
 40
-0.1111400464675773
 40
-0.1111400464675773
 40
-0.0740345445691783
 40
-0.0740345445691783
 40
-0.0369919551001023
 40
-0.0369919551001023
 40
0.0
 40
0.0
 40
0.0
 40
0.0
 10
40.10298023872292
 20
7.232805539456876
 30
0.0
 10
40.22289369052304
 20
7.26385328323704
 30
0.0
 10
40.36403614756409
 20
7.300397597297319
 30
0.0
 10
40.5854956522669
 20
7.3577374357925
 30
0.0
 10
40.70504015529604
 20
7.388689652117022
 30
0.0
 10
40.87436818805008
 20
7.432531717345682
 30
0.0
 10
40.95417049352
 20
7.453193965793275
 30
0.0
 10
41.04571651615197
 20
7.476896873282498
 30
0.0
 10
41.07371490710716
 20
7.484146158959333
 30
0.0
 10
41.07371490710716
 20
7.484146158959333
 30
0.0
  0
SPLINE
  5
252B
330
24DC
100
AcDbEntity
  8
Visible Edges(ISO)
100
AcDbSpline
210
0.0
220
0.0
230
1.0
 70
    24
 71
     3
 72
    14
 73
    10
 74
     0
 42
0.0000000001
 43
0.0000000001
 40
0.0
 40
0.0
 40
0.0
 40
0.0
 40
0.0369919551001023
 40
0.0369919551001023
 40
0.0740345445691783
 40
0.0740345445691783
 40
0.1111400464675776
 40
0.1111400464675776
 40
0.1483003458272174
 40
0.1483003458272174
 40
0.1483003458272174
 40
0.1483003458272174
 10
39.54473446032807
 20
13.38941658404337
 30
0.0
 10
39.54473446032807
 20
13.38941658404337
 30
0.0
 10
39.51673606937402
 20
13.38216729836642
 30
0.0
 10
39.42519004674205
 20
13.35846439087709
 30
0.0
 10
39.34538774127214
 20
13.33780214242983
 30
0.0
 10
39.17605970851809
 20
13.29396007720072
 30
0.0
 10
39.05651520548895
 20
13.26300786087631
 30
0.0
 10
38.83505570078592
 20
13.20566802238147
 30
0.0
 10
38.69391324374488
 20
13.16912370832108
 30
0.0
 10
38.57399979194406
 20
13.13807596454103
 30
0.0
  0
LINE
  5
252C
330
24DC
100
AcDbEntity
  8
Visible Edges(ISO)
100
AcDbLine
 10
30.21397758031708
 20
10.9735162448178
 30
0.0
 11
38.57399979194406
 21
13.13807596454103
 31
0.0
  0
SPLINE
  5
252D
330
24DC
100
AcDbEntity
  8
Visible Edges(ISO)
100
AcDbSpline
210
0.0
220
0.0
230
1.0
 70
    24
 71
     3
 72
    14
 73
    10
 74
     0
 42
0.0000000001
 43
0.0000000001
 40
-0.1483003458272172
 40
-0.1483003458272172
 40
-0.1483003458272172
 40
-0.1483003458272172
 40
-0.111140046467579
 40
-0.111140046467579
 40
-0.07403454456918
 40
-0.07403454456918
 40
-0.0369919551001012
 40
-0.0369919551001012
 40
0.0
 40
0.0
 40
0.0
 40
0.0
 10
37.82611682610309
 20
15.1574201583569
 30
0.0
 10
37.93732577762603
 20
15.21197075338409
 30
0.0
 10
38.0682227239422
 20
15.2761787709129
 30
0.0
 10
38.273606514942
 20
15.37692433010181
 30
0.0
 10
38.38447329963106
 20
15.43130708428373
 30
0.0
 10
38.54150983475916
 20
15.50833718226499
 30
0.0
 10
38.61551930231303
 20
15.54464055926348
 30
0.0
 10
38.70042001228489
 20
15.58628634572005
 30
0.0
 10
38.72638600405299
 20
15.59902327275699
 30
0.0
 10
38.72638600405299
 20
15.59902327275699
 30
0.0
  0
SPLINE
  5
252E
330
24DC
100
AcDbEntity
  8
Visible Edges(ISO)
100
AcDbSpline
210
0.0
220
0.0
230
1.0
 70
    24
 71
     3
 72
    14
 73
    10
 74
     0
 42
0.0000000001
 43
0.0000000001
 40
0.0
 40
0.0
 40
0.0
 40
0.0
 40
0.0369919551001013
 40
0.0369919551001013
 40
0.0740345445691794
 40
0.0740345445691794
 40
0.1111400464675792
 40
0.1111400464675792
 40
0.1483003458272175
 40
0.1483003458272175
 40
0.1483003458272175
 40
0.1483003458272175
 10
36.03998167955206
 20
21.07563096413844
 30
0.0
 10
36.03998167955206
 20
21.07563096413844
 30
0.0
 10
36.01401568778306
 20
21.06289403710139
 30
0.0
 10
35.92911497781211
 20
21.02124825064539
 30
0.0
 10
35.85510551025709
 20
20.98494487364655
 30
0.0
 10
35.6980689751299
 20
20.9079147756654
 30
0.0
 10
35.58720219043994
 20
20.85353202148326
 30
0.0
 10
35.38181839943991
 20
20.75278646229435
 30
0.0
 10
35.25092145312397
 20
20.68857844476577
 30
0.0
 10
35.13971250160194
 20
20.6340278497388
 30
0.0
  0
LINE
  5
252F
330
24DC
100
AcDbEntity
  8
Visible Edges(ISO)
100
AcDbLine
 10
27.38654310400102
 20
16.83091669553175
 30
0.0
 11
35.13971250160194
 21
20.6340278497388
 31
0.0
  0
SPLINE
  5
2530
330
24DC
100
AcDbEntity
  8
Visible Edges(ISO)
100
AcDbSpline
210
0.0
220
0.0
230
1.0
 70
    24
 71
     3
 72
    14
 73
    10
 74
     0
 42
0.0000000001
 43
0.0000000001
 40
-0.1483003458272178
 40
-0.1483003458272178
 40
-0.1483003458272178
 40
-0.1483003458272178
 40
-0.1111400464675782
 40
-0.1111400464675782
 40
-0.0740345445691795
 40
-0.0740345445691795
 40
-0.0369919551001013
 40
-0.0369919551001013
 40
0.0
 40
0.0
 40
0.0
 40
0.0
 10
34.00064774624207
 20
22.46148821505244
 30
0.0
 10
34.09859928994592
 20
22.53730835355702
 30
0.0
 10
34.21389178917412
 20
22.62655139077208
 30
0.0
 10
34.39479142993696
 20
22.76657813562451
 30
0.0
 10
34.49244159709497
 20
22.84216499131856
 30
0.0
 10
34.6307575403971
 20
22.94922950078978
 30
0.0
 10
34.69594421373904
 20
22.9996877418198
 30
0.0
 10
34.77072376600791
 20
23.05757142385255
 30
0.0
 10
34.79359430783598
 20
23.07527454096055
 30
0.0
 10
34.79359430783598
 20
23.07527454096055
 30
0.0
  0
SPLINE
  5
2531
330
24DC
100
AcDbEntity
  8
Visible Edges(ISO)
100
AcDbSpline
210
0.0
220
0.0
230
1.0
 70
    24
 71
     3
 72
    14
 73
    10
 74
     0
 42
0.0000000001
 43
0.0000000001
 40
0.0
 40
0.0
 40
0.0
 40
0.0
 40
0.0369919551001012
 40
0.0369919551001012
 40
0.0740345445691793
 40
0.0740345445691793
 40
0.111140046467577
 40
0.111140046467577
 40
0.1483003458272187
 40
0.1483003458272187
 40
0.1483003458272187
 40
0.1483003458272187
 10
31.05974781429609
 20
27.89900653628047
 30
0.0
 10
31.05974781429609
 20
27.89900653628047
 30
0.0
 10
31.03687727246711
 20
27.88130341917247
 30
0.0
 10
30.96209772019802
 20
27.82341973713972
 30
0.0
 10
30.89691104685608
 20
27.77296149610982
 30
0.0
 10
30.75859510355417
 20
27.66589698663847
 30
0.0
 10
30.66094493639594
 20
27.59031013094455
 30
0.0
 10
30.48004529563309
 20
27.45028338609211
 30
0.0
 10
30.36475279640513
 20
27.36104034887694
 30
0.0
 10
30.26680125270195
 20
27.28522021037282
 30
0.0
  0
LINE
  5
2532
330
24DC
100
AcDbEntity
  8
Visible Edges(ISO)
100
AcDbLine
 10
23.43790033522396
 20
21.99925743918209
 30
0.0
 11
30.26680125270195
 21
27.28522021037282
 31
0.0
  0
SPLINE
  5
2533
330
24DC
100
AcDbEntity
  8
Visible Edges(ISO)
100
AcDbSpline
210
0.0
220
0.0
230
1.0
 70
    24
 71
     3
 72
    14
 73
    10
 74
     0
 42
0.0000000001
 43
0.0000000001
 40
-0.1483003458272177
 40
-0.1483003458272177
 40
-0.1483003458272177
 40
-0.1483003458272177
 40
-0.1111400464675781
 40
-0.1111400464675781
 40
-0.0740345445691788
 40
-0.0740345445691788
 40
-0.0369919551001013
 40
-0.0369919551001013
 40
0.0
 40
0.0
 40
0.0
 40
0.0
 10
28.78318815274406
 20
28.84598030511097
 30
0.0
 10
28.86387214091906
 20
28.93996590171366
 30
0.0
 10
28.95884010459509
 20
29.05059033818623
 30
0.0
 10
29.10784954257315
 20
29.22416555731536
 30
0.0
 10
29.18828528288305
 20
29.31786197976805
 30
0.0
 10
29.30221796338901
 20
29.45057766713205
 30
0.0
 10
29.35591309245296
 20
29.51312500587733
 30
0.0
 10
29.41751000336308
 20
29.58487681874294
 30
0.0
 10
29.43634877258205
 20
29.60682135822742
 30
0.0
 10
29.43634877258205
 20
29.60682135822742
 30
0.0
  0
SPLINE
  5
2534
330
24DC
100
AcDbEntity
  8
Visible Edges(ISO)
100
AcDbSpline
210
0.0
220
0.0
230
1.0
 70
    24
 71
     3
 72
    14
 73
    10
 74
     0
 42
0.0000000001
 43
0.0000000001
 40
0.0
 40
0.0
 40
0.0
 40
0.0
 40
0.0369919551001013
 40
0.0369919551001013
 40
0.0740345445691792
 40
0.0740345445691792
 40
0.1111400464675787
 40
0.1111400464675787
 40
0.1483003458272183
 40
0.1483003458272183
 40
0.1483003458272183
 40
0.1483003458272183
 10
24.80792422415607
 20
33.58019350283291
 30
0.0
 10
24.80792422415607
 20
33.58019350283291
 30
0.0
 10
24.78908545493687
 20
33.55824896334843
 30
0.0
 10
24.72748854402698
 20
33.48649715048282
 30
0.0
 10
24.67379341496303
 20
33.42394981173777
 30
0.0
 10
24.55986073445706
 20
33.29123412437378
 30
0.0
 10
24.47942499414603
 20
33.19753770192097
 30
0.0
 10
24.3304155561691
 20
33.02396248279206
 30
0.0
 10
24.23544759249308
 20
32.91333804631938
 30
0.0
 10
24.15476360431808
 20
32.81935244971646
 30
0.0
  0
LINE
  5
2535
330
24DC
100
AcDbEntity
  8
Visible Edges(ISO)
100
AcDbLine
 10
18.52970717288599
 20
26.26694599846894
 30
0.0
 11
24.15476360431808
 21
32.81935244971646
 31
0.0
  0
SPLINE
  5
2536
330
24DC
100
AcDbEntity
  8
Visible Edges(ISO)
100
AcDbSpline
210
0.0
220
0.0
230
1.0
 70
    24
 71
     3
 72
    14
 73
    10
 74
     0
 42
0.0000000001
 43
0.0000000001
 40
-0.1483003458272174
 40
-0.1483003458272174
 40
-0.1483003458272174
 40
-0.1483003458272174
 40
-0.1111400464675783
 40
-0.1111400464675783
 40
-0.0740345445691794
 40
-0.0740345445691794
 40
-0.0369919551001011
 40
-0.0369919551001011
 40
0.0
 40
0.0
 40
0.0
 40
0.0
 10
22.38734145439003
 20
34.0495145722191
 30
0.0
 10
22.4474546750821
 20
34.15781784555247
 30
0.0
 10
22.51821010361505
 20
34.28529470385547
 30
0.0
 10
22.629228874908
 20
34.48531220739596
 30
0.0
 10
22.68915713971091
 20
34.59328225406352
 30
0.0
 10
22.77404214009607
 20
34.74621572348599
 30
0.0
 10
22.81404743998814
 20
34.81829146454891
 30
0.0
 10
22.85993992477006
 20
34.90097388059849
 30
0.0
 10
22.87397565995411
 20
34.92626143043435
 30
0.0
 10
22.87397565995411
 20
34.92626143043435
 30
0.0
  0
SPLINE
  5
2537
330
24DC
100
AcDbEntity
  8
Visible Edges(ISO)
100
AcDbSpline
210
0.0
220
0.0
230
1.0
 70
    24
 71
     3
 72
    14
 73
    10
 74
     0
 42
0.0000000001
 43
0.0000000001
 40
0.0
 40
0.0
 40
0.0
 40
0.0
 40
0.0369919551001014
 40
0.0369919551001014
 40
0.0740345445691793
 40
0.0740345445691793
 40
0.1111400464675786
 40
0.1111400464675786
 40
0.1483003458272173
 40
0.1483003458272173
 40
0.1483003458272173
 40
0.1483003458272173
 10
17.54046130147208
 20
37.88660340187391
 30
0.0
 10
17.54046130147208
 20
37.88660340187391
 30
0.0
 10
17.52642556628802
 20
37.86131585203794
 30
0.0
 10
17.48053308150611
 20
37.77863343598847
 30
0.0
 10
17.44052778161403
 20
37.70655769492555
 30
0.0
 10
17.35564278123002
 20
37.55362422550297
 30
0.0
 10
17.29571451642596
 20
37.44565417883575
 30
0.0
 10
17.18469574513301
 20
37.24563667529492
 30
0.0
 10
17.11394031660006
 20
37.11815981699215
 30
0.0
 10
17.05382709590799
 20
37.009856543659
 30
0.0
  0
LINE
  5
2538
330
24DC
100
AcDbEntity
  8
Visible Edges(ISO)
100
AcDbLine
 10
12.86290562174099
 20
29.45926270234338
 30
0.0
 11
17.05382709590799
 21
37.009856543659
 31
0.0
  0
SPLINE
  5
2539
330
24DC
100
AcDbEntity
  8
Visible Edges(ISO)
100
AcDbSpline
210
0.0
220
0.0
230
1.0
 70
    24
 71
     3
 72
    14
 73
    10
 74
     0
 42
0.0000000001
 43
0.0000000001
 40
-0.1483003458272177
 40
-0.1483003458272177
 40
-0.1483003458272177
 40
-0.1483003458272177
 40
-0.1111400464675781
 40
-0.1111400464675781
 40
-0.0740345445691795
 40
-0.0740345445691795
 40
-0.0369919551001012
 40
-0.0369919551001012
 40
0.0
 40
0.0
 40
0.0
 40
0.0
 10
15.0749543664931
 20
37.85905771209241
 30
0.0
 10
15.11203577738206
 20
37.97724471342133
 30
0.0
 10
15.15568193521517
 20
38.11635507599772
 30
0.0
 10
15.22416491828312
 20
38.33462612385324
 30
0.0
 10
15.26113223737707
 20
38.45244948833908
 30
0.0
 10
15.31349435575021
 20
38.61933962561307
 30
0.0
 10
15.33817200479302
 20
38.69799297968643
 30
0.0
 10
15.36648121972689
 20
38.78822097109162
 30
0.0
 10
15.3751392962281
 20
38.8158162560178
 30
0.0
 10
15.3751392962281
 20
38.8158162560178
 30
0.0
  0
SPLINE
  5
253A
330
24DC
100
AcDbEntity
  8
Visible Edges(ISO)
100
AcDbSpline
210
0.0
220
0.0
230
1.0
 70
    24
 71
     3
 72
    14
 73
    10
 74
     0
 42
0.0000000001
 43
0.0000000001
 40
0.0
 40
0.0
 40
0.0
 40
0.0
 40
0.0369919551001016
 40
0.0369919551001016
 40
0.0740345445691798
 40
0.0740345445691798
 40
0.1111400464675792
 40
0.1111400464675792
 40
0.1483003458272175
 40
0.1483003458272175
 40
0.1483003458272175
 40
0.1483003458272175
 10
9.554889832188109
 20
40.64193130615535
 30
0.0
 10
9.554889832188109
 20
40.64193130615535
 30
0.0
 10
9.546231755687131
 20
40.61433602122906
 30
0.0
 10
9.517922540753033
 20
40.52410802982376
 30
0.0
 10
9.493244891709991
 20
40.4454546757504
 30
0.0
 10
9.440882773337079
 20
40.27856453847653
 30
0.0
 10
9.403915454241996
 20
40.16074117399091
 30
0.0
 10
9.335432471174044
 20
39.94247012613539
 30
0.0
 10
9.291786313342072
 20
39.803359763559
 30
0.0
 10
9.254704902451976
 20
39.68517276223008
 30
0.0
  0
LINE
  5
253B
330
24DC
100
AcDbEntity
  8
Visible Edges(ISO)
100
AcDbLine
 10
6.669495203115047
 20
31.44551372986689
 30
0.0
 11
9.254704902451976
 21
39.68517276223008
 31
0.0
  0
SPLINE
  5
253C
330
24DC
100
AcDbEntity
  8
Visible Edges(ISO)
100
AcDbSpline
210
0.0
220
0.0
230
1.0
 70
    24
 71
     3
 72
    14
 73
    10
 74
     0
 42
0.0000000001
 43
0.0000000001
 40
-0.1483003458272176
 40
-0.1483003458272176
 40
-0.1483003458272176
 40
-0.1483003458272176
 40
-0.1111400464675792
 40
-0.1111400464675792
 40
-0.0740345445691794
 40
-0.0740345445691794
 40
-0.0369919551001017
 40
-0.0369919551001017
 40
0.0
 40
0.0
 40
0.0
 40
0.0
 10
7.145396875597953
 20
40.11864658098239
 30
0.0
 10
7.157928359367133
 20
40.2418787205853
 30
0.0
 10
7.17267836766905
 20
40.3869273928467
 30
0.0
 10
7.195821861139165
 20
40.61451594267317
 30
0.0
 10
7.208314788136931
 20
40.73736892259103
 30
0.0
 10
7.226010313220058
 20
40.91138322588801
 30
0.0
 10
7.234350005563101
 20
40.99339411541416
 30
0.0
 10
7.243916968063103
 20
41.08747373760604
 30
0.0
 10
7.24684292321308
 20
41.11624700341508
 30
0.0
 10
7.24684292321308
 20
41.11624700341508
 30
0.0
  0
SPLINE
  5
253D
330
24DC
100
AcDbEntity
  8
Visible Edges(ISO)
100
AcDbSpline
210
0.0
220
0.0
230
1.0
 70
    24
 71
     3
 72
    14
 73
    10
 74
     0
 42
0.0000000001
 43
0.0000000001
 40
0.0
 40
0.0
 40
0.0
 40
0.0
 40
0.0369919551001017
 40
0.0369919551001017
 40
0.0740345445691793
 40
0.0740345445691793
 40
0.1111400464675792
 40
0.1111400464675792
 40
0.1483003458272175
 40
0.1483003458272175
 40
0.1483003458272175
 40
0.1483003458272175
 10
1.17814005052196
 20
41.73337376753818
 30
0.0
 10
1.17814005052196
 20
41.73337376753818
 30
0.0
 10
1.175214095373121
 20
41.70460050172914
 30
0.0
 10
1.165647132871981
 20
41.61052087953737
 30
0.0
 10
1.157307440528938
 20
41.52850999001111
 30
0.0
 10
1.139611915446039
 20
41.35449568671447
 30
0.0
 10
1.127118988449183
 20
41.23164270679637
 30
0.0
 10
1.10397549497793
 20
41.00405415697003
 30
0.0
 10
1.08922548667715
 20
40.85900548470897
 30
0.0
 10
1.076694002907061
 20
40.73577334510537
 30
0.0
  0
LINE
  5
253E
330
24DC
100
AcDbEntity
  8
Visible Edges(ISO)
100
AcDbLine
 10
0.2030348672399214
 20
32.14438173059909
 30
0.0
 11
1.076694002907061
 21
40.73577334510537
 31
0.0
  0
SPLINE
  5
253F
330
24DC
100
AcDbEntity
  8
Visible Edges(ISO)
100
AcDbSpline
210
0.0
220
0.0
230
1.0
 70
    24
 71
     3
 72
    14
 73
    10
 74
     0
 42
0.0000000001
 43
0.0000000001
 40
-0.1483003458272176
 40
-0.1483003458272176
 40
-0.1483003458272176
 40
-0.1483003458272176
 40
-0.1111400464675783
 40
-0.1111400464675783
 40
-0.0740345445691793
 40
-0.0740345445691793
 40
-0.0369919551001013
 40
-0.0369919551001013
 40
0.0
 40
0.0
 40
0.0
 40
0.0
 10
-1.076694002932072
 20
40.73577334510537
 30
0.0
 10
-1.089225486700797
 20
40.85900548470897
 30
0.0
 10
-1.103975495002941
 20
41.00405415697003
 30
0.0
 10
-1.12711898847283
 20
41.23164270679637
 30
0.0
 10
-1.139611915470823
 20
41.35449568671447
 30
0.0
 10
-1.15730744055395
 20
41.52850999001111
 30
0.0
 10
-1.165647132896083
 20
41.61052087953737
 30
0.0
 10
-1.175214095396995
 20
41.70460050172914
 30
0.0
 10
-1.178140050546971
 20
41.73337376753818
 30
0.0
 10
-1.178140050546971
 20
41.73337376753818
 30
0.0
  0
SPLINE
  5
2540
330
24DC
100
AcDbEntity
  8
Visible Edges(ISO)
100
AcDbSpline
210
0.0
220
0.0
230
1.0
 70
    24
 71
     3
 72
    14
 73
    10
 74
     0
 42
0.0000000001
 43
0.0000000001
 40
0.0
 40
0.0
 40
0.0
 40
0.0
 40
0.0369919551001014
 40
0.0369919551001014
 40
0.0740345445691792
 40
0.0740345445691792
 40
0.1111400464675783
 40
0.1111400464675783
 40
0.1483003458272175
 40
0.1483003458272175
 40
0.1483003458272175
 40
0.1483003458272175
 10
-7.246842923237863
 20
41.11624700341508
 30
0.0
 10
-7.246842923237863
 20
41.11624700341508
 30
0.0
 10
-7.243916968087887
 20
41.08747373760604
 30
0.0
 10
-7.234350005586975
 20
40.99339411541416
 30
0.0
 10
-7.226010313244842
 20
40.91138322588801
 30
0.0
 10
-7.208314788161032
 20
40.73736892259103
 30
0.0
 10
-7.195821861163949
 20
40.61451594267317
 30
0.0
 10
-7.172678367694061
 20
40.3869273928467
 30
0.0
 10
-7.157928359391917
 20
40.2418787205853
 30
0.0
 10
-7.145396875622964
 20
40.11864658098239
 30
0.0
  0
LINE
  5
2541
330
24DC
100
AcDbEntity
  8
Visible Edges(ISO)
100
AcDbLine
 10
-6.271737739954915
 20
31.52725496647565
 30
0.0
 11
-7.145396875622964
 21
40.11864658098239
 31
0.0
  0
SPLINE
  5
2542
330
24DC
100
AcDbEntity
  8
Visible Edges(ISO)
100
AcDbSpline
210
0.0
220
0.0
230
1.0
 70
    24
 71
     3
 72
    14
 73
    10
 74
     0
 42
0.0000000001
 43
0.0000000001
 40
-0.1483003458272177
 40
-0.1483003458272177
 40
-0.1483003458272177
 40
-0.1483003458272177
 40
-0.1111400464675778
 40
-0.1111400464675778
 40
-0.074034544569179
 40
-0.074034544569179
 40
-0.0369919551001013
 40
-0.0369919551001013
 40
0.0
 40
0.0
 40
0.0
 40
0.0
 10
-9.254704902476987
 20
39.68517276223008
 30
0.0
 10
-9.291786313367083
 20
39.803359763559
 30
0.0
 10
-9.335432471198828
 20
39.94247012613539
 30
0.0
 10
-9.403915454267007
 20
40.16074117399091
 30
0.0
 10
-9.440882773360954
 20
40.27856453847653
 30
0.0
 10
-9.493244891734093
 20
40.4454546757504
 30
0.0
 10
-9.517922540776908
 20
40.52410802982376
 30
0.0
 10
-9.546231755711914
 20
40.61433602122906
 30
0.0
 10
-9.554889832212893
 20
40.64193130615535
 30
0.0
 10
-9.554889832212893
 20
40.64193130615535
 30
0.0
  0
SPLINE
  5
2543
330
24DC
100
AcDbEntity
  8
Visible Edges(ISO)
100
AcDbSpline
210
0.0
220
0.0
230
1.0
 70
    24
 71
     3
 72
    14
 73
    10
 74
     0
 42
0.0000000001
 43
0.0000000001
 40
0.0
 40
0.0
 40
0.0
 40
0.0
 40
0.0369919551001018
 40
0.0369919551001018
 40
0.0740345445691796
 40
0.0740345445691796
 40
0.1111400464675781
 40
0.1111400464675781
 40
0.1483003458272173
 40
0.1483003458272173
 40
0.1483003458272173
 40
0.1483003458272173
 10
-15.37513929625288
 20
38.8158162560178
 30
0.0
 10
-15.37513929625288
 20
38.8158162560178
 30
0.0
 10
-15.3664812197519
 20
38.78822097109162
 30
0.0
 10
-15.33817200481803
 20
38.69799297968643
 30
0.0
 10
-15.31349435577385
 20
38.61933962561307
 30
0.0
 10
-15.26113223740185
 20
38.45244948833908
 30
0.0
 10
-15.22416491830699
 20
38.33462612385324
 30
0.0
 10
-15.15568193523904
 20
38.11635507599772
 30
0.0
 10
-15.11203577740684
 20
37.97724471342133
 30
0.0
 10
-15.07495436651697
 20
37.85905771209241
 30
0.0
  0
LINE
  5
2544
330
24DC
100
AcDbEntity
  8
Visible Edges(ISO)
100
AcDbLine
 10
-12.48974466717982
 20
29.61939867972933
 30
0.0
 11
-15.07495436651697
 21
37.85905771209241
 31
0.0
  0
SPLINE
  5
2545
330
24DC
100
AcDbEntity
  8
Visible Edges(ISO)
100
AcDbSpline
210
0.0
220
0.0
230
1.0
 70
    24
 71
     3
 72
    14
 73
    10
 74
     0
 42
0.0000000001
 43
0.0000000001
 40
-0.1483003458272176
 40
-0.1483003458272176
 40
-0.1483003458272176
 40
-0.1483003458272176
 40
-0.1111400464675789
 40
-0.1111400464675789
 40
-0.0740345445691795
 40
-0.0740345445691795
 40
-0.0369919551001011
 40
-0.0369919551001011
 40
0.0
 40
0.0
 40
0.0
 40
0.0
 10
-17.053827095933
 20
37.009856543659
 30
0.0
 10
-17.11394031662485
 20
37.11815981699215
 30
0.0
 10
-17.18469574515802
 20
37.24563667529492
 30
0.0
 10
-17.29571451645097
 20
37.44565417883575
 30
0.0
 10
-17.35564278125389
 20
37.55362422550297
 30
0.0
 10
-17.44052778163904
 20
37.70655769492555
 30
0.0
 10
-17.48053308153089
 20
37.77863343598847
 30
0.0
 10
-17.52642556631303
 20
37.86131585203794
 30
0.0
 10
-17.54046130149686
 20
37.88660340187391
 30
0.0
 10
-17.54046130149686
 20
37.88660340187391
 30
0.0
  0
SPLINE
  5
2546
330
24DC
100
AcDbEntity
  8
Visible Edges(ISO)
100
AcDbSpline
210
0.0
220
0.0
230
1.0
 70
    24
 71
     3
 72
    14
 73
    10
 74
     0
 42
0.0000000001
 43
0.0000000001
 40
0.0
 40
0.0
 40
0.0
 40
0.0
 40
0.0369919551001016
 40
0.0369919551001016
 40
0.0740345445691792
 40
0.0740345445691792
 40
0.111140046467578
 40
0.111140046467578
 40
0.1483003458272172
 40
0.1483003458272172
 40
0.1483003458272172
 40
0.1483003458272172
 10
-22.8739756599789
 20
34.92626143043435
 30
0.0
 10
-22.8739756599789
 20
34.92626143043435
 30
0.0
 10
-22.85993992479484
 20
34.90097388059849
 30
0.0
 10
-22.81404744001293
 20
34.81829146454891
 30
0.0
 10
-22.77404214011994
 20
34.74621572348599
 30
0.0
 10
-22.68915713973592
 20
34.59328225406352
 30
0.0
 10
-22.62922887493301
 20
34.48531220739596
 30
0.0
 10
-22.51821010364006
 20
34.28529470385547
 30
0.0
 10
-22.44745467510597
 20
34.15781784555247
 30
0.0
 10
-22.38734145441504
 20
34.0495145722191
 30
0.0
  0
LINE
  5
2547
330
24DC
100
AcDbEntity
  8
Visible Edges(ISO)
100
AcDbLine
 10
-18.19641998024804
 20
26.49892073090337
 30
0.0
 11
-22.38734145441504
 21
34.0495145722191
 31
0.0
  0
SPLINE
  5
2548
330
24DC
100
AcDbEntity
  8
Visible Edges(ISO)
100
AcDbSpline
210
0.0
220
0.0
230
1.0
 70
    24
 71
     3
 72
    14
 73
    10
 74
     0
 42
0.0000000001
 43
0.0000000001
 40
-0.1483003458272174
 40
-0.1483003458272174
 40
-0.1483003458272174
 40
-0.1483003458272174
 40
-0.111140046467579
 40
-0.111140046467579
 40
-0.0740345445691793
 40
-0.0740345445691793
 40
-0.0369919551001017
 40
-0.0369919551001017
 40
0.0
 40
0.0
 40
0.0
 40
0.0
 10
-24.15476360434195
 20
32.81935244971646
 30
0.0
 10
-24.23544759251809
 20
32.91333804631938
 30
0.0
 10
-24.33041555619411
 20
33.02396248279206
 30
0.0
 10
-24.47942499417104
 20
33.19753770192097
 30
0.0
 10
-24.55986073448207
 20
33.29123412437378
 30
0.0
 10
-24.67379341498804
 20
33.42394981173777
 30
0.0
 10
-24.727488544052
 20
33.48649715048282
 30
0.0
 10
-24.7890854549621
 20
33.55824896334843
 30
0.0
 10
-24.80792422418085
 20
33.58019350283291
 30
0.0
 10
-24.80792422418085
 20
33.58019350283291
 30
0.0
  0
SPLINE
  5
2549
330
24DC
100
AcDbEntity
  8
Visible Edges(ISO)
100
AcDbSpline
210
0.0
220
0.0
230
1.0
 70
    24
 71
     3
 72
    14
 73
    10
 74
     0
 42
0.0000000001
 43
0.0000000001
 40
0.0
 40
0.0
 40
0.0
 40
0.0
 40
0.0369919551001016
 40
0.0369919551001016
 40
0.0740345445691792
 40
0.0740345445691792
 40
0.111140046467578
 40
0.111140046467578
 40
0.1483003458272179
 40
0.1483003458272179
 40
0.1483003458272179
 40
0.1483003458272179
 10
-29.43634877260706
 20
29.60682135822742
 30
0.0
 10
-29.43634877260706
 20
29.60682135822742
 30
0.0
 10
-29.41751000338786
 20
29.58487681874294
 30
0.0
 10
-29.35591309247707
 20
29.51312500587733
 30
0.0
 10
-29.30221796341403
 20
29.45057766713205
 30
0.0
 10
-29.18828528290692
 20
29.31786197976805
 30
0.0
 10
-29.1078495425968
 20
29.22416555731536
 30
0.0
 10
-28.95884010461987
 20
29.05059033818623
 30
0.0
 10
-28.86387214094384
 20
28.93996590171366
 30
0.0
 10
-28.78318815276794
 20
28.84598030511097
 30
0.0
  0
LINE
  5
254A
330
24DC
100
AcDbEntity
  8
Visible Edges(ISO)
100
AcDbLine
 10
-23.15813172133699
 20
22.29357385386334
 30
0.0
 11
-28.78318815276794
 21
28.84598030511097
 31
0.0
  0
SPLINE
  5
254B
330
24DC
100
AcDbEntity
  8
Visible Edges(ISO)
100
AcDbSpline
210
0.0
220
0.0
230
1.0
 70
    24
 71
     3
 72
    14
 73
    10
 74
     0
 42
0.0000000001
 43
0.0000000001
 40
-0.1483003458272175
 40
-0.1483003458272175
 40
-0.1483003458272175
 40
-0.1483003458272175
 40
-0.1111400464675785
 40
-0.1111400464675785
 40
-0.0740345445691793
 40
-0.0740345445691793
 40
-0.0369919551001017
 40
-0.0369919551001017
 40
0.0
 40
0.0
 40
0.0
 40
0.0
 10
-30.26680125272605
 20
27.28522021037282
 30
0.0
 10
-30.36475279642991
 20
27.36104034887694
 30
0.0
 10
-30.48004529565787
 20
27.45028338609211
 30
0.0
 10
-30.66094493642095
 20
27.59031013094455
 30
0.0
 10
-30.75859510357896
 20
27.66589698663847
 30
0.0
 10
-30.89691104688086
 20
27.77296149610982
 30
0.0
 10
-30.96209772022303
 20
27.82341973713972
 30
0.0
 10
-31.0368772724919
 20
27.88130341917247
 30
0.0
 10
-31.05974781431996
 20
27.89900653628047
 30
0.0
 10
-31.05974781431996
 20
27.89900653628047
 30
0.0
  0
SPLINE
  5
254C
330
24DC
100
AcDbEntity
  8
Visible Edges(ISO)
100
AcDbSpline
210
0.0
220
0.0
230
1.0
 70
    24
 71
     3
 72
    14
 73
    10
 74
     0
 42
0.0000000001
 43
0.0000000001
 40
0.0
 40
0.0
 40
0.0
 40
0.0
 40
0.0369919551001013
 40
0.0369919551001013
 40
0.0740345445691799
 40
0.0740345445691799
 40
0.1111400464675794
 40
0.1111400464675794
 40
0.1483003458272178
 40
0.1483003458272178
 40
0.1483003458272178
 40
0.1483003458272178
 10
-34.79359430786099
 20
23.07527454096055
 30
0.0
 10
-34.79359430786099
 20
23.07527454096055
 30
0.0
 10
-34.77072376603314
 20
23.05757142385255
 30
0.0
 10
-34.69594421376382
 20
22.9996877418198
 30
0.0
 10
-34.63075754042097
 20
22.94922950078978
 30
0.0
 10
-34.49244159711907
 20
22.84216499131856
 30
0.0
 10
-34.39479142996106
 20
22.76657813562451
 30
0.0
 10
-34.2138917891989
 20
22.62655139077208
 30
0.0
 10
-34.09859928997003
 20
22.53730835355702
 30
0.0
 10
-34.00064774626685
 20
22.46148821505244
 30
0.0
  0
LINE
  5
254D
330
24DC
100
AcDbEntity
  8
Visible Edges(ISO)
100
AcDbLine
 10
-27.17174682878886
 20
17.17552544386194
 30
0.0
 11
-34.00064774626685
 21
22.46148821505244
 31
0.0
  0
SPLINE
  5
254E
330
24DC
100
AcDbEntity
  8
Visible Edges(ISO)
100
AcDbSpline
210
0.0
220
0.0
230
1.0
 70
    24
 71
     3
 72
    14
 73
    10
 74
     0
 42
0.0000000001
 43
0.0000000001
 40
-0.1483003458272177
 40
-0.1483003458272177
 40
-0.1483003458272177
 40
-0.1483003458272177
 40
-0.1111400464675786
 40
-0.1111400464675786
 40
-0.074034544569179
 40
-0.074034544569179
 40
-0.0369919551001018
 40
-0.0369919551001018
 40
0.0
 40
0.0
 40
0.0
 40
0.0
 10
-35.13971250162604
 20
20.6340278497388
 30
0.0
 10
-35.25092145314898
 20
20.68857844476577
 30
0.0
 10
-35.38181839946515
 20
20.75278646229435
 30
0.0
 10
-35.58720219046495
 20
20.85353202148326
 30
0.0
 10
-35.698068975154
 20
20.9079147756654
 30
0.0
 10
-35.8551055102821
 20
20.98494487364655
 30
0.0
 10
-35.92911497783689
 20
21.02124825064539
 30
0.0
 10
-36.01401568780784
 20
21.06289403710139
 30
0.0
 10
-36.03998167957593
 20
21.07563096413844
 30
0.0
 10
-36.03998167957593
 20
21.07563096413844
 30
0.0
  0
SPLINE
  5
254F
330
24DC
100
AcDbEntity
  8
Visible Edges(ISO)
100
AcDbSpline
210
0.0
220
0.0
230
1.0
 70
    24
 71
     3
 72
    14
 73
    10
 74
     0
 42
0.0000000001
 43
0.0000000001
 40
0.0
 40
0.0
 40
0.0
 40
0.0
 40
0.0369919551001016
 40
0.0369919551001016
 40
0.0740345445691792
 40
0.0740345445691792
 40
0.111140046467579
 40
0.111140046467579
 40
0.1483003458272173
 40
0.1483003458272173
 40
0.1483003458272173
 40
0.1483003458272173
 10
-38.726386004078
 20
15.59902327275699
 30
0.0
 10
-38.726386004078
 20
15.59902327275699
 30
0.0
 10
-38.70042001230991
 20
15.58628634572005
 30
0.0
 10
-38.61551930233805
 20
15.54464055926348
 30
0.0
 10
-38.54150983478303
 20
15.50833718226499
 30
0.0
 10
-38.38447329965584
 20
15.43130708428373
 30
0.0
 10
-38.27360651496702
 20
15.37692433010181
 30
0.0
 10
-38.06822272396585
 20
15.2761787709129
 30
0.0
 10
-37.93732577765081
 20
15.21197075338409
 30
0.0
 10
-37.82611682612787
 20
15.1574201583569
 30
0.0
  0
LINE
  5
2550
330
24DC
100
AcDbEntity
  8
Visible Edges(ISO)
100
AcDbLine
 10
-30.07294742852696
 20
11.35430900415008
 30
0.0
 11
-37.82611682612787
 21
15.1574201583569
 31
0.0
  0
SPLINE
  5
2551
330
24DC
100
AcDbEntity
  8
Visible Edges(ISO)
100
AcDbSpline
210
0.0
220
0.0
230
1.0
 70
    24
 71
     3
 72
    14
 73
    10
 74
     0
 42
0.0000000001
 43
0.0000000001
 40
-0.1483003458272168
 40
-0.1483003458272168
 40
-0.1483003458272168
 40
-0.1483003458272168
 40
-0.1111400464675782
 40
-0.1111400464675782
 40
-0.0740345445691786
 40
-0.0740345445691786
 40
-0.036991955100102
 40
-0.036991955100102
 40
0.0
 40
0.0
 40
0.0
 40
0.0
 10
-38.57399979196907
 20
13.13807596454103
 30
0.0
 10
-38.69391324377011
 20
13.16912370832108
 30
0.0
 10
-38.83505570081093
 20
13.20566802238147
 30
0.0
 10
-39.05651520551396
 20
13.26300786087631
 30
0.0
 10
-39.17605970854197
 20
13.29396007720072
 30
0.0
 10
-39.34538774129692
 20
13.33780214242983
 30
0.0
 10
-39.42519004676706
 20
13.35846439087709
 30
0.0
 10
-39.51673606939903
 20
13.38216729836642
 30
0.0
 10
-39.54473446035286
 20
13.38941658404337
 30
0.0
 10
-39.54473446035286
 20
13.38941658404337
 30
0.0
  0
SPLINE
  5
2552
330
24DC
100
AcDbEntity
  8
Visible Edges(ISO)
100
AcDbSpline
210
0.0
220
0.0
230
1.0
 70
    24
 71
     3
 72
    14
 73
    10
 74
     0
 42
0.0000000001
 43
0.0000000001
 40
0.0
 40
0.0
 40
0.0
 40
0.0
 40
0.036991955100102
 40
0.036991955100102
 40
0.0740345445691785
 40
0.0740345445691785
 40
0.1111400464675782
 40
0.1111400464675782
 40
0.1483003458272176
 40
0.1483003458272176
 40
0.1483003458272176
 40
0.1483003458272176
 10
-41.0737149071308
 20
7.484146158959333
 30
0.0
 10
-41.0737149071308
 20
7.484146158959333
 30
0.0
 10
-41.04571651617698
 20
7.476896873282498
 30
0.0
 10
-40.95417049354501
 20
7.453193965793275
 30
0.0
 10
-40.87436818807486
 20
7.432531717345682
 30
0.0
 10
-40.70504015532082
 20
7.388689652117022
 30
0.0
 10
-40.58549565229191
 20
7.3577374357925
 30
0.0
 10
-40.36403614758888
 20
7.300397597297319
 30
0.0
 10
-40.22289369054806
 20
7.26385328323704
 30
0.0
 10
-40.10298023874702
 20
7.232805539456876
 30
0.0
  0
LINE
  5
2553
330
24DC
100
AcDbEntity
  8
Visible Edges(ISO)
100
AcDbLine
 10
-31.74295802711981
 20
5.068245819733988
 30
0.0
 11
-40.10298023874702
 21
7.232805539456876
 31
0.0
  0
SPLINE
  5
2554
330
24DC
100
AcDbEntity
  8
Visible Edges(ISO)
100
AcDbSpline
210
0.0
220
0.0
230
1.0
 70
    24
 71
     3
 72
    14
 73
    10
 74
     0
 42
0.0000000001
 43
0.0000000001
 40
-0.1483003458272183
 40
-0.1483003458272183
 40
-0.1483003458272183
 40
-0.1483003458272183
 40
-0.1111400464675789
 40
-0.1111400464675789
 40
-0.0740345445691795
 40
-0.0740345445691795
 40
-0.0369919551001011
 40
-0.0369919551001011
 40
0.0
 40
0.0
 40
0.0
 40
0.0
 10
-40.42906299857691
 20
5.104249705696588
 30
0.0
 10
-40.552771679849
 20
5.110523499951
 30
0.0
 10
-40.69838125884098
 20
5.117907982031738
 30
0.0
 10
-40.92684989910412
 20
5.129494600107705
 30
0.0
 10
-41.05017795447202
 20
5.135749091201319
 30
0.0
 10
-41.22486517529615
 20
5.144608224376497
 30
0.0
 10
-41.30719320291905
 20
5.148783429393802
 30
0.0
 10
-41.40163663328894
 20
5.153573058098118
 30
0.0
 10
-41.43052116601507
 20
5.155037915807383
 30
0.0
 10
-41.43052116601507
 20
5.155037915807383
 30
0.0
  0
SPLINE
  5
2555
330
24DC
100
AcDbEntity
  8
Visible Edges(ISO)
100
AcDbSpline
210
0.0
220
0.0
230
1.0
 70
    24
 71
     3
 72
    14
 73
    10
 74
     0
 42
0.0000000001
 43
0.0000000001
 40
0.0
 40
0.0
 40
0.0
 40
0.0
 40
0.036991955100101
 40
0.036991955100101
 40
0.0740345445691795
 40
0.0740345445691795
 40
0.1111400464675788
 40
0.1111400464675788
 40
0.1483003458272174
 40
0.1483003458272174
 40
0.1483003458272174
 40
0.1483003458272174
 10
-41.73948109593084
 20
-0.9371327779363127
 30
0.0
 10
-41.73948109593084
 20
-0.9371327779363127
 30
0.0
 10
-41.71059656320585
 20
-0.9385976356453511
 30
0.0
 10
-41.61615313283505
 20
-0.9433872643497807
 30
0.0
 10
-41.53382510521192
 20
-0.9475624693669715
 30
0.0
 10
-41.35913788438801
 20
-0.9564216025422638
 30
0.0
 10
-41.2358098290199
 20
-0.9626760936355367
 30
0.0
 10
-41.00734118875698
 20
-0.9742627117118445
 30
0.0
 10
-40.861731609765
 20
-0.9816471937925825
 30
0.0
 10
-40.73802292849291
 20
-0.9879209880469943
 30
0.0
  0
LINE
  5
2556
330
24DC
100
AcDbEntity
  8
Visible Edges(ISO)
100
AcDbLine
 10
-32.11340819444399
 20
-1.425311944036252
 30
0.0
 11
-40.73802292849291
 21
-0.9879209880469943
 31
0.0
  0
SPLINE
  5
2557
330
24DC
100
AcDbEntity
  8
Visible Edges(ISO)
100
AcDbSpline
210
0.0
220
0.0
230
1.0
 70
    24
 71
     3
 72
    14
 73
    10
 74
     0
 42
0.0000000001
 43
0.0000000001
 40
-0.1483003458272175
 40
-0.1483003458272175
 40
-0.1483003458272175
 40
-0.1483003458272175
 40
-0.1111400464675779
 40
-0.1111400464675779
 40
-0.0740345445691791
 40
-0.0740345445691791
 40
-0.0369919551001015
 40
-0.0369919551001015
 40
0.0
 40
0.0
 40
0.0
 40
0.0
 10
-40.62895561580989
 20
-3.138545135823505
 30
0.0
 10
-40.75139487860792
 20
-3.15730214096834
 30
0.0
 10
-40.89551030627785
 20
-3.179379812431193
 30
0.0
 10
-41.12163454912411
 20
-3.214020772279241
 30
0.0
 10
-41.24369709175517
 20
-3.232720066017009
 30
0.0
 10
-41.41659178530403
 20
-3.259206558848632
 30
0.0
 10
-41.49807501595591
 20
-3.271689330645926
 30
0.0
 10
-41.59154932892784
 20
-3.286009068687917
 30
0.0
 10
-41.62013746726006
 20
-3.290388610393051
 30
0.0
 10
-41.62013746726006
 20
-3.290388610393051
 30
0.0
  0
SPLINE
  5
2558
330
24DC
100
AcDbEntity
  8
Visible Edges(ISO)
100
AcDbSpline
210
0.0
220
0.0
230
1.0
 70
    24
 71
     3
 72
    14
 73
    10
 74
     0
 42
0.0000000001
 43
0.0000000001
 40
0.0
 40
0.0
 40
0.0
 40
0.0
 40
0.0369919551001019
 40
0.0369919551001019
 40
0.0740345445691792
 40
0.0740345445691792
 40
0.1111400464675786
 40
0.1111400464675786
 40
0.1483003458272174
 40
0.1483003458272174
 40
0.1483003458272174
 40
0.1483003458272174
 10
-40.69642802448197
 20
-9.320045388794596
 30
0.0
 10
-40.69642802448197
 20
-9.320045388794596
 30
0.0
 10
-40.66783988614997
 20
-9.315665847089576
 30
0.0
 10
-40.57436557317806
 20
-9.301346109047585
 30
0.0
 10
-40.49288234252481
 20
-9.288863337250063
 30
0.0
 10
-40.31998764897685
 20
-9.262376844418668
 30
0.0
 10
-40.19792510634601
 20
-9.243677550680672
 30
0.0
 10
-39.97180086349999
 20
-9.209036590832738
 30
0.0
 10
-39.82768543582984
 20
-9.186958919369658
 30
0.0
 10
-39.70524617303204
 20
-9.168201914224823
 30
0.0
  0
LINE
  5
2559
330
24DC
100
AcDbEntity
  8
Visible Edges(ISO)
100
AcDbLine
 10
-31.16913165712299
 20
-7.860517269350452
 30
0.0
 11
-39.70524617303204
 21
-9.168201914224823
 31
0.0
  0
SPLINE
  5
255A
330
24DC
100
AcDbEntity
  8
Visible Edges(ISO)
100
AcDbSpline
210
0.0
220
0.0
230
1.0
 70
    24
 71
     3
 72
    14
 73
    10
 74
     0
 42
0.0000000001
 43
0.0000000001
 40
-0.1483003458272174
 40
-0.1483003458272174
 40
-0.1483003458272174
 40
-0.1483003458272174
 40
-0.111140046467579
 40
-0.111140046467579
 40
-0.074034544569179
 40
-0.074034544569179
 40
-0.0369919551001019
 40
-0.0369919551001019
 40
0.0
 40
0.0
 40
0.0
 40
0.0
 10
-39.16549401643192
 20
-11.25284757071927
 30
0.0
 10
-39.28165118295101
 20
-11.29586746126892
 30
0.0
 10
-39.41837235675803
 20
-11.34650342381201
 30
0.0
 10
-39.63289464911691
 20
-11.4259537566179
 30
0.0
 10
-39.74869442417298
 20
-11.46884128390422
 30
0.0
 10
-39.91271826137813
 20
-11.52958904261379
 30
0.0
 10
-39.99002076202305
 20
-11.5582187450816
 30
0.0
 10
-40.07869910824092
 20
-11.59106159811222
 30
0.0
 10
-40.10582045043906
 20
-11.60110624027982
 30
0.0
 10
-40.10582045043906
 20
-11.60110624027982
 30
0.0
  0
SPLINE
  5
255B
330
24DC
100
AcDbEntity
  8
Visible Edges(ISO)
100
AcDbSpline
210
0.0
220
0.0
230
1.0
 70
    24
 71
     3
 72
    14
 73
    10
 74
     0
 42
0.0000000001
 43
0.0000000001
 40
0.0
 40
0.0
 40
0.0
 40
0.0
 40
0.0369919551001017
 40
0.0369919551001017
 40
0.0740345445691797
 40
0.0740345445691797
 40
0.1111400464675787
 40
0.1111400464675787
 40
0.1483003458272172
 40
0.1483003458272172
 40
0.1483003458272172
 40
0.1483003458272172
 10
-37.98725840808493
 20
-17.32139424637694
 30
0.0
 10
-37.98725840808493
 20
-17.32139424637694
 30
0.0
 10
-37.96013706588792
 20
-17.31134960420945
 30
0.0
 10
-37.87145871967005
 20
-17.27850675117895
 30
0.0
 10
-37.7941562190249
 20
-17.24987704871125
 30
0.0
 10
-37.63013238181998
 20
-17.18912929000123
 30
0.0
 10
-37.5143326067639
 20
-17.14624176271502
 30
0.0
 10
-37.29981031440502
 20
-17.06679142990924
 30
0.0
 10
-37.163089140598
 20
-17.01615546736604
 30
0.0
 10
-37.04693197407892
 20
-16.97313557681662
 30
0.0
  0
LINE
  5
255C
330
24DC
100
AcDbEntity
  8
Visible Edges(ISO)
100
AcDbLine
 10
-28.94878720754196
 20
-13.97391209408602
 30
0.0
 11
-37.04693197407892
 21
-16.97313557681662
 31
0.0
  0
SPLINE
  5
255D
330
24DC
100
AcDbEntity
  8
Visible Edges(ISO)
100
AcDbSpline
210
0.0
220
0.0
230
1.0
 70
    24
 71
     3
 72
    14
 73
    10
 74
     0
 42
0.0000000001
 43
0.0000000001
 40
-0.148300345827218
 40
-0.148300345827218
 40
-0.148300345827218
 40
-0.148300345827218
 40
-0.1111400464675778
 40
-0.1111400464675778
 40
-0.0740345445691791
 40
-0.0740345445691791
 40
-0.0369919551001018
 40
-0.0369919551001018
 40
0.0
 40
0.0
 40
0.0
 40
0.0
 10
-36.09859249027295
 20
-18.90645710391664
 30
0.0
 10
-36.20371207246694
 20
-18.97197864049747
 30
0.0
 10
-36.32744161149094
 20
-19.04909985186452
 30
0.0
 10
-36.52157938550795
 20
-19.1701068516686
 30
0.0
 10
-36.62637553659306
 20
-19.23542679209697
 30
0.0
 10
-36.77481336228698
 20
-19.3279487963058
 30
0.0
 10
-36.84477035946498
 20
-19.37155332606096
 30
0.0
 10
-36.92502223701604
 20
-19.42157470381824
 30
0.0
 10
-36.94956643214187
 20
-19.43687321761786
 30
0.0
 10
-36.94956643214187
 20
-19.43687321761786
 30
0.0
  0
SPLINE
  5
255E
330
24DC
100
AcDbEntity
  8
Visible Edges(ISO)
100
AcDbSpline
210
0.0
220
0.0
230
1.0
 70
    24
 71
     3
 72
    14
 73
    10
 74
     0
 42
0.0000000001
 43
0.0000000001
 40
0.0
 40
0.0
 40
0.0
 40
0.0
 40
0.0369919551001018
 40
0.0369919551001018
 40
0.0740345445691797
 40
0.0740345445691797
 40
0.1111400464675795
 40
0.1111400464675795
 40
0.1483003458272174
 40
0.1483003458272174
 40
0.1483003458272174
 40
0.1483003458272174
 10
-33.72288596914791
 20
-24.61360318833556
 30
0.0
 10
-33.72288596914791
 20
-24.61360318833556
 30
0.0
 10
-33.69834177402186
 20
-24.59830467453628
 30
0.0
 10
-33.61808989647102
 20
-24.54828329677889
 30
0.0
 10
-33.54813289929302
 20
-24.50467876702351
 30
0.0
 10
-33.39969507359797
 20
-24.41215676281479
 30
0.0
 10
-33.29489892251308
 20
-24.34683682238631
 30
0.0
 10
-33.10076114849585
 20
-24.22582982258257
 30
0.0
 10
-32.97703160947299
 20
-24.1487086112154
 30
0.0
 10
-32.87191202727809
 20
-24.08318707463457
 30
0.0
  0
LINE
  5
255F
330
24DC
100
AcDbEntity
  8
Visible Edges(ISO)
100
AcDbLine
 10
-25.543276008347
 20
-19.51521331582501
 30
0.0
 11
-32.87191202727809
 21
-24.08318707463457
 31
0.0
  0
SPLINE
  5
2560
330
24DC
100
AcDbEntity
  8
Visible Edges(ISO)
100
AcDbSpline
210
0.0
220
0.0
230
1.0
 70
    24
 71
     3
 72
    14
 73
    10
 74
     0
 42
0.0000000001
 43
0.0000000001
 40
-0.1483003458272174
 40
-0.1483003458272174
 40
-0.1483003458272174
 40
-0.1483003458272174
 40
-0.111140046467578
 40
-0.111140046467578
 40
-0.0740345445691791
 40
-0.0740345445691791
 40
-0.0369919551001012
 40
-0.0369919551001012
 40
0.0
 40
0.0
 40
0.0
 40
0.0
 10
-31.55381034615698
 20
-25.7860340618654
 30
0.0
 10
-31.64358873598099
 20
-25.87137478507111
 30
0.0
 10
-31.74926113835613
 20
-25.97182389380771
 30
0.0
 10
-31.91506637075395
 20
-26.1294335198196
 30
0.0
 10
-32.00456853112906
 20
-26.21451166735449
 30
0.0
 10
-32.13134328328806
 20
-26.33502005533955
 30
0.0
 10
-32.19109072931497
 20
-26.39181423781054
 30
0.0
 10
-32.259630616903
 20
-26.45696625921187
 30
0.0
 10
-32.28059282272488
 20
-26.47689232169069
 30
0.0
 10
-32.28059282272488
 20
-26.47689232169069
 30
0.0
  0
SPLINE
  5
2561
330
24DC
100
AcDbEntity
  8
Visible Edges(ISO)
100
AcDbSpline
210
0.0
220
0.0
230
1.0
 70
    24
 71
     3
 72
    14
 73
    10
 74
     0
 42
0.0000000001
 43
0.0000000001
 40
0.0
 40
0.0
 40
0.0
 40
0.0
 40
0.0369919551001016
 40
0.0369919551001016
 40
0.0740345445691793
 40
0.0740345445691793
 40
0.1111400464675786
 40
0.1111400464675786
 40
0.1483003458272174
 40
0.1483003458272174
 40
0.1483003458272174
 40
0.1483003458272174
 10
-28.07789461636298
 20
-30.89812832378811
 30
0.0
 10
-28.07789461636298
 20
-30.89812832378811
 30
0.0
 10
-28.05693241054087
 20
-30.87820226130941
 30
0.0
 10
-27.98839252295284
 20
-30.81305023990797
 30
0.0
 10
-27.92864507692593
 20
-30.75625605743687
 30
0.0
 10
-27.80187032476693
 20
-30.63574766945203
 30
0.0
 10
-27.71236816439205
 20
-30.55066952191726
 30
0.0
 10
-27.54656293199492
 20
-30.39305989590514
 30
0.0
 10
-27.44089052961908
 20
-30.29261078716888
 30
0.0
 10
-27.35111213979599
 20
-30.20727006396305
 30
0.0
  0
LINE
  5
2562
330
24DC
100
AcDbEntity
  8
Visible Edges(ISO)
100
AcDbLine
 10
-21.09202008816305
 20
-24.25755941147384
 30
0.0
 11
-27.35111213979599
 21
-30.20727006396305
 31
0.0
  0
SPLINE
  5
2563
330
24DC
100
AcDbEntity
  8
Visible Edges(ISO)
100
AcDbSpline
210
0.0
220
0.0
230
1.0
 70
    24
 71
     3
 72
    14
 73
    10
 74
     0
 42
0.0000000001
 43
0.0000000001
 40
-0.1483003458272173
 40
-0.1483003458272173
 40
-0.1483003458272173
 40
-0.1483003458272173
 40
-0.111140046467579
 40
-0.111140046467579
 40
-0.0740345445691802
 40
-0.0740345445691802
 40
-0.036991955100101
 40
-0.036991955100101
 40
0.0
 40
0.0
 40
0.0
 40
0.0
 10
-25.71721149905602
 20
-31.609927755591
 30
0.0
 10
-25.78797315868087
 20
-31.71159380618679
 30
0.0
 10
-25.87126218383787
 20
-31.83125841397839
 30
0.0
 10
-26.0019467889199
 20
-32.01901810959157
 30
0.0
 10
-26.07249072962304
 20
-32.12037135487651
 30
0.0
 10
-26.172412234999
 20
-32.26393249907392
 30
0.0
 10
-26.21950406241399
 20
-32.33159117375749
 30
0.0
 10
-26.27352592898797
 20
-32.40920650739179
 30
0.0
 10
-26.29004795033689
 20
-32.43294434321104
 30
0.0
 10
-26.29004795033689
 20
-32.43294434321104
 30
0.0
  0
SPLINE
  5
2564
330
24DC
100
AcDbEntity
  8
Visible Edges(ISO)
100
AcDbSpline
210
0.0
220
0.0
230
1.0
 70
    24
 71
     3
 72
    14
 73
    10
 74
     0
 42
0.0000000001
 43
0.0000000001
 40
0.0
 40
0.0
 40
0.0
 40
0.0
 40
0.0369919551001013
 40
0.0369919551001013
 40
0.0740345445691796
 40
0.0740345445691796
 40
0.1111400464675785
 40
0.1111400464675785
 40
0.1483003458272178
 40
0.1483003458272178
 40
0.1483003458272178
 40
0.1483003458272178
 10
-21.28339095897286
 20
-35.91768045528932
 30
0.0
 10
-21.28339095897286
 20
-35.91768045528932
 30
0.0
 10
-21.26686893762303
 20
-35.89394261947007
 30
0.0
 10
-21.21284707104996
 20
-35.81632728583588
 30
0.0
 10
-21.16575524363498
 20
-35.7486686111522
 30
0.0
 10
-21.06583373825902
 20
-35.60510746695468
 30
0.0
 10
-20.9952897975561
 20
-35.50375422166997
 30
0.0
 10
-20.86460519247385
 20
-35.31599452605679
 30
0.0
 10
-20.78131616731594
 20
-35.19632991826495
 30
0.0
 10
-20.71055450769086
 20
-35.0946638676694
 30
0.0
  0
LINE
  5
2565
330
24DC
100
AcDbEntity
  8
Visible Edges(ISO)
100
AcDbLine
 10
-15.77725438736388
 20
-28.00679817467517
 30
0.0
 11
-20.71055450769086
 21
-35.0946638676694
 31
0.0
  0
SPLINE
  5
2566
330
24DC
100
AcDbEntity
  8
Visible Edges(ISO)
100
AcDbSpline
210
0.0
220
0.0
230
1.0
 70
    24
 71
     3
 72
    14
 73
    10
 74
     0
 42
0.0000000001
 43
0.0000000001
 40
-0.1483003458272174
 40
-0.1483003458272174
 40
-0.1483003458272174
 40
-0.1483003458272174
 40
-0.1111400464675789
 40
-0.1111400464675789
 40
-0.0740345445691791
 40
-0.0740345445691791
 40
-0.0369919551001019
 40
-0.0369919551001019
 40
0.0
 40
0.0
 40
0.0
 40
0.0
 10
-18.82774699153901
 20
-36.13970729299422
 30
0.0
 10
-18.87659493030605
 20
-36.25353645092321
 30
0.0
 10
-18.93409071577002
 20
-36.38751747466733
 30
0.0
 10
-19.02430445044888
 20
-36.59774033588201
 30
0.0
 10
-19.07300209425989
 20
-36.71121926514639
 30
0.0
 10
-19.14197955468103
 20
-36.87195575544559
 30
0.0
 10
-19.17448781853795
 20
-36.94770896825048
 30
0.0
 10
-19.21178000253189
 20
-37.03461003323946
 30
0.0
 10
-19.22318542591392
 20
-37.06118781261137
 30
0.0
 10
-19.22318542591392
 20
-37.06118781261137
 30
0.0
  0
SPLINE
  5
2567
330
24DC
100
AcDbEntity
  8
Visible Edges(ISO)
100
AcDbSpline
210
0.0
220
0.0
230
1.0
 70
    24
 71
     3
 72
    14
 73
    10
 74
     0
 42
0.0000000001
 43
0.0000000001
 40
0.0
 40
0.0
 40
0.0
 40
0.0
 40
0.0369919551001017
 40
0.0369919551001017
 40
0.0740345445691791
 40
0.0740345445691791
 40
0.111140046467578
 40
0.111140046467578
 40
0.1483003458272177
 40
0.1483003458272177
 40
0.1483003458272177
 40
0.1483003458272177
 10
-13.61754277502996
 20
-39.46675852880253
 30
0.0
 10
-13.61754277502996
 20
-39.46675852880253
 30
0.0
 10
-13.60613735164907
 20
-39.44018074943051
 30
0.0
 10
-13.56884516765513
 20
-39.35327968444198
 30
0.0
 10
-13.53633690379797
 20
-39.27752647163686
 30
0.0
 10
-13.46735944337683
 20
-39.11678998133778
 30
0.0
 10
-13.41866179956582
 20
-39.00331105207306
 30
0.0
 10
-13.32844806488697
 20
-38.79308819085861
 30
0.0
 10
-13.270952279423
 20
-38.65910716711437
 30
0.0
 10
-13.22210434065596
 20
-38.5452780091855
 30
0.0
  0
LINE
  5
2568
330
24DC
100
AcDbEntity
  8
Visible Edges(ISO)
100
AcDbLine
 10
-9.816566038196924
 20
-30.60943532994645
 30
0.0
 11
-13.22210434065596
 21
-38.5452780091855
 31
0.0
  0
SPLINE
  5
2569
330
24DC
100
AcDbEntity
  8
Visible Edges(ISO)
100
AcDbSpline
210
0.0
220
0.0
230
1.0
 70
    24
 71
     3
 72
    14
 73
    10
 74
     0
 42
0.0000000001
 43
0.0000000001
 40
-0.1483003458272171
 40
-0.1483003458272171
 40
-0.1483003458272171
 40
-0.1483003458272171
 40
-0.1111400464675781
 40
-0.1111400464675781
 40
-0.0740345445691795
 40
-0.0740345445691795
 40
-0.0369919551001018
 40
-0.0369919551001018
 40
0.0
 40
0.0
 40
0.0
 40
0.0
 10
-11.16747231002296
 20
-39.189922967587
 30
0.0
 10
-11.19240668757993
 20
-39.31125505374928
 30
0.0
 10
-11.22175534913799
 20
-39.45406729459148
 30
0.0
 10
-11.26780485251697
 20
-39.67814677276965
 30
0.0
 10
-11.29266251217586
 20
-39.79910554531637
 30
0.0
 10
-11.32787198230903
 20
-39.97043681091838
 30
0.0
 10
-11.34446579046493
 20
-40.05118321641202
 30
0.0
 10
-11.36350154548608
 20
-40.14381227294416
 30
0.0
 10
-11.3693234315258
 20
-40.17214189845856
 30
0.0
 10
-11.3693234315258
 20
-40.17214189845856
 30
0.0
  0
SPLINE
  5
256A
330
24DC
100
AcDbEntity
  8
Visible Edges(ISO)
100
AcDbSpline
210
0.0
220
0.0
230
1.0
 70
    24
 71
     3
 72
    14
 73
    10
 74
     0
 42
0.0000000001
 43
0.0000000001
 40
0.0
 40
0.0
 40
0.0
 40
0.0
 40
0.0369919551001018
 40
0.0369919551001018
 40
0.0740345445691792
 40
0.0740345445691792
 40
0.1111400464675784
 40
0.1111400464675784
 40
0.148300345827217
 40
0.148300345827217
 40
0.148300345827217
 40
0.148300345827217
 10
-5.394190789884987
 20
-41.40006287099959
 30
0.0
 10
-5.394190789884987
 20
-41.40006287099959
 30
0.0
 10
-5.388368903844821
 20
-41.37173324548496
 30
0.0
 10
-5.369333148824125
 20
-41.27910418895294
 30
0.0
 10
-5.352739340667994
 20
-41.1983577834593
 30
0.0
 10
-5.317529870535963
 20
-41.02702651785705
 30
0.0
 10
-5.292672210876844
 20
-40.90606774531067
 30
0.0
 10
-5.24662270749809
 20
-40.68198826713262
 30
0.0
 10
-5.21727404594003
 20
-40.53917602628996
 30
0.0
 10
-5.192339668381919
 20
-40.41784394012791
 30
0.0
  0
LINE
  5
256B
330
24DC
100
AcDbEntity
  8
Visible Edges(ISO)
100
AcDbLine
 10
-11.16747231002296
 20
-39.189922967587
 30
0.0
 11
-9.429118963669907
 21
-30.73099763381276
 31
0.0
  0
LINE
  5
256C
330
24DC
100
AcDbEntity
  8
Visible Edges(ISO)
100
AcDbLine
 10
3.453986322005221
 20
-31.95891860635345
 30
0.0
 11
9.429118963644896
 21
-30.73099763381276
 31
0.0
  0
LINE
  5
256D
330
24DC
100
AcDbEntity
  8
Visible Edges(ISO)
100
AcDbLine
 10
5.192339668358044
 20
-40.41784394012791
 30
0.0
 11
3.453986322005221
 21
-31.95891860635345
 31
0.0
  0
LINE
  5
256E
330
24DC
100
AcDbEntity
  8
Visible Edges(ISO)
100
AcDbLine
 10
9.816566038171913
 20
-30.60943532994645
 30
0.0
 11
15.4222086890561
 21
-28.20386461375506
 31
0.0
  0
LINE
  5
256F
330
24DC
100
AcDbEntity
  8
Visible Edges(ISO)
100
AcDbLine
 10
13.22210434063118
 20
-38.5452780091855
 30
0.0
 11
9.816566038171913
 21
-30.60943532994645
 31
0.0
  0
LINE
  5
2570
330
24DC
100
AcDbEntity
  8
Visible Edges(ISO)
100
AcDbLine
 10
15.7772543873391
 20
-28.00679817467517
 30
0.0
 11
20.7839113787029
 21
-24.52206206259689
 31
0.0
  0
LINE
  5
2571
330
24DC
100
AcDbEntity
  8
Visible Edges(ISO)
100
AcDbLine
 10
20.71055450766607
 20
-35.0946638676694
 30
0.0
 11
15.7772543873391
 21
-28.00679817467517
 31
0.0
  0
LINE
  5
2572
330
24DC
100
AcDbEntity
  8
Visible Edges(ISO)
100
AcDbLine
 10
21.09202008813895
 20
-24.25755941147384
 30
0.0
 11
25.29471829450017
 21
-19.83632340937652
 31
0.0
  0
LINE
  5
2573
330
24DC
100
AcDbEntity
  8
Visible Edges(ISO)
100
AcDbLine
 10
27.3511121397712
 20
-30.20727006396305
 30
0.0
 11
21.09202008813895
 21
-24.25755941147384
 31
0.0
  0
LINE
  5
2574
330
24DC
100
AcDbEntity
  8
Visible Edges(ISO)
100
AcDbLine
 10
25.54327600832312
 20
-19.51521331582501
 30
0.0
 11
28.76995647131707
 21
-14.33848334510696
 31
0.0
  0
LINE
  5
2575
330
24DC
100
AcDbEntity
  8
Visible Edges(ISO)
100
AcDbLine
 10
32.87191202725399
 20
-24.08318707463457
 30
0.0
 11
25.54327600832312
 21
-19.51521331582501
 31
0.0
  0
LINE
  5
2576
330
24DC
100
AcDbEntity
  8
Visible Edges(ISO)
100
AcDbLine
 10
28.94878720751808
 20
-13.97391209408602
 30
0.0
 11
31.06734924987109
 21
-8.253624087988896
 31
0.0
  0
LINE
  5
2577
330
24DC
100
AcDbEntity
  8
Visible Edges(ISO)
100
AcDbLine
 10
37.04693197405414
 20
-16.97313557681662
 30
0.0
 11
28.94878720751808
 21
-13.97391209408602
 31
0.0
  0
LINE
  5
2578
330
24DC
100
AcDbEntity
  8
Visible Edges(ISO)
100
AcDbLine
 10
31.16913165709798
 20
-7.860517269350452
 30
0.0
 11
32.09284109987607
 21
-1.830860490948907
 31
0.0
  0
LINE
  5
2579
330
24DC
100
AcDbEntity
  8
Visible Edges(ISO)
100
AcDbLine
 10
39.70524617300703
 20
-9.168201914224823
 30
0.0
 11
31.16913165709798
 21
-7.860517269350452
 31
0.0
  0
LINE
  5
257A
330
24DC
100
AcDbEntity
  8
Visible Edges(ISO)
100
AcDbLine
 10
32.11340819441898
 20
-1.425311944036252
 30
0.0
 11
31.80444826450298
 21
4.666858749707216
 31
0.0
  0
LINE
  5
257B
330
24DC
100
AcDbEntity
  8
Visible Edges(ISO)
100
AcDbLine
 10
40.7380229284679
 20
-0.9879209880469943
 30
0.0
 11
32.11340819441898
 21
-1.425311944036252
 31
0.0
  0
LINE
  5
257C
330
24DC
100
AcDbEntity
  8
Visible Edges(ISO)
100
AcDbLine
 10
31.74295802709503
 20
5.068245819733988
 30
0.0
 11
30.21397758031708
 21
10.9735162448178
 31
0.0
  0
LINE
  5
257D
330
24DC
100
AcDbEntity
  8
Visible Edges(ISO)
100
AcDbLine
 10
40.10298023872292
 20
7.232805539456876
 30
0.0
 11
31.74295802709503
 21
5.068245819733988
 31
0.0
  0
LINE
  5
257E
330
24DC
100
AcDbEntity
  8
Visible Edges(ISO)
100
AcDbLine
 10
30.07294742850195
 20
11.35430900415008
 30
0.0
 11
27.38654310400102
 21
16.83091669553175
 31
0.0
  0
LINE
  5
257F
330
24DC
100
AcDbEntity
  8
Visible Edges(ISO)
100
AcDbLine
 10
37.82611682610309
 20
15.1574201583569
 30
0.0
 11
30.07294742850195
 21
11.35430900415008
 31
0.0
  0
LINE
  5
2580
330
24DC
100
AcDbEntity
  8
Visible Edges(ISO)
100
AcDbLine
 10
27.17174682876407
 20
17.17552544386194
 30
0.0
 11
23.43790033522396
 21
21.99925743918209
 31
0.0
  0
LINE
  5
2581
330
24DC
100
AcDbEntity
  8
Visible Edges(ISO)
100
AcDbLine
 10
34.00064774624207
 20
22.46148821505244
 30
0.0
 11
27.17174682876407
 21
17.17552544386194
 31
0.0
  0
LINE
  5
2582
330
24DC
100
AcDbEntity
  8
Visible Edges(ISO)
100
AcDbLine
 10
23.1581317213122
 20
22.29357385386334
 30
0.0
 11
18.52970717288599
 21
26.26694599846894
 31
0.0
  0
LINE
  5
2583
330
24DC
100
AcDbEntity
  8
Visible Edges(ISO)
100
AcDbLine
 10
28.78318815274406
 20
28.84598030511097
 30
0.0
 11
23.1581317213122
 21
22.29357385386334
 31
0.0
  0
LINE
  5
2584
330
24DC
100
AcDbEntity
  8
Visible Edges(ISO)
100
AcDbLine
 10
18.19641998022303
 20
26.49892073090337
 30
0.0
 11
12.86290562174099
 21
29.45926270234338
 31
0.0
  0
LINE
  5
2585
330
24DC
100
AcDbEntity
  8
Visible Edges(ISO)
100
AcDbLine
 10
22.38734145439003
 20
34.0495145722191
 30
0.0
 11
18.19641998022303
 21
26.49892073090337
 31
0.0
  0
LINE
  5
2586
330
24DC
100
AcDbEntity
  8
Visible Edges(ISO)
100
AcDbLine
 10
12.48974466715504
 20
29.61939867972933
 30
0.0
 11
6.669495203115047
 21
31.44551372986689
 31
0.0
  0
LINE
  5
2587
330
24DC
100
AcDbEntity
  8
Visible Edges(ISO)
100
AcDbLine
 10
15.0749543664931
 20
37.85905771209241
 30
0.0
 11
12.48974466715504
 21
29.61939867972933
 31
0.0
  0
LINE
  5
2588
330
24DC
100
AcDbEntity
  8
Visible Edges(ISO)
100
AcDbLine
 10
6.27173773993104
 20
31.52725496647565
 30
0.0
 11
0.2030348672399214
 21
32.14438173059909
 31
0.0
  0
LINE
  5
2589
330
24DC
100
AcDbEntity
  8
Visible Edges(ISO)
100
AcDbLine
 10
7.145396875597953
 20
40.11864658098239
 30
0.0
 11
6.27173773993104
 21
31.52725496647565
 31
0.0
  0
LINE
  5
258A
330
24DC
100
AcDbEntity
  8
Visible Edges(ISO)
100
AcDbLine
 10
-0.2030348672649325
 20
32.14438173059909
 30
0.0
 11
-6.271737739954915
 21
31.52725496647565
 31
0.0
  0
LINE
  5
258B
330
24DC
100
AcDbEntity
  8
Visible Edges(ISO)
100
AcDbLine
 10
-1.076694002932072
 20
40.73577334510537
 30
0.0
 11
-0.2030348672649325
 21
32.14438173059909
 31
0.0
  0
LINE
  5
258C
330
24DC
100
AcDbEntity
  8
Visible Edges(ISO)
100
AcDbLine
 10
-6.669495203138922
 20
31.44551372986689
 30
0.0
 11
-12.48974466717982
 21
29.61939867972933
 31
0.0
  0
LINE
  5
258D
330
24DC
100
AcDbEntity
  8
Visible Edges(ISO)
100
AcDbLine
 10
-9.254704902476987
 20
39.68517276223008
 30
0.0
 11
-6.669495203138922
 21
31.44551372986689
 31
0.0
  0
LINE
  5
258E
330
24DC
100
AcDbEntity
  8
Visible Edges(ISO)
100
AcDbLine
 10
-12.862905621766
 20
29.45926270234338
 30
0.0
 11
-18.19641998024804
 21
26.49892073090337
 31
0.0
  0
LINE
  5
258F
330
24DC
100
AcDbEntity
  8
Visible Edges(ISO)
100
AcDbLine
 10
-17.053827095933
 20
37.009856543659
 30
0.0
 11
-12.862905621766
 21
29.45926270234338
 31
0.0
  0
LINE
  5
2590
330
24DC
100
AcDbEntity
  8
Visible Edges(ISO)
100
AcDbLine
 10
-18.52970717291009
 20
26.26694599846894
 30
0.0
 11
-23.15813172133699
 21
22.29357385386334
 31
0.0
  0
LINE
  5
2591
330
24DC
100
AcDbEntity
  8
Visible Edges(ISO)
100
AcDbLine
 10
-24.15476360434195
 20
32.81935244971646
 30
0.0
 11
-18.52970717291009
 21
26.26694599846894
 31
0.0
  0
LINE
  5
2592
330
24DC
100
AcDbEntity
  8
Visible Edges(ISO)
100
AcDbLine
 10
-23.43790033524806
 20
21.99925743918209
 30
0.0
 11
-27.17174682878886
 21
17.17552544386194
 31
0.0
  0
LINE
  5
2593
330
24DC
100
AcDbEntity
  8
Visible Edges(ISO)
100
AcDbLine
 10
-30.26680125272605
 20
27.28522021037282
 30
0.0
 11
-23.43790033524806
 21
21.99925743918209
 31
0.0
  0
LINE
  5
2594
330
24DC
100
AcDbEntity
  8
Visible Edges(ISO)
100
AcDbLine
 10
-27.3865431040249
 20
16.83091669553175
 30
0.0
 11
-30.07294742852696
 21
11.35430900415008
 31
0.0
  0
LINE
  5
2595
330
24DC
100
AcDbEntity
  8
Visible Edges(ISO)
100
AcDbLine
 10
-35.13971250162604
 20
20.6340278497388
 30
0.0
 11
-27.3865431040249
 21
16.83091669553175
 31
0.0
  0
LINE
  5
2596
330
24DC
100
AcDbEntity
  8
Visible Edges(ISO)
100
AcDbLine
 10
-30.21397758034186
 20
10.9735162448178
 30
0.0
 11
-31.74295802711981
 21
5.068245819733988
 31
0.0
  0
LINE
  5
2597
330
24DC
100
AcDbEntity
  8
Visible Edges(ISO)
100
AcDbLine
 10
-38.57399979196907
 20
13.13807596454103
 30
0.0
 11
-30.21397758034186
 21
10.9735162448178
 31
0.0
  0
LINE
  5
2598
330
24DC
100
AcDbEntity
  8
Visible Edges(ISO)
100
AcDbLine
 10
-31.80444826452799
 20
4.66685874970733
 30
0.0
 11
-32.11340819444399
 21
-1.425311944036252
 31
0.0
  0
LINE
  5
2599
330
24DC
100
AcDbEntity
  8
Visible Edges(ISO)
100
AcDbLine
 10
-40.42906299857691
 20
5.104249705696588
 30
0.0
 11
-31.80444826452799
 21
4.66685874970733
 31
0.0
  0
LINE
  5
259A
330
24DC
100
AcDbEntity
  8
Visible Edges(ISO)
100
AcDbLine
 10
-32.09284109990108
 20
-1.830860490948907
 30
0.0
 11
-31.16913165712299
 21
-7.860517269350452
 31
0.0
  0
LINE
  5
259B
330
24DC
100
AcDbEntity
  8
Visible Edges(ISO)
100
AcDbLine
 10
-40.62895561580989
 20
-3.138545135823505
 30
0.0
 11
-32.09284109990108
 21
-1.830860490948907
 31
0.0
  0
LINE
  5
259C
330
24DC
100
AcDbEntity
  8
Visible Edges(ISO)
100
AcDbLine
 10
-31.06734924989587
 20
-8.253624087988896
 30
0.0
 11
-28.94878720754196
 21
-13.97391209408602
 31
0.0
  0
LINE
  5
259D
330
24DC
100
AcDbEntity
  8
Visible Edges(ISO)
100
AcDbLine
 10
-39.16549401643192
 20
-11.25284757071927
 30
0.0
 11
-31.06734924989587
 21
-8.253624087988896
 31
0.0
  0
LINE
  5
259E
330
24DC
100
AcDbEntity
  8
Visible Edges(ISO)
100
AcDbLine
 10
-28.76995647134208
 20
-14.33848334510696
 30
0.0
 11
-25.543276008347
 21
-19.51521331582501
 31
0.0
  0
LINE
  5
259F
330
24DC
100
AcDbEntity
  8
Visible Edges(ISO)
100
AcDbLine
 10
-36.09859249027295
 20
-18.90645710391664
 30
0.0
 11
-28.76995647134208
 21
-14.33848334510696
 31
0.0
  0
LINE
  5
25A0
330
24DC
100
AcDbEntity
  8
Visible Edges(ISO)
100
AcDbLine
 10
-25.29471829452496
 20
-19.83632340937652
 30
0.0
 11
-21.09202008816305
 21
-24.25755941147384
 31
0.0
  0
LINE
  5
25A1
330
24DC
100
AcDbEntity
  8
Visible Edges(ISO)
100
AcDbLine
 10
-31.55381034615698
 20
-25.7860340618654
 30
0.0
 11
-25.29471829452496
 21
-19.83632340937652
 31
0.0
  0
LINE
  5
25A2
330
24DC
100
AcDbEntity
  8
Visible Edges(ISO)
100
AcDbLine
 10
-20.78391137872791
 20
-24.52206206259689
 30
0.0
 11
-15.77725438736388
 21
-28.00679817467517
 31
0.0
  0
LINE
  5
25A3
330
24DC
100
AcDbEntity
  8
Visible Edges(ISO)
100
AcDbLine
 10
-25.71721149905602
 20
-31.609927755591
 30
0.0
 11
-20.78391137872791
 21
-24.52206206259689
 31
0.0
  0
LINE
  5
25A4
330
24DC
100
AcDbEntity
  8
Visible Edges(ISO)
100
AcDbLine
 10
-15.42220868907998
 20
-28.20386461375506
 30
0.0
 11
-9.816566038196924
 21
-30.60943532994645
 31
0.0
  0
LINE
  5
25A5
330
24DC
100
AcDbEntity
  8
Visible Edges(ISO)
100
AcDbLine
 10
-18.82774699153901
 20
-36.13970729299422
 30
0.0
 11
-15.42220868907998
 21
-28.20386461375506
 31
0.0
  0
LINE
  5
25A6
330
24DC
100
AcDbEntity
  8
Visible Edges(ISO)
100
AcDbLine
 10
-9.429118963669907
 20
-30.73099763381276
 30
0.0
 11
-3.453986322028868
 21
-31.95891860635345
 31
0.0
  0
LINE
  5
25A7
330
24DC
100
AcDbEntity
  8
Visible Edges(ISO)
100
AcDbLine
 10
-3.453986322028868
 20
-31.95891860635345
 30
0.0
 11
-5.192339668381919
 21
-40.41784394012791
 31
0.0
  0
ARC
  5
25A8
330
24DC
100
AcDbEntity
  8
Visible Edges(ISO)
100
AcDbCircle
 10
-0.0000000000129603
 20
0.0000000000017053
 30
0.0
 40
41.75000000000514
100
AcDbArc
 50
274.1894117429794
 51
277.4234914828156
  0
ARC
  5
25A9
330
24DC
100
AcDbEntity
  8
Visible Edges(ISO)
100
AcDbCircle
 10
-0.0000000000118234
 20
0.0000000000027285
 30
0.0
 40
41.750000000006
100
AcDbArc
 50
262.5765085171844
 51
265.8105882570207
  0
ARC
  5
25AA
330
24DC
100
AcDbEntity
  8
Visible Edges(ISO)
100
AcDbCircle
 10
-0.0000000000109139
 20
0.0000000000010232
 30
0.0
 40
41.75000000000428
100
AcDbArc
 50
250.9636052913716
 51
254.1976850312182
  0
ARC
  5
25AB
330
24DC
100
AcDbEntity
  8
Visible Edges(ISO)
100
AcDbCircle
 10
-0.0000000000129603
 20
-0.0000000000045475
 30
0.0
 40
41.74999999999856
100
AcDbArc
 50
239.3507020655651
 51
242.5847818054098
  0
ARC
  5
25AC
330
24DC
100
AcDbEntity
  8
Visible Edges(ISO)
100
AcDbCircle
 10
-0.0000000000090949
 20
0.0000000000004547
 30
0.0
 40
41.75000000000479
100
AcDbArc
 50
227.7377988397548
 51
230.9718785795957
  0
ARC
  5
25AD
330
24DC
100
AcDbEntity
  8
Visible Edges(ISO)
100
AcDbCircle
 10
-0.0000000000079581
 20
0.0
 30
0.0
 40
41.75000000000527
100
AcDbArc
 50
216.1248956139508
 51
219.3589753537896
  0
ARC
  5
25AE
330
24DC
100
AcDbEntity
  8
Visible Edges(ISO)
100
AcDbCircle
 10
-0.0000000000150067
 20
-0.0000000000045475
 30
0.0
 40
41.74999999999676
100
AcDbArc
 50
204.5119923881432
 51
207.7460721279804
  0
ARC
  5
25AF
330
24DC
100
AcDbEntity
  8
Visible Edges(ISO)
100
AcDbCircle
 10
-0.0000000000138698
 20
-0.000000000003638
 30
0.0
 40
41.74999999999797
100
AcDbArc
 50
192.8990891623371
 51
196.1331689021743
  0
ARC
  5
25B0
330
24DC
100
AcDbEntity
  8
Visible Edges(ISO)
100
AcDbCircle
 10
-0.0000000000040927
 20
-0.0000000000030695
 30
0.0
 40
41.75000000000806
100
AcDbArc
 50
181.2861859365307
 51
184.5202656763722
  0
ARC
  5
25B1
330
24DC
100
AcDbEntity
  8
Visible Edges(ISO)
100
AcDbCircle
 10
-0.0000000000090949
 20
-0.0000000000038654
 30
0.0
 40
41.75000000000369
100
AcDbArc
 50
169.6732827107276
 51
172.9073624505687
  0
ARC
  5
25B2
330
24DC
100
AcDbEntity
  8
Visible Edges(ISO)
100
AcDbCircle
 10
-0.0000000000150067
 20
-0.0000000000022737
 30
0.0
 40
41.74999999999715
100
AcDbArc
 50
158.0603794849156
 51
161.2944592247549
  0
ARC
  5
25B3
330
24DC
100
AcDbEntity
  8
Visible Edges(ISO)
100
AcDbCircle
 10
-0.0000000000179625
 20
0.0000000000001137
 30
0.0
 40
41.74999999999363
100
AcDbArc
 50
146.447476259107
 51
149.6815559989558
  0
ARC
  5
25B4
330
24DC
100
AcDbEntity
  8
Visible Edges(ISO)
100
AcDbCircle
 10
-0.0000000000159162
 20
0.0
 30
0.0
 40
41.74999999999549
100
AcDbArc
 50
134.8345730333061
 51
138.0686527731502
  0
ARC
  5
25B5
330
24DC
100
AcDbEntity
  8
Visible Edges(ISO)
100
AcDbCircle
 10
-0.0000000000118234
 20
-0.000000000003638
 30
0.0
 40
41.75000000000035
100
AcDbArc
 50
123.2216698075041
 51
126.4557495473473
  0
ARC
  5
25B6
330
24DC
100
AcDbEntity
  8
Visible Edges(ISO)
100
AcDbCircle
 10
-0.0000000000079581
 20
-0.0000000000145519
 30
0.0
 40
41.75000000001221
100
AcDbArc
 50
111.6087665816998
 51
114.8428463215374
  0
ARC
  5
25B7
330
24DC
100
AcDbEntity
  8
Visible Edges(ISO)
100
AcDbCircle
 10
-0.0000000000129603
 20
-0.0000000000005684
 30
0.0
 40
41.74999999999727
100
AcDbArc
 50
99.99586335588411
 51
103.2299430957217
  0
ARC
  5
25B8
330
24DC
100
AcDbEntity
  8
Visible Edges(ISO)
100
AcDbCircle
 10
-0.0000000000118234
 20
0.0000000000075033
 30
0.0
 40
41.74999999998918
100
AcDbArc
 50
88.38296013007166
 51
91.61703986991513
  0
ARC
  5
25B9
330
24DC
100
AcDbEntity
  8
Visible Edges(ISO)
100
AcDbCircle
 10
-0.0000000000129603
 20
-0.000000000005457
 30
0.0
 40
41.75000000000228
100
AcDbArc
 50
76.77005690427829
 51
80.0041366441159
  0
ARC
  5
25BA
330
24DC
100
AcDbEntity
  8
Visible Edges(ISO)
100
AcDbCircle
 10
-0.0000000000138698
 20
-0.0000000000079581
 30
0.0
 40
41.75000000000511
100
AcDbArc
 50
65.15715367846254
 51
68.39123341830017
  0
ARC
  5
25BB
330
24DC
100
AcDbEntity
  8
Visible Edges(ISO)
100
AcDbCircle
 10
-0.0000000000200089
 20
-0.0000000000138698
 30
0.0
 40
41.75000000001293
100
AcDbArc
 50
53.54425045265266
 51
56.77833019249591
  0
ARC
  5
25BC
330
24DC
100
AcDbEntity
  8
Visible Edges(ISO)
100
AcDbCircle
 10
-0.0000000000150067
 20
-0.0000000000062528
 30
0.0
 40
41.75000000000403
100
AcDbArc
 50
41.93134722684972
 51
45.16542696669389
  0
ARC
  5
25BD
330
24DC
100
AcDbEntity
  8
Visible Edges(ISO)
100
AcDbCircle
 10
-0.0000000000159162
 20
-0.000000000005457
 30
0.0
 40
41.75000000000428
100
AcDbArc
 50
30.31844400104422
 51
33.55252374088756
  0
ARC
  5
25BE
330
24DC
100
AcDbEntity
  8
Visible Edges(ISO)
100
AcDbCircle
 10
-0.0000000000118234
 20
-0.0000000000030695
 30
0.0
 40
41.74999999999921
100
AcDbArc
 50
18.70554077524511
 51
21.93962051508442
  0
ARC
  5
25BF
330
24DC
100
AcDbEntity
  8
Visible Edges(ISO)
100
AcDbCircle
 10
-0.0000000000179625
 20
-0.0000000000038654
 30
0.0
 40
41.75000000000506
100
AcDbArc
 50
7.0926375494313
 51
10.32671728927238
  0
ARC
  5
25C0
330
24DC
100
AcDbEntity
  8
Visible Edges(ISO)
100
AcDbCircle
 10
0.0000000000011369
 20
-0.0000000000043201
 30
0.0
 40
41.74999999998649
100
AcDbArc
 50
355.4797343236278
 51
358.7138140634693
  0
ARC
  5
25C1
330
24DC
100
AcDbEntity
  8
Visible Edges(ISO)
100
AcDbCircle
 10
-0.0000000000247837
 20
0.0
 30
0.0
 40
41.75000000001316
100
AcDbArc
 50
343.8668310978257
 51
347.1009108376629
  0
ARC
  5
25C2
330
24DC
100
AcDbEntity
  8
Visible Edges(ISO)
100
AcDbCircle
 10
-0.0000000000138698
 20
-0.0000000000022737
 30
0.0
 40
41.75000000000228
100
AcDbArc
 50
332.2539278720196
 51
335.4880076118567
  0
ARC
  5
25C3
330
24DC
100
AcDbEntity
  8
Visible Edges(ISO)
100
AcDbCircle
 10
-0.0000000000090949
 20
-0.000000000005798
 30
0.0
 40
41.74999999999584
100
AcDbArc
 50
320.6410246462104
 51
323.8751043860491
  0
ARC
  5
25C4
330
24DC
100
AcDbEntity
  8
Visible Edges(ISO)
100
AcDbCircle
 10
-0.000000000017053
 20
0.0000000000017053
 30
0.0
 40
41.75000000000673
100
AcDbArc
 50
309.0281214204043
 51
312.2622011602452
  0
ARC
  5
25C5
330
24DC
100
AcDbEntity
  8
Visible Edges(ISO)
100
AcDbCircle
 10
-0.0000000000109139
 20
-0.0000000000052296
 30
0.0
 40
41.74999999999765
100
AcDbArc
 50
297.4152181945901
 51
300.6492979344349
  0
ARC
  5
25C6
330
24DC
100
AcDbEntity
  8
Visible Edges(ISO)
100
AcDbCircle
 10
-0.0000000000118234
 20
-0.0000000000030695
 30
0.0
 40
41.75000000000031
100
AcDbArc
 50
285.8023149687818
 51
289.0363947086284
  0
ARC
  5
25C7
330
24DC
100
AcDbEntity
  8
Visible Edges(ISO)
100
AcDbCircle
 10
-0.0000000000129603
 20
-0.0000000000079581
 30
0.0
 40
40.94999999999552
100
AcDbArc
 50
262.6585034425009
 51
265.7285933316869
  0
ARC
  5
25C8
330
24DC
100
AcDbEntity
  8
Visible Edges(ISO)
100
AcDbCircle
 10
-0.0000000000118234
 20
-0.000000000003638
 30
0.0
 40
40.9499999999995
100
AcDbArc
 50
251.0456002166972
 51
254.1156901058809
  0
ARC
  5
25C9
330
24DC
100
AcDbEntity
  8
Visible Edges(ISO)
100
AcDbCircle
 10
-0.0000000000129603
 20
-0.0000000000048885
 30
0.0
 40
40.94999999999799
100
AcDbArc
 50
239.4326969908918
 51
242.5027868800732
  0
ARC
  5
25CA
330
24DC
100
AcDbEntity
  8
Visible Edges(ISO)
100
AcDbCircle
 10
-0.000000000017053
 20
-0.0000000000084128
 30
0.0
 40
40.9499999999934
100
AcDbArc
 50
227.8197937650888
 51
230.8898836542746
  0
ARC
  5
25CB
330
24DC
100
AcDbEntity
  8
Visible Edges(ISO)
100
AcDbCircle
 10
-0.0000000000129603
 20
-0.000000000003638
 30
0.0
 40
40.94999999999934
100
AcDbArc
 50
216.2068905392785
 51
219.2769804284668
  0
ARC
  5
25CC
330
24DC
100
AcDbEntity
  8
Visible Edges(ISO)
100
AcDbCircle
 10
-0.0000000000079581
 20
-0.0000000000010232
 30
0.0
 40
40.95000000000511
100
AcDbArc
 50
204.5939873134745
 51
207.6640772026617
  0
ARC
  5
25CD
330
24DC
100
AcDbEntity
  8
Visible Edges(ISO)
100
AcDbCircle
 10
0.0
 20
0.0
 30
0.0
 40
40.95000000001244
100
AcDbArc
 50
192.981084087666
 51
196.0511739768541
  0
ARC
  5
25CE
330
24DC
100
AcDbEntity
  8
Visible Edges(ISO)
100
AcDbCircle
 10
-0.0000000000138698
 20
-0.0000000000035243
 30
0.0
 40
40.94999999999778
100
AcDbArc
 50
181.3681808618589
 51
184.4382707510449
  0
ARC
  5
25CF
330
24DC
100
AcDbEntity
  8
Visible Edges(ISO)
100
AcDbCircle
 10
-0.0000000000238742
 20
-0.0000000000017053
 30
0.0
 40
40.94999999998797
100
AcDbArc
 50
169.7552776360512
 51
172.8253675252356
  0
ARC
  5
25D0
330
24DC
100
AcDbEntity
  8
Visible Edges(ISO)
100
AcDbCircle
 10
-0.0000000000118234
 20
-0.0000000000035243
 30
0.0
 40
40.9500000000001
100
AcDbArc
 50
158.1423744102458
 51
161.2124642994285
  0
ARC
  5
25D1
330
24DC
100
AcDbEntity
  8
Visible Edges(ISO)
100
AcDbCircle
 10
-0.0000000000059117
 20
-0.0000000000070486
 30
0.0
 40
40.95000000000763
100
AcDbArc
 50
146.5294711844369
 51
149.5995610736207
  0
ARC
  5
25D2
330
24DC
100
AcDbEntity
  8
Visible Edges(ISO)
100
AcDbCircle
 10
-0.0000000000138698
 20
-0.0000000000017053
 30
0.0
 40
40.94999999999743
100
AcDbArc
 50
134.9165679586314
 51
137.9866578478263
  0
ARC
  5
25D3
330
24DC
100
AcDbEntity
  8
Visible Edges(ISO)
100
AcDbCircle
 10
-0.0000000000159162
 20
0.000000000001819
 30
0.0
 40
40.94999999999397
100
AcDbArc
 50
123.30366473283
 51
126.3737546220111
  0
ARC
  5
25D4
330
24DC
100
AcDbEntity
  8
Visible Edges(ISO)
100
AcDbCircle
 10
-0.0000000000059117
 20
-0.0000000000186446
 30
0.0
 40
40.95000000001664
100
AcDbArc
 50
111.6907615070215
 51
114.7608513962143
  0
ARC
  5
25D5
330
24DC
100
AcDbEntity
  8
Visible Edges(ISO)
100
AcDbCircle
 10
-0.0000000000100044
 20
-0.0000000000155751
 30
0.0
 40
40.95000000001258
100
AcDbArc
 50
100.0778582812042
 51
103.1479481703955
  0
ARC
  5
25D6
330
24DC
100
AcDbEntity
  8
Visible Edges(ISO)
100
AcDbCircle
 10
-0.0000000000118234
 20
-0.0000000000098908
 30
0.0
 40
40.95000000000652
100
AcDbArc
 50
88.46495505540968
 51
91.53504494459033
  0
ARC
  5
25D7
330
24DC
100
AcDbEntity
  8
Visible Edges(ISO)
100
AcDbCircle
 10
-0.0000000000138698
 20
-0.0000000000102318
 30
0.0
 40
40.9500000000072
100
AcDbArc
 50
76.85205182960446
 51
79.92214171879581
  0
ARC
  5
25D8
330
24DC
100
AcDbEntity
  8
Visible Edges(ISO)
100
AcDbCircle
 10
-0.0000000000109139
 20
-0.0000000000004547
 30
0.0
 40
40.94999999999699
100
AcDbArc
 50
65.23914860378565
 51
68.30923849297843
  0
ARC
  5
25D9
330
24DC
100
AcDbEntity
  8
Visible Edges(ISO)
100
AcDbCircle
 10
-0.0000000000138698
 20
-0.000000000005798
 30
0.0
 40
40.95000000000331
100
AcDbArc
 50
53.62624537798883
 51
56.69633526716999
  0
ARC
  5
25DA
330
24DC
100
AcDbEntity
  8
Visible Edges(ISO)
100
AcDbCircle
 10
-0.0000000000179625
 20
-0.0000000000087539
 30
0.0
 40
40.95000000000775
100
AcDbArc
 50
42.01334215217372
 51
45.08343204136852
  0
ARC
  5
25DB
330
24DC
100
AcDbEntity
  8
Visible Edges(ISO)
100
AcDbCircle
 10
-0.0000000000259206
 20
-0.0000000000119371
 30
0.0
 40
40.95000000001615
100
AcDbArc
 50
30.40043892637929
 51
33.47052881556307
  0
ARC
  5
25DC
330
24DC
100
AcDbEntity
  8
Visible Edges(ISO)
100
AcDbCircle
 10
-0.0000000000079581
 20
-0.0000000000017053
 30
0.0
 40
40.9499999999952
100
AcDbArc
 50
18.78753570057146
 51
21.85762558975418
  0
ARC
  5
25DD
330
24DC
100
AcDbEntity
  8
Visible Edges(ISO)
100
AcDbCircle
 10
-0.0000000000059117
 20
-0.0000000000022737
 30
0.0
 40
40.94999999999377
100
AcDbArc
 50
7.174632474764427
 51
10.24472236394872
  0
ARC
  5
25DE
330
24DC
100
AcDbEntity
  8
Visible Edges(ISO)
100
AcDbCircle
 10
-0.0000000000118234
 20
-0.0000000000031832
 30
0.0
 40
40.94999999999973
100
AcDbArc
 50
355.5617292489551
 51
358.6318191381411
  0
ARC
  5
25DF
330
24DC
100
AcDbEntity
  8
Visible Edges(ISO)
100
AcDbCircle
 10
-0.0000000000238742
 20
-0.0000000000003411
 30
0.0
 40
40.95000000001209
100
AcDbArc
 50
343.9488260231458
 51
347.018915912334
  0
ARC
  5
25E0
330
24DC
100
AcDbEntity
  8
Visible Edges(ISO)
100
AcDbCircle
 10
-0.0000000000159162
 20
-0.0000000000015916
 30
0.0
 40
40.95000000000418
100
AcDbArc
 50
332.3359227973384
 51
335.4060126865255
  0
ARC
  5
25E1
330
24DC
100
AcDbEntity
  8
Visible Edges(ISO)
100
AcDbCircle
 10
-0.0000000000100044
 20
-0.0000000000045475
 30
0.0
 40
40.94999999999749
100
AcDbArc
 50
320.7230195715332
 51
323.7931094607215
  0
ARC
  5
25E2
330
24DC
100
AcDbEntity
  8
Visible Edges(ISO)
100
AcDbCircle
 10
-0.0000000000138698
 20
-0.0000000000017053
 30
0.0
 40
40.95000000000196
100
AcDbArc
 50
309.1101163457254
 51
312.1802062349113
  0
ARC
  5
25E3
330
24DC
100
AcDbEntity
  8
Visible Edges(ISO)
100
AcDbCircle
 10
-0.0000000000100044
 20
-0.0000000000075033
 30
0.0
 40
40.94999999999525
100
AcDbArc
 50
297.4972131199267
 51
300.5673030091082
  0
ARC
  5
25E4
330
24DC
100
AcDbEntity
  8
Visible Edges(ISO)
100
AcDbCircle
 10
-0.0000000000179625
 20
0.0000000000129603
 30
0.0
 40
40.9500000000171
100
AcDbArc
 50
285.8843098941191
 51
288.9543997833028
  0
ARC
  5
25E5
330
24DC
100
AcDbEntity
  8
Visible Edges(ISO)
100
AcDbCircle
 10
-0.0000000000109139
 20
-0.0000000000161435
 30
0.0
 40
40.94999999998699
100
AcDbArc
 50
274.2714066683001
 51
277.3414965574991
  0
ARC
  5
25E6
330
24DC
100
AcDbEntity
  8
Visible Edges(ISO)
100
AcDbCircle
 10
-0.0000000000118234
 20
-0.0000000000030695
 30
0.0
 40
41.75000000000024
100
AcDbArc
 50
265.8105882570207
 51
274.1894117429794
  0
SPLINE
  5
25E7
330
24DC
100
AcDbEntity
  8
Visible Edges(ISO)
100
AcDbSpline
210
0.0
220
0.0
230
1.0
 70
    24
 71
     3
 72
    14
 73
    10
 74
     0
 42
0.0000000001
 43
0.0000000001
 40
-0.1483003458272174
 40
-0.1483003458272174
 40
-0.1483003458272174
 40
-0.1483003458272174
 40
-0.1111400464675779
 40
-0.1111400464675779
 40
-0.0740345445691791
 40
-0.0740345445691791
 40
-0.0369919551001016
 40
-0.0369919551001016
 40
0.0
 40
0.0
 40
0.0
 40
0.0
 10
-3.050000000012005
 20
-40.63569859126653
 30
0.0
 10
-3.050000000012005
 20
-40.75956625579863
 30
0.0
 10
-3.050000000012005
 20
-40.90536296381947
 30
0.0
 10
-3.050000000012005
 20
-41.13412521879593
 30
0.0
 10
-3.050000000012005
 20
-41.25761176826495
 30
0.0
 10
-3.050000000012005
 20
-41.43252348702572
 30
0.0
 10
-3.050000000012005
 20
-41.51495731787974
 30
0.0
 10
-3.050000000012005
 20
-41.6095221214972
 30
0.0
 10
-3.050000000012005
 20
-41.63844377495718
 30
0.0
 10
-3.050000000012005
 20
-41.63844377495718
 30
0.0
  0
SPLINE
  5
25E8
330
24DC
100
AcDbEntity
  8
Visible Edges(ISO)
100
AcDbSpline
210
0.0
220
0.0
230
1.0
 70
    24
 71
     3
 72
    14
 73
    10
 74
     0
 42
0.0000000001
 43
0.0000000001
 40
0.0
 40
0.0
 40
0.0
 40
0.0
 40
0.0369919551001015
 40
0.0369919551001015
 40
0.0740345445691791
 40
0.0740345445691791
 40
0.1111400464675779
 40
0.1111400464675779
 40
0.1483003458272174
 40
0.1483003458272174
 40
0.1483003458272174
 40
0.1483003458272174
 10
3.049999999988131
 20
-41.63844377495718
 30
0.0
 10
3.049999999988131
 20
-41.63844377495718
 30
0.0
 10
3.049999999988131
 20
-41.6095221214972
 30
0.0
 10
3.049999999988131
 20
-41.51495731787974
 30
0.0
 10
3.049999999988131
 20
-41.43252348702572
 30
0.0
 10
3.049999999988131
 20
-41.25761176826495
 30
0.0
 10
3.049999999988131
 20
-41.13412521879593
 30
0.0
 10
3.049999999988131
 20
-40.90536296381947
 30
0.0
 10
3.049999999988131
 20
-40.75956625579863
 30
0.0
 10
3.049999999988131
 20
-40.63569859126653
 30
0.0
  0
LINE
  5
25E9
330
24DC
100
AcDbEntity
  8
Visible Edges(ISO)
100
AcDbLine
 10
-3.050000000012005
 20
-40.63569859126653
 30
0.0
 11
-3.050000000012005
 21
-32.00000000000319
 31
0.0
  0
LINE
  5
25EA
330
24DC
100
AcDbEntity
  8
Visible Edges(ISO)
100
AcDbLine
 10
-3.050000000012005
 20
-32.00000000000319
 30
0.0
 11
3.049999999988131
 21
-32.00000000000319
 31
0.0
  0
LINE
  5
25EB
330
24DC
100
AcDbEntity
  8
Visible Edges(ISO)
100
AcDbLine
 10
3.049999999988131
 20
-32.00000000000319
 30
0.0
 11
3.049999999988131
 21
-40.63569859126653
 31
0.0
  0
CIRCLE
  5
25EC
330
24DC
100
AcDbEntity
  8
Visible Edges(ISO)
100
AcDbCircle
 10
-0.0000000000118234
 20
-0.0000000000031832
 30
0.0
 40
30.16500000000001
  0
CIRCLE
  5
25ED
330
24DC
100
AcDbEntity
  8
Visible Edges(ISO)
100
AcDbCircle
 10
-0.0000000000118234
 20
-0.0000000000031832
 30
0.0
 40
29.665
  0
ARC
  5
25EE
330
24DC
100
AcDbEntity
  8
Visible Edges(ISO)
100
AcDbCircle
 10
0.0000000000020464
 20
-0.0000000000038654
 30
0.0
 40
38.44999999998579
100
AcDbArc
 50
355.8400212237375
 51
358.3535271633639
  0
ARC
  5
25EF
330
24DC
100
AcDbEntity
  8
Visible Edges(ISO)
100
AcDbCircle
 10
-0.0000000000238742
 20
-0.0000000000003411
 30
0.0
 40
38.45000000001171
100
AcDbArc
 50
344.2271179979341
 51
346.7406239375542
  0
ARC
  5
25F0
330
24DC
100
AcDbEntity
  8
Visible Edges(ISO)
100
AcDbCircle
 10
-0.0000000000270575
 20
0.0000000000037517
 30
0.0
 40
38.45000000001589
100
AcDbArc
 50
332.6142147721222
 51
335.1277207117444
  0
ARC
  5
25F1
330
24DC
100
AcDbEntity
  8
Visible Edges(ISO)
100
AcDbCircle
 10
-0.0000000000070486
 20
-0.0000000000075033
 30
0.0
 40
38.44999999999306
100
AcDbArc
 50
321.0013115463109
 51
323.5148174859371
  0
ARC
  5
25F2
330
24DC
100
AcDbEntity
  8
Visible Edges(ISO)
100
AcDbCircle
 10
-0.0000000000118234
 20
-0.0000000000038654
 30
0.0
 40
38.44999999999905
100
AcDbArc
 50
309.3884083205129
 51
311.9019142601314
  0
ARC
  5
25F3
330
24DC
100
AcDbEntity
  8
Visible Edges(ISO)
100
AcDbCircle
 10
-0.0000000000118234
 20
-0.000000000003638
 30
0.0
 40
38.44999999999951
100
AcDbArc
 50
297.7755050947063
 51
300.289011034329
  0
ARC
  5
25F4
330
24DC
100
AcDbEntity
  8
Visible Edges(ISO)
100
AcDbCircle
 10
-0.0000000000079581
 20
-0.0000000000165983
 30
0.0
 40
38.44999999998601
100
AcDbArc
 50
286.162601868898
 51
288.6761078085178
  0
ARC
  5
25F5
330
24DC
100
AcDbEntity
  8
Visible Edges(ISO)
100
AcDbCircle
 10
-0.0000000000109139
 20
-0.0000000000164846
 30
0.0
 40
38.44999999998675
100
AcDbArc
 50
274.5496986430992
 51
277.0632045827134
  0
ARC
  5
25F6
330
24DC
100
AcDbEntity
  8
Visible Edges(ISO)
100
AcDbCircle
 10
-0.0000000000138698
 20
-0.0000000000183036
 30
0.0
 40
38.44999999998471
100
AcDbArc
 50
262.9367954172865
 51
265.4503013569138
  0
ARC
  5
25F7
330
24DC
100
AcDbEntity
  8
Visible Edges(ISO)
100
AcDbCircle
 10
-0.0000000000129603
 20
-0.0000000000062528
 30
0.0
 40
38.44999999999707
100
AcDbArc
 50
251.3238921914822
 51
253.8373981311021
  0
ARC
  5
25F8
330
24DC
100
AcDbEntity
  8
Visible Edges(ISO)
100
AcDbCircle
 10
-0.0000000000059117
 20
0.0000000000079581
 30
0.0
 40
38.45000000001288
100
AcDbArc
 50
239.710988965671
 51
242.2244949052937
  0
ARC
  5
25F9
330
24DC
100
AcDbEntity
  8
Visible Edges(ISO)
100
AcDbCircle
 10
-0.0000000000079581
 20
0.0000000000023874
 30
0.0
 40
38.45000000000768
100
AcDbArc
 50
228.0980857398686
 51
230.6115916794871
  0
ARC
  5
25FA
330
24DC
100
AcDbEntity
  8
Visible Edges(ISO)
100
AcDbCircle
 10
-0.0000000000238742
 20
-0.0000000000121645
 30
0.0
 40
38.44999999998567
100
AcDbArc
 50
216.4851825140629
 51
218.9986884536891
  0
ARC
  5
25FB
330
24DC
100
AcDbEntity
  8
Visible Edges(ISO)
100
AcDbCircle
 10
-0.0000000000247837
 20
-0.000000000009436
 30
0.0
 40
38.44999999998604
100
AcDbArc
 50
204.8722792882557
 51
207.3857852278778
  0
ARC
  5
25FC
330
24DC
100
AcDbEntity
  8
Visible Edges(ISO)
100
AcDbCircle
 10
-0.0000000000009095
 20
0.0
 30
0.0
 40
38.45000000001208
100
AcDbArc
 50
193.2593760624457
 51
195.7728820020659
  0
ARC
  5
25FD
330
24DC
100
AcDbEntity
  8
Visible Edges(ISO)
100
AcDbCircle
 10
-0.0000000000138698
 20
-0.0000000000031832
 30
0.0
 40
38.44999999999784
100
AcDbArc
 50
181.646472836636
 51
184.1599787762625
  0
ARC
  5
25FE
330
24DC
100
AcDbEntity
  8
Visible Edges(ISO)
100
AcDbCircle
 10
-0.0000000000150067
 20
-0.0000000000030695
 30
0.0
 40
38.44999999999751
100
AcDbArc
 50
170.0335696108336
 51
172.5470755504604
  0
ARC
  5
25FF
330
24DC
100
AcDbEntity
  8
Visible Edges(ISO)
100
AcDbCircle
 10
-0.0000000000291038
 20
0.0000000000030695
 30
0.0
 40
38.44999999998235
100
AcDbArc
 50
158.4206663850259
 51
160.934172324653
  0
ARC
  5
2600
330
24DC
100
AcDbEntity
  8
Visible Edges(ISO)
100
AcDbCircle
 10
-0.0000000000070486
 20
-0.0000000000065938
 30
0.0
 40
38.45000000000628
100
AcDbArc
 50
146.8077631592167
 51
149.3212690988462
  0
ARC
  5
2601
330
24DC
100
AcDbEntity
  8
Visible Edges(ISO)
100
AcDbCircle
 10
-0.0000000000270575
 20
0.0000000000100044
 30
0.0
 40
38.44999999998036
100
AcDbArc
 50
135.194859933412
 51
137.7083658730402
  0
ARC
  5
2602
330
24DC
100
AcDbEntity
  8
Visible Edges(ISO)
100
AcDbCircle
 10
-0.0000000000109139
 20
-0.0000000000050022
 30
0.0
 40
38.45000000000228
100
AcDbArc
 50
123.5819567076119
 51
126.0954626472239
  0
ARC
  5
2603
330
24DC
100
AcDbEntity
  8
Visible Edges(ISO)
100
AcDbCircle
 10
-0.0000000000059117
 20
-0.0000000000183036
 30
0.0
 40
38.45000000001633
100
AcDbArc
 50
111.9690534817994
 51
114.4825594214201
  0
ARC
  5
2604
330
24DC
100
AcDbEntity
  8
Visible Edges(ISO)
100
AcDbCircle
 10
-0.0000000000150067
 20
0.0000000000105729
 30
0.0
 40
38.44999999998583
100
AcDbArc
 50
100.3561502559945
 51
102.8696561956175
  0
ARC
  5
2605
330
24DC
100
AcDbEntity
  8
Visible Edges(ISO)
100
AcDbCircle
 10
-0.0000000000118234
 20
-0.000000000005798
 30
0.0
 40
38.45000000000265
100
AcDbArc
 50
88.74324703018542
 51
91.25675296981457
  0
ARC
  5
2606
330
24DC
100
AcDbEntity
  8
Visible Edges(ISO)
100
AcDbCircle
 10
-0.0000000000100044
 20
0.0000000000065938
 30
0.0
 40
38.44999999998991
100
AcDbArc
 50
77.13034380438244
 51
79.64384974400551
  0
ARC
  5
2607
330
24DC
100
AcDbEntity
  8
Visible Edges(ISO)
100
AcDbCircle
 10
-0.0000000000129603
 20
-0.0000000000043201
 30
0.0
 40
38.45000000000108
100
AcDbArc
 50
65.51744057857991
 51
68.03094651820058
  0
ARC
  5
2608
330
24DC
100
AcDbEntity
  8
Visible Edges(ISO)
100
AcDbCircle
 10
0.0000000000011369
 20
0.0000000000164846
 30
0.0
 40
38.44999999997591
100
AcDbArc
 50
53.904537352776
 51
56.41804329238807
  0
ARC
  5
2609
330
24DC
100
AcDbEntity
  8
Visible Edges(ISO)
100
AcDbCircle
 10
-0.0000000000100044
 20
-0.0000000000015916
 30
0.0
 40
38.4499999999973
100
AcDbArc
 50
42.29163412695979
 51
44.80514006658803
  0
ARC
  5
260A
330
24DC
100
AcDbEntity
  8
Visible Edges(ISO)
100
AcDbCircle
 10
-0.0000000000150067
 20
-0.0000000000052296
 30
0.0
 40
38.45000000000354
100
AcDbArc
 50
30.67873090115381
 51
33.19223684078334
  0
ARC
  5
260B
330
24DC
100
AcDbEntity
  8
Visible Edges(ISO)
100
AcDbCircle
 10
-0.0000000000050022
 20
-0.0000000000004547
 30
0.0
 40
38.44999999999218
100
AcDbArc
 50
19.065827675347
 51
21.57933361497412
  0
ARC
  5
260C
330
24DC
100
AcDbEntity
  8
Visible Edges(ISO)
100
AcDbCircle
 10
-0.0000000000040927
 20
-0.0000000000020464
 30
0.0
 40
38.44999999999206
100
AcDbArc
 50
7.452924449539589
 51
9.966430389166362
  0
ARC
  5
260D
330
24DC
100
AcDbEntity
  8
Visible Edges(ISO)
100
AcDbCircle
 10
-0.0000000000118234
 20
-0.0000000000031832
 30
0.0
 40
40.94999999999975
100
AcDbArc
 50
355.5617292489551
 51
358.6318191381411
  0
ARC
  5
260E
330
24DC
100
AcDbEntity
  8
Visible Edges(ISO)
100
AcDbCircle
 10
-0.0000000000200089
 20
-0.0000000000015916
 30
0.0
 40
40.95000000000793
100
AcDbArc
 50
343.9488260231458
 51
347.018915912334
  0
ARC
  5
260F
330
24DC
100
AcDbEntity
  8
Visible Edges(ISO)
100
AcDbCircle
 10
-0.0000000000079581
 20
-0.000000000005798
 30
0.0
 40
40.94999999999447
100
AcDbArc
 50
332.3359227973384
 51
335.4060126865255
  0
ARC
  5
2610
330
24DC
100
AcDbEntity
  8
Visible Edges(ISO)
100
AcDbCircle
 10
-0.0000000000059117
 20
-0.0000000000085265
 30
0.0
 40
40.94999999999146
100
AcDbArc
 50
320.7230195715332
 51
323.7931094607215
  0
ARC
  5
2611
330
24DC
100
AcDbEntity
  8
Visible Edges(ISO)
100
AcDbCircle
 10
-0.0000000000150067
 20
0.0
 30
0.0
 40
40.9500000000041
100
AcDbArc
 50
309.1101163457254
 51
312.1802062349113
  0
ARC
  5
2612
330
24DC
100
AcDbEntity
  8
Visible Edges(ISO)
100
AcDbCircle
 10
-0.000000000017053
 20
0.0000000000047748
 30
0.0
 40
40.95000000000914
100
AcDbArc
 50
297.4972131199267
 51
300.5673030091082
  0
ARC
  5
2613
330
24DC
100
AcDbEntity
  8
Visible Edges(ISO)
100
AcDbCircle
 10
-0.000000000017053
 20
0.0000000000105729
 30
0.0
 40
40.95000000001459
100
AcDbArc
 50
285.8843098941191
 51
288.9543997833028
  0
ARC
  5
2614
330
24DC
100
AcDbEntity
  8
Visible Edges(ISO)
100
AcDbCircle
 10
-0.0000000000109139
 20
-0.0000000000161435
 30
0.0
 40
40.94999999998697
100
AcDbArc
 50
274.2714066683001
 51
277.3414965574991
  0
ARC
  5
2615
330
24DC
100
AcDbEntity
  8
Visible Edges(ISO)
100
AcDbCircle
 10
-0.0000000000129603
 20
-0.0000000000110276
 30
0.0
 40
40.94999999999216
100
AcDbArc
 50
262.6585034425009
 51
265.7285933316869
  0
ARC
  5
2616
330
24DC
100
AcDbEntity
  8
Visible Edges(ISO)
100
AcDbCircle
 10
-0.0000000000100044
 20
0.0000000000037517
 30
0.0
 40
40.95000000000736
100
AcDbArc
 50
251.0456002166972
 51
254.1156901058809
  0
ARC
  5
2617
330
24DC
100
AcDbEntity
  8
Visible Edges(ISO)
100
AcDbCircle
 10
-0.0000000000079581
 20
0.0000000000047748
 30
0.0
 40
40.95000000000903
100
AcDbArc
 50
239.4326969908918
 51
242.5027868800732
  0
ARC
  5
2618
330
24DC
100
AcDbEntity
  8
Visible Edges(ISO)
100
AcDbCircle
 10
-0.0000000000100044
 20
-0.0000000000010232
 30
0.0
 40
40.95000000000297
100
AcDbArc
 50
227.8197937650888
 51
230.8898836542746
  0
ARC
  5
2619
330
24DC
100
AcDbEntity
  8
Visible Edges(ISO)
100
AcDbCircle
 10
-0.0000000000179625
 20
-0.0000000000075033
 30
0.0
 40
40.94999999999314
100
AcDbArc
 50
216.2068905392785
 51
219.2769804284668
  0
ARC
  5
261A
330
24DC
100
AcDbEntity
  8
Visible Edges(ISO)
100
AcDbCircle
 10
-0.0000000000100044
 20
-0.0000000000020464
 30
0.0
 40
40.9500000000029
100
AcDbArc
 50
204.5939873134745
 51
207.6640772026617
  0
ARC
  5
261B
330
24DC
100
AcDbEntity
  8
Visible Edges(ISO)
100
AcDbCircle
 10
-0.0000000000179625
 20
-0.0000000000045475
 30
0.0
 40
40.9499999999945
100
AcDbArc
 50
192.981084087666
 51
196.0511739768541
  0
ARC
  5
261C
330
24DC
100
AcDbEntity
  8
Visible Edges(ISO)
100
AcDbCircle
 10
-0.0000000000138698
 20
-0.0000000000035243
 30
0.0
 40
40.94999999999838
100
AcDbArc
 50
181.3681808618589
 51
184.4382707510449
  0
ARC
  5
261D
330
24DC
100
AcDbEntity
  8
Visible Edges(ISO)
100
AcDbCircle
 10
-0.0000000000118234
 20
-0.0000000000031832
 30
0.0
 40
40.95000000000003
100
AcDbArc
 50
169.7552776360512
 51
172.8253675252356
  0
ARC
  5
261E
330
24DC
100
AcDbEntity
  8
Visible Edges(ISO)
100
AcDbCircle
 10
-0.0000000000220552
 20
0.0000000000004547
 30
0.0
 40
40.94999999998917
100
AcDbArc
 50
158.1423744102458
 51
161.2124642994285
  0
ARC
  5
261F
330
24DC
100
AcDbEntity
  8
Visible Edges(ISO)
100
AcDbCircle
 10
-0.0000000000100044
 20
-0.0000000000045475
 30
0.0
 40
40.95000000000253
100
AcDbArc
 50
146.5294711844369
 51
149.5995610736207
  0
ARC
  5
2620
330
24DC
100
AcDbEntity
  8
Visible Edges(ISO)
100
AcDbCircle
 10
-0.0000000000109139
 20
-0.0000000000045475
 30
0.0
 40
40.95000000000185
100
AcDbArc
 50
134.9165679586314
 51
137.9866578478263
  0
ARC
  5
2621
330
24DC
100
AcDbEntity
  8
Visible Edges(ISO)
100
AcDbCircle
 10
-0.000000000017053
 20
0.0000000000030695
 30
0.0
 40
40.94999999999231
100
AcDbArc
 50
123.30366473283
 51
126.3737546220111
  0
ARC
  5
2622
330
24DC
100
AcDbEntity
  8
Visible Edges(ISO)
100
AcDbCircle
 10
-0.0000000000109139
 20
-0.000000000005798
 30
0.0
 40
40.95000000000296
100
AcDbArc
 50
111.6907615070215
 51
114.7608513962143
  0
ARC
  5
2623
330
24DC
100
AcDbEntity
  8
Visible Edges(ISO)
100
AcDbCircle
 10
-0.0000000000100044
 20
-0.0000000000129603
 30
0.0
 40
40.95000000001006
100
AcDbArc
 50
100.0778582812042
 51
103.1479481703955
  0
ARC
  5
2624
330
24DC
100
AcDbEntity
  8
Visible Edges(ISO)
100
AcDbCircle
 10
-0.0000000000118234
 20
-0.0000000000098908
 30
0.0
 40
40.95000000000655
100
AcDbArc
 50
88.46495505540968
 51
91.53504494459033
  0
ARC
  5
2625
330
24DC
100
AcDbEntity
  8
Visible Edges(ISO)
100
AcDbCircle
 10
-0.0000000000138698
 20
-0.0000000000098908
 30
0.0
 40
40.95000000000671
100
AcDbArc
 50
76.85205182960446
 51
79.92214171879581
  0
ARC
  5
2626
330
24DC
100
AcDbEntity
  8
Visible Edges(ISO)
100
AcDbCircle
 10
-0.0000000000079581
 20
0.000000000007276
 30
0.0
 40
40.94999999998871
100
AcDbArc
 50
65.23914860378565
 51
68.30923849297843
  0
ARC
  5
2627
330
24DC
100
AcDbEntity
  8
Visible Edges(ISO)
100
AcDbCircle
 10
-0.0000000000129603
 20
-0.0000000000038654
 30
0.0
 40
40.95000000000093
100
AcDbArc
 50
53.62624537798883
 51
56.69633526716999
  0
ARC
  5
2628
330
24DC
100
AcDbEntity
  8
Visible Edges(ISO)
100
AcDbCircle
 10
-0.0000000000090949
 20
0.0
 30
0.0
 40
40.94999999999536
100
AcDbArc
 50
42.01334215217372
 51
45.08343204136852
  0
ARC
  5
2629
330
24DC
100
AcDbEntity
  8
Visible Edges(ISO)
100
AcDbCircle
 10
-0.0000000000118234
 20
-0.0000000000026148
 30
0.0
 40
40.94999999999888
100
AcDbArc
 50
30.40043892637367
 51
33.47052881556307
  0
ARC
  5
262A
330
24DC
100
AcDbEntity
  8
Visible Edges(ISO)
100
AcDbCircle
 10
-0.0000000000040927
 20
0.0
 30
0.0
 40
40.94999999999058
100
AcDbArc
 50
18.78753570057146
 51
21.85762558975418
  0
ARC
  5
262B
330
24DC
100
AcDbEntity
  8
Visible Edges(ISO)
100
AcDbCircle
 10
-0.0000000000179625
 20
-0.0000000000043201
 30
0.0
 40
40.9500000000059
100
AcDbArc
 50
7.174632474764427
 51
10.24472236394872
  0
ARC
  5
262C
330
24DC
100
AcDbEntity
  8
Visible Edges(ISO)
100
AcDbCircle
 10
0.0000000000020464
 20
-0.0000000000038654
 30
0.0
 40
35.94999999998615
100
AcDbArc
 50
356.1571500900727
 51
358.0363982970235
  0
ARC
  5
262D
330
24DC
100
AcDbEntity
  8
Visible Edges(ISO)
100
AcDbCircle
 10
-0.0000000000291038
 20
0.0000000000010232
 30
0.0
 40
35.95000000001741
100
AcDbArc
 50
344.5442468642711
 51
346.4234950712182
  0
ARC
  5
262E
330
24DC
100
AcDbEntity
  8
Visible Edges(ISO)
100
AcDbCircle
 10
-0.0000000000209184
 20
0.0000000000010232
 30
0.0
 40
35.95000000000946
100
AcDbArc
 50
332.9313436384617
 51
334.8105918454134
  0
ARC
  5
262F
330
24DC
100
AcDbEntity
  8
Visible Edges(ISO)
100
AcDbCircle
 10
0.0000000000159162
 20
-0.0000000000250111
 30
0.0
 40
35.94999999996444
100
AcDbArc
 50
321.3184404126485
 51
323.1976886196037
  0
ARC
  5
2630
330
24DC
100
AcDbEntity
  8
Visible Edges(ISO)
100
AcDbCircle
 10
-0.0000000000079581
 20
-0.0000000000087539
 30
0.0
 40
35.94999999999286
100
AcDbArc
 50
309.7055371868487
 51
311.5847853937979
  0
ARC
  5
2631
330
24DC
100
AcDbEntity
  8
Visible Edges(ISO)
100
AcDbCircle
 10
-0.0000000000238742
 20
0.000000000017053
 30
0.0
 40
35.9500000000234
100
AcDbArc
 50
298.0926339610437
 51
299.9718821679876
  0
ARC
  5
2632
330
24DC
100
AcDbEntity
  8
Visible Edges(ISO)
100
AcDbCircle
 10
-0.0000000000100044
 20
-0.000000000009436
 30
0.0
 40
35.94999999999371
100
AcDbArc
 50
286.4797307352327
 51
288.3589789421774
  0
ARC
  5
2633
330
24DC
100
AcDbEntity
  8
Visible Edges(ISO)
100
AcDbCircle
 10
-0.0000000000129603
 20
-0.0000000000010232
 30
0.0
 40
35.95000000000235
100
AcDbArc
 50
274.8668275094323
 51
276.7460757163807
  0
ARC
  5
2634
330
24DC
100
AcDbEntity
  8
Visible Edges(ISO)
100
AcDbCircle
 10
-0.0000000000138698
 20
-0.0000000000212594
 30
0.0
 40
35.94999999998207
100
AcDbArc
 50
263.2539242836192
 51
265.1331724905678
  0
ARC
  5
2635
330
24DC
100
AcDbEntity
  8
Visible Edges(ISO)
100
AcDbCircle
 10
-0.000000000017053
 20
-0.0000000000192131
 30
0.0
 40
35.94999999998329
100
AcDbArc
 50
251.6410210578226
 51
253.5202692647673
  0
ARC
  5
2636
330
24DC
100
AcDbEntity
  8
Visible Edges(ISO)
100
AcDbCircle
 10
-0.0000000000138698
 20
-0.000000000005798
 30
0.0
 40
35.94999999999723
100
AcDbArc
 50
240.0281178320124
 51
241.9073660389563
  0
ARC
  5
2637
330
24DC
100
AcDbEntity
  8
Visible Edges(ISO)
100
AcDbCircle
 10
-0.000000000018872
 20
-0.0000000000110276
 30
0.0
 40
35.94999999998993
100
AcDbArc
 50
228.4152146062021
 51
230.2944628131514
  0
ARC
  5
2638
330
24DC
100
AcDbEntity
  8
Visible Edges(ISO)
100
AcDbCircle
 10
-0.0000000000050022
 20
0.00000000000216
 30
0.0
 40
35.95000000000894
100
AcDbArc
 50
216.8023113803964
 51
218.6815595873382
  0
ARC
  5
2639
330
24DC
100
AcDbEntity
  8
Visible Edges(ISO)
100
AcDbCircle
 10
-0.000000000027967
 20
-0.0000000000110276
 30
0.0
 40
35.94999999998274
100
AcDbArc
 50
205.1894081545866
 51
207.0686563615383
  0
ARC
  5
263A
330
24DC
100
AcDbEntity
  8
Visible Edges(ISO)
100
AcDbCircle
 10
-0.0000000000229647
 20
-0.0000000000062528
 30
0.0
 40
35.94999999998923
100
AcDbArc
 50
193.5765049287818
 51
195.4557531357289
  0
ARC
  5
263B
330
24DC
100
AcDbEntity
  8
Visible Edges(ISO)
100
AcDbCircle
 10
-0.0000000000040927
 20
-0.0000000000026148
 30
0.0
 40
35.95000000000815
100
AcDbArc
 50
181.9636017029765
 51
183.8428499099272
  0
ARC
  5
263C
330
24DC
100
AcDbEntity
  8
Visible Edges(ISO)
100
AcDbCircle
 10
-0.0000000000100044
 20
-0.0000000000035243
 30
0.0
 40
35.95000000000196
100
AcDbArc
 50
170.3506984771737
 51
172.2299466841196
  0
ARC
  5
263D
330
24DC
100
AcDbEntity
  8
Visible Edges(ISO)
100
AcDbCircle
 10
-0.0000000000109139
 20
-0.0000000000038654
 30
0.0
 40
35.95000000000196
100
AcDbArc
 50
158.7377952513647
 51
160.6170434583084
  0
ARC
  5
263E
330
24DC
100
AcDbEntity
  8
Visible Edges(ISO)
100
AcDbCircle
 10
0.0000000000029559
 20
-0.0000000000129603
 30
0.0
 40
35.95000000001844
100
AcDbArc
 50
147.1248920255592
 51
149.0041402325051
  0
ARC
  5
263F
330
24DC
100
AcDbEntity
  8
Visible Edges(ISO)
100
AcDbCircle
 10
-0.0000000000270575
 20
0.0000000000105729
 30
0.0
 40
35.94999999997997
100
AcDbArc
 50
135.5119887997549
 51
137.3912370066982
  0
ARC
  5
2640
330
24DC
100
AcDbEntity
  8
Visible Edges(ISO)
100
AcDbCircle
 10
-0.0000000000040927
 20
-0.0000000000147793
 30
0.0
 40
35.95000000001416
100
AcDbArc
 50
123.8990855739511
 51
125.7783337808894
  0
ARC
  5
2641
330
24DC
100
AcDbEntity
  8
Visible Edges(ISO)
100
AcDbCircle
 10
-0.0000000000118234
 20
-0.0000000000043201
 30
0.0
 40
35.95000000000106
100
AcDbArc
 50
112.286182348137
 51
114.1654305550782
  0
ARC
  5
2642
330
24DC
100
AcDbEntity
  8
Visible Edges(ISO)
100
AcDbCircle
 10
-0.0000000000100044
 20
-0.0000000000125056
 30
0.0
 40
35.95000000000947
100
AcDbArc
 50
100.6732791223346
 51
102.5525273292722
  0
ARC
  5
2643
330
24DC
100
AcDbEntity
  8
Visible Edges(ISO)
100
AcDbCircle
 10
-0.0000000000118234
 20
-0.0000000000189857
 30
0.0
 40
35.9500000000157
100
AcDbArc
 50
89.06037589652715
 51
90.93962410347286
  0
ARC
  5
2644
330
24DC
100
AcDbEntity
  8
Visible Edges(ISO)
100
AcDbCircle
 10
-0.0000000000150067
 20
-0.0000000000146656
 30
0.0
 40
35.95000000001159
100
AcDbArc
 50
77.44747267072778
 51
79.32672087766533
  0
ARC
  5
2645
330
24DC
100
AcDbEntity
  8
Visible Edges(ISO)
100
AcDbCircle
 10
-0.0000000000079581
 20
0.0000000000080718
 30
0.0
 40
35.94999999998762
100
AcDbArc
 50
65.83456944490989
 51
67.71381765186298
  0
ARC
  5
2646
330
24DC
100
AcDbEntity
  8
Visible Edges(ISO)
100
AcDbCircle
 10
-0.0000000000129603
 20
-0.000000000003638
 30
0.0
 40
35.9500000000005
100
AcDbArc
 50
54.2216662191106
 51
56.10091442604892
  0
ARC
  5
2647
330
24DC
100
AcDbEntity
  8
Visible Edges(ISO)
100
AcDbCircle
 10
-0.0000000000029559
 20
0.0000000000053433
 30
0.0
 40
35.94999999998735
100
AcDbArc
 50
42.60876299330174
 51
44.48801120024512
  0
ARC
  5
2648
330
24DC
100
AcDbEntity
  8
Visible Edges(ISO)
100
AcDbCircle
 10
0.0000000000140972
 20
0.000000000013415
 30
0.0
 40
35.94999999996882
100
AcDbArc
 50
30.9958597674949
 51
32.87510797444075
  0
ARC
  5
2649
330
24DC
100
AcDbEntity
  8
Visible Edges(ISO)
100
AcDbCircle
 10
-0.0000000000247837
 20
-0.0000000000079581
 30
0.0
 40
35.95000000001319
100
AcDbArc
 50
19.3829565416915
 51
21.2622047486353
  0
ARC
  5
264A
330
24DC
100
AcDbEntity
  8
Visible Edges(ISO)
100
AcDbCircle
 10
-0.0000000000040927
 20
-0.000000000001819
 30
0.0
 40
35.94999999999102
100
AcDbArc
 50
7.770053315880351
 51
9.649301522826336
  0
ARC
  5
264B
330
24DC
100
AcDbEntity
  8
Visible Edges(ISO)
100
AcDbCircle
 10
0.0000000000020464
 20
-0.0000000000038654
 30
0.0
 40
38.44999999998579
100
AcDbArc
 50
355.8400212237375
 51
358.3535271633639
  0
ARC
  5
264C
330
24DC
100
AcDbEntity
  8
Visible Edges(ISO)
100
AcDbCircle
 10
-0.0000000000238742
 20
-0.0000000000003411
 30
0.0
 40
38.45000000001171
100
AcDbArc
 50
344.2271179979341
 51
346.7406239375542
  0
ARC
  5
264D
330
24DC
100
AcDbEntity
  8
Visible Edges(ISO)
100
AcDbCircle
 10
-0.0000000000270575
 20
0.0000000000037517
 30
0.0
 40
38.45000000001589
100
AcDbArc
 50
332.6142147721222
 51
335.1277207117444
  0
ARC
  5
264E
330
24DC
100
AcDbEntity
  8
Visible Edges(ISO)
100
AcDbCircle
 10
-0.0000000000070486
 20
-0.0000000000075033
 30
0.0
 40
38.44999999999306
100
AcDbArc
 50
321.0013115463109
 51
323.5148174859371
  0
ARC
  5
264F
330
24DC
100
AcDbEntity
  8
Visible Edges(ISO)
100
AcDbCircle
 10
-0.0000000000118234
 20
-0.0000000000038654
 30
0.0
 40
38.44999999999905
100
AcDbArc
 50
309.3884083205129
 51
311.9019142601314
  0
ARC
  5
2650
330
24DC
100
AcDbEntity
  8
Visible Edges(ISO)
100
AcDbCircle
 10
-0.0000000000118234
 20
-0.000000000003638
 30
0.0
 40
38.44999999999951
100
AcDbArc
 50
297.7755050947063
 51
300.289011034329
  0
ARC
  5
2651
330
24DC
100
AcDbEntity
  8
Visible Edges(ISO)
100
AcDbCircle
 10
-0.0000000000079581
 20
-0.0000000000165983
 30
0.0
 40
38.44999999998601
100
AcDbArc
 50
286.162601868898
 51
288.6761078085178
  0
ARC
  5
2652
330
24DC
100
AcDbEntity
  8
Visible Edges(ISO)
100
AcDbCircle
 10
-0.0000000000109139
 20
-0.0000000000164846
 30
0.0
 40
38.44999999998675
100
AcDbArc
 50
274.5496986430992
 51
277.0632045827134
  0
ARC
  5
2653
330
24DC
100
AcDbEntity
  8
Visible Edges(ISO)
100
AcDbCircle
 10
-0.0000000000138698
 20
-0.0000000000183036
 30
0.0
 40
38.44999999998471
100
AcDbArc
 50
262.9367954172865
 51
265.4503013569138
  0
ARC
  5
2654
330
24DC
100
AcDbEntity
  8
Visible Edges(ISO)
100
AcDbCircle
 10
-0.0000000000129603
 20
-0.0000000000062528
 30
0.0
 40
38.44999999999707
100
AcDbArc
 50
251.3238921914822
 51
253.8373981311021
  0
ARC
  5
2655
330
24DC
100
AcDbEntity
  8
Visible Edges(ISO)
100
AcDbCircle
 10
-0.0000000000059117
 20
0.0000000000079581
 30
0.0
 40
38.45000000001288
100
AcDbArc
 50
239.710988965671
 51
242.2244949052937
  0
ARC
  5
2656
330
24DC
100
AcDbEntity
  8
Visible Edges(ISO)
100
AcDbCircle
 10
-0.0000000000079581
 20
0.0000000000023874
 30
0.0
 40
38.45000000000768
100
AcDbArc
 50
228.0980857398686
 51
230.6115916794871
  0
ARC
  5
2657
330
24DC
100
AcDbEntity
  8
Visible Edges(ISO)
100
AcDbCircle
 10
-0.0000000000238742
 20
-0.0000000000121645
 30
0.0
 40
38.44999999998567
100
AcDbArc
 50
216.4851825140629
 51
218.9986884536891
  0
ARC
  5
2658
330
24DC
100
AcDbEntity
  8
Visible Edges(ISO)
100
AcDbCircle
 10
-0.0000000000247837
 20
-0.000000000009436
 30
0.0
 40
38.44999999998604
100
AcDbArc
 50
204.8722792882557
 51
207.3857852278778
  0
ARC
  5
2659
330
24DC
100
AcDbEntity
  8
Visible Edges(ISO)
100
AcDbCircle
 10
-0.0000000000009095
 20
0.0
 30
0.0
 40
38.45000000001208
100
AcDbArc
 50
193.2593760624457
 51
195.7728820020659
  0
ARC
  5
265A
330
24DC
100
AcDbEntity
  8
Visible Edges(ISO)
100
AcDbCircle
 10
-0.0000000000138698
 20
-0.0000000000031832
 30
0.0
 40
38.44999999999784
100
AcDbArc
 50
181.646472836636
 51
184.1599787762625
  0
ARC
  5
265B
330
24DC
100
AcDbEntity
  8
Visible Edges(ISO)
100
AcDbCircle
 10
-0.0000000000150067
 20
-0.0000000000030695
 30
0.0
 40
38.44999999999751
100
AcDbArc
 50
170.0335696108336
 51
172.5470755504604
  0
ARC
  5
265C
330
24DC
100
AcDbEntity
  8
Visible Edges(ISO)
100
AcDbCircle
 10
-0.0000000000291038
 20
0.0000000000030695
 30
0.0
 40
38.44999999998235
100
AcDbArc
 50
158.4206663850259
 51
160.934172324653
  0
ARC
  5
265D
330
24DC
100
AcDbEntity
  8
Visible Edges(ISO)
100
AcDbCircle
 10
-0.0000000000070486
 20
-0.0000000000065938
 30
0.0
 40
38.45000000000628
100
AcDbArc
 50
146.8077631592167
 51
149.3212690988462
  0
ARC
  5
265E
330
24DC
100
AcDbEntity
  8
Visible Edges(ISO)
100
AcDbCircle
 10
-0.0000000000270575
 20
0.0000000000100044
 30
0.0
 40
38.44999999998036
100
AcDbArc
 50
135.194859933412
 51
137.7083658730402
  0
ARC
  5
265F
330
24DC
100
AcDbEntity
  8
Visible Edges(ISO)
100
AcDbCircle
 10
-0.0000000000109139
 20
-0.0000000000050022
 30
0.0
 40
38.45000000000228
100
AcDbArc
 50
123.5819567076119
 51
126.0954626472239
  0
ARC
  5
2660
330
24DC
100
AcDbEntity
  8
Visible Edges(ISO)
100
AcDbCircle
 10
-0.0000000000059117
 20
-0.0000000000183036
 30
0.0
 40
38.45000000001633
100
AcDbArc
 50
111.9690534817994
 51
114.4825594214201
  0
ARC
  5
2661
330
24DC
100
AcDbEntity
  8
Visible Edges(ISO)
100
AcDbCircle
 10
-0.0000000000150067
 20
0.0000000000105729
 30
0.0
 40
38.44999999998583
100
AcDbArc
 50
100.3561502559945
 51
102.8696561956175
  0
ARC
  5
2662
330
24DC
100
AcDbEntity
  8
Visible Edges(ISO)
100
AcDbCircle
 10
-0.0000000000118234
 20
-0.000000000005798
 30
0.0
 40
38.45000000000265
100
AcDbArc
 50
88.74324703018542
 51
91.25675296981457
  0
ARC
  5
2663
330
24DC
100
AcDbEntity
  8
Visible Edges(ISO)
100
AcDbCircle
 10
-0.0000000000100044
 20
0.0000000000065938
 30
0.0
 40
38.44999999998991
100
AcDbArc
 50
77.13034380438244
 51
79.64384974400551
  0
ARC
  5
2664
330
24DC
100
AcDbEntity
  8
Visible Edges(ISO)
100
AcDbCircle
 10
-0.0000000000129603
 20
-0.0000000000043201
 30
0.0
 40
38.45000000000108
100
AcDbArc
 50
65.51744057857991
 51
68.03094651820058
  0
ARC
  5
2665
330
24DC
100
AcDbEntity
  8
Visible Edges(ISO)
100
AcDbCircle
 10
0.0000000000011369
 20
0.0000000000164846
 30
0.0
 40
38.44999999997591
100
AcDbArc
 50
53.904537352776
 51
56.41804329238807
  0
ARC
  5
2666
330
24DC
100
AcDbEntity
  8
Visible Edges(ISO)
100
AcDbCircle
 10
-0.0000000000100044
 20
-0.0000000000015916
 30
0.0
 40
38.4499999999973
100
AcDbArc
 50
42.29163412695979
 51
44.80514006658803
  0
ARC
  5
2667
330
24DC
100
AcDbEntity
  8
Visible Edges(ISO)
100
AcDbCircle
 10
-0.0000000000150067
 20
-0.0000000000052296
 30
0.0
 40
38.45000000000354
100
AcDbArc
 50
30.67873090115381
 51
33.19223684078334
  0
ARC
  5
2668
330
24DC
100
AcDbEntity
  8
Visible Edges(ISO)
100
AcDbCircle
 10
-0.0000000000050022
 20
-0.0000000000004547
 30
0.0
 40
38.44999999999218
100
AcDbArc
 50
19.065827675347
 51
21.57933361497412
  0
ARC
  5
2669
330
24DC
100
AcDbEntity
  8
Visible Edges(ISO)
100
AcDbCircle
 10
-0.0000000000040927
 20
-0.0000000000020464
 30
0.0
 40
38.44999999999206
100
AcDbArc
 50
7.452924449539589
 51
9.966430389166362
  0
ARC
  5
266A
330
24DC
100
AcDbEntity
  8
Visible Edges(ISO)
100
AcDbCircle
 10
0.0000000000070486
 20
-0.0000000000043201
 30
0.0
 40
33.44999999998096
100
AcDbArc
 50
356.5218677142244
 51
357.6716806728717
  0
ARC
  5
266B
330
24DC
100
AcDbEntity
  8
Visible Edges(ISO)
100
AcDbCircle
 10
0.0000000000081855
 20
-0.0000000000084128
 30
0.0
 40
33.4499999999794
100
AcDbArc
 50
344.9089644884189
 51
346.0587774470635
  0
ARC
  5
266C
330
24DC
100
AcDbEntity
  8
Visible Edges(ISO)
100
AcDbCircle
 10
0.0
 20
-0.0000000000096634
 30
0.0
 40
33.44999999998625
100
AcDbArc
 50
333.296061262615
 51
334.4458742212585
  0
ARC
  5
266D
330
24DC
100
AcDbEntity
  8
Visible Edges(ISO)
100
AcDbCircle
 10
-0.0000000000070486
 20
-0.0000000000075033
 30
0.0
 40
33.44999999999318
100
AcDbArc
 50
321.6831580368037
 51
322.8329709954508
  0
ARC
  5
266E
330
24DC
100
AcDbEntity
  8
Visible Edges(ISO)
100
AcDbCircle
 10
-0.0000000000500222
 20
0.0000000000401315
 30
0.0
 40
33.45000000005715
100
AcDbArc
 50
310.0702548110035
 51
311.2200677696417
  0
ARC
  5
266F
330
24DC
100
AcDbEntity
  8
Visible Edges(ISO)
100
AcDbCircle
 10
-0.0000000000020464
 20
-0.0000000000218279
 30
0.0
 40
33.44999999997877
100
AcDbArc
 50
298.4573515851931
 51
299.6071645438279
  0
ARC
  5
2670
330
24DC
100
AcDbEntity
  8
Visible Edges(ISO)
100
AcDbCircle
 10
-0.0000000000179625
 20
0.0000000000137561
 30
0.0
 40
33.45000000001803
100
AcDbArc
 50
286.8444483593839
 51
287.9942613180301
  0
ARC
  5
2671
330
24DC
100
AcDbEntity
  8
Visible Edges(ISO)
100
AcDbCircle
 10
-0.000000000017053
 20
0.0000000000391083
 30
0.0
 40
33.4500000000427
100
AcDbArc
 50
275.2315451335745
 51
276.3813580922187
  0
ARC
  5
2672
330
24DC
100
AcDbEntity
  8
Visible Edges(ISO)
100
AcDbCircle
 10
-0.0000000000179625
 20
-0.0000000000546834
 30
0.0
 40
33.44999999994818
100
AcDbArc
 50
263.6186419077683
 51
264.7684548664255
  0
ARC
  5
2673
330
24DC
100
AcDbEntity
  8
Visible Edges(ISO)
100
AcDbCircle
 10
0.0000000000100044
 20
0.0000000000694627
 30
0.0
 40
33.45000000007593
100
AcDbArc
 50
252.0057386819699
 51
253.1555516406161
  0
ARC
  5
2674
330
24DC
100
AcDbEntity
  8
Visible Edges(ISO)
100
AcDbCircle
 10
0.0000000000131877
 20
0.0000000000420641
 30
0.0
 40
33.45000000005195
100
AcDbArc
 50
240.392835456172
 51
241.5426484148039
  0
ARC
  5
2675
330
24DC
100
AcDbEntity
  8
Visible Edges(ISO)
100
AcDbCircle
 10
-0.0000000000029559
 20
0.000000000007276
 30
0.0
 40
33.4500000000144
100
AcDbArc
 50
228.7799322303583
 51
229.9297451889965
  0
ARC
  5
2676
330
24DC
100
AcDbEntity
  8
Visible Edges(ISO)
100
AcDbCircle
 10
-0.0000000000409273
 20
-0.0000000000256932
 30
0.0
 40
33.44999999996332
100
AcDbArc
 50
217.1670290045491
 51
218.3168419631963
  0
ARC
  5
2677
330
24DC
100
AcDbEntity
  8
Visible Edges(ISO)
100
AcDbCircle
 10
-0.0000000000350155
 20
-0.0000000000140972
 30
0.0
 40
33.44999999997484
100
AcDbArc
 50
205.5541257787414
 51
206.703938737385
  0
ARC
  5
2678
330
24DC
100
AcDbEntity
  8
Visible Edges(ISO)
100
AcDbCircle
 10
0.0000000000052296
 20
0.0000000000013642
 30
0.0
 40
33.45000000001817
100
AcDbArc
 50
193.9412225529366
 51
195.0910355115811
  0
ARC
  5
2679
330
24DC
100
AcDbEntity
  8
Visible Edges(ISO)
100
AcDbCircle
 10
-0.000000000017053
 20
-0.0000000000035243
 30
0.0
 40
33.44999999999547
100
AcDbArc
 50
182.3283193271283
 51
183.4781322857756
  0
ARC
  5
267A
330
24DC
100
AcDbEntity
  8
Visible Edges(ISO)
100
AcDbCircle
 10
-0.000000000018872
 20
-0.0000000000022737
 30
0.0
 40
33.44999999999358
100
AcDbArc
 50
170.7154161013199
 51
171.8652290599647
  0
ARC
  5
267B
330
24DC
100
AcDbEntity
  8
Visible Edges(ISO)
100
AcDbCircle
 10
-0.0000000000429736
 20
0.0000000000080718
 30
0.0
 40
33.44999999996757
100
AcDbArc
 50
159.1025128755214
 51
160.2523258341626
  0
ARC
  5
267C
330
24DC
100
AcDbEntity
  8
Visible Edges(ISO)
100
AcDbCircle
 10
0.0000000000229647
 20
-0.0000000000252385
 30
0.0
 40
33.45000000004176
100
AcDbArc
 50
147.489609649711
 51
148.6394226083504
  0
ARC
  5
267D
330
24DC
100
AcDbEntity
  8
Visible Edges(ISO)
100
AcDbCircle
 10
0.0000000000270575
 20
-0.0000000000410409
 30
0.0
 40
33.45000000005454
100
AcDbArc
 50
135.8767064239026
 51
137.0265193825452
  0
ARC
  5
267E
330
24DC
100
AcDbEntity
  8
Visible Edges(ISO)
100
AcDbCircle
 10
-0.0000000000247837
 20
0.0000000000153477
 30
0.0
 40
33.44999999997747
100
AcDbArc
 50
124.2638031981015
 51
125.4136161567447
  0
ARC
  5
267F
330
24DC
100
AcDbEntity
  8
Visible Edges(ISO)
100
AcDbCircle
 10
-0.0000000000100044
 20
-0.0000000000079581
 30
0.0
 40
33.45000000000482
100
AcDbArc
 50
112.6508999722915
 51
113.8007129309384
  0
ARC
  5
2680
330
24DC
100
AcDbEntity
  8
Visible Edges(ISO)
100
AcDbCircle
 10
0.0000000000011369
 20
-0.0000000000700311
 30
0.0
 40
33.45000000006812
100
AcDbArc
 50
101.0379967464842
 51
102.1878097051246
  0
ARC
  5
2681
330
24DC
100
AcDbEntity
  8
Visible Edges(ISO)
100
AcDbCircle
 10
-0.0000000000118234
 20
-0.0000000000583213
 30
0.0
 40
33.45000000005486
100
AcDbArc
 50
89.42509352067011
 51
90.57490647931686
  0
ARC
  5
2682
330
24DC
100
AcDbEntity
  8
Visible Edges(ISO)
100
AcDbCircle
 10
-0.0000000000118234
 20
0.0000000000004547
 30
0.0
 40
33.44999999999604
100
AcDbArc
 50
77.81219029487535
 51
78.96200325351578
  0
ARC
  5
2683
330
24DC
100
AcDbEntity
  8
Visible Edges(ISO)
100
AcDbCircle
 10
-0.0000000000050022
 20
0.0000000000139835
 30
0.0
 40
33.44999999998125
100
AcDbArc
 50
66.19928706906157
 51
67.34910002770853
  0
ARC
  5
2684
330
24DC
100
AcDbEntity
  8
Visible Edges(ISO)
100
AcDbCircle
 10
-0.0000000000318323
 20
-0.0000000000306954
 30
0.0
 40
33.4500000000337
100
AcDbArc
 50
54.58638384325531
 51
55.73619680189842
  0
ARC
  5
2685
330
24DC
100
AcDbEntity
  8
Visible Edges(ISO)
100
AcDbCircle
 10
-0.0000000000709406
 20
-0.0000000000588898
 30
0.0
 40
33.45000000008083
100
AcDbArc
 50
42.97348061745474
 51
44.12329357609737
  0
ARC
  5
2686
330
24DC
100
AcDbEntity
  8
Visible Edges(ISO)
100
AcDbCircle
 10
0.0000000000140972
 20
0.000000000013415
 30
0.0
 40
33.44999999996865
100
AcDbArc
 50
31.36057739164957
 51
32.5103903502889
  0
ARC
  5
2687
330
24DC
100
AcDbEntity
  8
Visible Edges(ISO)
100
AcDbCircle
 10
-0.0000000000059117
 20
-0.0000000000005684
 30
0.0
 40
33.44999999999308
100
AcDbArc
 50
19.74767416583733
 51
20.89748712447857
  0
ARC
  5
2688
330
24DC
100
AcDbEntity
  8
Visible Edges(ISO)
100
AcDbCircle
 10
-0.0000000000070486
 20
-0.0000000000022737
 30
0.0
 40
33.44999999999429
100
AcDbArc
 50
8.134770940035298
 51
9.284583898680034
  0
ARC
  5
2689
330
24DC
100
AcDbEntity
  8
Visible Edges(ISO)
100
AcDbCircle
 10
0.0000000000020464
 20
-0.0000000000038654
 30
0.0
 40
35.94999999998615
100
AcDbArc
 50
356.1571500900727
 51
358.0363982970235
  0
ARC
  5
268A
330
24DC
100
AcDbEntity
  8
Visible Edges(ISO)
100
AcDbCircle
 10
-0.0000000000291038
 20
0.0000000000010232
 30
0.0
 40
35.95000000001741
100
AcDbArc
 50
344.5442468642711
 51
346.4234950712182
  0
ARC
  5
268B
330
24DC
100
AcDbEntity
  8
Visible Edges(ISO)
100
AcDbCircle
 10
-0.0000000000209184
 20
0.0000000000010232
 30
0.0
 40
35.95000000000946
100
AcDbArc
 50
332.9313436384617
 51
334.8105918454134
  0
ARC
  5
268C
330
24DC
100
AcDbEntity
  8
Visible Edges(ISO)
100
AcDbCircle
 10
0.0000000000159162
 20
-0.0000000000250111
 30
0.0
 40
35.94999999996444
100
AcDbArc
 50
321.3184404126485
 51
323.1976886196037
  0
ARC
  5
268D
330
24DC
100
AcDbEntity
  8
Visible Edges(ISO)
100
AcDbCircle
 10
-0.0000000000079581
 20
-0.0000000000087539
 30
0.0
 40
35.94999999999286
100
AcDbArc
 50
309.7055371868487
 51
311.5847853937979
  0
ARC
  5
268E
330
24DC
100
AcDbEntity
  8
Visible Edges(ISO)
100
AcDbCircle
 10
-0.0000000000238742
 20
0.000000000017053
 30
0.0
 40
35.9500000000234
100
AcDbArc
 50
298.0926339610437
 51
299.9718821679876
  0
ARC
  5
268F
330
24DC
100
AcDbEntity
  8
Visible Edges(ISO)
100
AcDbCircle
 10
-0.0000000000100044
 20
-0.000000000009436
 30
0.0
 40
35.94999999999371
100
AcDbArc
 50
286.4797307352327
 51
288.3589789421774
  0
ARC
  5
2690
330
24DC
100
AcDbEntity
  8
Visible Edges(ISO)
100
AcDbCircle
 10
-0.0000000000129603
 20
-0.0000000000010232
 30
0.0
 40
35.95000000000235
100
AcDbArc
 50
274.8668275094323
 51
276.7460757163807
  0
ARC
  5
2691
330
24DC
100
AcDbEntity
  8
Visible Edges(ISO)
100
AcDbCircle
 10
-0.0000000000138698
 20
-0.0000000000212594
 30
0.0
 40
35.94999999998207
100
AcDbArc
 50
263.2539242836192
 51
265.1331724905678
  0
ARC
  5
2692
330
24DC
100
AcDbEntity
  8
Visible Edges(ISO)
100
AcDbCircle
 10
-0.000000000017053
 20
-0.0000000000192131
 30
0.0
 40
35.94999999998329
100
AcDbArc
 50
251.6410210578226
 51
253.5202692647673
  0
ARC
  5
2693
330
24DC
100
AcDbEntity
  8
Visible Edges(ISO)
100
AcDbCircle
 10
-0.0000000000138698
 20
-0.000000000005798
 30
0.0
 40
35.94999999999723
100
AcDbArc
 50
240.0281178320124
 51
241.9073660389563
  0
ARC
  5
2694
330
24DC
100
AcDbEntity
  8
Visible Edges(ISO)
100
AcDbCircle
 10
-0.000000000018872
 20
-0.0000000000110276
 30
0.0
 40
35.94999999998993
100
AcDbArc
 50
228.4152146062021
 51
230.2944628131514
  0
ARC
  5
2695
330
24DC
100
AcDbEntity
  8
Visible Edges(ISO)
100
AcDbCircle
 10
-0.0000000000050022
 20
0.00000000000216
 30
0.0
 40
35.95000000000894
100
AcDbArc
 50
216.8023113803964
 51
218.6815595873382
  0
ARC
  5
2696
330
24DC
100
AcDbEntity
  8
Visible Edges(ISO)
100
AcDbCircle
 10
-0.000000000027967
 20
-0.0000000000110276
 30
0.0
 40
35.94999999998274
100
AcDbArc
 50
205.1894081545866
 51
207.0686563615383
  0
ARC
  5
2697
330
24DC
100
AcDbEntity
  8
Visible Edges(ISO)
100
AcDbCircle
 10
-0.0000000000229647
 20
-0.0000000000062528
 30
0.0
 40
35.94999999998923
100
AcDbArc
 50
193.5765049287818
 51
195.4557531357289
  0
ARC
  5
2698
330
24DC
100
AcDbEntity
  8
Visible Edges(ISO)
100
AcDbCircle
 10
-0.0000000000040927
 20
-0.0000000000026148
 30
0.0
 40
35.95000000000815
100
AcDbArc
 50
181.9636017029765
 51
183.8428499099272
  0
ARC
  5
2699
330
24DC
100
AcDbEntity
  8
Visible Edges(ISO)
100
AcDbCircle
 10
-0.0000000000100044
 20
-0.0000000000035243
 30
0.0
 40
35.95000000000196
100
AcDbArc
 50
170.3506984771737
 51
172.2299466841196
  0
ARC
  5
269A
330
24DC
100
AcDbEntity
  8
Visible Edges(ISO)
100
AcDbCircle
 10
-0.0000000000109139
 20
-0.0000000000038654
 30
0.0
 40
35.95000000000196
100
AcDbArc
 50
158.7377952513647
 51
160.6170434583084
  0
ARC
  5
269B
330
24DC
100
AcDbEntity
  8
Visible Edges(ISO)
100
AcDbCircle
 10
0.0000000000029559
 20
-0.0000000000129603
 30
0.0
 40
35.95000000001844
100
AcDbArc
 50
147.1248920255592
 51
149.0041402325051
  0
ARC
  5
269C
330
24DC
100
AcDbEntity
  8
Visible Edges(ISO)
100
AcDbCircle
 10
-0.0000000000270575
 20
0.0000000000105729
 30
0.0
 40
35.94999999997997
100
AcDbArc
 50
135.5119887997549
 51
137.3912370066982
  0
ARC
  5
269D
330
24DC
100
AcDbEntity
  8
Visible Edges(ISO)
100
AcDbCircle
 10
-0.0000000000040927
 20
-0.0000000000147793
 30
0.0
 40
35.95000000001416
100
AcDbArc
 50
123.8990855739511
 51
125.7783337808894
  0
ARC
  5
269E
330
24DC
100
AcDbEntity
  8
Visible Edges(ISO)
100
AcDbCircle
 10
-0.0000000000118234
 20
-0.0000000000043201
 30
0.0
 40
35.95000000000106
100
AcDbArc
 50
112.286182348137
 51
114.1654305550782
  0
ARC
  5
269F
330
24DC
100
AcDbEntity
  8
Visible Edges(ISO)
100
AcDbCircle
 10
-0.0000000000100044
 20
-0.0000000000125056
 30
0.0
 40
35.95000000000947
100
AcDbArc
 50
100.6732791223346
 51
102.5525273292722
  0
ARC
  5
26A0
330
24DC
100
AcDbEntity
  8
Visible Edges(ISO)
100
AcDbCircle
 10
-0.0000000000118234
 20
-0.0000000000189857
 30
0.0
 40
35.9500000000157
100
AcDbArc
 50
89.06037589652715
 51
90.93962410347286
  0
ARC
  5
26A1
330
24DC
100
AcDbEntity
  8
Visible Edges(ISO)
100
AcDbCircle
 10
-0.0000000000150067
 20
-0.0000000000146656
 30
0.0
 40
35.95000000001159
100
AcDbArc
 50
77.44747267072778
 51
79.32672087766533
  0
ARC
  5
26A2
330
24DC
100
AcDbEntity
  8
Visible Edges(ISO)
100
AcDbCircle
 10
-0.0000000000079581
 20
0.0000000000080718
 30
0.0
 40
35.94999999998762
100
AcDbArc
 50
65.83456944490989
 51
67.71381765186298
  0
ARC
  5
26A3
330
24DC
100
AcDbEntity
  8
Visible Edges(ISO)
100
AcDbCircle
 10
-0.0000000000129603
 20
-0.000000000003638
 30
0.0
 40
35.9500000000005
100
AcDbArc
 50
54.2216662191106
 51
56.10091442604892
  0
ARC
  5
26A4
330
24DC
100
AcDbEntity
  8
Visible Edges(ISO)
100
AcDbCircle
 10
-0.0000000000029559
 20
0.0000000000053433
 30
0.0
 40
35.94999999998735
100
AcDbArc
 50
42.60876299330174
 51
44.48801120024512
  0
ARC
  5
26A5
330
24DC
100
AcDbEntity
  8
Visible Edges(ISO)
100
AcDbCircle
 10
0.0000000000140972
 20
0.000000000013415
 30
0.0
 40
35.94999999996882
100
AcDbArc
 50
30.9958597674949
 51
32.87510797444075
  0
ARC
  5
26A6
330
24DC
100
AcDbEntity
  8
Visible Edges(ISO)
100
AcDbCircle
 10
-0.0000000000247837
 20
-0.0000000000079581
 30
0.0
 40
35.95000000001319
100
AcDbArc
 50
19.3829565416915
 51
21.2622047486353
  0
ARC
  5
26A7
330
24DC
100
AcDbEntity
  8
Visible Edges(ISO)
100
AcDbCircle
 10
-0.0000000000040927
 20
-0.000000000001819
 30
0.0
 40
35.94999999999102
100
AcDbArc
 50
7.770053315880351
 51
9.649301522826336
  0
CIRCLE
  5
26A8
330
24DC
100
AcDbEntity
  8
Sketch Geometry(ISO)
100
AcDbCircle
 10
-0.0000000000118234
 20
-0.0000000000031832
 30
0.0
 40
32.00000000000001
  0
LINE
  5
26A9
330
24DC
100
AcDbEntity
  8
AM_5
100
AcDbLine
 10
40.59771242258398
 20
48.17494936221476
 30
0.0
 11
42.20873275681401
 21
50.08665370198525
 31
0.0
  0
LINE
  5
26AA
330
24DC
100
AcDbEntity
  8
AM_5
100
AcDbLine
 10
42.20873275681401
 20
50.08665370198525
 30
0.0
 11
51.7587327568142
 21
50.08665370198525
 31
0.0
  0
SOLID
  5
26AB
330
24DC
100
AcDbEntity
  8
AM_5
100
AcDbTrace
 10
40.27909503262208
 20
48.44345275125306
 30
0.0
 11
40.91632981254611
 21
47.90644597317657
 31
0.0
 12
38.98669208835395
 22
46.26324502244426
 32
0.0
 13
38.98669208835395
 23
46.26324502244426
 33
0.0
  0
MTEXT
  5
26AC
102
{ACAD_XDICTIONARY
360
26C0
102
}
330
24DC
100
AcDbEntity
  8
AM_5
 62
     2
100
AcDbMText
 10
47.7337327568141
 20
53.33699819017408
 30
0.0
 40
3.5
 41
0.0
 71
     5
 72
     1
  1
\U+2205255 [10,039"]
 73
     1
 44
1.0
1001
ACAD
1000
MTEXTBEGIN
1070
    73
1070
     1
1070
    44
1040
1.0
1070
    74
1070
     0
1000
MTEXTEND
  0
LINE
  5
26AD
330
24DC
100
AcDbEntity
  8
AM_5
100
AcDbLine
 10
-27.16500000001202
 20
-0.0000000000031832
 30
0.0
 11
27.16499999998814
 21
-0.0000000000031832
 31
0.0
  0
SOLID
  5
26AE
330
24DC
100
AcDbEntity
  8
AM_5
100
AcDbTrace
 10
-27.16500000001202
 20
0.4166666666633319
 30
0.0
 11
-27.16500000001202
 21
-0.4166666666699257
 31
0.0
 12
-29.66500000001202
 22
-0.0000000000031832
 32
0.0
 13
-29.66500000001202
 23
-0.0000000000031832
 33
0.0
  0
SOLID
  5
26AF
330
24DC
100
AcDbEntity
  8
AM_5
100
AcDbTrace
 10
27.16499999998814
 20
0.4166666666633319
 30
0.0
 11
27.16499999998814
 21
-0.4166666666699257
 31
0.0
 12
29.66499999998814
 22
-0.0000000000031832
 32
0.0
 13
29.66499999998814
 23
-0.0000000000031832
 33
0.0
  0
MTEXT
  5
26B0
102
{ACAD_XDICTIONARY
360
26C2
102
}
330
24DC
100
AcDbEntity
  8
AM_5
 62
     2
100
AcDbMText
 10
-0.0000000000118234
 20
3.24999999999693
 30
0.0
 40
3.5
 41
0.0
 71
     5
 72
     1
  1
\U+2205169 [6,623"]
 73
     1
 44
1.0
1001
ACAD
1000
MTEXTBEGIN
1070
    73
1070
     1
1070
    44
1040
1.0
1070
    74
1070
     0
1000
MTEXTEND
  0
ENDBLK
  5
24DE
330
24DC
100
AcDbEntity
  8
0
100
AcDbBlockEnd
  0
ENDSEC
  0
SECTION
  2
ENTITIES
  0
INSERT
  5
26B1
330
1A
100
AcDbEntity
  8
AM_0
100
AcDbBlockReference
  2
SLEEV-IT_WT169
 10
1227.093809053225
 20
921.1231412358282
 30
0.0
  0
VIEWPORT
  5
22
102
{ACAD_XDICTIONARY
360
26B6
102
}
330
17
100
AcDbEntity
 67
     1
  8
0
100
AcDbViewport
 10
7.900096624318575
 20
6.635154955787665
 30
0.0
 40
18.8944864125024
 41
11.87498859712033
 68
     1
 69
     1
 12
7.900096624318575
 22
6.635154955787665
 13
0.0
 23
0.0
 14
1.0
 24
1.0
 15
10.0
 25
10.0
 16
0.0
 26
0.0
 36
1.0
 17
0.0
 27
0.0
 37
0.0
 42
50.0
 43
0.0
 44
0.0
 45
11.87498859712033
 50
0.0
 51
0.0
 72
   100
 90
    32800
  1

281
     0
 71
     1
 74
     0
110
0.0
120
0.0
130
0.0
111
1.0
121
0.0
131
0.0
112
0.0
122
1.0
132
0.0
 79
     0
146
0.0
1001
GENIUS_GENODEF_13
1002
{
1000
HIER
1070
     0
1002
}
1002
{
1000
MANEDIT
1070
     0
1002
}
1002
{
1000
NOSEL
1070
     0
1002
}
1002
{
1000
BEHIND
1070
     0
1002
}
1002
{
1000
OTHER
1070
     0
1002
}
1002
{
1000
REACTOR
1002
}
1001
GENIUS_GENOBJ-N-SDF_13
1002
{
1000
OWNER
1000
GEN
1002
}
1001
GENIUS_GENSCREG_15
1000
PF
1040
1.0
1000
DF
1040
1.0
1000
MIN
1011
-1.547146581932626
1021
0.6976606572275
1031
0.0
1000
MAX
1011
17.34733983056977
1021
12.57264925434783
1031
0.0
1000
FLAGS
1070
     4
  0
ENDSEC
  0
SECTION
  2
OBJECTS
  0
DICTIONARY
  5
C
330
0
100
AcDbDictionary
281
     1
  3
ACAD_COLOR
350
3CA
  3
ACAD_GROUP
350
D
  3
ACAD_LAYOUT
350
167
  3
ACAD_MATERIAL
350
3C9
  3
ACAD_MLEADERSTYLE
350
A72
  3
ACAD_MLINESTYLE
350
E
  3
ACAD_PLOTSETTINGS
350
168
  3
ACAD_PLOTSTYLENAME
350
165
  3
ACAD_SCALELIST
350
A60
  3
ACAD_TABLESTYLE
350
650
  3
ACAD_VISUALSTYLE
350
A4F
  3
ACDB_RECOMPOSE_DATA
350
AF1
  3
ACDBVARIABLEDICTIONARY
350
5D
  3
ACMDICTIONARY
350
142
  3
AMG
350
171
  3
AMGSNAPSETTINGS
350
1F2
  3
ASE_INDEX_DICTIONARY
350
849
  3
DWGPROPS
350
26B5
  3
MAPISURF_MODULE
350
2279
  0
DICTIONARY
  5
592
330
2
100
AcDbDictionary
280
     1
281
     1
  3
ACAD_LAYERFILTERS
360
C7C
  3
ACAD_LAYERSTATES
360
822
  3
ACLYDICTIONARY
360
C7B
  3
AMLAYER_GROUPCOLORS
360
593
  0
DICTIONARY
  5
AB7
330
F
100
AcDbDictionary
280
     1
281
     1
  3
ADSK_XREC_LAYER_RECONCILED
360
16AA
  0
DICTIONARY
  5
AB9
330
5CF
100
AcDbDictionary
280
     1
281
     1
  3
ADSK_XREC_LAYER_RECONCILED
360
16AB
  0
DICTIONARY
  5
16AC
330
CF6
100
AcDbDictionary
280
     1
281
     1
  3
ADSK_XREC_LAYER_RECONCILED
360
16AD
  0
DICTIONARY
  5
16AE
330
EFB
100
AcDbDictionary
280
     1
281
     1
  3
ADSK_XREC_LAYER_RECONCILED
360
16AF
  0
DICTIONARY
  5
12A
330
1A
100
AcDbDictionary
280
     1
281
     1
  3
ACAD_INDEX
360
12B
  3
ACAD_SORTENTS
360
19A3
  0
DICTIONARY
  5
26C0
330
26AC
100
AcDbDictionary
280
     1
281
     1
  3
ACAD_MTEXT_RT
360
26C1
  0
DICTIONARY
  5
26C2
330
26B0
100
AcDbDictionary
280
     1
281
     1
  3
ACAD_MTEXT_RT
360
26C3
  0
DICTIONARY
  5
26B6
330
22
100
AcDbDictionary
280
     1
281
     1
  3
ACAD_XREC_ROUNDTRIP
360
26B7
  0
DICTIONARY
  5
3CA
102
{ACAD_REACTORS
330
C
102
}
330
C
100
AcDbDictionary
281
     1
  0
DICTIONARY
  5
D
102
{ACAD_REACTORS
330
C
102
}
330
C
100
AcDbDictionary
281
     1
  0
DICTIONARY
  5
167
102
{ACAD_REACTORS
330
C
102
}
330
C
100
AcDbDictionary
281
     1
  3
Layout1
350
16A
  3
Model
350
169
  0
DICTIONARY
  5
3C9
102
{ACAD_REACTORS
330
C
102
}
330
C
100
AcDbDictionary
281
     1
  3
ByBlock
350
A3F
  3
ByLayer
350
A37
  3
Global
350
A47
  0
DICTIONARY
  5
A72
102
{ACAD_REACTORS
330
C
102
}
330
C
100
AcDbDictionary
281
     1
  3
Standard
350
A73
  0
DICTIONARY
  5
E
102
{ACAD_REACTORS
330
C
102
}
330
C
100
AcDbDictionary
281
     1
  3
STANDARD
350
13
  0
DICTIONARY
  5
168
102
{ACAD_REACTORS
330
C
102
}
330
C
100
AcDbDictionary
281
     1
  0
ACDBDICTIONARYWDFLT
  5
165
102
{ACAD_REACTORS
330
C
102
}
330
C
100
AcDbDictionary
281
     1
  3
Normal
350
166
100
AcDbDictionaryWithDefault
340
166
  0
DICTIONARY
  5
A60
102
{ACAD_REACTORS
330
C
102
}
330
C
100
AcDbDictionary
281
     1
  3
A0
350
A61
  3
A1
350
A62
  3
A2
350
A63
  3
A3
350
A64
  3
A4
350
A65
  3
A5
350
A66
  3
A6
350
A67
  3
A7
350
A68
  3
A8
350
A69
  3
A9
350
A6A
  3
B0
350
A6B
  3
B1
350
A6C
  3
B2
350
A6D
  3
B3
350
A6E
  3
B4
350
A6F
  3
B5
350
A70
  3
B6
350
A71
  0
DICTIONARY
  5
650
102
{ACAD_REACTORS
330
C
102
}
330
C
100
AcDbDictionary
281
     1
  3
Standard
350
651
  0
DICTIONARY
  5
A4F
102
{ACAD_REACTORS
330
C
102
}
330
C
100
AcDbDictionary
281
     1
  3
2dWireframe
350
A55
  3
3D Hidden
350
A57
  3
3dWireframe
350
A56
  3
Basic
350
A54
  3
Brighten
350
A5B
  3
ColorChange
350
A5F
  3
Conceptual
350
A58
  3
Dim
350
A5A
  3
Facepattern
350
A5E
  3
Flat
350
A50
  3
FlatWithEdges
350
A51
  3
Gouraud
350
A52
  3
GouraudWithEdges
350
A53
  3
Linepattern
350
A5D
  3
Realistic
350
A59
  3
Thicken
350
A5C
  0
XRECORD
  5
AF1
102
{ACAD_REACTORS
330
C
102
}
330
C
100
AcDbXrecord
280
     1
 90
        1
330
651
  0
DICTIONARY
  5
5D
102
{ACAD_REACTORS
330
C
102
}
330
C
100
AcDbDictionary
281
     1
  3
CANNOSCALE
350
AF4
  3
CMLEADERSTYLE
350
AF2
  3
CTABLESTYLE
350
66F
  3
DIMADEC
350
5E
  3
DIMASSOC
350
3C7
  3
INDEXCTL
350
128
  3
LAYEREVAL
350
AF6
  3
LAYERNOTIFY
350
AF7
  3
LIGHTINGUNITS
350
AF5
  3
MSLTSCALE
350
AF3
  3
SORTENTS
350
16B0
  0
DICTIONARY
  5
142
102
{ACAD_REACTORS
330
C
102
}
330
C
100
AcDbDictionary
281
     1
  3
ACMSTDDICTIONARY
350
143
  3
AMDTSECTSYM_ARROWCOLOR
350
47D
  0
DICTIONARY
  5
171
102
{ACAD_REACTORS
330
C
102
}
330
C
100
AcDbDictionary
281
     1
  3
AcMgSettings
350
172
  0
DICTIONARY
  5
1F2
102
{ACAD_REACTORS
330
C
102
}
330
C
100
AcDbDictionary
281
     1
  3
DIMENSION
350
C6F
  3
FEA
350
C70
  3
HATCH
350
C71
  3
SYMBOLS
350
C72
  0
DICTIONARY
  5
849
102
{ACAD_REACTORS
330
C
102
}
330
C
100
AcDbDictionary
281
     1
  3
ASEBlockHierarchyIndexRecord
350
84B
1001
DCO15
1040
1524370329.156
  0
XRECORD
  5
26B5
102
{ACAD_REACTORS
330
C
102
}
330
C
100
AcDbXrecord
280
     1
  1
DWGPROPS COOKIE
  2

  3

  4

  6

  7

  8
se-jenboh
  9

300
AmdtFileType=84
301
=
302
=
303
=
304
=
305
=
306
=
307
=
308
=
309
=
 40
0.0629379050925926
 41
2456346.541351968
 42
2456359.451175949
  1

 90
        1
  0
DICTIONARY
  5
C7C
102
{ACAD_REACTORS
330
592
102
}
330
592
100
AcDbDictionary
281
     1
  0
DICTIONARY
  5
822
102
{ACAD_REACTORS
330
592
102
}
330
592
100
AcDbDictionary
281
     1
  0
DICTIONARY
  5
C7B
102
{ACAD_REACTORS
330
592
102
}
330
592
100
AcDbDictionary
281
     1
1001
ACAD
1000
<All
  0
DICTIONARY
  5
593
102
{ACAD_REACTORS
330
592
102
}
330
592
100
AcDbDictionary
280
     1
281
     1
  0
XRECORD
  5
16AA
102
{ACAD_REACTORS
330
AB7
102
}
330
AB7
100
AcDbXrecord
280
     1
290
     1
  0
XRECORD
  5
16AB
102
{ACAD_REACTORS
330
AB9
102
}
330
AB9
100
AcDbXrecord
280
     1
290
     1
  0
XRECORD
  5
16AD
102
{ACAD_REACTORS
330
16AC
102
}
330
16AC
100
AcDbXrecord
280
     1
290
     1
  0
XRECORD
  5
16AF
102
{ACAD_REACTORS
330
16AE
102
}
330
16AE
100
AcDbXrecord
280
     1
290
     1
  0
DICTIONARY
  5
12B
102
{ACAD_REACTORS
330
12A
102
}
330
12A
100
AcDbDictionary
281
     1
  3
*A1
350
12C
  0
SORTENTSTABLE
  5
19A3
102
{ACAD_REACTORS
330
12A
102
}
330
12A
100
AcDbSortentsTable
330
1A
  0
XRECORD
  5
26C1
102
{ACAD_REACTORS
330
26C0
102
}
330
26C0
100
AcDbXrecord
280
     1
 40
11487.0
  1
\U+2205255 [10,039"]
  0
XRECORD
  5
26C3
102
{ACAD_REACTORS
330
26C2
102
}
330
26C2
100
AcDbXrecord
280
     1
 40
10566.0
  1
\U+2205169 [6,623"]
  0
XRECORD
  5
26B7
102
{ACAD_REACTORS
330
26B6
102
}
330
26B6
100
AcDbXrecord
280
     1
102
SHADEPLOT
 70
     0
  0
LAYOUT
  5
16A
102
{ACAD_XDICTIONARY
360
824
102
}
102
{ACAD_REACTORS
330
167
102
}
330
167
100
AcDbPlotSettings
  1

  2
none_device
  4
Letter_(8.50_x_11.00_Inches)
  6

 40
6.349999904632567
 41
6.349999904632567
 42
6.350006103515625
 43
6.350006103515625
 44
215.8999938964844
 45
279.3999938964844
 46
0.0
 47
7.25904629660107
 48
0.0
 49
0.0
140
0.0
141
0.0
142
1.0
143
1.0
 70
   688
 72
     0
 73
     1
 74
     5
  7
@Layout.ctb
 75
     0
147
1.0
148
-74.57150970956639
149
-30.33168042120906
100
AcDbLayout
  1
Layout1
 70
     1
 71
     1
 10
-0.2500002402958907
 20
-0.2499999962453767
 11
10.74999951940821
 21
8.249999763458731
 12
0.0
 22
0.0
 32
0.0
 14
1.000000000000000E+20
 24
1.000000000000000E+20
 34
1.000000000000000E+20
 15
-1.000000000000000E+20
 25
-1.000000000000000E+20
 35
-1.000000000000000E+20
146
0.0
 13
0.0
 23
0.0
 33
0.0
 16
1.0
 26
0.0
 36
0.0
 17
0.0
 27
1.0
 37
0.0
 76
     0
330
17
331
22
1001
ACAD_PSEXT
1000
None
1000
None
1000
Not applicable
1000
The layout will not be plotted unless a new plotter configuration name is selected.
1070
     0
  0
LAYOUT
  5
169
102
{ACAD_XDICTIONARY
360
26B8
102
}
102
{ACAD_REACTORS
330
167
102
}
330
167
100
AcDbPlotSettings
  1

  2
none_device
  4
Letter_(8.50_x_11.00_Inches)
  6

 40
6.349999904632567
 41
6.349999904632567
 42
6.350006103515625
 43
6.350006103515625
 44
215.8999938964844
 45
279.3999938964844
 46
38.1308720290886
 47
0.0
 48
0.0
 49
0.0
140
0.0
141
0.0
142
1.0
143
24.24127445441686
 70
 11956
 72
     0
 73
     1
 74
     0
  7
@Layout.ctb
 75
     0
147
0.0412519565289521
148
8019.824937415057
149
-189.2331007602539
100
AcDbLayout
  1
Model
 70
     1
 71
     0
 10
0.0
 20
0.0
 11
12.0
 21
9.0
 12
0.0
 22
0.0
 32
0.0
 14
0.0
 24
0.0
 34
0.0
 15
0.0
 25
0.0
 35
0.0
146
0.0
 13
0.0
 23
0.0
 33
0.0
 16
1.0
 26
0.0
 36
0.0
 17
0.0
 27
1.0
 37
0.0
 76
     0
330
1A
331
A35
1001
ACAD_PSEXT
1000
None
1000
None
1000
Not applicable
1000
The layout will not be plotted unless a new plotter configuration name is selected.
1070
     0
  0
MATERIAL
  5
A3F
102
{ACAD_XDICTIONARY
360
A40
102
}
102
{ACAD_REACTORS
330
3C9
102
}
330
3C9
100
AcDbMaterial
  1
ByBlock
 72
     0
 43
0.0008202099737533
 43
0.0
 43
0.0
 43
0.0
 43
0.0
 43
0.0008202099737533
 43
0.0
 43
0.0
 43
0.0
 43
0.0
 43
1.0
 43
0.0
 43
0.0
 43
0.0
 43
0.0
 43
1.0
 77
     0
 47
0.0008202099737533
 47
0.0
 47
0.0
 47
0.0
 47
0.0
 47
0.0008202099737533
 47
0.0
 47
0.0
 47
0.0
 47
0.0
 47
1.0
 47
0.0
 47
0.0
 47
0.0
 47
0.0
 47
1.0
171
     0
 49
0.0008202099737533
 49
0.0
 49
0.0
 49
0.0
 49
0.0
 49
0.0008202099737533
 49
0.0
 49
0.0
 49
0.0
 49
0.0
 49
1.0
 49
0.0
 49
0.0
 49
0.0
 49
0.0
 49
1.0
175
     0
142
0.0008202099737533
142
0.0
142
0.0
142
0.0
142
0.0
142
0.0008202099737533
142
0.0
142
0.0
142
0.0
142
0.0
142
1.0
142
0.0
142
0.0
142
0.0
142
0.0
142
1.0
179
     0
144
0.0008202099737533
144
0.0
144
0.0
144
0.0
144
0.0
144
0.0008202099737533
144
0.0
144
0.0
144
0.0
144
0.0
144
1.0
144
0.0
144
0.0
144
0.0
144
0.0
144
1.0
147
0.0008202099737533
147
0.0
147
0.0
147
0.0
147
0.0
147
0.0008202099737533
147
0.0
147
0.0
147
0.0
147
0.0
147
1.0
147
0.0
147
0.0
147
0.0
147
0.0
147
1.0
  0
MATERIAL
  5
A37
102
{ACAD_XDICTIONARY
360
A38
102
}
102
{ACAD_REACTORS
330
3C9
102
}
330
3C9
100
AcDbMaterial
  1
ByLayer
 72
     0
 43
0.0008202099737533
 43
0.0
 43
0.0
 43
0.0
 43
0.0
 43
0.0008202099737533
 43
0.0
 43
0.0
 43
0.0
 43
0.0
 43
1.0
 43
0.0
 43
0.0
 43
0.0
 43
0.0
 43
1.0
 77
     0
 47
0.0008202099737533
 47
0.0
 47
0.0
 47
0.0
 47
0.0
 47
0.0008202099737533
 47
0.0
 47
0.0
 47
0.0
 47
0.0
 47
1.0
 47
0.0
 47
0.0
 47
0.0
 47
0.0
 47
1.0
171
     0
 49
0.0008202099737533
 49
0.0
 49
0.0
 49
0.0
 49
0.0
 49
0.0008202099737533
 49
0.0
 49
0.0
 49
0.0
 49
0.0
 49
1.0
 49
0.0
 49
0.0
 49
0.0
 49
0.0
 49
1.0
175
     0
142
0.0008202099737533
142
0.0
142
0.0
142
0.0
142
0.0
142
0.0008202099737533
142
0.0
142
0.0
142
0.0
142
0.0
142
1.0
142
0.0
142
0.0
142
0.0
142
0.0
142
1.0
179
     0
144
0.0008202099737533
144
0.0
144
0.0
144
0.0
144
0.0
144
0.0008202099737533
144
0.0
144
0.0
144
0.0
144
0.0
144
1.0
144
0.0
144
0.0
144
0.0
144
0.0
144
1.0
147
0.0008202099737533
147
0.0
147
0.0
147
0.0
147
0.0
147
0.0008202099737533
147
0.0
147
0.0
147
0.0
147
0.0
147
1.0
147
0.0
147
0.0
147
0.0
147
0.0
147
1.0
  0
MATERIAL
  5
A47
102
{ACAD_XDICTIONARY
360
A48
102
}
102
{ACAD_REACTORS
330
3C9
102
}
330
3C9
100
AcDbMaterial
  1
Global
 72
     0
 43
0.0008202099737533
 43
0.0
 43
0.0
 43
0.0
 43
0.0
 43
0.0008202099737533
 43
0.0
 43
0.0
 43
0.0
 43
0.0
 43
1.0
 43
0.0
 43
0.0
 43
0.0
 43
0.0
 43
1.0
 77
     0
 47
0.0008202099737533
 47
0.0
 47
0.0
 47
0.0
 47
0.0
 47
0.0008202099737533
 47
0.0
 47
0.0
 47
0.0
 47
0.0
 47
1.0
 47
0.0
 47
0.0
 47
0.0
 47
0.0
 47
1.0
171
     0
 49
0.0008202099737533
 49
0.0
 49
0.0
 49
0.0
 49
0.0
 49
0.0008202099737533
 49
0.0
 49
0.0
 49
0.0
 49
0.0
 49
1.0
 49
0.0
 49
0.0
 49
0.0
 49
0.0
 49
1.0
175
     0
142
0.0008202099737533
142
0.0
142
0.0
142
0.0
142
0.0
142
0.0008202099737533
142
0.0
142
0.0
142
0.0
142
0.0
142
1.0
142
0.0
142
0.0
142
0.0
142
0.0
142
1.0
179
     0
144
0.0008202099737533
144
0.0
144
0.0
144
0.0
144
0.0
144
0.0008202099737533
144
0.0
144
0.0
144
0.0
144
0.0
144
1.0
144
0.0
144
0.0
144
0.0
144
0.0
144
1.0
147
0.0008202099737533
147
0.0
147
0.0
147
0.0
147
0.0
147
0.0008202099737533
147
0.0
147
0.0
147
0.0
147
0.0
147
1.0
147
0.0
147
0.0
147
0.0
147
0.0
147
1.0
  0
MLEADERSTYLE
  5
A73
102
{ACAD_REACTORS
330
A72
102
}
330
A72
100
AcDbMLeaderStyle
170
     2
171
     1
172
     0
 90
        2
 40
0.0
 41
0.0
173
     1
 91
-1056964608
340
14
 92
       -2
290
     1
 42
2.0
291
     1
 43
0.36
  3
Standard
 44
4.0
300

342
10
174
     1
178
     6
175
     1
176
     0
 93
-1056964608
 45
4.0
292
     0
297
     0
 46
4.0
 94
-1056964608
 47
1.0
 49
1.0
140
1.0
293
     1
141
0.0
294
     1
177
     0
142
1.0
295
     0
296
     0
143
0.125
1001
ACAD_MLEADERVER
1070
     2
  0
MLINESTYLE
  5
13
102
{ACAD_REACTORS
330
E
102
}
330
E
100
AcDbMlineStyle
  2
STANDARD
 70
     0
  3

 62
     0
 51
90.0
 52
90.0
 71
     2
 49
0.5
 62
   256
  6
BYLAYER
 49
-0.5
 62
   256
  6
BYLAYER
  0
ACDBPLACEHOLDER
  5
166
102
{ACAD_REACTORS
330
165
102
}
330
165
  0
SCALE
  5
A61
102
{ACAD_REACTORS
330
A60
102
}
330
A60
100
AcDbScale
 70
     0
300
1:1
140
1.0
141
1.0
290
     1
  0
SCALE
  5
A62
102
{ACAD_REACTORS
330
A60
102
}
330
A60
100
AcDbScale
 70
     0
300
1:2
140
1.0
141
2.0
290
     0
  0
SCALE
  5
A63
102
{ACAD_REACTORS
330
A60
102
}
330
A60
100
AcDbScale
 70
     0
300
1:4
140
1.0
141
4.0
290
     0
  0
SCALE
  5
A64
102
{ACAD_REACTORS
330
A60
102
}
330
A60
100
AcDbScale
 70
     0
300
1:5
140
1.0
141
5.0
290
     0
  0
SCALE
  5
A65
102
{ACAD_REACTORS
330
A60
102
}
330
A60
100
AcDbScale
 70
     0
300
1:8
140
1.0
141
8.0
290
     0
  0
SCALE
  5
A66
102
{ACAD_REACTORS
330
A60
102
}
330
A60
100
AcDbScale
 70
     0
300
1:10
140
1.0
141
10.0
290
     0
  0
SCALE
  5
A67
102
{ACAD_REACTORS
330
A60
102
}
330
A60
100
AcDbScale
 70
     0
300
1:16
140
1.0
141
16.0
290
     0
  0
SCALE
  5
A68
102
{ACAD_REACTORS
330
A60
102
}
330
A60
100
AcDbScale
 70
     0
300
1:20
140
1.0
141
20.0
290
     0
  0
SCALE
  5
A69
102
{ACAD_REACTORS
330
A60
102
}
330
A60
100
AcDbScale
 70
     0
300
1:30
140
1.0
141
30.0
290
     0
  0
SCALE
  5
A6A
102
{ACAD_REACTORS
330
A60
102
}
330
A60
100
AcDbScale
 70
     0
300
1:40
140
1.0
141
40.0
290
     0
  0
SCALE
  5
A6B
102
{ACAD_REACTORS
330
A60
102
}
330
A60
100
AcDbScale
 70
     0
300
1:50
140
1.0
141
50.0
290
     0
  0
SCALE
  5
A6C
102
{ACAD_REACTORS
330
A60
102
}
330
A60
100
AcDbScale
 70
     0
300
1:100
140
1.0
141
100.0
290
     0
  0
SCALE
  5
A6D
102
{ACAD_REACTORS
330
A60
102
}
330
A60
100
AcDbScale
 70
     0
300
2:1
140
2.0
141
1.0
290
     0
  0
SCALE
  5
A6E
102
{ACAD_REACTORS
330
A60
102
}
330
A60
100
AcDbScale
 70
     0
300
4:1
140
4.0
141
1.0
290
     0
  0
SCALE
  5
A6F
102
{ACAD_REACTORS
330
A60
102
}
330
A60
100
AcDbScale
 70
     0
300
8:1
140
8.0
141
1.0
290
     0
  0
SCALE
  5
A70
102
{ACAD_REACTORS
330
A60
102
}
330
A60
100
AcDbScale
 70
     0
300
10:1
140
10.0
141
1.0
290
     0
  0
SCALE
  5
A71
102
{ACAD_REACTORS
330
A60
102
}
330
A60
100
AcDbScale
 70
     0
300
100:1
140
100.0
141
1.0
290
     0
  0
TABLESTYLE
  5
651
102
{ACAD_XDICTIONARY
360
AED
102
}
102
{ACAD_REACTORS
330
650
102
}
330
650
100
AcDbTableStyle
  3
Standard
 70
     0
 71
     0
 40
1.5
 41
1.5
280
     0
281
     0
  7
STANDARD
140
4.5
170
     2
 62
     0
 63
     7
283
     0
274
    -2
284
     1
 64
     0
275
    -2
285
     1
 65
     0
276
    -2
286
     1
 66
     0
277
    -2
287
     1
 67
     0
278
    -2
288
     1
 68
     0
279
    -2
289
     1
 69
     0
  7
STANDARD
140
6.0
170
     5
 62
     0
 63
     7
283
     0
274
    -2
284
     1
 64
     0
275
    -2
285
     1
 65
     0
276
    -2
286
     1
 66
     0
277
    -2
287
     1
 67
     0
278
    -2
288
     1
 68
     0
279
    -2
289
     1
 69
     0
  7
STANDARD
140
4.5
170
     5
 62
     0
 63
     7
283
     0
274
    -2
284
     1
 64
     0
275
    -2
285
     1
 65
     0
276
    -2
286
     1
 66
     0
277
    -2
287
     1
 67
     0
278
    -2
288
     1
 68
     0
279
    -2
289
     1
 69
     0
  0
VISUALSTYLE
  5
A55
102
{ACAD_REACTORS
330
A4F
102
}
330
A4F
100
AcDbVisualStyle
  2
2dWireframe
 70
     4
 71
     0
 72
     2
 73
     0
 90
        0
 40
-0.6
 41
-30.0
 62
     5
 63
     7
 74
     1
 91
        4
 64
     7
 65
   257
 75
     1
175
     1
 42
1.0
 92
        0
 66
   257
 43
1.0
 76
     1
 77
     6
 78
     2
 67
     7
 79
     5
170
     0
171
     0
290
     0
174
     0
 93
        1
 44
0.0
173
     0
291
     0
 45
0.0
1001
ACAD
1000
AcDbSavedByObjectVersion
1070
     0
1000
AcDbSavedByObjectVersion
1070
     0
1000
AcDbSavedByObjectVersion
1070
     0
1000
AcDbSavedByObjectVersion
1070
     0
1000
AcDbSavedByObjectVersion
1070
     0
  0
VISUALSTYLE
  5
A57
102
{ACAD_REACTORS
330
A4F
102
}
330
A4F
100
AcDbVisualStyle
  2
3D Hidden
 70
     6
 71
     1
 72
     2
 73
     2
 90
        0
 40
-0.6
 41
-30.0
 62
     5
 63
     7
 74
     2
 91
        2
 64
     7
 65
   257
 75
     2
175
     1
 42
40.0
 92
        0
 66
   257
 43
1.0
 76
     1
 77
     6
 78
     2
 67
     7
 79
     3
170
     0
171
     0
290
     0
174
     0
 93
        1
 44
0.0
173
     0
291
     0
 45
0.0
1001
ACAD
1000
AcDbSavedByObjectVersion
1070
     0
1000
AcDbSavedByObjectVersion
1070
     0
1000
AcDbSavedByObjectVersion
1070
     0
1000
AcDbSavedByObjectVersion
1070
     0
1000
AcDbSavedByObjectVersion
1070
     0
  0
VISUALSTYLE
  5
A56
102
{ACAD_REACTORS
330
A4F
102
}
330
A4F
100
AcDbVisualStyle
  2
3dWireframe
 70
     5
 71
     0
 72
     2
 73
     0
 90
        0
 40
-0.6
 41
-30.0
 62
     5
 63
     7
 74
     1
 91
        4
 64
     7
 65
   257
 75
     1
175
     1
 42
1.0
 92
        0
 66
   257
 43
1.0
 76
     1
 77
     6
 78
     2
 67
     7
 79
     5
170
     0
171
     0
290
     0
174
     0
 93
        1
 44
0.0
173
     0
291
     0
 45
0.0
1001
ACAD
1000
AcDbSavedByObjectVersion
1070
     0
1000
AcDbSavedByObjectVersion
1070
     0
1000
AcDbSavedByObjectVersion
1070
     0
1000
AcDbSavedByObjectVersion
1070
     0
1000
AcDbSavedByObjectVersion
1070
     0
  0
VISUALSTYLE
  5
A54
102
{ACAD_REACTORS
330
A4F
102
}
330
A4F
100
AcDbVisualStyle
  2
Basic
 70
     7
 71
     1
 72
     0
 73
     1
 90
        0
 40
-0.6
 41
-30.0
 62
     5
 63
     7
 74
     0
 91
        4
 64
     7
 65
   257
 75
     1
175
     1
 42
1.0
 92
        8
 66
     7
 43
1.0
 76
     1
 77
     6
 78
     2
 67
     7
 79
     5
170
     0
171
     0
290
     0
174
     0
 93
        1
 44
0.0
173
     0
291
     1
 45
0.0
1001
ACAD
1000
AcDbSavedByObjectVersion
1070
     0
1000
AcDbSavedByObjectVersion
1070
     0
1000
AcDbSavedByObjectVersion
1070
     0
1000
AcDbSavedByObjectVersion
1070
     0
1000
AcDbSavedByObjectVersion
1070
     0
  0
VISUALSTYLE
  5
A5B
102
{ACAD_REACTORS
330
A4F
102
}
330
A4F
100
AcDbVisualStyle
  2
Brighten
 70
    12
 71
     2
 72
     2
 73
     0
 90
        0
 40
-0.6
 41
-30.0
 62
     5
 63
     7
 74
     1
 91
        4
 64
     7
 65
   257
 75
     1
175
     1
 42
1.0
 92
        8
 66
     7
 43
1.0
 76
     1
 77
     6
 78
     2
 67
     7
 79
     5
170
     0
171
     0
290
     0
174
     0
 93
        1
 44
50.0
173
     0
291
     1
 45
0.0
1001
ACAD
1000
AcDbSavedByObjectVersion
1070
     0
1000
AcDbSavedByObjectVersion
1070
     0
1000
AcDbSavedByObjectVersion
1070
     0
1000
AcDbSavedByObjectVersion
1070
     0
1000
AcDbSavedByObjectVersion
1070
     0
  0
VISUALSTYLE
  5
A5F
102
{ACAD_REACTORS
330
A4F
102
}
330
A4F
100
AcDbVisualStyle
  2
ColorChange
 70
    16
 71
     2
 72
     2
 73
     3
 90
        0
 40
-0.6
 41
-30.0
 62
     5
 63
     8
 74
     1
 91
        4
 64
     7
 65
   257
 75
     1
175
     1
 42
1.0
 92
        8
 66
     8
 43
1.0
 76
     1
 77
     6
 78
     2
 67
     7
 79
     5
170
     0
171
     0
290
     0
174
     0
 93
        1
 44
0.0
173
     0
291
     1
 45
0.0
1001
ACAD
1000
AcDbSavedByObjectVersion
1070
     0
1000
AcDbSavedByObjectVersion
1070
     0
1000
AcDbSavedByObjectVersion
1070
     0
1000
AcDbSavedByObjectVersion
1070
     0
1000
AcDbSavedByObjectVersion
1070
     0
  0
VISUALSTYLE
  5
A58
102
{ACAD_REACTORS
330
A4F
102
}
330
A4F
100
AcDbVisualStyle
  2
Conceptual
 70
     9
 71
     3
 72
     2
 73
     0
 90
        0
 40
-0.6
 41
-30.0
 62
     5
 63
     7
 74
     2
 91
        2
 64
     7
 65
   257
 75
     1
175
     1
 42
40.0
 92
        8
 66
     7
 43
1.0
 76
     1
 77
     6
 78
     2
 67
     7
 79
     3
170
     0
171
     0
290
     0
174
     0
 93
        1
 44
0.0
173
     0
291
     0
 45
0.0
1001
ACAD
1000
AcDbSavedByObjectVersion
1070
     0
1000
AcDbSavedByObjectVersion
1070
     0
1000
AcDbSavedByObjectVersion
1070
     0
1000
AcDbSavedByObjectVersion
1070
     0
1000
AcDbSavedByObjectVersion
1070
     0
  0
VISUALSTYLE
  5
A5A
102
{ACAD_REACTORS
330
A4F
102
}
330
A4F
100
AcDbVisualStyle
  2
Dim
 70
    11
 71
     2
 72
     2
 73
     0
 90
        0
 40
-0.6
 41
-30.0
 62
     5
 63
     7
 74
     1
 91
        4
 64
     7
 65
   257
 75
     1
175
     1
 42
1.0
 92
        8
 66
     7
 43
1.0
 76
     1
 77
     6
 78
     2
 67
     7
 79
     5
170
     0
171
     0
290
     0
174
     0
 93
        1
 44
-50.0
173
     0
291
     1
 45
0.0
1001
ACAD
1000
AcDbSavedByObjectVersion
1070
     0
1000
AcDbSavedByObjectVersion
1070
     0
1000
AcDbSavedByObjectVersion
1070
     0
1000
AcDbSavedByObjectVersion
1070
     0
1000
AcDbSavedByObjectVersion
1070
     0
  0
VISUALSTYLE
  5
A5E
102
{ACAD_REACTORS
330
A4F
102
}
330
A4F
100
AcDbVisualStyle
  2
Facepattern
 70
    15
 71
     2
 72
     2
 73
     0
 90
        0
 40
-0.6
 41
-30.0
 62
     5
 63
     7
 74
     1
 91
        4
 64
     7
 65
   257
 75
     1
175
     1
 42
1.0
 92
        8
 66
     7
 43
1.0
 76
     1
 77
     6
 78
     2
 67
     7
 79
     5
170
     0
171
     0
290
     0
174
     0
 93
        1
 44
0.0
173
     0
291
     1
 45
0.0
1001
ACAD
1000
AcDbSavedByObjectVersion
1070
     0
1000
AcDbSavedByObjectVersion
1070
     0
1000
AcDbSavedByObjectVersion
1070
     0
1000
AcDbSavedByObjectVersion
1070
     0
1000
AcDbSavedByObjectVersion
1070
     0
  0
VISUALSTYLE
  5
A50
102
{ACAD_REACTORS
330
A4F
102
}
330
A4F
100
AcDbVisualStyle
  2
Flat
 70
     0
 71
     2
 72
     1
 73
     1
 90
        2
 40
-0.6
 41
30.0
 62
     5
 63
     7
 74
     0
 91
        4
 64
     7
 65
   257
 75
     1
175
     1
 42
1.0
 92
        8
 66
     7
 43
1.0
 76
     1
 77
     6
 78
     2
 67
     7
 79
     5
170
     0
171
     0
290
     0
174
     0
 93
       13
 44
0.0
173
     0
291
     1
 45
0.0
1001
ACAD
1000
AcDbSavedByObjectVersion
1070
     0
1000
AcDbSavedByObjectVersion
1070
     0
1000
AcDbSavedByObjectVersion
1070
     0
1000
AcDbSavedByObjectVersion
1070
     0
1000
AcDbSavedByObjectVersion
1070
     0
  0
VISUALSTYLE
  5
A51
102
{ACAD_REACTORS
330
A4F
102
}
330
A4F
100
AcDbVisualStyle
  2
FlatWithEdges
 70
     1
 71
     2
 72
     1
 73
     1
 90
        2
 40
-0.6
 41
30.0
 62
     5
 63
     7
 74
     1
 91
        4
 64
     7
 65
   257
 75
     1
175
     1
 42
1.0
 92
        0
 66
   257
 43
1.0
 76
     1
 77
     6
 78
     2
 67
     7
 79
     5
170
     0
171
     0
290
     0
174
     0
 93
       13
 44
0.0
173
     0
291
     1
 45
0.0
1001
ACAD
1000
AcDbSavedByObjectVersion
1070
     0
1000
AcDbSavedByObjectVersion
1070
     0
1000
AcDbSavedByObjectVersion
1070
     0
1000
AcDbSavedByObjectVersion
1070
     0
1000
AcDbSavedByObjectVersion
1070
     0
  0
VISUALSTYLE
  5
A52
102
{ACAD_REACTORS
330
A4F
102
}
330
A4F
100
AcDbVisualStyle
  2
Gouraud
 70
     2
 71
     2
 72
     2
 73
     1
 90
        2
 40
-0.6
 41
30.0
 62
     5
 63
     7
 74
     0
 91
        4
 64
     7
 65
   257
 75
     1
175
     1
 42
1.0
 92
        0
 66
     7
 43
1.0
 76
     1
 77
     6
 78
     2
 67
     7
 79
     5
170
     0
171
     0
290
     0
174
     0
 93
       13
 44
0.0
173
     0
291
     1
 45
0.0
1001
ACAD
1000
AcDbSavedByObjectVersion
1070
     0
1000
AcDbSavedByObjectVersion
1070
     0
1000
AcDbSavedByObjectVersion
1070
     0
1000
AcDbSavedByObjectVersion
1070
     0
1000
AcDbSavedByObjectVersion
1070
     0
  0
VISUALSTYLE
  5
A53
102
{ACAD_REACTORS
330
A4F
102
}
330
A4F
100
AcDbVisualStyle
  2
GouraudWithEdges
 70
     3
 71
     2
 72
     2
 73
     1
 90
        2
 40
-0.6
 41
30.0
 62
     5
 63
     7
 74
     1
 91
        4
 64
     7
 65
   257
 75
     1
175
     1
 42
1.0
 92
        0
 66
   257
 43
1.0
 76
     1
 77
     6
 78
     2
 67
     7
 79
     5
170
     0
171
     0
290
     0
174
     0
 93
       13
 44
0.0
173
     0
291
     1
 45
0.0
1001
ACAD
1000
AcDbSavedByObjectVersion
1070
     0
1000
AcDbSavedByObjectVersion
1070
     0
1000
AcDbSavedByObjectVersion
1070
     0
1000
AcDbSavedByObjectVersion
1070
     0
1000
AcDbSavedByObjectVersion
1070
     0
  0
VISUALSTYLE
  5
A5D
102
{ACAD_REACTORS
330
A4F
102
}
330
A4F
100
AcDbVisualStyle
  2
Linepattern
 70
    14
 71
     2
 72
     2
 73
     0
 90
        0
 40
-0.6
 41
-30.0
 62
     5
 63
     7
 74
     1
 91
        4
 64
     7
 65
   257
 75
     7
175
     7
 42
1.0
 92
        8
 66
     7
 43
1.0
 76
     1
 77
     6
 78
     2
 67
     7
 79
     5
170
     0
171
     0
290
     0
174
     0
 93
        1
 44
0.0
173
     0
291
     1
 45
0.0
1001
ACAD
1000
AcDbSavedByObjectVersion
1070
     0
1000
AcDbSavedByObjectVersion
1070
     0
1000
AcDbSavedByObjectVersion
1070
     0
1000
AcDbSavedByObjectVersion
1070
     0
1000
AcDbSavedByObjectVersion
1070
     0
  0
VISUALSTYLE
  5
A59
102
{ACAD_REACTORS
330
A4F
102
}
330
A4F
100
AcDbVisualStyle
  2
Realistic
 70
     8
 71
     2
 72
     2
 73
     0
 90
        0
 40
-0.6
 41
-30.0
 62
     5
 63
     7
 74
     1
 91
        0
 64
     7
 65
   257
 75
     1
175
     1
 42
1.0
 92
        8
 66
     8
 43
1.0
 76
     1
 77
     6
 78
     2
 67
     7
 79
     5
170
     0
171
     0
290
     0
174
     0
 93
       13
 44
0.0
173
     0
291
     0
 45
0.0
1001
ACAD
1000
AcDbSavedByObjectVersion
1070
     0
1000
AcDbSavedByObjectVersion
1070
     0
1000
AcDbSavedByObjectVersion
1070
     0
1000
AcDbSavedByObjectVersion
1070
     0
1000
AcDbSavedByObjectVersion
1070
     0
  0
VISUALSTYLE
  5
A5C
102
{ACAD_REACTORS
330
A4F
102
}
330
A4F
100
AcDbVisualStyle
  2
Thicken
 70
    13
 71
     2
 72
     2
 73
     0
 90
        0
 40
-0.6
 41
-30.0
 62
     5
 63
     7
 74
     1
 91
        4
 64
     7
 65
   257
 75
     1
175
     1
 42
1.0
 92
       12
 66
     7
 43
1.0
 76
     1
 77
     6
 78
     2
 67
     7
 79
     5
170
     0
171
     0
290
     0
174
     0
 93
        1
 44
0.0
173
     0
291
     1
 45
0.0
1001
ACAD
1000
AcDbSavedByObjectVersion
1070
     0
1000
AcDbSavedByObjectVersion
1070
     0
1000
AcDbSavedByObjectVersion
1070
     0
1000
AcDbSavedByObjectVersion
1070
     0
1000
AcDbSavedByObjectVersion
1070
     0
  0
DICTIONARYVAR
  5
AF4
102
{ACAD_REACTORS
330
5D
102
}
330
5D
100
DictionaryVariables
280
     0
  1
1:1
  0
DICTIONARYVAR
  5
AF2
102
{ACAD_REACTORS
330
5D
102
}
330
5D
100
DictionaryVariables
280
     0
  1
STANDARD
  0
DICTIONARYVAR
  5
66F
102
{ACAD_REACTORS
330
5D
102
}
330
5D
100
DictionaryVariables
280
     0
  1
STANDARD
  0
DICTIONARYVAR
  5
5E
102
{ACAD_REACTORS
330
5D
102
}
330
5D
100
DictionaryVariables
280
     0
  1
0
  0
DICTIONARYVAR
  5
3C7
102
{ACAD_REACTORS
330
5D
102
}
330
5D
100
DictionaryVariables
280
     0
  1
2
  0
DICTIONARYVAR
  5
128
102
{ACAD_REACTORS
330
5D
102
}
330
5D
100
DictionaryVariables
280
     0
  1
1
  0
DICTIONARYVAR
  5
AF6
102
{ACAD_REACTORS
330
5D
102
}
330
5D
100
DictionaryVariables
280
     0
  1
1
  0
DICTIONARYVAR
  5
AF7
102
{ACAD_REACTORS
330
5D
102
}
330
5D
100
DictionaryVariables
280
     0
  1
15
  0
DICTIONARYVAR
  5
AF5
102
{ACAD_REACTORS
330
5D
102
}
330
5D
100
DictionaryVariables
280
     0
  1
0
  0
DICTIONARYVAR
  5
AF3
102
{ACAD_REACTORS
330
5D
102
}
330
5D
100
DictionaryVariables
280
     0
  1
0
  0
DICTIONARYVAR
  5
16B0
102
{ACAD_REACTORS
330
5D
102
}
330
5D
100
DictionaryVariables
280
     0
  1
127
  0
DICTIONARY
  5
143
102
{ACAD_REACTORS
330
142
102
}
330
142
100
AcDbDictionary
281
     1
  0
XRECORD
  5
47D
102
{ACAD_REACTORS
330
142
102
}
330
142
100
AcDbXrecord
280
     1
 90
-1056964608
  0
DICTIONARY
  5
172
102
{ACAD_REACTORS
330
171
102
}
330
171
100
AcDbDictionary
281
     1
  3
DWGSETTINGS
350
21F7
  3
TRANSSETTINGS
350
21FB
  0
ACAMGFILTERDAT
  5
C6F
102
{ACAD_REACTORS
330
1F2
102
}
330
1F2
100
AcAmgFilterDat
 70
    15
  1
DIMENSION,AMDT_*_DIM
  2
*
  3
*
  4
*
  5
*
290
     1
  0
ACAMGFILTERDAT
  5
C70
102
{ACAD_REACTORS
330
1F2
102
}
330
1F2
100
AcAmgFilterDat
 70
    15
  1
*
  2
AM_FEA-AM_*
  3
*
  4
*
  5
*
290
     1
  0
ACAMGFILTERDAT
  5
C71
102
{ACAD_REACTORS
330
1F2
102
}
330
1F2
100
AcAmgFilterDat
 70
    15
  1
HATCH
  2
*
  3
*
  4
*
  5
*
290
     1
  0
ACAMGFILTERDAT
  5
C72
102
{ACAD_REACTORS
330
1F2
102
}
330
1F2
100
AcAmgFilterDat
 70
    15
  1
ACMFCFRAME,ACMDATUMTARGET,ACMDATUMID,ACMWELDSYM,ACMSURFSYM,ACMFEATID,ACMPARTREF,ACMBALLOON
  2
*
  3
*
  4
*
  5
*
290
     1
  0
XRECORD
  5
84B
102
{ACAD_REACTORS
330
849
102
}
330
849
100
AcDbXrecord
280
     1
  0
LAYER_INDEX
  5
12C
102
{ACAD_REACTORS
330
12B
102
}
330
12B
100
AcDbIndex
 40
2456359.451175949
100
AcDbLayerIndex
  8
0
360
12D
 90
        0
  8
AM_0
360
59B
 90
        1
  8
Visible Edges(ISO)
360
8F9
 90
        0
  8
Defpoints
360
AD1
 90
        0
  8
Sketch Geometry(ISO)
360
AD4
 90
        0
  8
AM_5
360
1EA7
 90
        0
  0
DICTIONARY
  5
824
330
16A
100
AcDbDictionary
280
     1
281
     1
  3
ACAD_XREC_ROUNDTRIP
360
26BA
  3
ADSK_XREC_LAYOUTTHUMBNAIL
360
825
  0
DICTIONARY
  5
26B8
330
169
100
AcDbDictionary
280
     1
281
     1
  3
ACAD_XREC_ROUNDTRIP
360
26B9
  0
DICTIONARY
  5
A40
330
A3F
100
AcDbDictionary
280
     1
281
     1
  3
ACAD_XREC_ROUNDTRIP
360
16BA
  3
BUMPTILE
360
A42
  3
DIFFUSETILE
360
A41
  3
OPACITYTILE
360
A45
  3
REFLECTIONTILE
360
A44
  3
REFRACTIONTILE
360
A46
  3
SPECULARTILE
360
A43
  0
DICTIONARY
  5
A38
330
A37
100
AcDbDictionary
280
     1
281
     1
  3
ACAD_XREC_ROUNDTRIP
360
16B9
  3
BUMPTILE
360
A3A
  3
DIFFUSETILE
360
A39
  3
OPACITYTILE
360
A3D
  3
REFLECTIONTILE
360
A3C
  3
REFRACTIONTILE
360
A3E
  3
SPECULARTILE
360
A3B
  0
DICTIONARY
  5
A48
330
A47
100
AcDbDictionary
280
     1
281
     1
  3
ACAD_XREC_ROUNDTRIP
360
16BB
  3
BUMPTILE
360
A4A
  3
DIFFUSETILE
360
A49
  3
OPACITYTILE
360
A4D
  3
REFLECTIONTILE
360
A4C
  3
REFRACTIONTILE
360
A4E
  3
SPECULARTILE
360
A4B
  0
DICTIONARY
  5
AED
330
651
100
AcDbDictionary
280
     1
281
     1
  3
ACAD_ROUNDTRIP_2008_TABLESTYLE_CELLSTYLEMAP
360
26B4
  3
ACAD_XREC_ROUNDTRIP
360
26BB
  0
IDBUFFER
  5
12D
330
0
100
AcDbIdBuffer
  0
IDBUFFER
  5
59B
330
0
100
AcDbIdBuffer
330
26B1
  0
IDBUFFER
  5
8F9
330
0
100
AcDbIdBuffer
  0
IDBUFFER
  5
AD1
330
0
100
AcDbIdBuffer
  0
IDBUFFER
  5
AD4
330
0
100
AcDbIdBuffer
  0
IDBUFFER
  5
1EA7
330
0
100
AcDbIdBuffer
  0
XRECORD
  5
26BA
102
{ACAD_REACTORS
330
824
102
}
330
824
100
AcDbXrecord
280
     1
102
SHADEPLOT
 70
     0
102
SHADEPLOTRESLEVEL
 70
     2
102
SHADEPLOTCUSTOMDPI
 70
   300
  0
XRECORD
  5
825
102
{ACAD_REACTORS
330
824
102
}
330
824
100
AcDbXrecord
280
     1
310
28000000B40000008B0000000100080000000000BC610000000000000000000000010000000000000000000000000000FFFFFF000000000000000000000000000000000000000000000000000000000000000000330000006600000099000000CC000000FF00000000330000333300006633000099330000CC330000FF3300
310
0000660000336600006666000099660000CC660000FF66000000990000339900006699000099990000CC990000FF99000000CC000033CC000066CC000099CC0000CCCC0000FFCC000000FF000033FF000066FF000099FF0000CCFF0000FFFF000000003300330033006600330099003300CC003300FF003300003333003333
310
33006633330099333300CC333300FF33330000663300336633006666330099663300CC663300FF66330000993300339933006699330099993300CC993300FF99330000CC330033CC330066CC330099CC3300CCCC3300FFCC330000FF330033FF330066FF330099FF3300CCFF3300FFFF330000006600330066006600660099
310
006600CC006600FF00660000336600333366006633660099336600CC336600FF33660000666600336666006666660099666600CC666600FF66660000996600339966006699660099996600CC996600FF99660000CC660033CC660066CC660099CC6600CCCC6600FFCC660000FF660033FF660066FF660099FF6600CCFF6600
310
FFFF660000009900330099006600990099009900CC009900FF00990000339900333399006633990099339900CC339900FF33990000669900336699006666990099669900CC669900FF66990000999900339999006699990099999900CC999900FF99990000CC990033CC990066CC990099CC9900CCCC9900FFCC990000FF99
310
0033FF990066FF990099FF9900CCFF9900FFFF99000000CC003300CC006600CC009900CC00CC00CC00FF00CC000033CC003333CC006633CC009933CC00CC33CC00FF33CC000066CC003366CC006666CC009966CC00CC66CC00FF66CC000099CC003399CC006699CC009999CC00CC99CC00FF99CC0000CCCC0033CCCC0066CC
310
CC0099CCCC00CCCCCC00FFCCCC0000FFCC0033FFCC0066FFCC0099FFCC00CCFFCC00FFFFCC000000FF003300FF006600FF009900FF00CC00FF00FF00FF000033FF003333FF006633FF009933FF00CC33FF00FF33FF000066FF003366FF006666FF009966FF00CC66FF00FF66FF000099FF003399FF006699FF009999FF00CC
310
99FF00FF99FF0000CCFF0033CCFF0066CCFF0099CCFF00CCCCFF00FFCCFF0000FFFF0033FFFF0066FFFF0099FFFF00CCFFFF00FFFFFF00000000000D0D0D001A1A1A00282828003535350043434300505050005D5D5D006B6B6B00787878008686860093939300A1A1A100AEAEAE00BBBBBB00C9C9C900D6D6D600E4E4E400
310
F1F1F100FFFFFF0000000000000000000000000000000000000000000000000000000000000000000000000000000000E2E2E2E2E2E2E2E2E2E2E2E2E2E2E2E2E2E2E2E2E2E2E2E2E2E2E2E2E2E2E2E2E2E2E2E2E2E2E2E2E2E2E2E2E2E2E2E2E2E2E2E2E2E2E2E2E2E2E2E2E2E2E2E2E2E2E2E2E2E2E2E2E2E2E2E2E2E2E2
310
E2E2E2E2E2E2E2E2E2E2E2E2E2E2E2E2E2E2E2E2E2E2E2E2E2E2E2E2E2E2E2E2E2E2E2E2E2E2E2E2E2E2E2E2E2E2E2E2E2E2E2E2E2E2E2E2E2E2E2E2E2E2E2E2E2E2E2E2E2E2E2E2E2E2E2E2E2E2E2E2E2E2E2E2E2E2E2E2E2E2E2E2E2E2E2E2E2E2E2E2E2E2E2E2E2E2E2E2E2E2E2E2E2E2E2E2E2E2E2E2E2E2E2E2E2E2E2
310
E2E2E2E2E2E2E2E2E2E2E2E2E2E2E2E2E2E2E2E2E2E2E2E2E2E2E2E2E2E2E2E2E2E2E2E2E2E2E2E2E2E2E2E2E2E2E2E2E2E2E2E2E2E2E2E2E2E2E2E2E2E2E2E2E2E2E2E2E2E2E2E2E2E2E2E2E2E2E2E2E2E2E2E2E2E2E2E2E2E2E2E2E2E2E2E2E2E2E2E2E2E2E2E2E2E2E2E2E2E2E2E2E2E2E2E2E2E2E2E2E2E2E2E2E2E2E2
310
E2E2E2E2E2E2E2E2E2E2E2E2E2E2E2E2E2E2E2E2E2E2E2E2E2E2E2E2E2E2E2E2E2E2E2E2E2E2E2E2E2E2E2E2E2E2E2E2E2E2E2E2E2E2E2E2E2E2E2E2E2E2E2E2E2E2E2E2E2E2E2E2E2E2E2E2E2E2E2E2E2E2E2E2E2E2E2E2E2E2E2E2E2E2E2E2E2E2E2E2E2E2E2E2E2E2E2E2E2E2E2E2E2E2E2E2E2E2E2E2E2E2E2E2E2E2E2
310
E2E2E2E2E2E2E2E2E2E2E2E2E2E2E2E2E2E2E2E2E2E2E2E2E2E2E2E2E2E2E2E2E2E2E2E2E2E2E2E2E2E2E2E2E2E2E2E2E2E2E2E2E2E2E2E2E2E2E2E2E2E2E2E2E2E2E2E2E2E2E2E2E2E2E2E2E2E2E2E2E2E2E2E2E2E2E2E2E2E2E2E2E2E2E2E2E2E2E2E2E2E2E2E2E2E2E2E2E2E2E2E2E2E2E2E2E2E2E2E2E2E2E2E2E2E2E2
310
E2E2E2E2E2E2E2E2E2E2E2E2E2E2E2E2E2E2E2E2E2E2E2E2E2E2E2E2E2E2E2E2E2E2E2E2E2E2E2E2E2E2E2E2E2E2E2E2E2E2E2E2E2E2E2E2E2E2E2E2E2E2E2E2E2E2E2E2E2E2E2E2E2E2E2E2E2E2E2E2E2E2E2E2E2E2E2E2E2E2E2E2E2E2E2E2E2E2E2E2E2E2E2E2E2E2E2E2E2E2E2E2E2E2E2E2E2E2E2E2E2E2E2E2E2E2E2
310
E2E2E2E2E2E2E2E2E2E2E2E2E2E2E2E2E2E2E2E2E2E2E2E2E2E2E2E2E2E2E2E2E2E2E2E2E2E2E2E2E2E2E2E2E2E2E2E2E2E2E2E2E2E2E2E2E2E2E2E2E2E2E2E2E2E2E2E2E2E2E2E2E2E2E2E2E2E2E2E2E2E2E2E2E2E2E2E2E2E2E2E2E2E2E2E2E2E2E2E2E2E2E2E2E2E2E2E2E2E2E2E2E2E2E2E2E2E2E2E2E2E2E2E2E2E2E2
310
E2E2E2E2E2E2E2E2E2E2E2E2E2E2E2E2E2E2E2E2E2E2E2E2E2E2E2E2E2E2E2E2E2E2E2E2E2E2E2E2E2E2E2E2E2E2E2E2E2E2E2E2E2E2E2E2E2E2E2E2E2E2E2E2E2E2E2E2E2E2E2E2E2E2E2E2E2E2E2E2E2E2E2E2E2E2E2E2E2E2E2E2E2E2E2E2E2E2E2E2E2E2E2E2E2E2E2E2E2E2E2E2E2E2E2E2E2E2E2E2E2E2E2E2E2E2E2
310
E2E2E2E2E2E2E2E2E2E2E2E2E2E2E2E2E2E2E2E2E2E2E2E2E2E2E2E2E2E2E2E2E2E2E2E2E2E2E2E2E2E2E2E2E2E2E2E2E2E2E2E2E2E2E2E2E2E2E2E2E2E2E2E2E2E2E2E2E2E2E2E2E2E2E2E2E2E2E2E2E2E2E2E2E2E2E2E2E2E2E2E2E2E2E2E2E2E2E2E2E2E2E2E2E2E2E2E2E2E2E2E2E2E2E2E2E2E2E2E2E2E2E2E2E2E2E2
310
E2E2E2E2E2E2E2E2E2E2E2E2E2E2E2E2E2E2E2E2E2E2E2E2E2E2E2E2E2E2E2E2E2E2E2E2E2E2E2E2E2E2E2E2E2E2E2E2E2E2E2E2E2E2E2E2E2E2E2E2E2E2E2E2E2E2E2E2E2E2E2E2E2E2E2E2E2E2E2E2E2E2E2E2E2E2E2E2E2E2E2E2E2E2E2E2E2E2E2E2E2E2E2E2E2E2E2E2E2E2E2E2E2E2E2E2E2E2E2E2E2E2E2E2E2E2E2
310
E2E2E2E2E2E2E2E2E2E2E2E2E2E2E2E2E2E2E2E2E2E2E2E2E2E2E2E2E2E2E2E2E2E2E2E2E2E2E2E2E2E2E2E2E2E2E2E2E2E2E2E2E2E2E2E2E2E2E2E2E2E2E2E2E2E2E2E2E2E2E2E2E2E2E2E2E2E2E2E2E2E2E2E2E2E2E2E2E2E2E2E2E2E2E2E2E2E2E2E2E2E2E2E2E2E2E2E2E2E2E2E2E2E2E2E2E2E2E2E2E2E2E2E2E2E2E2
310
E2E2E2E2E2E2E2E2E2E2E2E2E2E2E2E2E2E2E2E2E2E2E2E2E2E2E2E2E2E2E2E2E2E2E2E2E2E2E2E2E2E2E2E2E2E2E2E2E2E2E2E2E2E2E2E2E2E2E2E2E2E2E2E2E2E2E2E2E2E2E2E2E2E2E2E2E2E2E2E2E2E2E2E2E2E2E2E2E2E2E2E2E2E2E2E2E2E2E2E2E2E2E2E2E2E2E2E2E2E2E2E2E2E2E2E2E2E2E2E2E2E2E2E2E2E2E2
310
E2E2E2E2E2E2E2E2E2E2E2E2E2E2E2E2E2E2E2E2E2E2E2E2E2E2E2E2E2E2E2E2E2E2E2E2E2E2E2E2E2E2E2E2E2E2E2E2E2E2E2E2E2E2E2E2E2E2E2E2E2E2E2E2E2E2E2E2E2E2E2E2E2E2E2E2E2E2E2E2E2E2E2E2E2E2E2E2E2E2E2E2E2E2E2E2E2E2E2E2E2E2E2E2E2E2E2E2E2E2E2E2E2E2E2E2E2E2E2E2E2E2E2E2E2E2E2
310
E2E2E2E2E2E2E2E2E2E2E2E2E2E2E2E2E2E2E2E2E2E2E2E2E2E2E2E2E2E2E2E2E2E2E2E2E2E2E2E2E2E2E2E2E2E2E2E2E2E2E2E2E2E2E2E2E2E2E2E2E2E2E2E2E2E2E2E2E2E2E2E2E2E2E2E2E2E2E2E2E2E2E2E2E2E2E2E2E2E2E2E2E2E2E2E2E2E2E2E2E2E2E2E2E2E2E2E2E2E2E2E2E2E2E2E2E2E2E2E2E2E2E2E2E2E2E2
310
E2E2E2E2E2E2E2E2E2E2E2E2E2E2E2E2E2E2E2E2E2E2E2E2E2E2E2E2E2E2E2E2E2E2E2E2E2E2E2E2E2E2E2E2E2E2E2E2E2E2E2E2E2E2E2E2E2E2E2E2E2E2E2E2E2E2E2E2E2E2E2E2E2E2E2E2E2E2E2E2E2E2E2E2E2E2E2E2E2E2E2E2E2E2E2E2E2E2E2E2E2E2E2E2E2E2E2E2E2E2E2E2E2E2E2E2E2E2E2E2E2E2E2E2E2E2E2
310
E2E2E2E2E2E2E2E2E2E2E2E2E2E2E2E2E2E2E2E2E2E2E2E2E2E2E2E2E2E2E2E2E2E2E2E2E2E2E2E2E2E2E2E2E2E2E2E2E2E2E2E2E2E2E2E2E2E2E2E2E2E2E2E2E2E2E2E2E2E2E2E2E2E2E2E2E2E2E2E2E2E2E2E2E2E2E2E2E2E2E2E2E2E2E2E2E2E2E2E2E2E2E2E2E2E2E2E2E2E2E2E2E2E2E2E2E2E2E2E2E2E2E2E2E2E2E2
310
E2E2E2E2E2E2E2E2E2E2E2E2E2E2E2E2E2E2E2E2E2E2E2E2E2E2E2E2E2E2E2E2E2E2E2E2E2E2E2E2E2E2E2E2E2E2E2E2E2E2E2E2E2E2E2E2E2E2E2E2E2E2E2E2E2E2E2E2E2E2E2E2E2E2E2E2E2E2E2E2E2E2E2E2E2E2E2E2E2E2E2E2E2E2E2E2E2E2E2E2E2E2E2E2E2E2E2E2E2E2E2E2E2E2E2E2E2E2E2E2E2E2E2E2E2E2E2
310
E2E2E2E2E2E2E2E2E2E2E2E2E2E2E2E2E2E2E2E2E2E2E2E2E2E2E2E2E2E2E2E2E2E2E2E2E2E2E2E2E2E2E2E2E2E2E2E2E2E2E2E2E2E2E2E2E2E2E2E2E2E2E2E2E2E2E2E2E2E2E2E2E2E2E2E2E2E2E2E2E2E2E2E2E2E2E2E2E2E2E2E2E2E2E2E2E2E2E2E2E2E2E2E2E2E2E2E2E2E2E2E2E2E2E2E2E2E2E2E2E2E2E2E2E2E2E2
310
E2E2E2E2E2E2E2E2E2E2E2E2E2E2E2E2E2E2E2E2E2E2E2E2E2E2E2E2E2E2E2E2E2E2E2E2E2E2E2E2E2E2E2E2E2E2E2E2E2E2E2E2E2E2E2E2E2E2E2E2E2E2E2E2E2E2E2E2E2E2E2E2E2E2E2E2E2E2E2E2E2E2E2E2E2E2E2E2E2E2E2E2E2E2E2E2E2E2E2E2E2E2E2E2E2E2E2E2E2E2E2E2E2E2E2E2E2E2E2E2E2E2E2E2E2E2E2
310
E2E2E2E2E2E2E2E2E2E2E2E2E2E2E2E2E2E2E2E2E2E2E2E2E2E2E2E2E2E2E2E2E2E2E2E2E2E2E2E2E2E2E2E2E2E2E2E2E2E2E2E2E2E2E2E2E2E2E2E2E2E2E2E2E2E2E2E2E2E2E2E2E2E2E2E2E2E2E2E2E2E2E2E2E2E2E2E2E2E2E2E2E2E2E2E2E2E2E2E2E2E2E2E2E2E2E2E2E2E2E2E2E2E2E2E2E2E2E2E2E2E2E2E2E2E2E2
310
E2E2E2E2E2E2E2E2E2E2E2E2E2E2E2E2E2E2E2E2E2E2E2E2E2E2E2E2E2E2E2E2E2E2E2E2E2E2E2E2E2E2E2E2E2E2E2E2E2E2E2E2E2E2E2E2E2E2E2E2E2E2E2E2E2E2E2E2E2E2E2E2E2E2E2E2E2E2E2E2E2E2E2E2E2E2E2E2E2E2E2E2E2E2E2E2E2E2E2E2E2E2E2E2E2E2E2E2E2E2E2E2E2E2E2E2E2E2E2E2E2E2E2E2E2E2E2
310
E2E2E2E2E2E2E2E2E2E2E2E2E2E2E2E2E2E2E2E2E2E2E2E2E2E2E2E2E2E2E2E2E2E2E2E2E2E2E2E2E2E2E2E2E2E2E2E2E2E2E2E2E2E2E2E2E2E2E2E2E2E2E2E2E2E2E2E2E2E2E2E2E2E2E2E2E2E2E2E2E2E2E2E2E2E2E2E2E2E2E2E2E2E2E2E2E2E2E2E2E2E2E2E2E2E2E2E2E2E2E2E2E2E2E2E2E2E2E2E2E2E2E2E2E2E2E2
310
E2E2E2E2E2E2E2E2E2E2E2E2E2E2E2E2E2E2E2E2E2E2E2E2E2E2E2E2E2E2E2E2E2E2E2E2E2E2E2E2E2E2E2E2E2E2E2E2E2E2E2E2E2E2E2E2E2E2E2E2E2E2E2E2E2E2E2E2E2E2E2E2E2E2E2E2E2E2E2E2E2E2E2E2E2E2E2E2E2E2E2E2E2E2E2E2E2E2E2E2E2E2E2E2E2E2E2E2E2E2E2E2E2E2E2E2E2E2E2E2E2E2E2E2E2E2E2
310
E2E2E2E2E2E2E2E2E2E2E2E2E2E2E2E2E2E2E2E2E2E2E2E2E2E2E2E2E2E2E2E2E2E2E2E2E2E2E2E2E2E2E2E2E2E2E2E2E2E2E2E2E2E2E2E2E2E2E2E2E2E2E2E2E2E2E2E2E2E2E2E2E2E2E2E2E2E2E2E2E2E2E2E2E2E2E2E2E2E2E2E2E2E2E2E2E2E2E2E2E2E2E2E2E2E2E2E2E2E2E2E2E2E2E2E2E2E2E2E2E2E2E2E2E2E2E2
310
E2E2E2E2E2E2E2E2E2E2E2E2E2E2E2E2E2E2E2E2E2E2E2E2E2E2E2E2E2E2E2E2E2E2E2E2E2E2E2E2E2E2E2E2E2E2E2E2E2E2E2E2E2E2E2E2E2E2E2E2E2E2E2E2E2E2E2E2E2E2E2E2E2E2E2E2E2E2E2E2E2E2E2E2E2E2E2E2E2E2E2E2E2E2E2E2E2E2E2E2E2E2E2E2E2E2E2E2E2E2E2E2E2E2E2E2E2E2E2E2E2E2E2E2E2E2E2
310
E2E2E2E2E2E2E2E2E2E2E2E2E2E2E2E2E2E2E2E2E2E2E2E2E2E2E2E2E2E2E2E2E2E2E2E2E2E2E2E2E2E2E2E2E2E2E2E2E2E2E2E2E2E2E2E2E2E2E2E2E2E2E2E2E2E2E2E2E2E2E2E2E2E2E2E2E2E2E2E2E2E2E2E2E2E2E2E2E2E2E2E2E2E2E2E2E2E2E2E2E2E2E2E2E2E2E2E2E2E2E2E2E2E2E2E2E2E2E2E2E2E2E2E2E2E2E2
310
E2E2E2E2E2E2E2E2E2E2E2E2E2E2E2E2E2E2E2E2E2E2E2E2E2E2E2E2E2E2E2E2E2E2E2E2E2E2E2E2E2E2E2E2E2E2E2E2E2E2E2E2E2E2E2E2E2E2E2E2E2E2E2E2E2E2E2E2E2E2E2E2E2E2E2E2E2E2E2E2E2E2E2E2E2E2E2E2E2E2E2E2E2E2E2E2E2E2E2E2E2E2E2E2E2E2E2E2E2E2E2E2E2E2E2E2E2E2E2E2E2E2E2E2E2E2E2
310
E2E2E2E2E2E2E2E2E2E2E2E2E2E2E2E2E2E2E2E2E2E2E2E2E2E2E2E2E2E2E2E2E2E2E2E2E2E2E2E2E2E2E2E2E2E2E2E2E2E2E2E2E2E2E2E2E2E2E2E2E2E2E2E2E2E2E2E2E2E2E2E2E2E2E2E2E2E2E2E2E2E2E2E2E2E2E2E2E2E2E2E2E2E2E2E2E2E2E2E2E2E2E2E2E2E2E2E2E2E2E2E2E2E2E2E2E2E2E2E2E2E2E2E2E2E2E2
310
E2E2E2E2E2E2E2E2E2E2E2E2E2E2E2E2E2E2E2E2E2E2E2E2E2E2E2E2E2E2E2E2E2E2E2E2E2E2E2E2E2E2E2E2E2E2E2E2E2E2E2E2E2E2E2E2E2E2E2E2E2E2E2E2E2E2E2E2E2E2E2E2E2E2E2E2E2E2E2E2E2E2E2E2E2E2E2E2E2E2E2E2E2E2E2E2E2E2E2E2E2E2E2E2E2E2E2E2E2E2E2E2E2E2E2E2E2E2E2E2E2E2E2E2E2E2E2
310
E2E2E2E2E2E2E2E2E2E2E2E2E2E2E2E2E2E2E2E2E2E2E2E2E2E2E2E2E2E2E2E2E2E2E2E2E2E2E2E2E2E2E2E2E2E2E2E2E2E2E2E2E2E2E2E2E2E2E2E2E2E2E2E2E2E2E2E2E2E2E2E2E2E2E2E2E2E2E2E2E2E2E2E2E2E2E2E2E2E2E2E2E2E2E2E2E2E2E2E2E2E2E2E2E2E2E2E2E2E2E2E2E2E2E2E2E2E2E2E2E2E2E2E2E2E2E2
310
E2E2E2E2E2E2E2E2E2E2E2E2E2E2E2E2E2E2E2E2E2E2E2E2E2E2E2E2E2E2E2E2E2E2E2E2E2E2E2E2E2E2E2E2E2E2E2E2E2E2E2E2E2E2E2E2E2E2E2E2E2E2E2E2E2E2E2E2E2E2E2E2E2E2E2E2E2E2E2E2E2E2E2E2E2E2E2E2E2E2E2E2E2E2E2E2E2E2E2E2E2E2E2E2E2E2E2E2E2E2E2E2E2E2E2E2E2E2E2E2E2E2E2E2E2E2E2
310
E2E2E2E2E2E2E2E2E2E2E2E2E2E2E2E2E2E2E2E2E2E2E2E2E2E2E2E2E2E2E2E2E2E2E2E2E2E2E2E2E2E2E2E2E2E2E2E2E2E2E2E2E2E2E2E2E2E2E2E2E2E2E2E2E2E2E2E2E2E2E2E2E2E2E2E2E2E2E2E2E2E2E2E2E2E2E2E2E2E2E2E2E2E2E2E2E2E2E2E2E2E2E2E2E2E2E2E2E2E2E2E2E2E2E2E2E2E2E2E2E2E2E2E2E2E2E2
310
E2E2E2E2E2E2E2E2E2E2E2E2E2E2E2E2E2E2E2E2E2E2E2E2E2E2E2E2E2E2E2E2E2E2E2E2E2E2E2E2E2E2E2E2E2E2E2E2E2E2E2E2E2E2E2E2E2E2E2E2E2E2E2E2E2E2E2E2E2E2E2E2E2E2E2E2E2E2E2E2E2E2E2E2E2E2E2E2E2E2E2E2E2E2E2E2E2E2E2E2E2E2E2E2E2E2E2E2E2E2E2E2E2E2E2E2E2E2E2E2E2E2E2E2E2E2E2
310
E2E2E2E2E2E2E2E2E2E2E2E2E2E2E2E2E2E2E2E2E2E2E2E2E2E2E2E2E2E2E2E2E2E2E2E2E2E2E2E2E2E2E2E2E2E2E2E2E2E2E2E2E2E2E2E2E2E2E2E2E2E2E2E2E2E2E2E2E2E2E2E2E2E2E2E2E2E2E2E2E2E2E2E2E2E2E2E2E2E2E2E2E2E2E2E2E2E2E2E2E2E2E2E2E2E2E2E2E2E2E2E2E2E2E2E2E2E2E2E2E2E2E2E2E2E2E2
310
E2E2E2E2E2E2E2E2E2E2E2E2E2E2E2E2E2E2E2E2E2E2E2E2E2E2E2E2E2E2E2E2E2E2E2E2E2E2E2E2E2E2E2E2E2E2E2E2E2E2E2E2E2E2E2E2E2E2E2E2E2E2E2E2E2E2E2E2E2E2E2E2E2E2E2E2E2E2E2E2E2E2E2E2E2E2E2E2E2E2E2E2E2E2E2E2E2E2E2E2E2E2E2E2E2E2E2E2E2E2E2E2E2E2E2E2E2E2E2E2E2E2E2E2E2E2E2
310
E2E2E2E2E2E2E2E2E2E2E2E2E2E2E2E2E2E2E2E2E2E2E2E2E2E2E2E2E2E2E2E2E2E2E2E2E2E2E2E2E2E2E2E2E2E2E2E2E2E2E2E2E2E2E2E2E2E2E2E2E2E2E2E2E2E2E2E2E2E2E2E2E2E2E2E2E2E2E2E2E2E2E2E2E2E2E2E2E2E2E2E2E2E2E2E2E2E2E2E2E2E2E2E2E2E2E2E2E2E2E2E2E2E2E2E2E2E2E2E2E2E2E2E2E2E2E2
310
E2E2E2E2E2E2E2E2E2E2E2E2E2E2E2E2E2E2E2E2E2E2E2E2E2E2E2E2E2E2E2E2E2E2E2E2E2E2E2E2E2E2E2E2E2E2E2E2E2E2E2E2E2E2E2E2E2E2E2E2E2E2E2E2E2E2E2E2E2E2E2E2E2E2E2E2E2E2E2E2E2E2E2E2E2E2E2E2E2E2E2E2E2E2E2E2E2E2E2E2E2E2E2E2E2E2E2E2E2E2E2E2E2E2E2E2E2E2E2E2E2E2E2E2E2E2E2
310
E2E2E2E2E2E2E2E2E2E2E2E2E2E2E2E2E2E2E2E2E2E2E2E2E2E2E2E2E2E2E2E2E2E2E2E2E2E2E2E2E2E2E2E2E2E2E2E2E2E2E2E2E2E2E2E2E2E2E2E2E2E2E2E2E2E2E2E2E2E2E2E2E2E2E2E2E2E2E2E2E2E2E2E2E2E2E2E2E2E2E2E2E2E2E2E2E2E2E2E2E2E2E2E2E2E2E2E2E2E2E2E2E2E2E2E2E2E2E2E2E2E2E2E2E2E2E2
310
E2E2E2E2E2E2E2E2E2E2E2E2E2E2E2E2E2E2E2E2E2E2E2E2E2E2E2E2E2E2E2E2E2E2E2E2E2E2E2E2E2E2E2E2E2E2E2E2E2E2E2E2E2E2E2E2E2E2E2E2E2E2E2E2E2E2E2E2E2E2E2E2E2E2E2E2E2E2E2E2E2E2E2E2E2E2E2E2E2E2E2E2E2E2E2E2E2E2E2E2E2E2E2E2E2E2E2E2E2E2E2E2E2E2E2E2E2E2E2E2E2E2E2E2E2E2E2
310
E2E2E2E2E2E2E2E2E2E2E2E2E2E2E2E2E2E2E2E2E2E2E2E2E2E2E2E2E2E2E2E2E2E2E2E2E2E2E2E2E2E2E2E2E2E2E2E2E2E2E2E2E2E2E2E2E2E2E2E2E2E2E2E2E2E2E2E2E2E2E2E2E2E2E2E2E2E2E2E2E2E2E2E2E2E2E2E2E2E2E2E2E2E2E2E2E2E2E2E2E2E2E2E2E2E2E2E2E2E2E2E2E2E2E2E2E2E2E2E2E2E2E2E2E2E2E2
310
E2E2E2E2E2E2E2E2E2E2E2E2E2E2E2E2E2E2E2E2E2E2E2E2E2E2E2E2E2E2E2E2E2E2E2E2E2E2E2E2E2E2E2E2E2E2E2E2E2E2E2E2E2E2E2E2E2E2E2E2E2E2E2E2E2E2E2E2E2E2E2E2E2E2E2E2E2E2E2E2E2E2E2E2E2E2E2E2E2E2E2E2E2E2E2E2E2E2E2E2E2E2E2E2E2E2E2E2E2E2E2E2E2E2E2E2E2E2E2E2E2E2E2E2E2E2E2
310
E2E2E2E2E2E2E2E2E2E2E2E2E2E2E2E2E2E2E2E2E2E2E2E2E2E2E2E2E2E2E2E2E2E2E2E2E2E2E2E2E2E2E2E2E2E2E2E2E2E2E2E2E2E2E2E2E2E2E2E2E2E2E2E2E2E2E2E2E2E2E2E2E2E2E2E2E2E2E2E2E2E2E2E2E2E2E2E2E2E2E2E2E2E2E2E2E2E2E2E2E2E2E2E2E2E2E2E2E2E2E2E2E2E2E2E2E2E2E2E2E2E2E2E2E2E2E2
310
E2E2E2E2E2E2E2E2E2E2E2E2E2E2E2E2E2E2E2E2E2E2E2E2E2E2E2E2E2E2E2E2E2E2E2E2E2E2E2E2E2E2E2E2E2E2E2E2E2E2E2E2E2E2E2E2E2E2E2E2E2E2E2E2E2E2E2E2E2E2E2E2E2E2E2E2E2E2E2E2E2E2E2E2E2E2E2E2E2E2E2E2E2E2E2E2E2E2E2E2E2E2E2E2E2E2E2E2E2E2E2E2E2E2E2E2E2E2E2E2E2E2E2E2E2E2E2
310
E2E2E2E2E2E2E2E2E2E2E2E2E2E2E2E2E2E2E2E2E2E2E2E2E2E2E2E2E2E2E2E2E2E2E2E2E2E2E2E2E2E2E2E2E2E2E2E2E2E2E2E2E2E2E2E2E2E2E2E2E2E2E2E2E2E2E2E2E2E2E2E2E2E2E2E2E2E2E2E2E2E2E2E2E2E2E2E2E2E2E2E2E2E2E2E2E2E2E2E2E2E2E2E2E2E2E2E2E2E2E2E2E2E2E2E2E2E2E2E2E2E2E2E2E2E2E2
310
E2E2E2E2E2E2E2E2E2E2E2E2E2E2E2E2E2E2E2E2E2E2E2E2E2E2E2E2E2E2E2E2E2E2E2E2E2E2E2E2E2E2E2E2E2E2E2E2E2E2E2E2E2E2E2E2E2E2E2E2E2E2E2E2E2E2E2E2E2E2E2E2E2E2E2E2E2E2E2E2E2E2E2E2E2E2E2E2E2E2E2E2E2E2E2E2E2E2E2E2E2E2E2E2E2E2E2E2E2E2E2E2E2E2E2E2E2E2E2E2E2E2E2E2E2E2E2
310
E2E2E2E2E2E2E2E2E2E2E2E2E2E2E2E2E2E2E2E2E2E2E2E2E2E2E2E2E2E2E2E2E2E2E2E2E2E2E2E2E2E2E2E2E2E2E2E2E2E2E2E2E2E2E2E2E2E2E2E2E2E2E2E2E2E2E2E2E2E2E2E2E2E2E2E2E2E2E2E2E2E2E2E2E2E2E2E2E2E2E2E2E2E2E2E2E2E2E2E2E2E2E2E2E2E2E2E2E2E2E2E2E2E2E2E2E2E2E2E2E2E2E2E2E2E2E2
310
E2E2E2E2E2E2E2E2E2E2E2E2E2E2E2E2E2E2E2E2E2E2E2E2E2E2E2E2E2E2E2E2E2E2E2E2E2E2E2E2E2E2E2E2E2E2E2E2E2E2E2E2E2E2E2E2E2E2E2E2E2E2E2E2E2E2E2E2E2E2E2E2E2E2E2E2E2E2E2E2E2E2E2E2E2E2E2E2E2E2E2E2E2E2E2E2E2E2E2E2E2E2E2E2E2E2E2E2E2E2E2E2E2E2E2E2E2E2E2E2E2E2E2E2E2E2E2
310
E2E2E2E2E2E2E2E2E2E2E2E2E2E2E2E2E2E2E2E2E2E2E2E2E2E2E2E2E2E2E2E2E2E2E2E2E2E2E2E2E2E2E2E2E2E2E2E2E2E2E2E2E2E2E2E2E2E2E2E2E2E2E2E2E2E2E2E2E2E2E2E2E2E2E2E2E2E2E2E2E2E2E2E2E2E2E2E2E2E2E2E2E2E2E2E2E2E2E2E2E2E2E2E2E2E2E2E2E2E2E2E2E2E2E2E2E2E2E2E2E2E2E2E2E2E2E2
310
E2E2E2E2E2E2E2E2E2E2E2E2E2E2E2E2E2E2E2E2E2E2E2E2E2E2E2E2E2E2E2E2E2E2E2E2E2E2E2E2E2E2E2E2E2E2E2E2E2E2E2E2E2E2E2E2E2E2E2E2E2E2E2E2E2E2E2E2E2E2E2E2E2E2E2E2E2E2E2E2E2E2E2E2E2E2E2E2E2E2E2E2E2E2E2E2E2E2E2E2E2E2E2E2E2E2E2E2E2E2E2E2E2E2E2E2E2E2E2E2E2E2E2E2E2E2E2
310
E2E2E2E2E2E2E2E2E2E2E2E2E2E2E2E2E2E2E2E2E2E2E2E2E2E2E2E2E2E2E2E2E2E2E2E2E2E2E2E2E2E2E2E2E2E2E2E2E2E2E2E2E2E2E2E2E2E2E2E2E2E2E2E2E2E2E2E2E2E2E2E2E2E2E2E2E2E2E2E2E2E2E2E2E2E2E2E2E2E2E2E2E2E2E2E2E2E2E2E2E2E2E2E2E2E2E2E2E2E2E2E2E2E2E2E2E2E2E2E2E2E2E2E2E2E2E2
310
E2E2E2E2E2E2E2E2E2E2E2E2E2E2E2E2E2E2E2E2E2E2E2E2E2E2E2E2E2E2E2E2E2E2E2E2E2E2E2E2E2E2E2E2E2E2E2E2E2E2E2E2E2E2E2E2E2E2E2E2E2E2E2E2E2E2E2E2E2E2E2E2E2E2E2E2E2E2E2E2E2E2E2E2E2E2E2E2E2E2E2E2E2E2E2E2E2E2E2E2E2E2E2E2E2E2E2E2E2E2E2E2E2E2E2E2E2E2E2E2E2E2E2E2E2E2E2
310
E2E2E2E2E2E2E2E2E2E2E2E2E2E2E2E2E2E2E2E2E2E2E2E2E2E2E2E2E2E2E2E2E2E2E2E2E2E2E2E2E2E2E2E2E2E2E2E2E2E2E2E2E2E2E2E2E2E2E2E2E2E2E2E2E2E2E2E2E2E2E2E2E2E2E2E2E2E2E2E2E2E2E2E2E2E2E2E2E2E2E2E2E2E2E2E2E2E2E2E2E2E2E2E2E2E2E2E2E2E2E2E2E2E2E2E2E2E2E2E2E2E2E2E2E2E2E2
310
E2E2E2E2E2E2E2E2E2E2E2E2E2E2E2E2E2E2E2E2E2E2E2E2E2E2E2E2E2E2E2E2E2E2E2E2E2E2E2E2E2E2E2E2E2E2E2E2E2E2E2E2E2E2E2E2E2E2E2E2E2E2E2E2E2E2E2E2E2E2E2E2E2E2E2E2E2E2E2E2E2E2E2E2E2E2E2E2E2E2E2E2E2E2E2E2E2E2E2E2E2E2E2E2E2E2E2E2E2E2E2E2E2E2E2E2E2E2E2E2E2E2E2E2E2E2E2
310
E2E2E2E2E2E2E2E2E2E2E2E2E2E2E2E2E2E2E2E2E2E2E2E2E2E2E2E2E2E2E2E2E2E2E2E2E2E2E2E2E2E2E2E2E2E2E2E2E2E2E2E2E2E2E2E2E2E2E2E2E2E2E2E2E2E2E2E2E2E2E2E2E2E2E2E2E2E2E2E2E2E2E2E2E2E2E2E2E2E2E2E2E2E2E2E2E2E2E2E2E2E2E2E2E2E2E2E2E2E2E2E2E2E2E2E2E2E2E2E2E2E2E2E2E2E2E2
310
E2E2E2E2E2E2E2E2E2E2E2E2E2E2E2E2E2E2E2E2E2E2E2E2E2E2E2E2E2E2E2E2E2E2E2E2E2E2E2E2E2E2E2E2E2E2E2E2E2E2E2E2E2E2E2E2E2E2E2E2E2E2E2E2E2E2E2E2E2E2E2E2E2E2E2E2E2E2E2E2E2E2E2E2E2E2E2E2E2E2E2E2E2E2E2E2E2E2E2E2E2E2E2E2E2E2E2E2E2E2E2E2E2E2E2E2E2E2E2E2E2E2E2E2E2E2E2
310
E2E2E2E2E2E2E2E2E2E2E2E2E2E2E2E2E2E2E2E2E2E2E2E2E2E2E2E2E2E2E2E2E2E2E2E2E2E2E2E2E2E2E2E2E2E2E2E2E2E2E2E2E2E2E2E2E2E2E2E2E2E2E2E2E2E2E2E2E2E2E2E2E2E2E2E2E2E2E2E2E2E2E2E2E2E2E2E2E2E2E2E2E2E2E2E2E2E2E2E2E2E2E2E2E2E2E2E2E2E2E2E2E2E2E2E2E2E2E2E2E2E2E2E2E2E2E2
310
E2E2E2E2E2E2E2E2E2E2E2E2E2E2E2E2E2E2E2E2E2E2E2E2E2E2E2E2E2E2E2E2E2E2E2E2E2E2E2E2E2E2E2E2E2E2E2E2E2E2E2E2E2E2E2E2E2E2E2E2E2E2E2E2E2E2E2E2E2E2E2E2E2E2E2E2E2E2E2E2E2E2E2E2E2E2E2E2E2E2E2E2E2E2E2E2E2E2E2E2E2E2E2E2E2E2E2E2E2E2E2E2E2E2E2E2E2E2E2E2E2E2E2E2E2E2E2
310
E2E2E2E2E2E2E2E2E2E2E2E2E2E2E2E2E2E2E2E2E2E2E2E2E2E2E2E2E2E2E2E2E2E2E2E2E2E2E2E2E2E2E2E2E2E2E2E2E2E2E2E2E2E2E2E2E2E2E2E2E2E2E2E2E2E2E2E2E2E2E2E2E2E2E2E2E2E2E2E2E2E2E2E2E2E2E2E2E2E2E2E2E2E2E2E2E2E2E2E2E2E2E2E2E2E2E2E2E2E2E2E2E2E2E2E2E2E2E2E2E2E2E2E2E2E2E2
310
E2E2E2E2E2E2E2E2E2E2E2E2E2E2E2E2E2E2E2E2E2E2E2E2E2E2E2E2E2E2E2E2E2E2E2E2E2E2E2E2E2E2E2E2E2E2E2E2E2E2E2E2E2E2E2E2E2E2E2E2E2E2E2E2E2E2E2E2E2E2E2E2E2E2E2E2E2E2E2E2E2E2E2E2E2E2E2E2E2E2E2E2E2E2E2E2E2E2E2E2E2E2E2E2E2E2E2E2E2E2E2E2E2E2E2E2E2E2E2E2E2E2E2E2E2E2E2
310
E2E2E2E2E2E2E2E2E2E2E2E2E2E2E2E2E2E2E2E2E2E2E2E2E2E2E2E2E2E2E2E2E2E2E2E2E2E2E2E2E2E2E2E2E2E2E2E2E2E2E2E2E2E2E2E2E2E2E2E2E2E2E2E2E2E2E2E2E2E2E2E2E2E2E2E2E2E2E2E2E2E2E2E2E2E2E2E2E2E2E2E2E2E2E2E2E2E2E2E2E2E2E2E2E2E2E2E2E2E2E2E2E2E2E2E2E2E2E2E2E2E2E2E2E2E2E2
310
E2E2E2E2E2E2E2E2E2E2E2E2E2E2E2E2E2E2E2E2E2E2E2E2E2E2E2E2E2E2E2E2E2E2E2E2E2E2E2E2E2E2E2E2E2E2E2E2E2E2E2E2E2E2E2E2E2E2E2E2E2E2E2E2E2E2E2E2E2E2E2E2E2E2E2E2E2E2E2E2E2E2E2E2E2E2E2E2E2E2E2E2E2E2E2E2E2E2E2E2E2E2E2E2E2E2E2E2E2E2E2E2E2E2E2E2E2E2E2E2E2E2E2E2E2E2E2
310
E2E2E2E2E2E2E2E2E2E2E2E2E2E2E2E2E2E2E2E2E2E2E2E2E2E2E2E2E2E2E2E2E2E2E2E2E2E2E2E2E2E2E2E2E2E2E2E2E2E2E2E2E2E2E2E2E2E2E2E2E2E2E2E2E2E2E2E2E2E2E2E2E2E2E2E2E2E2E2E2E2E2E2E2E2E2E2E2E2E2E2E2E2E2E2E2E2E2E2E2E2E2E2E2E2E2E2E2E2E2E2E2E2E2E2E2E2E2E2E2E2E2E2E2E2E2E2
310
E2E2E2E2E2E2E2E2E2E2E2E2E2E2E2E2E2E2E2E2E2E2E2E2E2E2E2E2E2E2E2E2E2E2E2E2E2E2E2E2E2E2E2E2E2E2E2E2E2E2E2E2E2E2E2E2E2E2E2E2E2E2E2E2E2E2E2E2E2E2E2E2E2E2E2E2E2E2E2E2E2E2E2E2E2E2E2E2E2E2E2E2E2E2E2E2E2E2E2E2E2E2E2E2E2E2E2E2E2E2E2E2E2E2E2E2E2E2E2E2E2E2E2E2E2E2E2
310
E2E2E2E2E2E2E2E2E2E2E2E2E2E2E2E2E2E2E2E2E2E2E2E2E2E2E2E2E2E2E2E2E2E2E2E2E2E2E2E2E2E2E2E2E2E2E2E2E2E2E2E2E2E2E2E2E2E2E2E2E2E2E2E2E2E2E2E2E2E2E2E2E2E2E2E2E2E2E2E2E2E2E2E2E2E2E2E2E2E2E2E2E2E2E2E2E2E2E2E2E2E2E2E2E2E2E2E2E2E2E2E2E2E2E2E2E2E2E2E2E2E2E2E2E2E2E2
310
E2E2E2E2E2E2E2E2E2E2E2E2E2E2E2E2E2E2E2E2E2E2E2E2E2E2E2E2E2E2E2E2E2E2E2E2E2E2E2E2E2E2E2E2E2E2E2E2E2E2E2E2E2E2E2E2E2E2E2E2E2E2E2E2E2E2E2E2E2E2E2E2E2E2E2E2E2E2E2E2E2E2E2E2E2E2E2E2E2E2E2E2E2E2E2E2E2E2E2E2E2E2E2E2E2E2E2E2E2E2E2E2E2E2E2E2E2E2E2E2E2E2E2E2E2E2E2
310
E2E2E2E2E2E2E2E2E2E2E2E2E2E2E2E2E2E2E2E2E2E2E2E2E2E2E2E2E2E2E2E2E2E2E2E2E2E2E2E2E2E2E2E2E2E2E2E2E2E2E2E2E2E2E2E2E2E2E2E2E2E2E2E2E2E2E2E2E2E2E2E2E2E2E2E2E2E2E2E2E2E2E2E2E2E2E2E2E2E2E2E2E2E2E2E2E2E2E2E2E2E2E2E2E2E2E2E2E2E2E2E2E2E2E2E2E2E2E2E2E2E2E2E2E2E2E2
310
E2E2E2E2E2E2E2E2E2E2E2E2E2E2E2E2E2E2E2E2E2E2E2E2E2E2E2E2E2E2E2E2E2E2E2E2E2E2E2E2E2E2E2E2E2E2E2E2E2E2E2E2E2E2E2E2E2E2E2E2E2E2E2E2E2E2E2E2E2E2E2E2E2E2E2E2E2E2E2E2E2E2E2E2E2E2E2E2E2E2E2E2E2E2E2E2E2E2E2E2E2E2E2E2E2E2E2E2E2E2E2E2E2E2E2E2E2E2E2E2E2E2E2E2E2E2E2
310
E2E2E2E2E2E2E2E2E2E2E2E2E2E2E2E2E2E2E2E2E2E2E2E2E2E2E2E2E2E2E2E2E2E2E2E2E2E2E2E2E2E2E2E2E2E2E2E2E2E2E2E2E2E2E2E2E2E2E2E2E2E2E2E2E2E2E2E2E2E2E2E2E2E2E2E2E2E2E2E2E2E2E2E2E2E2E2E2E2E2E2E2E2E2E2E2E2E2E2E2E2E2E2E2E2E2E2E2E2E2E2E2E2E2E2E2E2E2E2E2E2E2E2E2E2E2E2
310
E2E2E2E2E2E2E2E2E2E2E2E2E2E2E2E2E2E2E2E2E2E2E2E2E2E2E2E2E2E2E2E2E2E2E2E2E2E2E2E2E2E2E2E2E2E2E2E2E2E2E2E2E2E2E2E2E2E2E2E2E2E2E2E2E2E2E2E2E2E2E2E2E2E2E2E2E2E2E2E2E2E2E2E2E2E2E2E2E2E2E2E2E2E2E2E2E2E2E2E2E2E2E2E2E2E2E2E2E2E2E2E2E2E2E2E2E2E2E2E2E2E2E2E2E2E2E2
310
E2E2E2E2E2E2E2E2E2E2E2E2E2E2E2E2E2E2E2E2E2E2E2E2E2E2E2E2E2E2E2E2E2E2E2E2E2E2E2E2E2E2E2E2E2E2E2E2E2E2E2E2E2E2E2E2E2E2E2E2E2E2E2E2E2E2E2E2E2E2E2E2E2E2E2E2E2E2E2E2E2E2E2E2E2E2E2E2E2E2E2E2E2E2E2E2E2E2E2E2E2E2E2E2E2E2E2E2E2E2E2E2E2E2E2E2E2E2E2E2E2E2E2E2E2E2E2
310
E2E2E2E2E2E2E2E2E2E2E2E2E2E2E2E2E2E2E2E2E2E2E2E2E2E2E2E2E2E2E2E2E2E2E2E2E2E2E2E2E2E2E2E2E2E2E2E2E2E2E2E2E2E2E2E2E2E2E2E2E2E2E2E2E2E2E2E2E2E2E2E2E2E2E2E2E2E2E2E2E2E2E2E2E2E2E2E2E2E2E2E2E2E2E2E2E2E2E2E2E2E2E2E2E2E2E2E2E2E2E2E2E2E2E2E2E2E2E2E2E2E2E2E2E2E2E2
310
E2E2E2E2E2E2E2E2E2E2E2E2E2E2E2E2E2E2E2E2E2E2E2E2E2E2E2E2E2E2E2E2E2E2E2E2E2E2E2E2E2E2E2E2E2E2E2E2E2E2E2E2E2E2E2E2E2E2E2E2E2E2E2E2E2E2E2E2E2E2E2E2E2E2E2E2E2E2E2E2E2E2E2E2E2E2E2E2E2E2E2E2E2E2E2E2E2E2E2E2E2E2E2E2E2E2E2E2E2E2E2E2E2E2E2E2E2E2E2E2E2E2E2E2E2E2E2
310
E2E2E2E2E2E2E2E2E2E2E2E2E2E2E2E2E2E2E2E2E2E2E2E2E2E2E2E2E2E2E2E2E2E2E2E2E2E2E2E2E2E2E2E2E2E2E2E2E2E2E2E2E2E2E2E2E2E2E2E2E2E2E2E2E2E2E2E2E2E2E2E2E2E2E2E2E2E2E2E2E2E2E2E2E2E2E2E2E2E2E2E2E2E2E2E2E2E2E2E2E2E2E2E2E2E2E2E2E2E2E2E2E2E2E2E2E2E2E2E2E2E2E2E2E2E2E2
310
E2E2E2E2E2E2E2E2E2E2E2E2E2E2E2E2E2E2E2E2E2E2E2E2E2E2E2E2E2E2E2E2E2E2E2E2E2E2E2E2E2E2E2E2E2E2E2E2E2E2E2E2E2E2E2E2E2E2E2E2E2E2E2E2E2E2E2E2E2E2E2E2E2E2E2E2E2E2E2E2E2E2E2E2E2E2E2E2E2E2E2E2E2E2E2E2E2E2E2E2E2E2E2E2E2E2E2E2E2E2E2E2E2E2E2E2E2E2E2E2E2E2E2E2E2E2E2
310
E2E2E2E2E2E2E2E2E2E2E2E2E2E2E2E2E2E2E2E2E2E2E2E2E2E2E2E2E2E2E2E2E2E2E2E2E2E2E2E2E2E2E2E2E2E2E2E2E2E2E2E2E2E2E2E2E2E2E2E2E2E2E2E2E2E2E2E2E2E2E2E2E2E2E2E2E2E2E2E2E2E2E2E2E2E2E2E2E2E2E2E2E2E2E2E2E2E2E2E2E2E2E2E2E2E2E2E2E2E2E2E2E2E2E2E2E2E2E2E2E2E2E2E2E2E2E2
310
E2E2E2E2E2E2E2E2E2E2E2E2E2E2E2E2E2E2E2E2E2E2E2E2E2E2E2E2E2E2E2E2E2E2E2E2E2E2E2E2E2E2E2E2E2E2E2E2E2E2E2E2E2E2E2E2E2E2E2E2E2E2E2E2E2E2E2E2E2E2E2E2E2E2E2E2E2E2E2E2E2E2E2E2E2E2E2E2E2E2E2E2E2E2E2E2E2E2E2E2E2E2E2E2E2E2E2E2E2E2E2E2E2E2E2E2E2E2E2E2E2E2E2E2E2E2E2
310
E2E2E2E2E2E2E2E2E2E2E2E2E2E2E2E2E2E2E2E2E2E2E2E2E2E2E2E2E2E2E2E2E2E2E2E2E2E2E2E2E2E2E2E2E2E2E2E2E2E2E2E2E2E2E2E2E2E2E2E2E2E2E2E2E2E2E2E2E2E2E2E2E2E2E2E2E2E2E2E2E2E2E2E2E2E2E2E2E2E2E2E2E2E2E2E2E2E2E2E2E2E2E2E2E2E2E2E2E2E2E2E2E2E2E2E2E2E2E2E2E2E2E2E2E2E2E2
310
E2E2E2E2E2E2E2E2E2E2E2E2E2E2E2E2E2E2E2E2E2E2E2E2E2E2E2E2E2E2E2E2E2E2E2E2E2E2E2E2E2E2E2E2E2E2E2E2E2E2E2E2E2E2E2E2E2E2E2E2E2E2E2E2E2E2E2E2E2E2E2E2E2E2E2E2E2E2E2E2E2E2E2E2E2E2E2E2E2E2E2E2E2E2E2E2E2E2E2E2E2E2E2E2E2E2E2E2E2E2E2E2E2E2E2E2E2E2E2E2E2E2E2E2E2E2E2
310
E2E2E2E2E2E2E2E2E2E2E2E2E2E2E2E2E2E2E2E2E2E2E2E2E2E2E2E2E2E2E2E2E2E2E2E2E2E2E2E2E2E2E2E2E2E2E2E2E2E2E2E2E2E2E2E2E2E2E2E2E2E2E2E2E2E2E2E2E2E2E2E2E2E2E2E2E2E2E2E2E2E2E2E2E2E2E2E2E2E2E2E2E2E2E2E2E2E2E2E2E2E2E2E2E2E2E2E2E2E2E2E2E2E2E2E2E2E2E2E2E2E2E2E2E2E2E2
310
E2E2E2E2E2E2E2E2E2E2E2E2E2E2E2E2E2E2E2E2E2E2E2E2E2E2E2E2E2E2E2E2E2E2E2E2E2E2E2E2E2E2E2E2E2E2E2E2E2E2E2E2E2E2E2E2E2E2E2E2E2E2E2E2E2E2E2E2E2E2E2E2E2E2E2E2E2E2E2E2E2E2E2E2E2E2E2E2E2E2E2E2E2E2E2E2E2E2E2E2E2E2E2E2E2E2E2E2E2E2E2E2E2E2E2E2E2E2E2E2E2E2E2E2E2E2E2
310
E2E2E2E2E2E2E2E2E2E2E2E2E2E2E2E2E2E2E2E2E2E2E2E2E2E2E2E2E2E2E2E2E2E2E2E2E2E2E2E2E2E2E2E2E2E2E2E2E2E2E2E2E2E2E2E2E2E2E2E2E2E2E2E2E2E2E2E2E2E2E2E2E2E2E2E2E2E2E2E2E2E2E2E2E2E2E2E2E2E2E2E2E2E2E2E2E2E2E2E2E2E2E2E2E2E2E2E2E2E2E2E2E2E2E2E2E2E2E2E2E2E2E2E2E2E2E2
310
E2E2E2E2E2E2E2E2E2E2E2E2E2E2E2E2E2E2E2E2E2E2E2E2E2E2E2E2E2E2E2E2E2E2E2E2E2E2E2E2E2E2E2E2E2E2E2E2E2E2E2E2E2E2E2E2E2E2E2E2E2E2E2E2E2E2E2E2E2E2E2E2E2E2E2E2E2E2E2E2E2E2E2E2E2E2E2E2E2E2E2E2E2E2E2E2E2E2E2E2E2E2E2E2E2E2E2E2E2E2E2E2E2E2E2E2E2E2E2E2E2E2E2E2E2E2E2
310
E2E2E2E2E2E2E2E2E2E2E2E2E2E2E2E2E2E2E2E2E2E2E2E2E2E2E2E2E2E2E2E2E2E2E2E2E2E2E2E2E2E2E2E2E2E2E2E2E2E2E2E2E2E2E2E2E2E2E2E2E2E2E2E2E2E2E2E2E2E2E2E2E2E2E2E2E2E2E2E2E2E2E2E2E2E2E2E2E2E2E2E2E2E2E2E2E2E2E2E2E2E2E2E2E2E2E2E2E2E2E2E2E2E2E2E2E2E2E2E2E2E2E2E2E2E2E2
310
E2E2E2E2E2E2E2E2E2E2E2E2E2E2E2E2E2E2E2E2E2E2E2E2E2E2E2E2E2E2E2E2E2E2E2E2E2E2E2E2E2E2E2E2E2E2E2E2E2E2E2E2E2E2E2E2E2E2E2E2E2E2E2E2E2E2E2E2E2E2E2E2E2E2E2E2E2E2E2E2E2E2E2E2E2E2E2E2E2E2E2E2E2E2E2E2E2E2E2E2E2E2E2E2E2E2E2E2E2E2E2E2E2E2E2E2E2E2E2E2E2E2E2E2E2E2E2
310
E2E2E2E2E2E2E2E2E2E2E2E2E2E2E2E2E2E2E2E2E2E2E2E2E2E2E2E2E2E2E2E2E2E2E2E2E2E2E2E2E2E2E2E2E2E2E2E2E2E2E2E2E2E2E2E2E2E2E2E2E2E2E2E2E2E2E2E2E2E2E2E2E2E2E2E2E2E2E2E2E2E2E2E2E2E2E2E2E2E2E2E2E2E2E2E2E2E2E2E2E2E2E2E2E2E2E2E2E2E2E2E2E2E2E2E2E2E2E2E2E2E2E2E2E2E2E2
310
E2E2E2E2E2E2E2E2E2E2E2E2E2E2E2E2E2E2E2E2E2E2E2E2E2E2E2E2E2E2E2E2E2E2E2E2E2E2E2E2E2E2E2E2E2E2E2E2E2E2E2E2E2E2E2E2E2E2E2E2E2E2E2E2E2E2E2E2E2E2E2E2E2E2E2E2E2E2E2E2E2E2E2E2E2E2E2E2E2E2E2E2E2E2E2E2E2E2E2E2E2E2E2E2E2E2E2E2E2E2E2E2E2E2E2E2E2E2E2E2E2E2E2E2E2E2E2
310
E2E2E2E2E2E2E2E2E2E2E2E2E2E2E2E2E2E2E2E2E2E2E2E2E2E2E2E2E2E2E2E2E2E2E2E2E2E2E2E2E2E2E2E2E2E2E2E2E2E2E2E2E2E2E2E2E2E2E2E2E2E2E2E2E2E2E2E2E2E2E2E2E2E2E2E2E2E2E2E2E2E2E2E2E2E2E2E2E2E2E2E2E2E2E2E2E2E2E2E2E2E2E2E2E2E2E2E2E2E2E2E2E2E2E2E2E2E2E2E2E2E2E2E2E2E2E2
310
E2E2E2E2E2E2E2E2E2E2E2E2E2E2E2E2E2E2E2E2E2E2E2E2E2E2E2E2E2E2E2E2E2E2E2E2E2E2E2E2E2E2E2E2E2E2E2E2E2E2E2E2E2E2E2E2E2E2E2E2E2E2E2E2E2E2E2E2E2E2E2E2E2E2E2E2E2E2E2E2E2E2E2E2E2E2E2E2E2E2E2E2E2E2E2E2E2E2E2E2E2E2E2E2E2E2E2E2E2E2E2E2E2E2E2E2E2E2E2E2E2E2E2E2E2E2E2
310
E2E2E2E2E2E2E2E2E2E2E2E2E2E2E2E2E2E2E2E2E2E2E2E2E2E2E2E2E2E2E2E2E2E2E2E2E2E2E2E2E2E2E2E2E2E2E2E2E2E2E2E2E2E2E2E2E2E2E2E2E2E2E2E2E2E2E2E2E2E2E2E2E2E2E2E2E2E2E2E2E2E2E2E2E2E2E2E2E2E2E2E2E2E2E2E2E2E2E2E2E2E2E2E2E2E2E2E2E2E2E2E2E2E2E2E2E2E2E2E2E2E2E2E2E2E2E2
310
E2E2E2E2E2E2E2E2E2E2E2E2E2E2E2E2E2E2E2E2E2E2E2E2E2E2E2E2E2E2E2E2E2E2E2E2E2E2E2E2E2E2E2E2E2E2E2E2E2E2E2E2E2E2E2E2E2E2E2E2E2E2E2E2E2E2E2E2E2E2E2E2E2E2E2E2E2E2E2E2E2E2E2E2E2E2E2E2E2E2E2E2E2E2E2E2E2E2E2E2E2E2E2E2E2E2E2E2E2E2E2E2E2E2E2E2E2E2E2E2E2E2E2E2E2E2E2
310
E2E2E2E2E2E2E2E2E2E2E2E2E2E2E2E2E2E2E2E2E2E2E2E2E2E2E2E2E2E2E2E2E2E2E2E2E2E2E2E2E2E2E2E2E2E2E2E2E2E2E2E2E2E2E2E2E2E2E2E2E2E2E2E2E2E2E2E2E2E2E2E2E2E2E2E2E2E2E2E2E2E2E2E2E2E2E2E2E2E2E2E2E2E2E2E2E2E2E2E2E2E2E2E2E2E2E2E2E2E2E2E2E2E2E2E2E2E2E2E2E2E2E2E2E2E2E2
310
E2E2E2E2E2E2E2E2E2E2E2E2E2E2E2E2E2E2E2E2E2E2E2E2E2E2E2E2E2E2E2E2E2E2E2E2E2E2E2E2E2E2E2E2E2E2E2E2E2E2E2E2E2E2E2E2E2E2E2E2E2E2E2E2E2E2E2E2E2E2E2E2E2E2E2E2E2E2E2E2E2E2E2E2E2E2E2E2E2E2E2E2E2E2E2E2E2E2E2E2E2E2E2E2E2E2E2E2E2E2E2E2E2E2E2E2E2E2E2E2E2E2E2E2E2E2E2
310
E2E2E2E2E2E2E2E2E2E2E2E2E2E2E2E2E2E2E2E2E2E2E2E2E2E2E2E2E2E2E2E2E2E2E2E2E2E2E2E2E2E2E2E2E2E2E2E2E2E2E2E2E2E2E2E2E2E2E2E2E2E2E2E2E2E2E2E2E2E2E2E2E2E2E2E2E2E2E2E2E2E2E2E2E2E2E2E2E2E2E2E2E2E2E2E2E2E2E2E2E2E2E2E2E2E2E2E2E2E2E2E2E2E2E2E2E2E2E2E2E2E2E2E2E2E2E2
310
E2E2E2E2E2E2E2E2E2E2E2E2E2E2E2E2E2E2E2E2E2E2E2E2E2E2E2E2E2E2E2E2E2E2E2E2E2E2E2E2E2E2E2E2E2E2E2E2E2E2E2E2E2E2E2E2E2E2E2E2E2E2E2E2E2E2E2E2E2E2E2E2E2E2E2E2E2E2E2E2E2E2E2E2E2E2E2E2E2E2E2E2E2E2E2E2E2E2E2E2E2E2E2E2E2E2E2E2E2E2E2E2E2E2E2E2E2E2E2E2E2E2E2E2E2E2E2
310
E2E2E2E2E2E2E2E2E2E2E2E2E2E2E2E2E2E2E2E2E2E2E2E2E2E2E2E2E2E2E2E2E2E2E2E2E2E2E2E2E2E2E2E2E2E2E2E2E2E2E2E2E2E2E2E2E2E2E2E2E2E2E2E2E2E2E2E2E2E2E2E2E2E2E2E2E2E2E2E2E2E2E2E2E2E2E2E2E2E2E2E2E2E2E2E2E2E2E2E2E2E2E2E2E2E2E2E2E2E2E2E2E2E2E2E2E2E2E2E2E2E2E2E2E2E2E2
310
E2E2E2E2E2E2E2E2E2E2E2E2E2E2E2E2E2E2E2E2E2E2E2E2E2E2E2E2E2E2E2E2E2E2E2E2E2E2E2E2E2E2E2E2E2E2E2E2E2E2E2E2E2E2E2E2E2E2E2E2E2E2E2E2E2E2E2E2E2E2E2E2E2E2E2E2E2E2E2E2E2E2E2E2E2E2E2E2E2E2E2E2E2E2E2E2E2E2E2E2E2E2E2E2E2E2E2E2E2E2E2E2E2E2E2E2E2E2E2E2E2E2E2E2E2E2E2
310
E2E2E2E2E2E2E2E2E2E2E2E2E2E2E2E2E2E2E2E2E2E2E2E2E2E2E2E2E2E2E2E2E2E2E2E2E2E2E2E2E2E2E2E2E2E2E2E2E2E2E2E2E2E2E2E2E2E2E2E2E2E2E2E2E2E2E2E2E2E2E2E2E2E2E2E2E2E2E2E2E2E2E2E2E2E2E2E2E2E2E2E2E2E2E2E2E2E2E2E2E2E2E2E2E2E2E2E2E2E2E2E2E2E2E2E2E2E2E2E2E2E2E2E2E2E2E2
310
E2E2E2E2E2E2E2E2E2E2E2E2E2E2E2E2E2E2E2E2E2E2E2E2E2E2E2E2E2E2E2E2E2E2E2E2E2E2E2E2E2E2E2E2E2E2E2E2E2E2E2E2E2E2E2E2E2E2E2E2E2E2E2E2E2E2E2E2E2E2E2E2E2E2E2E2E2E2E2E2E2E2E2E2E2E2E2E2E2E2E2E2E2E2E2E2E2E2E2E2E2E2E2E2E2E2E2E2E2E2E2E2E2E2E2E2E2E2E2E2E2E2E2E2E2E2E2
310
E2E2E2E2E2E2E2E2E2E2E2E2E2E2E2E2E2E2E2E2E2E2E2E2E2E2E2E2E2E2E2E2E2E2E2E2E2E2E2E2E2E2E2E2E2E2E2E2E2E2E2E2E2E2E2E2E2E2E2E2E2E2E2E2E2E2E2E2E2E2E2E2E2E2E2E2E2E2E2E2E2E2E2E2E2E2E2E2E2E2E2E2E2E2E2E2E2E2E2E2E2E2E2E2E2E2E2E2E2E2E2E2E2E2E2E2E2E2E2E2E2E2E2E2E2E2E2
310
E2E2E2E2E2E2E2E2E2E2E2E2E2E2E2E2E2E2E2E2E2E2E2E2E2E2E2E2E2E2E2E2E2E2E2E2E2E2E2E2E2E2E2E2E2E2E2E2E2E2E2E2E2E2E2E2E2E2E2E2E2E2E2E2E2E2E2E2E2E2E2E2E2E2E2E2E2E2E2E2E2E2E2E2E2E2E2E2E2E2E2E2E2E2E2E2E2E2E2E2E2E2E2E2E2E2E2E2E2E2E2E2E2E2E2E2E2E2E2E2E2E2E2E2E2E2E2
310
E2E2E2E2E2E2E2E2E2E2E2E2E2E2E2E2E2E2E2E2E2E2E2E2E2E2E2E2E2E2E2E2E2E2E2E2E2E2E2E2E2E2E2E2E2E2E2E2E2E2E2E2E2E2E2E2E2E2E2E2E2E2E2E2E2E2E2E2E2E2E2E2E2E2E2E2E2E2E2E2E2E2E2E2E2E2E2E2E2E2E2E2E2E2E2E2E2E2E2E2E2E2E2E2E2E2E2E2E2E2E2E2E2E2E2E2E2E2E2E2E2E2E2E2E2E2E2
310
E2E2E2E2E2E2E2E2E2E2E2E2E2E2E2E2E2E2E2E2E2E2E2E2E2E2E2E2E2E2E2E2E2E2E2E2E2E2E2E2E2E2E2E2E2E2E2E2E2E2E2E2E2E2E2E2E2E2E2E2E2E2E2E2E2E2E2E2E2E2E2E2E2E2E2E2E2E2E2E2E2E2E2E2E2E2E2E2E2E2E2E2E2E2E2E2E2E2E2E2E2E2E2E2E2E2E2E2E2E2E2E2E2E2E2E2E2E2E2E2E2E2E2E2E2E2E2
310
E2E2E2E2E2E2E2E2E2E2E2E2E2E2E2E2E2E2E2E2E2E2E2E2E2E2E2E2E2E2E2E2E2E2E2E2E2E2E2E2E2E2E2E2E2E2E2E2E2E2E2E2E2E2E2E2E2E2E2E2E2E2E2E2E2E2E2E2E2E2E2E2E2E2E2E2E2E2E2E2E2E2E2E2E2E2E2E2E2E2E2E2E2E2E2E2E2E2E2E2E2E2E2E2E2E2E2E2E2E2E2E2E2E2E2E2E2E2E2E2E2E2E2E2E2E2E2
310
E2E2E2E2E2E2E2E2E2E2E2E2E2E2E2E2E2E2E2E2E2E2E2E2E2E2E2E2E2E2E2E2E2E2E2E2E2E2E2E2E2E2E2E2E2E2E2E2E2E2E2E2E2E2E2E2E2E2E2E2E2E2E2E2E2E2E2E2E2E2E2E2E2E2E2E2E2E2E2E2E2E2E2E2E2E2E2E2E2E2E2E2E2E2E2E2E2E2E2E2E2E2E2E2E2E2E2E2E2E2E2E2E2E2E2E2E2E2E2E2E2E2E2E2E2E2E2
310
E2E2E2E2E2E2E2E2E2E2E2E2E2E2E2E2E2E2E2E2E2E2E2E2E2E2E2E2E2E2E2E2E2E2E2E2E2E2E2E2E2E2E2E2E2E2E2E2E2E2E2E2E2E2E2E2E2E2E2E2E2E2E2E2E2E2E2E2E2E2E2E2E2E2E2E2E2E2E2E2E2E2E2E2E2E2E2E2E2E2E2E2E2E2E2E2E2E2E2E2E2E2E2E2E2E2E2E2E2E2E2E2E2E2E2E2E2E2E2E2E2E2E2E2E2E2E2
310
E2E2E2E2E2E2E2E2E2E2E2E2E2E2E2E2E2E2E2E2E2E2E2E2E2E2E2E2E2E2E2E2E2E2E2E2E2E2E2E2E2E2E2E2E2E2E2E2E2E2E2E2E2E2E2E2E2E2E2E2E2E2E2E2E2E2E2E2E2E2E2E2E2E2E2E2E2E2E2E2E2E2E2E2E2E2E2E2E2E2E2E2E2E2E2E2E2E2E2E2E2E2E2E2E2E2E2E2E2E2E2E2E2E2E2E2E2E2E2E2E2E2E2E2E2E2E2
310
E2E2E2E2E2E2E2E2E2E2E2E2E2E2E2E2E2E2E2E2E2E2E2E2E2E2E2E2E2E2E2E2E2E2E2E2E2E2E2E2E2E2E2E2E2E2E2E2E2E2E2E2E2E2E2E2E2E2E2E2E2E2E2E2E2E2E2E2E2E2E2E2E2E2E2E2E2E2E2E2E2E2E2E2E2E2E2E2E2E2E2E2E2E2E2E2E2E2E2E2E2E2E2E2E2E2E2E2E2E2E2E2E2E2E2E2E2E2E2E2E2E2E2E2E2E2E2
310
E2E2E2E2E2E2E2E2E2E2E2E2E2E2E2E2E2E2E2E2E2E2E2E2E2E2E2E2E2E2E2E2E2E2E2E2E2E2E2E2E2E2E2E2E2E2E2E2E2E2E2E2E2E2E2E2E2E2E2E2E2E2E2E2E2E2E2E2E2E2E2E2E2E2E2E2E2E2E2E2E2E2E2E2E2E2E2E2E2E2E2E2E2E2E2E2E2E2E2E2E2E2E2E2E2E2E2E2E2E2E2E2E2E2E2E2E2E2E2E2E2E2E2E2E2E2E2
310
E2E2E2E2E2E2E2E2E2E2E2E2E2E2E2E2E2E2E2E2E2E2E2E2E2E2E2E2E2E2E2E2E2E2E2E2E2E2E2E2E2E2E2E2E2E2E2E2E2E2E2E2E2E2E2E2E2E2E2E2E2E2E2E2E2E2E2E2E2E2E2E2E2E2E2E2E2E2E2E2E2E2E2E2E2E2E2E2E2E2E2E2E2E2E2E2E2E2E2E2E2E2E2E2E2E2E2E2E2E2E2E2E2E2E2E2E2E2E2E2E2E2E2E2E2E2E2
310
E2E2E2E2E2E2E2E2E2E2E2E2E2E2E2E2E2E2E2E2E2E2E2E2E2E2E2E2E2E2E2E2E2E2E2E2E2E2E2E2E2E2E2E2E2E2E2E2E2E2E2E2E2E2E2E2E2E2E2E2E2E2E2E2E2E2E2E2E2E2E2E2E2E2E2E2E2E2E2E2E2E2E2E2E2E2E2E2E2E2E2E2E2E2E2E2E2E2E2E2E2E2E2E2E2E2E2E2E2E2E2E2E2E2E2E2E2E2E2E2E2E2E2E2E2E2E2
310
E2E2E2E2E2E2E2E2E2E2E2E2E2E2E2E2E2E2E2E2E2E2E2E2E2E2E2E2E2E2E2E2E2E2E2E2E2E2E2E2E2E2E2E2E2E2E2E2E2E2E2E2E2E2E2E2E2E2E2E2E2E2E2E2E2E2E2E2E2E2E2E2E2E2E2E2E2E2E2E2E2E2E2E2E2E2E2E2E2E2E2E2E2E2E2E2E2E2E2E2E2E2E2E2E2E2E2E2E2E2E2E2E2E2E2E2E2E2E2E2E2E2E2E2E2E2E2
310
E2E2E2E2E2E2E2E2E2E2E2E2E2E2E2E2E2E2E2E2E2E2E2E2E2E2E2E2E2E2E2E2E2E2E2E2E2E2E2E2E2E2E2E2E2E2E2E2E2E2E2E2E2E2E2E2E2E2E2E2E2E2E2E2E2E2E2E2E2E2E2E2E2E2E2E2E2E2E2E2E2E2E2E2E2E2E2E2E2E2E2E2E2E2E2E2E2E2E2E2E2E2E2E2E2E2E2E2E2E2E2E2E2E2E2E2E2E2E2E2E2E2E2E2E2E2E2
310
E2E2E2E2E2E2E2E2E2E2E2E2E2E2E2E2E2E2E2E2E2E2E2E2E2E2E2E2E2E2E2E2E2E2E2E2E2E2E2E2E2E2E2E2E2E2E2E2E2E2E2E2E2E2E2E2E2E2E2E2E2E2E2E2E2E2E2E2E2E2E2E2E2E2E2E2E2E2E2E2E2E2E2E2E2E2E2E2E2E2E2E2E2E2E2E2E2E2E2E2E2E2E2E2E2E2E2E2E2E2E2E2E2E2E2E2E2E2E2E2E2E2E2E2E2E2E2
310
E2E2E2E2E2E2E2E2E2E2E2E2E2E2E2E2E2E2E2E2E2E2E2E2E2E2E2E2E2E2E2E2E2E2E2E2E2E2E2E2E2E2E2E2E2E2E2E2E2E2E2E2E2E2E2E2E2E2E2E2E2E2E2E2E2E2E2E2E2E2E2E2E2E2E2E2E2E2E2E2E2E2E2E2E2E2E2E2E2E2E2E2E2E2E2E2E2E2E2E2E2E2E2E2E2E2E2E2E2E2E2E2E2E2E2E2E2E2E2E2E2E2E2E2E2E2E2
310
E2E2E2E2E2E2E2E2E2E2E2E2E2E2E2E2E2E2E2E2E2E2E2E2E2E2E2E2E2E2E2E2E2E2E2E2E2E2E2E2E2E2E2E2E2E2E2E2E2E2E2E2E2E2E2E2E2E2E2E2E2E2E2E2E2E2E2E2E2E2E2E2E2E2E2E2E2E2E2E2E2E2E2E2E2E2E2E2E2E2E2E2E2E2E2E2E2E2E2E2E2E2E2E2E2E2E2E2E2E2E2E2E2E2E2E2E2E2E2E2E2E2E2E2E2E2E2
310
E2E2E2E2E2E2E2E2E2E2E2E2E2E2E2E2E2E2E2E2E2E2E2E2E2E2E2E2E2E2E2E2E2E2E2E2E2E2E2E2E2E2E2E2E2E2E2E2E2E2E2E2E2E2E2E2E2E2E2E2E2E2E2E2E2E2E2E2E2E2E2E2E2E2E2E2E2E2E2E2E2E2E2E2E2E2E2E2E2E2E2E2E2E2E2E2E2E2E2E2E2E2E2E2E2E2E2E2E2E2E2E2E2E2E2E2E2E2E2E2E2E2E2E2E2E2E2
310
E2E2E2E2E2E2E2E2E2E2E2E2E2E2E2E2E2E2E2E2E2E2E2E2E2E2E2E2E2E2E2E2E2E2E2E2E2E2E2E2E2E2E2E2E2E2E2E2E2E2E2E2E2E2E2E2E2E2E2E2E2E2E2E2E2E2E2E2E2E2E2E2E2E2E2E2E2E2E2E2E2E2E2E2E2E2E2E2E2E2E2E2E2E2E2E2E2E2E2E2E2E2E2E2E2E2E2E2E2E2E2E2E2E2E2E2E2E2E2E2E2E2E2E2E2E2E2
310
E2E2E2E2E2E2E2E2E2E2E2E2E2E2E2E2E2E2E2E2E2E2E2E2E2E2E2E2E2E2E2E2E2E2E2E2E2E2E2E2E2E2E2E2E2E2E2E2E2E2E2E2E2E2E2E2E2E2E2E2E2E2E2E2E2E2E2E2E2E2E2E2E2E2E2E2E2E2E2E2E2E2E2E2E2E2E2E2E2E2E2E2E2E2E2E2E2E2E2E2E2E2E2E2E2E2E2E2E2E2E2E2E2E2E2E2E2E2E2E2E2E2E2E2E2E2E2
310
E2E2E2E2E2E2E2E2E2E2E2E2E2E2E2E2E2E2E2E2E2E2E2E2E2E2E2E2E2E2E2E2E2E2E2E2E2E2E2E2E2E2E2E2E2E2E2E2E2E2E2E2E2E2E2E2E2E2E2E2E2E2E2E2E2E2E2E2E2E2E2E2E2E2E2E2E2E2E2E2E2E2E2E2E2E2E2E2E2E2E2E2E2E2E2E2E2E2E2E2E2E2E2E2E2E2E2E2E2E2E2E2E2E2E2E2E2E2E2E2E2E2E2E2E2E2E2
310
E2E2E2E2E2E2E2E2E2E2E2E2E2E2E2E2E2E2E2E2E2E2E2E2E2E2E2E2E2E2E2E2E2E2E2E2E2E2E2E2E2E2E2E2E2E2E2E2E2E2E2E2E2E2E2E2E2E2E2E2E2E2E2E2E2E2E2E2E2E2E2E2E2E2E2E2E2E2E2E2E2E2E2E2E2E2E2E2E2E2E2E2E2E2E2E2E2E2E2E2E2E2E2E2E2E2E2E2E2E2E2E2E2E2E2E2E2E2E2E2E2E2E2E2E2E2E2
310
E2E2E2E2E2E2E2E2E2E2E2E2E2E2E2E2E2E2E2E2E2E2E2E2E2E2E2E2E2E2E2E2E2E2E2E2E2E2E2E2E2E2E2E2E2E2E2E2E2E2E2E2E2E2E2E2E2E2E2E2E2E2E2E2E2E2E2E2E2E2E2E2E2E2E2E2E2E2E2E2E2E2E2E2E2E2E2E2E2E2E2E2E2E2E2E2E2E2E2E2E2E2E2E2E2E2E2E2E2E2E2E2E2E2E2E2E2E2E2E2E2E2E2E2E2E2E2
310
E2E2E2E2E2E2E2E2E2E2E2E2E2E2E2E2E2E2E2E2E2E2E2E2E2E2E2E2E2E2E2E2E2E2E2E2E2E2E2E2E2E2E2E2E2E2E2E2E2E2E2E2E2E2E2E2E2E2E2E2E2E2E2E2E2E2E2E2E2E2E2E2E2E2E2E2E2E2E2E2E2E2E2E2E2E2E2E2E2E2E2E2E2E2E2E2E2E2E2E2E2E2E2E2E2E2E2E2E2E2E2E2E2E2E2E2E2E2E2E2E2E2E2E2E2E2E2
310
E2E2E2E2E2E2E2E2E2E2E2E2E2E2E2E2E2E2E2E2E2E2E2E2E2E2E2E2E2E2E2E2E2E2E2E2E2E2E2E2E2E2E2E2E2E2E2E2E2E2E2E2E2E2E2E2E2E2E2E2E2E2E2E2E2E2E2E2E2E2E2E2E2E2E2E2E2E2E2E2E2E2E2E2E2E2E2E2E2E2E2E2E2E2E2E2E2E2E2E2E2E2E2E2E2E2E2E2E2E2E2E2E2E2E2E2E2E2E2E2E2E2E2E2E2E2E2
310
E2E2E2E2E2E2E2E2E2E2E2E2E2E2E2E2E2E2E2E2E2E2E2E2E2E2E2E2E2E2E2E2E2E2E2E2E2E2E2E2E2E2E2E2E2E2E2E2E2E2E2E2E2E2E2E2E2E2E2E2E2E2E2E2E2E2E2E2E2E2E2E2E2E2E2E2E2E2E2E2E2E2E2E2E2E2E2E2E2E2E2E2E2E2E2E2E2E2E2E2E2E2E2E2E2E2E2E2E2E2E2E2E2E2E2E2E2E2E2E2E2E2E2E2E2E2E2
310
E2E2E2E2E2E2E2E2E2E2E2E2E2E2E2E2E2E2E2E2E2E2E2E2E2E2E2E2E2E2E2E2E2E2E2E2E2E2E2E2E2E2E2E2E2E2E2E2E2E2E2E2E2E2E2E2E2E2E2E2E2E2E2E2E2E2E2E2E2E2E2E2E2E2E2E2E2E2E2E2E2E2E2E2E2E2E2E2E2E2E2E2E2E2E2E2E2E2E2E2E2E2E2E2E2E2E2E2E2E2E2E2E2E2E2E2E2E2E2E2E2E2E2E2E2E2E2
310
E2E2E2E2E2E2E2E2E2E2E2E2E2E2E2E2E2E2E2E2E2E2E2E2E2E2E2E2E2E2E2E2E2E2E2E2E2E2E2E2E2E2E2E2E2E2E2E2E2E2E2E2E2E2E2E2E2E2E2E2E2E2E2E2E2E2E2E2E2E2E2E2E2E2E2E2E2E2E2E2E2E2E2E2E2E2E2E2E2E2E2E2E2E2E2E2E2E2E2E2E2E2E2E2E2E2E2E2E2E2E2E2E2E2E2E2E2E2E2E2E2E2E2E2E2E2E2
310
E2E2E2E2E2E2E2E2E2E2E2E2E2E2E2E2E2E2E2E2E2E2E2E2E2E2E2E2E2E2E2E2E2E2E2E2E2E2E2E2E2E2E2E2E2E2E2E2E2E2E2E2E2E2E2E2E2E2E2E2E2E2E2E2E2E2E2E2E2E2E2E2E2E2E2E2E2E2E2E2E2E2E2E2E2E2E2E2E2E2E2E2E2E2E2E2E2E2E2E2E2E2E2E2E2E2E2E2E2E2E2E2E2E2E2E2E2E2E2E2E2E2E2E2E2E2E2
310
E2E2E2E2E2E2E2E2E2E2E2E2E2E2E2E2E2E2E2E2E2E2E2E2E2E2E2E2E2E2E2E2E2E2E2E2E2E2E2E2E2E2E2E2E2E2E2E2E2E2E2E2E2E2E2E2E2E2E2E2E2E2E2E2E2E2E2E2E2E2E2E2E2E2E2E2E2E2E2E2E2E2E2E2E2E2E2E2E2E2E2E2E2E2E2E2E2E2E2E2E2E2E2E2E2E2E2E2E2E2E2E2E2E2E2E2E2E2E2E2E2E2E2E2E2E2E2
310
E2E2E2E2E2E2E2E2E2E2E2E2E2E2E2E2E2E2E2E2E2E2E2E2E2E2E2E2E2E2E2E2E2E2E2E2E2E2E2E2E2E2E2E2E2E2E2E2E2E2E2E2E2E2E2E2E2E2E2E2E2E2E2E2E2E2E2E2E2E2E2E2E2E2E2E2E2E2E2E2E2E2E2E2E2E2E2E2E2E2E2E2E2E2E2E2E2E2E2E2E2E2E2E2E2E2E2E2E2E2E2E2E2E2E2E2E2E2E2E2E2E2E2E2E2E2E2
310
E2E2E2E2E2E2E2E2E2E2E2E2E2E2E2E2E2E2E2E2E2E2E2E2E2E2E2E2E2E2E2E2E2E2E2E2E2E2E2E2E2E2E2E2E2E2E2E2E2E2E2E2E2E2E2E2E2E2E2E2E2E2E2E2E2E2E2E2E2E2E2E2E2E2E2E2E2E2E2E2E2E2E2E2E2E2E2E2E2E2E2E2E2E2E2E2E2E2E2E2E2E2E2E2E2E2E2E2E2E2E2E2E2E2E2E2E2E2E2E2E2E2E2E2E2E2E2
310
E2E2E2E2E2E2E2E2E2E2E2E2E2E2E2E2E2E2E2E2E2E2E2E2E2E2E2E2E2E2E2E2E2E2E2E2E2E2E2E2E2E2E2E2E2E2E2E2E2E2E2E2E2E2E2E2E2E2E2E2E2E2E2E2E2E2E2E2E2E2E2E2E2E2E2E2E2E2E2E2E2E2E2E2E2E2E2E2E2E2E2E2E2E2E2E2E2E2E2E2E2E2E2E2E2E2E2E2E2E2E2E2E2E2E2E2E2E2E2E2E2E2E2E2E2E2E2
310
E2E2E2E2E2E2E2E2E2E2E2E2E2E2E2E2E2E2E2E2E2E2E2E2E2E2E2E2E2E2E2E2E2E2E2E2E2E2E2E2E2E2E2E2E2E2E2E2E2E2E2E2E2E2E2E2E2E2E2E2E2E2E2E2E2E2E2E2E2E2E2E2E2E2E2E2E2E2E2E2E2E2E2E2E2E2E2E2E2E2E2E2E2E2E2E2E2E2E2E2E2E2E2E2E2E2E2E2E2E2E2E2E2E2E2E2E2E2E2E2E2E2E2E2E2E2E2
310
E2E2E2E2E2E2E2E2E2E2E2E2E2E2E2E2E2E2E2E2E2E2E2E2E2E2E2E2E2E2E2E2E2E2E2E2E2E2E2E2E2E2E2E2E2E2E2E2E2E2E2E2E2E2E2E2E2E2E2E2E2E2E2E2E2E2E2E2E2E2E2E2E2E2E2E2E2E2E2E2E2E2E2E2E2E2E2E2E2E2E2E2E2E2E2E2E2E2E2E2E2E2E2E2E2E2E2E2E2E2E2E2E2E2E2E2E2E2E2E2E2E2E2E2E2E2E2
310
E2E2E2E2E2E2E2E2E2E2E2E2E2E2E2E2E2E2E2E2E2E2E2E2E2E2E2E2E2E2E2E2E2E2E2E2E2E2E2E2E2E2E2E2E2E2E2E2E2E2E2E2E2E2E2E2E2E2E2E2E2E2E2E2E2E2E2E2E2E2E2E2E2E2E2E2E2E2E2E2E2E2E2E2E2E2E2E2E2E2E2E2E2E2E2E2E2E2E2E2E2E2E2E2E2E2E2E2E2E2E2E2E2E2E2E2E2E2E2E2E2E2E2E2E2E2E2
310
E2E2E2E2E2E2E2E2E2E2E2E2E2E2E2E2E2E2E2E2E2E2E2E2E2E2E2E2E2E2E2E2E2E2E2E2E2E2E2E2E2E2E2E2E2E2E2E2E2E2E2E2E2E2E2E2E2E2E2E2E2E2E2E2E2E2E2E2E2E2E2E2E2E2E2E2E2E2E2E2E2E2E2E2E2E2E2E2E2E2E2E2E2E2E2E2E2E2E2E2E2E2E2E2E2E2E2E2E2E2E2E2E2E2E2E2E2E2E2E2E2E2E2E2E2E2E2
310
E2E2E2E2E2E2E2E2E2E2E2E2E2E2E2E2E2E2E2E2E2E2E2E2E2E2E2E2E2E2E2E2E2E2E2E2E2E2E2E2E2E2E2E2E2E2E2E2E2E2E2E2E2E2E2E2E2E2E2E2E2E2E2E2E2E2E2E2E2E2E2E2E2E2E2E2E2E2E2E2E2E2E2E2E2E2E2E2E2E2E2E2E2E2E2E2E2E2E2E2E2E2E2E2E2E2E2E2E2E2E2E2E2E2E2E2E2E2E2E2E2E2E2E2E2E2E2
310
E2E2E2E2E2E2E2E2E2E2E2E2E2E2E2E2E2E2E2E2E2E2E2E2E2E2E2E2E2E2E2E2E2E2E2E2E2E2E2E2E2E2E2E2E2E2E2E2E2E2E2E2E2E2E2E2E2E2E2E2E2E2E2E2E2E2E2E2E2E2E2E2E2E2E2E2E2E2E2E2E2E2E2E2E2E2E2E2E2E2E2E2E2E2E2E2E2E2E2E2E2E2E2E2E2E2E2E2E2E2E2E2E2E2E2E2E2E2E2E2E2E2E2E2E2E2E2
310
E2E2E2E2E2E2E2E2E2E2E2E2E2E2E2E2E2E2E2E2E2E2E2E2E2E2E2E2E2E2E2E2E2E2E2E2E2E2E2E2E2E2E2E2E2E2E2E2E2E2E2E2E2E2E2E2E2E2E2E2E2E2E2E2E2E2E2E2E2E2E2E2E2E2E2E2E2E2E2E2E2E2E2E2E2E2E2E2E2E2E2E2E2E2E2E2E2E2E2E2E2E2E2E2E2E2E2E2E2E2E2E2E2E2E2E2E2E2E2E2E2E2E2E2E2E2E2
310
E2E2E2E2E2E2E2E2E2E2E2E2E2E2E2E2E2E2E2E2E2E2E2E2E2E2E2E2E2E2E2E2E2E2E2E2E2E2E2E2E2E2E2E2E2E2E2E2E2E2E2E2E2E2E2E2E2E2E2E2E2E2E2E2E2E2E2E2E2E2E2E2E2E2E2E2E2E2E2E2E2E2E2E2E2E2E2E2E2E2E2E2E2E2E2E2E2E2E2E2E2E2E2E2E2E2E2E2E2E2E2E2E2E2E2E2E2E2E2E2E2E2E2E2E2E2E2
310
E2E2E2E2E2E2E2E2E2E2E2E2E2E2E2E2E2E2E2E2E2E2E2E2E2E2E2E2E2E2E2E2E2E2E2E2E2E2E2E2E2E2E2E2E2E2E2E2E2E2E2E2E2E2E2E2E2E2E2E2E2E2E2E2E2E2E2E2E2E2E2E2E2E2E2E2E2E2E2E2E2E2E2E2E2E2E2E2E2E2E2E2E2E2E2E2E2E2E2E2E2E2E2E2E2E2E2E2E2E2E2E2E2E2E2E2E2E2E2E2E2E2E2E2E2E2E2
310
E2E2E2E2E2E2E2E2E2E2E2E2E2E2E2E2E2E2E2E2E2E2E2E2E2E2E2E2E2E2E2E2E2E2E2E2E2E2E2E2E2E2E2E2E2E2E2E2E2E2E2E2E2E2E2E2E2E2E2E2E2E2E2E2E2E2E2E2E2E2E2E2E2E2E2E2E2E2E2E2E2E2E2E2E2E2E2E2E2E2E2E2E2E2E2E2E2E2E2E2E2E2E2E2E2E2E2E2E2E2E2E2E2E2E2E2E2E2E2E2E2E2E2E2E2E2E2
310
E2E2E2E2E2E2E2E2E2E2E2E2E2E2E2E2E2E2E2E2E2E2E2E2E2E2E2E2E2E2E2E2E2E2E2E2E2E2E2E2E2E2E2E2E2E2E2E2E2E2E2E2E2E2E2E2E2E2E2E2E2E2E2E2E2E2E2E2E2E2E2E2E2E2E2E2E2E2E2E2E2E2E2E2E2E2E2E2E2E2E2E2E2E2E2E2E2E2E2E2E2E2E2E2E2E2E2E2E2E2E2E2E2E2E2E2E2E2E2E2E2E2E2E2E2E2E2
310
E2E2E2E2E2E2E2E2E2E2E2E2E2E2E2E2E2E2E2E2E2E2E2E2E2E2E2E2E2E2E2E2E2E2E2E2E2E2E2E2E2E2E2E2E2E2E2E2E2E2E2E2E2E2E2E2E2E2E2E2E2E2E2E2E2E2E2E2E2E2E2E2E2E2E2E2E2E2E2E2E2E2E2E2E2E2E2E2E2E2E2E2E2E2E2E2E2E2E2E2E2E2E2E2E2E2E2E2E2E2E2E2E2E2E2E2E2E2E2E2E2E2E2E2E2E2E2
310
E2E2E2E2E2E2E2E2E2E2E2E2E2E2E2E2E2E2E2E2E2E2E2E2E2E2E2E2E2E2E2E2E2E2E2E2E2E2E2E2E2E2E2E2E2E2E2E2E2E2E2E2E2E2E2E2E2E2E2E2E2E2E2E2E2E2E2E2E2E2E2E2E2E2E2E2E2E2E2E2E2E2E2E2E2E2E2E2E2E2E2E2E2E2E2E2E2E2E2E2E2E2E2E2E2E2E2E2E2E2E2E2E2E2E2E2E2E2E2E2E2E2E2E2E2E2E2
310
E2E2E2E2E2E2E2E2E2E2E2E2E2E2E2E2E2E2E2E2E2E2E2E2E2E2E2E2E2E2E2E2E2E2E2E2E2E2E2E2E2E2E2E2E2E2E2E2E2E2E2E2E2E2E2E2E2E2E2E2E2E2E2E2E2E2E2E2E2E2E2E2E2E2E2E2E2E2E2E2E2E2E2E2E2E2E2E2E2E2E2E2E2E2E2E2E2E2E2E2E2E2E2E2E2E2E2E2E2E2E2E2E2E2E2E2E2E2E2E2E2E2E2E2E2E2E2
310
E2E2E2E2E2E2E2E2E2E2E2E2E2E2E2E2E2E2E2E2E2E2E2E2E2E2E2E2E2E2E2E2E2E2E2E2E2E2E2E2E2E2E2E2E2E2E2E2E2E2E2E2E2E2E2E2E2E2E2E2E2E2E2E2E2E2E2E2E2E2E2E2E2E2E2E2E2E2E2E2E2E2E2E2E2E2E2E2E2E2E2E2E2E2E2E2E2E2E2E2E2E2E2E2E2E2E2E2E2E2E2E2E2E2E2E2E2E2E2E2E2E2E2E2E2E2E2
310
E2E2E2E2E2E2E2E2E2E2E2E2E2E2E2E2E2E2E2E2E2E2E2E2E2E2E2E2E2E2E2E2E2E2E2E2E2E2E2E2E2E2E2E2E2E2E2E2E2E2E2E2E2E2E2E2E2E2E2E2E2E2E2E2E2E2E2E2E2E2E2E2E2E2E2E2E2E2E2E2E2E2E2E2E2E2E2E2E2E2E2E2E2E2E2E2E2E2E2E2E2E2E2E2E2E2E2E2E2E2E2E2E2E2E2E2E2E2E2E2E2E2E2E2E2E2E2
310
E2E2E2E2E2E2E2E2E2E2E2E2E2E2E2E2E2E2E2E2E2E2E2E2E2E2E2E2E2E2E2E2E2E2E2E2E2E2E2E2E2E2E2E2E2E2E2E2E2E2E2E2E2E2E2E2E2E2E2E2E2E2E2E2E2E2E2E2E2E2E2E2E2E2E2E2E2E2E2E2E2E2E2E2E2E2E2E2E2E2E2E2E2E2E2E2E2E2E2E2E2E2E2E2E2E2E2E2E2E2E2E2E2E2E2E2E2E2E2E2E2E2E2E2E2E2E2
310
E2E2E2E2E2E2E2E2E2E2E2E2E2E2E2E2E2E2E2E2E2E2E2E2E2E2E2E2E2E2E2E2E2E2E2E2E2E2E2E2E2E2E2E2E2E2E2E2E2E2E2E2E2E2E2E2E2E2E2E2E2E2E2E2E2E2E2E2E2E2E2E2E2E2E2E2E2E2E2E2E2E2E2E2E2E2E2E2E2E2E2E2E2E2E2E2E2E2E2E2E2E2E2E2E2E2E2E2E2E2E2E2E2E2E2E2E2E2E2E2E2E2E2E2E2E2E2
310
E2E2E2E2E2E2E2E2E2E2E2E2E2E2E2E2E2E2E2E2E2E2E2E2E2E2E2E2E2E2E2E2E2E2E2E2E2E2E2E2E2E2E2E2E2E2E2E2E2E2E2E2E2E2E2E2E2E2E2E2E2E2E2E2E2E2E2E2E2E2E2E2E2E2E2E2E2E2E2E2E2E2E2E2E2E2E2E2E2E2E2E2E2E2E2E2E2E2E2E2E2E2E2E2E2E2E2E2E2E2E2E2E2E2E2E2E2E2E2E2E2E2E2E2E2E2E2
310
E2E2E2E2E2E2E2E2E2E2E2E2E2E2E2E2E2E2E2E2E2E2E2E2E2E2E2E2E2E2E2E2E2E2E2E2E2E2E2E2E2E2E2E2E2E2E2E2E2E2E2E2E2E2E2E2E2E2E2E2E2E2E2E2E2E2E2E2E2E2E2E2E2E2E2E2E2E2E2E2E2E2E2E2E2E2E2E2E2E2E2E2E2E2E2E2E2E2E2E2E2E2E2E2E2E2E2E2E2E2E2E2E2E2E2E2E2E2E2E2E2E2E2E2E2E2E2
310
E2E2E2E2E2E2E2E2E2E2E2E2E2E2E2E2E2E2E2E2E2E2E2E2E2E2E2E2E2E2E2E2E2E2E2E2E2E2E2E2E2E2E2E2E2E2E2E2E2E2E2E2E2E2E2E2E2E2E2E2E2E2E2E2E2E2E2E2E2E2E2E2E2E2E2E2E2E2E2E2E2E2E2E2E2E2E2E2E2E2E2E2E2E2E2E2E2E2E2E2E2E2E2E2E2E2E2E2E2E2E2E2E2E2E2E2E2E2E2E2E2E2E2E2E2E2E2
310
E2E2E2E2E2E2E2E2E2E2E2E2E2E2E2E2E2E2E2E2E2E2E2E2E2E2E2E2E2E2E2E2E2E2E2E2E2E2E2E2E2E2E2E2E2E2E2E2E2E2E2E2E2E2E2E2E2E2E2E2E2E2E2E2E2E2E2E2E2E2E2E2E2E2E2E2E2E2E2E2E2E2E2E2E2E2E2E2E2E2E2E2E2E2E2E2E2E2E2E2E2E2E2E2E2E2E2E2E2E2E2E2E2E2E2E2E2E2E2E2E2E2E2E2E2E2E2
310
E2E2E2E2E2E2E2E2E2E2E2E2E2E2E2E2E2E2E2E2E2E2E2E2E2E2E2E2E2E2E2E2E2E2E2E2E2E2E2E2E2E2E2E2E2E2E2E2E2E2E2E2E2E2E2E2E2E2E2E2E2E2E2E2E2E2E2E2E2E2E2E2E2E2E2E2E2E2E2E2E2E2E2E2E2E2E2E2E2E2E2E2E2E2E2E2E2E2E2E2E2E2E2E2E2E2E2E2E2E2E2E2E2E2E2E2E2E2E2E2E2E2E2E2E2E2E2
310
E2E2E2E2E2E2E2E2E2E2E2E2E2E2E2E2E2E2E2E2E2E2E2E2E2E2E2E2E2E2E2E2E2E2E2E2E2E2E2E2E2E2E2E2E2E2E2E2E2E2E2E2E2E2E2E2E2E2E2E2E2E2E2E2E2E2E2E2E2E2E2E2E2E2E2E2E2E2E2E2E2E2E2E2E2E2E2E2E2E2E2E2E2E2E2E2E2E2E2E2E2E2E2E2E2E2E2E2E2E2E2E2E2E2E2E2E2E2E2E2E2E2E2E2E2E2E2
310
E2E2E2E2E2E2E2E2E2E2E2E2E2E2E2E2E2E2E2E2E2E2E2E2E2E2E2E2E2E2E2E2E2E2E2E2E2E2E2E2E2E2E2E2E2E2E2E2E2E2E2E2E2E2E2E2E2E2E2E2E2E2E2E2E2E2E2E2E2E2E2E2E2E2E2E2E2E2E2E2E2E2E2E2E2E2E2E2E2E2E2E2E2E2E2E2E2E2E2E2E2E2E2E2E2E2E2E2E2E2E2E2E2E2E2E2E2E2E2E2E2E2E2E2E2E2E2
310
E2E2E2E2E2E2E2E2E2E2E2E2E2E2E2E2E2E2E2E2E2E2E2E2E2E2E2E2E2E2E2E2E2E2E2E2E2E2E2E2E2E2E2E2E2E2E2E2E2E2E2E2E2E2E2E2E2E2E2E2E2E2E2E2E2E2E2E2E2E2E2E2E2E2E2E2E2E2E2E2E2E2E2E2E2E2E2E2E2E2E2E2E2E2E2E2E2E2E2E2E2E2E2E2E2E2E2E2E2E2E2E2E2E2E2E2E2E2E2E2E2E2E2E2E2E2E2
310
E2E2E2E2E2E2E2E2E2E2E2E2E2E2E2E2E2E2E2E2E2E2E2E2E2E2E2E2E2E2E2E2E2E2E2E2E2E2E2E2E2E2E2E2E2E2E2E2E2E2E2E2E2E2E2E2E2E2E2E2E2E2E2E2E2E2E2E2E2E2E2E2E2E2E2E2E2E2E2E2E2E2E2E2E2E2E2E2E2E2E2E2E2E2E2E2E2E2E2E2E2E2E2E2E2E2E2E2E2E2E2E2E2E2E2E2E2E2E2E2E2E2E2E2E2E2E2
310
E2E2E2E2E2E2E2E2E2E2E2E2E2E2E2E2E2E2E2E2E2E2E2E2E2E2E2E2E2E2E2E2E2E2E2E2E2E2E2E2E2E2E2E2E2E2E2E2E2E2E2E2E2E2E2E2E2E2E2E2E2E2E2E2E2E2E2E2E2E2E2E2E2E2E2E2E2E2E2E2E2E2E2E2E2E2E2E2E2E2E2E2E2E2E2E2E2E2E2E2E2E2E2E2E2E2E2E2E2E2E2E2E2E2E2E2E2E2E2E2E2E2E2E2E2E2E2
310
E2E2E2E2E2E2E2E2E2E2E2E2E2E2E2E2E2E2E2E2E2E2E2E2E2E2E2E2E2E2E2E2E2E2E2E2E2E2E2E2E2E2E2E2E2E2E2E2E2E2E2E2E2E2E2E2E2E2E2E2E2E2E2E2E2E2E2E2E2E2E2E2E2E2E2E2E2E2E2E2E2E2E2E2E2E2E2E2E2E2E2E2E2E2E2E2E2E2E2E2E2E2E2E2E2E2E2E2E2E2E2E2E2E2E2E2E2E2E2E2E2E2E2E2E2E2E2
310
E2E2E2E2E2E2E2E2E2E2E2E2E2E2E2E2E2E2E2E2E2E2E2E2E2E2E2E2E2E2E2E2E2E2E2E2E2E2E2E2E2E2E2E2E2E2E2E2E2E2E2E2E2E2E2E2E2E2E2E2E2E2E2E2E2E2E2E2E2E2E2E2E2E2E2E2E2E2E2E2E2E2E2E2E2E2E2E2E2E2E2E2E2E2E2E2E2E2E2E2E2E2E2E2E2E2E2E2E2E2E2E2E2E2E2E2E2E2E2E2E2E2E2E2E2E2E2
310
E2E2E2E2E2E2E2E2E2E2E2E2E2E2E2E2E2E2E2E2E2E2E2E2E2E2E2E2E2E2E2E2E2E2E2E2E2E2E2E2E2E2E2E2E2E2E2E2E2E2E2E2E2E2E2E2E2E2E2E2E2E2E2E2E2E2E2E2E2E2E2E2E2E2E2E2E2E2E2E2E2E2E2E2E2E2E2E2E2E2E2E2E2E2E2E2E2E2E2E2E2E2E2E2E2E2E2E2E2E2E2E2E2E2E2E2E2E2E2E2E2E2E2E2E2E2E2
310
E2E2E2E2E2E2E2E2E2E2E2E2E2E2E2E2E2E2E2E2E2E2E2E2E2E2E2E2E2E2E2E2E2E2E2E2E2E2E2E2E2E2E2E2E2E2E2E2E2E2E2E2E2E2E2E2E2E2E2E2E2E2E2E2E2E2E2E2E2E2E2E2E2E2E2E2E2E2E2E2E2E2E2E2E2E2E2E2E2E2E2E2E2E2E2E2E2E2E2E2E2E2E2E2E2E2E2E2E2E2E2E2E2E2E2E2E2E2E2E2E2E2E2E2E2E2E2
310
E2E2E2E2E2E2E2E2E2E2E2E2E2E2E2E2E2E2E2E2E2E2E2E2E2E2E2E2E2E2E2E2E2E2E2E2E2E2E2E2E2E2E2E2E2E2E2E2E2E2E2E2E2E2E2E2E2E2E2E2E2E2E2E2E2E2E2E2E2E2E2E2E2E2E2E2E2E2E2E2E2E2E2E2E2E2E2E2E2E2E2E2E2E2E2E2E2E2E2E2E2E2E2E2E2E2E2E2E2E2E2E2E2E2E2E2E2E2E2E2E2E2E2E2E2E2E2
310
E2E2E2E2E2E2E2E2E2E2E2E2E2E2E2E2E2E2E2E2E2E2E2E2E2E2E2E2E2E2E2E2E2E2E2E2E2E2E2E2E2E2E2E2E2E2E2E2E2E2E2E2E2E2E2E2E2E2E2E2E2E2E2E2E2E2E2E2E2E2E2E2E2E2E2E2E2E2E2E2E2E2E2E2E2E2E2E2E2E2E2E2E2E2E2E2E2E2E2E2E2E2E2E2E2E2E2E2E2E2E2E2E2E2E2E2E2E2E2E2E2E2E2E2E2E2E2
310
E2E2E2E2E2E2E2E2E2E2E2E2E2E2E2E2E2E2E2E2E2E2E2E2E2E2E2E2E2E2E2E2E2E2E2E2E2E2E2E2E2E2E2E2E2E2E2E2E2E2E2E2E2E2E2E2E2E2E2E2E2E2E2E2E2E2E2E2E2E2E2E2E2E2E2E2E2E2E2E2E2E2E2E2E2E2E2E2E2E2E2E2E2E2E2E2E2E2E2E2E2E2E2E2E2E2E2E2E2E2E2E2E2E2E2E2E2E2E2E2E2E2E2E2E2E2E2
310
E2E2E2E2E2E2E2E2E2E2E2E2E2E2E2E2E2E2E2E2E2E2E2E2E2E2E2E2E2E2E2E2E2E2E2E2E2E2E2E2E2E2E2E2E2E2E2E2E2E2E2E2E2E2E2E2E2E2E2E2E2E2E2E2E2E2E2E2E2E2E2E2E2E2E2E2E2E2E2E2E2E2E2E2E2E2E2E2E2E2E2E2E2E2E2E2E2E2E2E2E2E2E2E2E2E2E2E2E2E2E2E2E2E2E2E2E2E2E2E2E2E2E2E2E2E2E2
310
E2E2E2E2E2E2E2E2E2E2E2E2E2E2E2E2E2E2E2E2E2E2E2E2E2E2E2E2E2E2E2E2E2E2E2E2E2E2E2E2E2E2E2E2E2E2E2E2E2E2E2E2E2E2E2E2E2E2E2E2E2E2E2E2E2E2E2E2E2E2E2E2E2E2E2E2E2E2E2E2E2E2E2E2E2E2E2E2E2E2E2E2E2E2E2E2E2E2E2E2E2E2E2E2E2E2E2E2E2E2E2E2E2E2E2E2E2E2E2E2E2E2E2E2E2E2E2
310
E2E2E2E2E2E2E2E2E2E2E2E2E2E2E2E2E2E2E2E2E2E2E2E2E2E2E2E2E2E2E2E2E2E2E2E2E2E2E2E2E2E2E2E2E2E2E2E2E2E2E2E2E2E2E2E2E2E2E2E2E2E2E2E2E2E2E2E2E2E2E2E2E2E2E2E2E2E2E2E2E2E2E2E2E2E2E2E2E2E2E2E2E2E2E2E2E2E2E2E2E2E2E2E2E2E2E2E2E2E2E2E2E2E2E2E2E2E2E2E2E2E2E2E2E2E2E2
310
E2E2E2E2E2E2E2E2E2E2E2E2E2E2E2E2E2E2E2E2E2E2E2E2E2E2E2E2E2E2E2E2E2E2E2E2E2E2E2E2E2E2E2E2E2E2E2E2E2E2E2E2E2E2E2E2E2E2E2E2E2E2E2E2E2E2E2E2E2E2E2E2E2E2E2E2E2E2E2E2E2E2E2E2E2E2E2E2E2E2E2E2E2E2E2E2E2E2E2E2E2E2E2E2E2E2E2E2E2E2E2E2E2E2E2E2E2E2E2E2E2E2E2E2E2E2E2
310
E2E2E2E2E2E2E2E2E2E2E2E2E2E2E2E2E2E2E2E2E2E2E2E2E2E2E2E2E2E2E2E2E2E2E2E2E2E2E2E2E2E2E2E2E2E2E2E2E2E2E2E2E2E2E2E2E2E2E2E2E2E2E2E2E2E2E2E2E2E2E2E2E2E2E2E2E2E2E2E2E2E2E2E2E2E2E2E2E2E2E2E2E2E2E2E2E2E2E2E2E2E2E2E2E2E2E2E2E2E2E2E2E2E2E2E2E2E2E2E2E2E2E2E2E2E2E2
310
E2E2E2E2E2E2E2E2E2E2E2E2E2E2E2E2E2E2E2E2E2E2E2E2E2E2E2E2E2E2E2E2E2E2E2E2E2E2E2E2E2E2E2E2E2E2E2E2E2E2E2E2E2E2E2E2E2E2E2E2E2E2E2E2E2E2E2E2E2E2E2E2E2E2E2E2E2E2E2E2E2E2E2E2E2E2E2E2E2E2E2E2E2E2E2E2E2E2E2E2E2E2E2E2E2E2E2E2E2E2E2E2E2E2E2E2E2E2E2E2E2E2E2E2E2E2E2
310
E2E2E2E2E2E2E2E2E2E2E2E2E2E2E2E2E2E2E2E2E2E2E2E2E2E2E2E2E2E2E2E2E2E2E2E2E2E2E2E2E2E2E2E2E2E2E2E2E2E2E2E2E2E2E2E2E2E2E2E2E2E2E2E2E2E2E2E2E2E2E2E2E2E2E2E2E2E2E2E2E2E2E2E2E2E2E2E2E2E2E2E2E2E2E2E2E2E2E2E2E2E2E2E2E2E2E2E2E2E2E2E2E2E2E2E2E2E2E2E2E2E2E2E2E2E2E2
310
E2E2E2E2E2E2E2E2E2E2E2E2E2E2E2E2E2E2E2E2E2E2E2E2E2E2E2E2E2E2E2E2E2E2E2E2E2E2E2E2E2E2E2E2E2E2E2E2E2E2E2E2E2E2E2E2E2E2E2E2E2E2E2E2E2E2E2E2E2E2E2E2E2E2E2E2E2E2E2E2E2E2E2E2E2E2E2E2E2E2E2E2E2E2E2E2E2E2E2E2E2E2E2E2E2E2E2E2E2E2E2E2E2E2E2E2E2E2E2E2E2E2E2E2E2E2E2
310
E2E2E2E2E2E2E2E2E2E2E2E2E2E2E2E2E2E2E2E2E2E2E2E2E2E2E2E2E2E2E2E2E2E2E2E2E2E2E2E2E2E2E2E2E2E2E2E2E2E2E2E2E2E2E2E2E2E2E2E2E2E2E2E2E2E2E2E2E2E2E2E2E2E2E2E2E2E2E2E2E2E2E2E2E2E2E2E2E2E2E2E2E2E2E2E2E2E2E2E2E2E2E2E2E2E2E2E2E2E2E2E2E2E2E2E2E2E2E2E2E2E2E2E2E2E2E2
310
E2E2E2E2E2E2E2E2E2E2E2E2E2E2E2E2E2E2E2E2E2E2E2E2E2E2E2E2E2E2E2E2E2E2E2E2E2E2E2E2E2E2E2E2E2E2E2E2E2E2E2E2E2E2E2E2E2E2E2E2E2E2E2E2E2E2E2E2E2E2E2E2E2E2E2E2E2E2E2E2E2E2E2E2E2E2E2E2E2E2E2E2E2E2E2E2E2E2E2E2E2E2E2E2E2E2E2E2E2E2E2E2E2E2E2E2E2E2E2E2E2E2E2E2E2E2E2
310
E2E2E2E2E2E2E2E2E2E2E2E2E2E2E2E2E2E2E2E2E2E2E2E2E2E2E2E2E2E2E2E2E2E2E2E2E2E2E2E2E2E2E2E2E2E2E2E2E2E2E2E2E2E2E2E2E2E2E2E2E2E2E2E2E2E2E2E2E2E2E2E2E2E2E2E2E2E2E2E2E2E2E2E2E2E2E2E2E2E2E2E2E2E2E2E2E2E2E2E2E2E2E2E2E2E2E2E2E2E2E2E2E2E2E2E2E2E2E2E2E2E2E2E2E2E2E2
310
E2E2E2E2E2E2E2E2E2E2E2E2E2E2E2E2E2E2E2E2E2E2E2E2E2E2E2E2E2E2E2E2E2E2E2E2E2E2E2E2E2E2E2E2E2E2E2E2E2E2E2E2E2E2E2E2E2E2E2E2E2E2E2E2E2E2E2E2E2E2E2E2E2E2E2E2E2E2E2E2E2E2E2E2E2E2E2E2E2E2E2E2E2E2E2E2E2E2E2E2E2E2E2E2E2E2E2E2E2E2E2E2E2E2E2E2E2E2E2E2E2E2E2E2E2E2E2
310
E2E2E2E2E2E2E2E2E2E2E2E2E2E2E2E2E2E2E2E2E2E2E2E2E2E2E2E2E2E2E2E2E2E2E2E2E2E2E2E2E2E2E2E2E2E2E2E2E2E2E2E2E2E2E2E2E2E2E2E2E2E2E2E2E2E2E2E2E2E2E2E2E2E2E2E2E2E2E2E2E2E2E2E2E2E2E2E2E2E2E2E2E2E2E2E2E2E2E2E2E2E2E2E2E2E2E2E2E2E2E2E2E2E2E2E2E2E2E2E2E2E2E2E2E2E2E2
310
E2E2E2E2E2E2E2E2E2E2E2E2E2E2E2E2E2E2E2E2E2E2E2E2E2E2E2E2E2E2E2E2E2E2E2E2E2E2E2E2E2E2E2E2E2E2E2E2E2E2E2E2E2E2E2E2E2E2E2E2E2E2E2E2E2E2E2E2E2E2E2E2E2E2E2E2E2E2E2E2E2E2E2E2E2E2E2E2E2E2E2E2E2E2E2E2E2E2E2E2E2E2E2E2E2E2E2E2E2E2E2E2E2E2E2E2E2E2E2E2E2E2E2E2E2E2E2
310
E2E2E2E2E2E2E2E2E2E2E2E2E2E2E2E2E2E2E2E2E2E2E2E2E2E2E2E2E2E2E2E2E2E2E2E2E2E2E2E2E2E2E2E2E2E2E2E2E2E2E2E2E2E2E2E2E2E2E2E2E2E2E2E2E2E2E2E2E2E2E2E2E2E2E2E2E2E2E2E2E2E2E2E2E2E2E2E2E2E2E2E2E2E2E2E2E2E2E2E2E2E2E2E2E2E2E2E2E2E2E2E2E2E2E2E2E2E2E2E2E2E2E2E2E2E2E2
310
E2E2E2E2E2E2E2E2E2E2E2E2E2E2E2E2E2E2E2E2E2E2E2E2E2E2E2E2E2E2E2E2E2E2E2E2E2E2E2E2E2E2E2E2E2E2E2E2E2E2E2E2E2E2E2E2E2E2E2E2E2E2E2E2E2E2E2E2E2E2E2E2E2E2E2E2E2E2E2E2E2E2E2E2E2E2E2E2E2E2E2E2E2E2E2E2E2E2E2E2E2E2E2E2E2E2E2E2E2E2E2E2E2E2E2E2E2E2E2E2E2E2E2E2E2E2E2
310
E2E2E2E2E2E2E2E2E2E2E2E2E2E2E2E2E2E2E2E2E2E2E2E2E2E2E2E2E2E2E2E2E2E2E2E2E2E2E2E2E2E2E2E2E2E2E2E2E2E2E2E2E2E2E2E2E2E2E2E2E2E2E2E2E2E2E2E2E2E2E2E2E2E2E2E2E2E2E2E2E2E2E2E2E2E2E2E2E2E2E2E2E2E2E2E2E2E2E2E2E2E2E2E2E2E2E2E2E2E2E2E2E2E2E2E2E2E2E2E2E2E2E2E2E2E2E2
310
E2E2E2E2E2E2E2E2E2E2E2E2E2E2E2E2E2E2E2E2E2E2E2E2E2E2E2E2E2E2E2E2E2E2E2E2E2E2E2E2E2E2E2E2E2E2E2E2E2E2E2E2E2E2E2E2E2E2E2E2E2E2E2E2E2E2E2E2E2E2E2E2E2E2E2E2E2E2E2E2E2E2E2E2E2E2E2E2E2E2E2E2E2E2E2E2E2E2E2E2E2E2E2E2E2E2E2E2E2E2E2E2E2E2E2E2E2E2E2E2E2E2E2E2E2E2E2
310
E2E2E2E2E2E2E2E2E2E2E2E2E2E2E2E2E2E2E2E2E2E2E2E2E2E2E2E2E2E2E2E2E2E2E2E2E2E2E2E2E2E2E2E2E2E2E2E2E2E2E2E2E2E2E2E2E2E2E2E2E2E2E2E2E2E2E2E2E2E2E2E2E2E2E2E2E2E2E2E2E2E2E2E2E2E2E2E2E2E2E2E2E2E2E2E2E2E2E2E2E2E2E2E2E2E2E2E2E2E2E2E2E2E2E2E2E2E2E2E2E2E2E2E2E2E2E2
310
E2E2E2E2E2E2E2E2E2E2E2E2E2E2E2E2E2E2E2E2E2E2E2E2E2E2E2E2E2E2E2E2E2E2E2E2E2E2E2E2E2E2E2E2E2E2E2E2E2E2E2E2E2E2E2E2E2E2E2E2E2E2E2E2E2E2E2E2E2E2E2E2E2E2E2E2E2E2E2E2E2E2E2E2E2E2E2E2E2E2E2E2E2E2E2E2E2E2E2E2E2E2E2E2E2E2E2E2E2E2E2E2E2E2E2E2E2E2E2E2E2E2E2E2E2E2E2
310
E2E2E2E2E2E2E2E2E2E2E2E2E2E2E2E2E2E2E2E2E2E2E2E2E2E2E2E2E2E2E2E2E2E2E2E2E2E2E2E2E2E2E2E2E2E2E2E2E2E2E2E2E2E2E2E2E2E2E2E2E2E2E2E2E2E2E2E2E2E2E2E2E2E2E2E2E2E2E2E2E2E2E2E2E2E2E2E2E2E2E2E2E2E2E2E2E2E2E2E2E2E2E2E2E2E2E2E2E2E2E2E2E2E2E2E2E2E2E2E2E2E2E2E2E2E2E2
310
E2E2E2E2E2E2E2E2E2E2E2E2E2E2E2E2E2E2E2E2E2E2E2E2E2E2E2E2E2E2E2E2E2E2E2E2E2E2E2E2E2E2E2E2E2E2E2E2E2E2E2E2E2E2E2E2E2E2E2E2E2E2E2E2E2E2E2E2E2E2E2E2E2E2E2E2E2E2E2E2E2E2E2E2E2E2E2E2E2E2E2E2E2E2E2E2E2E2E2E2E2E2E2E2E2E2E2E2E2E2E2E2E2E2E2E2E2E2E2E2E2E2E2E2E2E2E2
310
E2E2E2E2E2E2E2E2E2E2E2E2E2E2E2E2E2E2E2E2E2E2E2E2E2E2E2E2E2E2E2E2E2E2E2E2E2E2E2E2E2E2E2E2E2E2E2E2E2E2E2E2E2E2E2E2E2E2E2E2E2E2E2E2E2E2E2E2E2E2E2E2E2E2E2E2E2E2E2E2E2E2E2E2E2E2E2E2E2E2E2E2E2E2E2E2E2E2E2E2E2E2E2E2E2E2E2E2E2E2E2E2E2E2E2E2E2E2E2E2E2E2E2E2E2E2E2
310
E2E2E2E2E2E2E2E2E2E2E2E2E2E2E2E2E2E2E2E2E2E2E2E2E2E2E2E2E2E2E2E2E2E2E2E2E2E2E2E2E2E2E2E2E2E2E2E2E2E2E2E2E2E2E2E2E2E2E2E2E2E2E2E2E2E2E2E2E2E2E2E2E2E2E2E2E2E2E2E2E2E2E2E2E2E2E2E2E2E2E2E2E2E2E2E2E2E2E2E2E2E2E2E2E2E2E2E2E2E2E2E2E2E2E2E2E2E2E2E2E2E2E2E2E2E2E2
310
E2E2E2E2E2E2E2E2E2E2E2E2E2E2E2E2E2E2E2E2E2E2E2E2E2E2E2E2E2E2E2E2E2E2E2E2E2E2E2E2E2E2E2E2E2E2E2E2E2E2E2E2E2E2E2E2E2E2E2E2E2E2E2E2E2E2E2E2E2E2E2E2E2E2E2E2E2E2E2E2E2E2E2E2E2E2E2E2E2E2E2E2E2E2E2E2E2E2E2E2E2E2E2E2E2E2E2E2E2E2E2E2E2E2E2E2E2E2E2E2E2E2E2E2E2E2E2
310
E2E2E2E2E2E2E2E2E2E2E2E2E2E2E2E2E2E2E2E2E2E2E2E2E2E2E2E2E2E2E2E2E2E2E2E2E2E2E2E2E2E2E2E2E2E2E2E2E2E2E2E2E2E2E2E2E2E2E2E2E2E2E2E2E2E2E2E2E2E2E2E2E2E2E2E2E2E2E2E2E2E2E2E2E2E2E2E2E2E2E2E2E2E2E2E2E2E2E2E2E2E2E2E2E2E2E2E2E2E2E2E2E2E2E2E2E2E2E2E2E2E2E2E2E2E2E2
310
E2E2E2E2E2E2E2E2E2E2E2E2E2E2E2E2E2E2E2E2E2E2E2E2E2E2E2E2E2E2E2E2E2E2E2E2E2E2E2E2E2E2E2E2E2E2E2E2E2E2E2E2E2E2E2E2E2E2E2E2E2E2E2E2E2E2E2E2E2E2E2E2E2E2E2E2E2E2E2E2E2E2E2E2E2E2E2E2E2E2E2E2E2E2E2E2E2E2E2E2E2E2E2E2E2E2E2E2E2E2E2E2E2E2E2E2E2E2E2E2E2E2E2E2E2E2E2
310
E2E2E2E2E2E2E2E2E2E2E2E2E2E2E2E2E2E2E2E2E2E2E2E2E2E2E2E2E2E2E2E2E2E2E2E2E2E2E2E2E2E2E2E2E2E2E2E2E2E2E2E2E2E2E2E2E2E2E2E2E2E2E2E2E2E2E2E2E2E2E2E2E2E2E2E2E2E2E2E2E2E2E2E2E2E2E2E2E2E2E2E2E2E2E2E2E2E2E2E2E2E2E2E2E2E2E2E2E2E2E2E2E2E2E2E2E2E2E2E2E2E2E2E2E2E2E2
310
E2E2E2E2E2E2E2E2E2E2E2E2E2E2E2E2E2E2E2E2E2E2E2E2E2E2E2E2E2E2E2E2E2E2E2E2E2E2E2E2E2E2E2E2E2E2E2E2E2E2E2E2E2E2E2E2E2E2E2E2E2E2E2E2E2E2E2E2E2E2E2E2E2E2E2E2E2E2E2E2E2E2E2E2E2E2E2E2E2E2E2E2E2E2E2E2E2E2E2E2E2E2E2E2E2E2E2E2E2E2E2E2E2E2E2E2E2E2E2E2E2E2E2E2E2E2E2
310
E2E2E2E2E2E2E2E2E2E2E2E2E2E2E2E2E2E2E2E2E2E2E2E2E2E2E2E2E2E2E2E2E2E2E2E2E2E2E2E2E2E2E2E2E2E2E2E2E2E2E2E2E2E2E2E2E2E2E2E2E2E2E2E2E2E2E2E2E2E2E2E2E2E2E2E2E2E2E2E2E2E2E2E2E2E2E2E2E2E2E2E2E2E2E2E2E2E2E2E2E2E2E2E2E2E2E2E2E2E2E2E2E2E2E2E2E2E2E2E2E2E2E2E2E2E2E2
310
E2E2E2E2E2E2E2E2E2E2E2E2E2E2E2E2E2E2E2E2E2E2E2E2E2E2E2E2E2E2E2E2E2E2E2E2E2E2E2E2E2E2E2E2E2E2E2E2E2E2E2E2E2E2E2E2E2E2E2E2E2E2E2E2E2E2E2E2E2E2E2E2E2E2E2E2E2E2E2E2E2E2E2E2E2E2E2E2E2E2E2E2E2E2E2E2E2E2E2E2E2E2E2E2E2E2E2E2E2E2E2E2E2E2E2E2E2E2E2E2E2E2E2E2E2E2E2
310
E2E2E2E2E2E2E2E2E2E2E2E2E2E2E2E2E2E2E2E2E2E2E2E2E2E2E2E2E2E2E2E2E2E2E2E2E2E2E2E2E2E2E2E2E2E2E2E2E2
  0
XRECORD
  5
26B9
102
{ACAD_REACTORS
330
26B8
102
}
330
26B8
100
AcDbXrecord
280
     1
102
SHADEPLOT
 70
     0
102
SHADEPLOTRESLEVEL
 70
     2
102
SHADEPLOTCUSTOMDPI
 70
   300
  0
XRECORD
  5
16BA
102
{ACAD_REACTORS
330
A40
102
}
330
A40
100
AcDbXrecord
280
     1
102
MATERIAL
148
0.0
149
0.0
149
0.0
 93
        0
 94
      127
282
     0
 72
     0
 77
     0
171
     0
175
     0
179
     0
273
     0
  0
XRECORD
  5
A42
102
{ACAD_REACTORS
330
A40
102
}
330
A40
100
AcDbXrecord
280
     1
270
     1
271
     1
  0
XRECORD
  5
A41
102
{ACAD_REACTORS
330
A40
102
}
330
A40
100
AcDbXrecord
280
     1
270
     1
271
     1
  0
XRECORD
  5
A45
102
{ACAD_REACTORS
330
A40
102
}
330
A40
100
AcDbXrecord
280
     1
270
     1
271
     1
  0
XRECORD
  5
A44
102
{ACAD_REACTORS
330
A40
102
}
330
A40
100
AcDbXrecord
280
     1
270
     1
271
     1
  0
XRECORD
  5
A46
102
{ACAD_REACTORS
330
A40
102
}
330
A40
100
AcDbXrecord
280
     1
270
     1
271
     1
  0
XRECORD
  5
A43
102
{ACAD_REACTORS
330
A40
102
}
330
A40
100
AcDbXrecord
280
     1
270
     1
271
     1
  0
XRECORD
  5
16B9
102
{ACAD_REACTORS
330
A38
102
}
330
A38
100
AcDbXrecord
280
     1
102
MATERIAL
148
0.0
149
0.0
149
0.0
 93
        0
 94
      127
282
     0
 72
     0
 77
     0
171
     0
175
     0
179
     0
273
     0
  0
XRECORD
  5
A3A
102
{ACAD_REACTORS
330
A38
102
}
330
A38
100
AcDbXrecord
280
     1
270
     1
271
     1
  0
XRECORD
  5
A39
102
{ACAD_REACTORS
330
A38
102
}
330
A38
100
AcDbXrecord
280
     1
270
     1
271
     1
  0
XRECORD
  5
A3D
102
{ACAD_REACTORS
330
A38
102
}
330
A38
100
AcDbXrecord
280
     1
270
     1
271
     1
  0
XRECORD
  5
A3C
102
{ACAD_REACTORS
330
A38
102
}
330
A38
100
AcDbXrecord
280
     1
270
     1
271
     1
  0
XRECORD
  5
A3E
102
{ACAD_REACTORS
330
A38
102
}
330
A38
100
AcDbXrecord
280
     1
270
     1
271
     1
  0
XRECORD
  5
A3B
102
{ACAD_REACTORS
330
A38
102
}
330
A38
100
AcDbXrecord
280
     1
270
     1
271
     1
  0
XRECORD
  5
16BB
102
{ACAD_REACTORS
330
A48
102
}
330
A48
100
AcDbXrecord
280
     1
102
MATERIAL
148
0.0
149
0.0
149
0.0
 93
        0
 94
      127
282
     0
 72
     0
 77
     0
171
     0
175
     0
179
     0
273
     0
  0
XRECORD
  5
A4A
102
{ACAD_REACTORS
330
A48
102
}
330
A48
100
AcDbXrecord
280
     1
270
     1
271
     1
  0
XRECORD
  5
A49
102
{ACAD_REACTORS
330
A48
102
}
330
A48
100
AcDbXrecord
280
     1
270
     1
271
     1
  0
XRECORD
  5
A4D
102
{ACAD_REACTORS
330
A48
102
}
330
A48
100
AcDbXrecord
280
     1
270
     1
271
     1
  0
XRECORD
  5
A4C
102
{ACAD_REACTORS
330
A48
102
}
330
A48
100
AcDbXrecord
280
     1
270
     1
271
     1
  0
XRECORD
  5
A4E
102
{ACAD_REACTORS
330
A48
102
}
330
A48
100
AcDbXrecord
280
     1
270
     1
271
     1
  0
XRECORD
  5
A4B
102
{ACAD_REACTORS
330
A48
102
}
330
A48
100
AcDbXrecord
280
     1
270
     1
271
     1
  0
CELLSTYLEMAP
  5
26B4
102
{ACAD_REACTORS
330
AED
102
}
330
AED
100
AcDbCellStyleMap
 90
        3
300
CELLSTYLE
  1
TABLEFORMAT_BEGIN
 90
        5
170
     1
 91
        0
 92
    32768
 62
   257
 93
        1
300
CONTENTFORMAT
  1
CONTENTFORMAT_BEGIN
 90
        0
 91
        0
 92
        4
 93
        0
300

 40
0.0
140
1.0
 94
        5
 62
     0
340
10
144
6.0
309
CONTENTFORMAT_END
171
     1
301
MARGIN
  1
CELLMARGIN_BEGIN
 40
1.5
 40
1.5
 40
1.5
 40
1.5
 40
0.18
 40
0.18
309
CELLMARGIN_END
 94
        6
 95
        1
302
GRIDFORMAT
  1
GRIDFORMAT_BEGIN
 90
        0
 91
        1
 62
     0
 92
       -2
340
0
 93
        0
 40
0.045
309
GRIDFORMAT_END
 95
        2
302
GRIDFORMAT
  1
GRIDFORMAT_BEGIN
 90
        0
 91
        1
 62
     0
 92
       -2
340
0
 93
        0
 40
0.045
309
GRIDFORMAT_END
 95
        4
302
GRIDFORMAT
  1
GRIDFORMAT_BEGIN
 90
        0
 91
        1
 62
     0
 92
       -2
340
0
 93
        0
 40
0.045
309
GRIDFORMAT_END
 95
        8
302
GRIDFORMAT
  1
GRIDFORMAT_BEGIN
 90
        0
 91
        1
 62
     0
 92
       -2
340
0
 93
        0
 40
0.045
309
GRIDFORMAT_END
 95
       16
302
GRIDFORMAT
  1
GRIDFORMAT_BEGIN
 90
        0
 91
        1
 62
     0
 92
       -2
340
0
 93
        0
 40
0.045
309
GRIDFORMAT_END
 95
       32
302
GRIDFORMAT
  1
GRIDFORMAT_BEGIN
 90
        0
 91
        1
 62
     0
 92
       -2
340
0
 93
        0
 40
0.045
309
GRIDFORMAT_END
309
TABLEFORMAT_END
  1
CELLSTYLE_BEGIN
 90
        1
 91
        1
300
_TITLE
309
CELLSTYLE_END
300
CELLSTYLE
  1
TABLEFORMAT_BEGIN
 90
        5
170
     1
 91
        0
 92
        0
 62
   257
 93
        1
300
CONTENTFORMAT
  1
CONTENTFORMAT_BEGIN
 90
        0
 91
        0
 92
        4
 93
        0
300

 40
0.0
140
1.0
 94
        5
 62
     0
340
10
144
4.5
309
CONTENTFORMAT_END
171
     1
301
MARGIN
  1
CELLMARGIN_BEGIN
 40
1.5
 40
1.5
 40
1.5
 40
1.5
 40
0.18
 40
0.18
309
CELLMARGIN_END
 94
        6
 95
        1
302
GRIDFORMAT
  1
GRIDFORMAT_BEGIN
 90
        0
 91
        1
 62
     0
 92
       -2
340
0
 93
        0
 40
0.045
309
GRIDFORMAT_END
 95
        2
302
GRIDFORMAT
  1
GRIDFORMAT_BEGIN
 90
        0
 91
        1
 62
     0
 92
       -2
340
0
 93
        0
 40
0.045
309
GRIDFORMAT_END
 95
        4
302
GRIDFORMAT
  1
GRIDFORMAT_BEGIN
 90
        0
 91
        1
 62
     0
 92
       -2
340
0
 93
        0
 40
0.045
309
GRIDFORMAT_END
 95
        8
302
GRIDFORMAT
  1
GRIDFORMAT_BEGIN
 90
        0
 91
        1
 62
     0
 92
       -2
340
0
 93
        0
 40
0.045
309
GRIDFORMAT_END
 95
       16
302
GRIDFORMAT
  1
GRIDFORMAT_BEGIN
 90
        0
 91
        1
 62
     0
 92
       -2
340
0
 93
        0
 40
0.045
309
GRIDFORMAT_END
 95
       32
302
GRIDFORMAT
  1
GRIDFORMAT_BEGIN
 90
        0
 91
        1
 62
     0
 92
       -2
340
0
 93
        0
 40
0.045
309
GRIDFORMAT_END
309
TABLEFORMAT_END
  1
CELLSTYLE_BEGIN
 90
        2
 91
        1
300
_HEADER
309
CELLSTYLE_END
300
CELLSTYLE
  1
TABLEFORMAT_BEGIN
 90
        5
170
     1
 91
        0
 92
        0
 62
   257
 93
        1
300
CONTENTFORMAT
  1
CONTENTFORMAT_BEGIN
 90
        0
 91
        0
 92
        4
 93
        0
300

 40
0.0
140
1.0
 94
        2
 62
     0
340
10
144
4.5
309
CONTENTFORMAT_END
171
     1
301
MARGIN
  1
CELLMARGIN_BEGIN
 40
1.5
 40
1.5
 40
1.5
 40
1.5
 40
0.18
 40
0.18
309
CELLMARGIN_END
 94
        6
 95
        1
302
GRIDFORMAT
  1
GRIDFORMAT_BEGIN
 90
        0
 91
        1
 62
     0
 92
       -2
340
0
 93
        0
 40
0.045
309
GRIDFORMAT_END
 95
        2
302
GRIDFORMAT
  1
GRIDFORMAT_BEGIN
 90
        0
 91
        1
 62
     0
 92
       -2
340
0
 93
        0
 40
0.045
309
GRIDFORMAT_END
 95
        4
302
GRIDFORMAT
  1
GRIDFORMAT_BEGIN
 90
        0
 91
        1
 62
     0
 92
       -2
340
0
 93
        0
 40
0.045
309
GRIDFORMAT_END
 95
        8
302
GRIDFORMAT
  1
GRIDFORMAT_BEGIN
 90
        0
 91
        1
 62
     0
 92
       -2
340
0
 93
        0
 40
0.045
309
GRIDFORMAT_END
 95
       16
302
GRIDFORMAT
  1
GRIDFORMAT_BEGIN
 90
        0
 91
        1
 62
     0
 92
       -2
340
0
 93
        0
 40
0.045
309
GRIDFORMAT_END
 95
       32
302
GRIDFORMAT
  1
GRIDFORMAT_BEGIN
 90
        0
 91
        1
 62
     0
 92
       -2
340
0
 93
        0
 40
0.045
309
GRIDFORMAT_END
309
TABLEFORMAT_END
  1
CELLSTYLE_BEGIN
 90
        3
 91
        2
300
_DATA
309
CELLSTYLE_END
  0
XRECORD
  5
26BB
102
{ACAD_REACTORS
330
AED
102
}
330
AED
100
AcDbXrecord
280
     1
102
ACAD_ROUNDTRIP_PRE2007_TABLESTYLE
 90
        4
 91
        0
  1

 92
        4
 93
        0
  2

 94
        4
 95
        0
  3

  0
ENDSEC
  0
EOF
