  0
SECTION
  2
HEADER
  9
$ACADVER
  1
AC1015
  9
$ACADMAINTVER
 70
    20
  9
$DWGCODEPAGE
  3
ANSI_1252
  9
$INSBASE
 10
0.0
 20
0.0
 30
0.0
  9
$EXTMIN
 10
228.7677832363062
 20
217.7107893529014
 30
0.0
  9
$EXTMAX
 10
483.3528974370736
 20
366.8954205271508
 30
0.0
  9
$LIMMIN
 10
0.0
 20
0.0
  9
$LIMMAX
 10
840.0
 20
594.0
  9
$ORTHOMODE
 70
     1
  9
$REGENMODE
 70
     1
  9
$FILLMODE
 70
     1
  9
$QTEXTMODE
 70
     0
  9
$MIRRTEXT
 70
     0
  9
$LTSCALE
 40
1.0
  9
$ATTMODE
 70
     1
  9
$TEXTSIZE
 40
3.5
  9
$TRACEWID
 40
0.05
  9
$TEXTSTYLE
  7
STANDARD
  9
$CLAYER
  8
AM_0
  9
$CELTYPE
  6
ByLayer
  9
$CECOLOR
 62
   256
  9
$CELTSCALE
 40
1.0
  9
$DISPSILH
 70
     0
  9
$DIMSCALE
 40
1.0
  9
$DIMASZ
 40
3.5
  9
$DIMEXO
 40
1.0
  9
$DIMDLI
 40
10.0
  9
$DIMRND
 40
0.0
  9
$DIMDLE
 40
0.0
  9
$DIMEXE
 40
1.0
  9
$DIMTP
 40
0.1
  9
$DIMTM
 40
0.1
  9
$DIMTXT
 40
3.5
  9
$DIMCEN
 40
0.0
  9
$DIMTSZ
 40
0.0
  9
$DIMTOL
 70
     0
  9
$DIMLIM
 70
     0
  9
$DIMTIH
 70
     0
  9
$DIMTOH
 70
     0
  9
$DIMSE1
 70
     0
  9
$DIMSE2
 70
     0
  9
$DIMTAD
 70
     1
  9
$DIMZIN
 70
     8
  9
$DIMBLK
  1

  9
$DIMASO
 70
     1
  9
$DIMSHO
 70
     1
  9
$DIMPOST
  1

  9
$DIMAPOST
  1
"
  9
$DIMALT
 70
     0
  9
$DIMALTD
 70
     2
  9
$DIMALTF
 40
0.0393701
  9
$DIMLFAC
 40
1.0
  9
$DIMTOFL
 70
     1
  9
$DIMTVP
 40
0.0
  9
$DIMTIX
 70
     0
  9
$DIMSOXD
 70
     0
  9
$DIMSAH
 70
     0
  9
$DIMBLK1
  1

  9
$DIMBLK2
  1

  9
$DIMSTYLE
  2
AM_ISO
  9
$DIMCLRD
 70
   256
  9
$DIMCLRE
 70
   256
  9
$DIMCLRT
 70
     2
  9
$DIMTFAC
 40
0.71
  9
$DIMGAP
 40
1.5
  9
$DIMJUST
 70
     0
  9
$DIMSD1
 70
     0
  9
$DIMSD2
 70
     0
  9
$DIMTOLJ
 70
     0
  9
$DIMTZIN
 70
     8
  9
$DIMALTZ
 70
     0
  9
$DIMALTTZ
 70
     0
  9
$DIMUPT
 70
     0
  9
$DIMDEC
 70
     2
  9
$DIMTDEC
 70
     3
  9
$DIMALTU
 70
     2
  9
$DIMALTTD
 70
     4
  9
$DIMTXSTY
  7
STANDARD
  9
$DIMAUNIT
 70
     0
  9
$DIMADEC
 70
     0
  9
$DIMALTRND
 40
0.0
  9
$DIMAZIN
 70
     2
  9
$DIMDSEP
 70
    46
  9
$DIMATFIT
 70
     3
  9
$DIMFRAC
 70
     0
  9
$DIMLDRBLK
  1

  9
$DIMLUNIT
 70
     2
  9
$DIMLWD
 70
    -1
  9
$DIMLWE
 70
    -1
  9
$DIMTMOVE
 70
     0
  9
$LUNITS
 70
     2
  9
$LUPREC
 70
     2
  9
$SKETCHINC
 40
0.1
  9
$FILLETRAD
 40
0.0
  9
$AUNITS
 70
     0
  9
$AUPREC
 70
     0
  9
$MENU
  1
.
  9
$ELEVATION
 40
0.0
  9
$PELEVATION
 40
0.0
  9
$THICKNESS
 40
0.0
  9
$LIMCHECK
 70
     0
  9
$CHAMFERA
 40
2.5
  9
$CHAMFERB
 40
2.5
  9
$CHAMFERC
 40
0.0
  9
$CHAMFERD
 40
0.0
  9
$SKPOLY
 70
     0
  9
$TDCREATE
 40
2456353.563838090
  9
$TDUCREATE
 40
2456353.522171424
  9
$TDUPDATE
 40
2456359.669758611
  9
$TDUUPDATE
 40
2456359.628091945
  9
$TDINDWG
 40
0.0310559954
  9
$TDUSRTIMER
 40
0.0310558681
  9
$USRTIMER
 70
     1
  9
$ANGBASE
 50
0.0
  9
$ANGDIR
 70
     0
  9
$PDMODE
 70
     0
  9
$PDSIZE
 40
0.0
  9
$PLINEWID
 40
0.0
  9
$SPLFRAME
 70
     0
  9
$SPLINETYPE
 70
     6
  9
$SPLINESEGS
 70
     8
  9
$HANDSEED
  5
2216
  9
$SURFTAB1
 70
     6
  9
$SURFTAB2
 70
     6
  9
$SURFTYPE
 70
     6
  9
$SURFU
 70
     6
  9
$SURFV
 70
     6
  9
$UCSBASE
  2

  9
$UCSNAME
  2

  9
$UCSORG
 10
0.0
 20
0.0
 30
0.0
  9
$UCSXDIR
 10
1.0
 20
0.0
 30
0.0
  9
$UCSYDIR
 10
0.0
 20
1.0
 30
0.0
  9
$UCSORTHOREF
  2

  9
$UCSORTHOVIEW
 70
     0
  9
$UCSORGTOP
 10
0.0
 20
0.0
 30
0.0
  9
$UCSORGBOTTOM
 10
0.0
 20
0.0
 30
0.0
  9
$UCSORGLEFT
 10
0.0
 20
0.0
 30
0.0
  9
$UCSORGRIGHT
 10
0.0
 20
0.0
 30
0.0
  9
$UCSORGFRONT
 10
0.0
 20
0.0
 30
0.0
  9
$UCSORGBACK
 10
0.0
 20
0.0
 30
0.0
  9
$PUCSBASE
  2

  9
$PUCSNAME
  2

  9
$PUCSORG
 10
0.0
 20
0.0
 30
0.0
  9
$PUCSXDIR
 10
1.0
 20
0.0
 30
0.0
  9
$PUCSYDIR
 10
0.0
 20
1.0
 30
0.0
  9
$PUCSORTHOREF
  2

  9
$PUCSORTHOVIEW
 70
     0
  9
$PUCSORGTOP
 10
0.0
 20
0.0
 30
0.0
  9
$PUCSORGBOTTOM
 10
0.0
 20
0.0
 30
0.0
  9
$PUCSORGLEFT
 10
0.0
 20
0.0
 30
0.0
  9
$PUCSORGRIGHT
 10
0.0
 20
0.0
 30
0.0
  9
$PUCSORGFRONT
 10
0.0
 20
0.0
 30
0.0
  9
$PUCSORGBACK
 10
0.0
 20
0.0
 30
0.0
  9
$USERI1
 70
     0
  9
$USERI2
 70
     0
  9
$USERI3
 70
     0
  9
$USERI4
 70
     0
  9
$USERI5
 70
     0
  9
$USERR1
 40
0.0
  9
$USERR2
 40
0.0
  9
$USERR3
 40
0.0
  9
$USERR4
 40
0.0
  9
$USERR5
 40
0.0
  9
$WORLDVIEW
 70
     1
  9
$SHADEDGE
 70
     3
  9
$SHADEDIF
 70
    70
  9
$TILEMODE
 70
     1
  9
$MAXACTVP
 70
    64
  9
$PINSBASE
 10
0.0
 20
0.0
 30
0.0
  9
$PLIMCHECK
 70
     0
  9
$PEXTMIN
 10
0.0
 20
0.0
 30
0.0
  9
$PEXTMAX
 10
0.0
 20
0.0
 30
0.0
  9
$PLIMMIN
 10
0.0
 20
0.0
  9
$PLIMMAX
 10
12.0
 20
9.0
  9
$UNITMODE
 70
     0
  9
$VISRETAIN
 70
     1
  9
$PLINEGEN
 70
     0
  9
$PSLTSCALE
 70
     1
  9
$TREEDEPTH
 70
  3020
  9
$CMLSTYLE
  2
Standard
  9
$CMLJUST
 70
     0
  9
$CMLSCALE
 40
1.0
  9
$PROXYGRAPHICS
 70
     1
  9
$MEASUREMENT
 70
     1
  9
$CELWEIGHT
370
    -1
  9
$ENDCAPS
280
     0
  9
$JOINSTYLE
280
     0
  9
$LWDISPLAY
290
     0
  9
$INSUNITS
 70
     4
  9
$HYPERLINKBASE
  1

  9
$STYLESHEET
  1

  9
$XEDIT
290
     1
  9
$CEPSNTYPE
380
     0
  9
$PSTYLEMODE
290
     1
  9
$FINGERPRINTGUID
  2
{6B1AFF36-79B6-4278-9F5E-CF29C324DA4F}
  9
$VERSIONGUID
  2
{CCC13332-C5AC-4421-B137-554C4155E12B}
  9
$EXTNAMES
290
     1
  9
$PSVPSCALE
 40
0.0
  9
$OLESTARTUP
290
     0
  0
ENDSEC
  0
SECTION
  2
CLASSES
  0
CLASS
  1
ACDBDICTIONARYWDFLT
  2
AcDbDictionaryWithDefault
  3
ObjectDBX Classes
 90
        0
280
     0
281
     0
  0
CLASS
  1
MATERIAL
  2
AcDbMaterial
  3
ObjectDBX Classes
 90
     1153
280
     0
281
     0
  0
CLASS
  1
VISUALSTYLE
  2
AcDbVisualStyle
  3
ObjectDBX Classes
 90
     4095
280
     0
281
     0
  0
CLASS
  1
SCALE
  2
AcDbScale
  3
ObjectDBX Classes
 90
     1153
280
     0
281
     0
  0
CLASS
  1
TABLESTYLE
  2
AcDbTableStyle
  3
ObjectDBX Classes
 90
     4095
280
     0
281
     0
  0
CLASS
  1
MLEADERSTYLE
  2
AcDbMLeaderStyle
  3
ACDB_MLEADERSTYLE_CLASS
 90
     4095
280
     0
281
     0
  0
CLASS
  1
DICTIONARYVAR
  2
AcDbDictionaryVar
  3
ObjectDBX Classes
 90
        0
280
     0
281
     0
  0
CLASS
  1
CELLSTYLEMAP
  2
AcDbCellStyleMap
  3
ObjectDBX Classes
 90
     1152
280
     0
281
     0
  0
CLASS
  1
ACDBPLACEHOLDER
  2
AcDbPlaceHolder
  3
ObjectDBX Classes
 90
        0
280
     0
281
     0
  0
CLASS
  1
LAYOUT
  2
AcDbLayout
  3
ObjectDBX Classes
 90
        0
280
     0
281
     0
  0
CLASS
  1
AMGSETTINGSOBJ
  2
AmgSettingsObj
  3
"AcadM|Product Description: AutoCAD Mechanical|Company: Autodesk, Inc."
 90
     1024
280
     0
281
     0
  0
CLASS
  1
AMGOBJPROPCFG
  2
AmgObjPropCfg
  3
"AmgLay|Product Description: AutoCAD Mechanical|Company: Autodesk, Inc."
 90
     1025
280
     0
281
     0
  0
CLASS
  1
ACMESCOPE
  2
AcMeScope
  3
AcMeServices
 90
     1024
280
     0
281
     0
  0
CLASS
  1
ACGREFMASTER
  2
AcGrefMaster
  3
AcAttribServices
 90
     1024
280
     0
281
     0
  0
CLASS
  1
ACME_DOCUMENT
  2
AcMeDbDoc
  3
AcMeServices
 90
     1024
280
     0
281
     0
  0
CLASS
  1
ACMECOMMANDHISTORY
  2
AcMeCommandHistory
  3
AcMeServices
 90
     1024
280
     0
281
     0
  0
CLASS
  1
ACIMSYSVARMAN
  2
AcImSysVarManager
  3
AcMeServices
 90
     1024
280
     0
281
     0
  0
CLASS
  1
ACIMREALSYSVAR
  2
AcImRealSysVar
  3
AcMeServices
 90
     1024
280
     0
281
     0
  0
CLASS
  1
ACIMINTSYSVAR
  2
AcImIntSysVar
  3
AcMeServices
 90
     1024
280
     0
281
     0
  0
CLASS
  1
ACMEDRAWINGMAN
  2
AcMeDrawingMan
  3
AcMeServices
 90
     1024
280
     0
281
     0
  0
CLASS
  1
ACMEVIEW
  2
AcMeView
  3
AcMeServices
 90
     1024
280
     0
281
     0
  0
CLASS
  1
ACDBENTITYCACHE
  2
AcMeEntityCache
  3
AcMeServices
 90
     1024
280
     0
281
     0
  0
CLASS
  1
GSMANAGER
  2
AcMeGSManager
  3
AcMeServices
 90
     1024
280
     0
281
     0
  0
CLASS
  1
AMDTINTERNALREACTOR
  2
AmdtInternalReactor
  3
AcMeServices
 90
     1024
280
     0
281
     0
  0
CLASS
  1
ACMESTATEMGR
  2
AcMeStateMgr
  3
AcMeServices
 90
     1024
280
     0
281
     0
  0
CLASS
  1
AM_DRAWING_MGR
  2
AcDmDwgMgr
  3
AcMechDwgViewMgmt
 90
     1024
280
     0
281
     0
  0
CLASS
  1
AM_DWG_DOCUMENT
  2
AcDmDwgDocument
  3
AcMechDwgViewMgmt
 90
     1024
280
     0
281
     0
  0
CLASS
  1
AM_DWG_SHEET
  2
AcDmSheet
  3
AcMechDwgViewMgmt
 90
     1024
280
     0
281
     0
  0
CLASS
  1
AM_VIEWDIMPARMAP
  2
AcDmViewDimParMap
  3
AcMechDwgViewMgmt
 90
     1024
280
     0
281
     0
  0
CLASS
  1
AM_DWGMGR_NAME
  2
AcDmDwgMgrName
  3
AcMechDwgViewMgmt
 90
     1024
280
     0
281
     0
  0
CLASS
  1
ACME_DATABASE
  2
AcMeDbDatabase
  3
AcMeServices
 90
     1024
280
     0
281
     0
  0
CLASS
  1
ACRFINSADJUSTERMGR
  2
AcRfInsAdjusterMgr
  3
AcMeServices
 90
     1024
280
     0
281
     0
  0
CLASS
  1
ACGREFACADMASTER
  2
AcGrefacadMaster
  3
AcGrefServices
 90
     1024
280
     0
281
     0
  0
CLASS
  1
AMDTMENUSTATEMGR
  2
AmdtMenuStateMgr
  3
McadcomServices
 90
     1024
280
     0
281
     0
  0
CLASS
  1
AMDTMCOMMENUSTATE
  2
AmdtMcomMenuState
  3
McadcomServices
 90
     1024
280
     0
281
     0
  0
CLASS
  1
AMIMASTER
  2
AmiMaster
  3
AmiServices
 90
     1024
280
     0
281
     0
  0
CLASS
  1
ASAPP
  2
AcAsAppObject
  3
AutoSurfServices
 90
     1024
280
     0
281
     0
  0
CLASS
  1
IM_STATIC_MAN
  2
AcImStaticVarManager
  3
AcMeServices
 90
     1024
280
     0
281
     0
  0
CLASS
  1
ACIMSTRSYSVAR
  2
AcImStrSysVar
  3
AcMeServices
 90
     1024
280
     0
281
     0
  0
CLASS
  1
ACIMDBLSTATICVAR
  2
AcImDblStaticVar
  3
AcMeServices
 90
     1024
280
     0
281
     0
  0
CLASS
  1
ACIMSTRSTATICVAR
  2
AcImStrStaticVar
  3
AcMeServices
 90
     1024
280
     0
281
     0
  0
CLASS
  1
ACIMINTSTATICVAR
  2
AcImIntStaticVar
  3
AcMeServices
 90
     1024
280
     0
281
     0
  0
CLASS
  1
ACASGREFMASTER
  2
AcAsGrefMaster
  3
AutoSurfResolverServices
 90
     1024
280
     0
281
     0
  0
CLASS
  1
ACADGREFMODULE
  2
AcAdGrefModule
  3
AdGrefServices
 90
     1024
280
     0
281
     0
  0
CLASS
  1
AMDTMAPISURFMOUDULE
  2
AmdtMApiSurfModule
  3
MApiSurfServices
 90
     1024
280
     0
281
     0
  0
CLASS
  1
MAPIAMMOUDLE
  2
MApiAmModule
  3
MApiAmServices
 90
     1024
280
     0
281
     0
  0
CLASS
  1
ACMSTANDARDANSI
  2
AcmStandardANSI
  3
"Amdt_StdImp|Product Description: AutoCAD Mechanical|Company: Autodesk, Inc."
 90
     1024
280
     0
281
     0
  0
CLASS
  1
ACMSURFSTANDARDANSI
  2
AcmSurfTextStdANSI
  3
"Amdt_StdImp|Product Description: AutoCAD Mechanical|Company: Autodesk, Inc."
 90
     1024
280
     0
281
     0
  0
CLASS
  1
ACMFCFSTANDARDANSI
  2
AcmFCFStdANSI
  3
"Amdt_StdImp|Product Description: AutoCAD Mechanical|Company: Autodesk, Inc."
 90
     1024
280
     0
281
     0
  0
CLASS
  1
ACMWELDSTANDARDANSI
  2
AcmWeldingStdANSI
  3
"Amdt_StdImp|Product Description: AutoCAD Mechanical|Company: Autodesk, Inc."
 90
     1024
280
     0
281
     0
  0
CLASS
  1
ACMIDSTANDARDANSI
  2
AcmIdStdANSI
  3
"Amdt_StdImp|Product Description: AutoCAD Mechanical|Company: Autodesk, Inc."
 90
     1024
280
     0
281
     0
  0
CLASS
  1
ACMDATUMSTANDARDANSI
  2
AcmDatumStdANSI
  3
"Amdt_StdImp|Product Description: AutoCAD Mechanical|Company: Autodesk, Inc."
 90
     1024
280
     0
281
     0
  0
CLASS
  1
ACMBOMSTANDARDANSI
  2
AcmBOMStdANSI
  3
"Amdt_StdImp|Product Description: AutoCAD Mechanical|Company: Autodesk, Inc."
 90
     1024
280
     0
281
     0
  0
CLASS
  1
ACMDETAILSTANDARDANSI
  2
AmdtDetailSymStdANSI
  3
"Amdt_StdImp|Product Description: AutoCAD Mechanical|Company: Autodesk, Inc."
 90
     1024
280
     0
281
     0
  0
CLASS
  1
ACMSECTIONSTANDARDANSI
  2
AmdtSectionSymStdANSI
  3
"Amdt_StdImp|Product Description: AutoCAD Mechanical|Company: Autodesk, Inc."
 90
     1024
280
     0
281
     0
  0
CLASS
  1
ACMCENTERLINESTANDARDANSI
  2
AmdtCenterLineStdANSI
  3
"Amdt_StdImp|Product Description: AutoCAD Mechanical|Company: Autodesk, Inc."
 90
     1024
280
     0
281
     0
  0
CLASS
  1
ACMTHREADLINESTANDARDANSI
  2
AmdtThreadLineStdANSI
  3
"Amdt_StdImp|Product Description: AutoCAD Mechanical|Company: Autodesk, Inc."
 90
     1024
280
     0
281
     0
  0
CLASS
  1
ACMNOTESTANDARDANSI
  2
AmdtNoteStdANSI
  3
"Amdt_StdImp|Product Description: AutoCAD Mechanical|Company: Autodesk, Inc."
 90
     1024
280
     0
281
     0
  0
CLASS
  1
AMDTNOTETEMPLATEDB
  2
AmdtNoteTemplateDB
  3
AcmSymBB|Product Description: AutoCAD Mechanical|Company: Autodesk, Inc.
 90
     1024
280
     0
281
     0
  0
CLASS
  1
ACAMGLAYSTD
  2
AcAmgLayStd
  3
"AmgLay|Product Description: AutoCAD Mechanical|Company: Autodesk, Inc."
 90
     1024
280
     0
281
     0
  0
CLASS
  1
ACAMGDIMSTD
  2
AcAmgDimStd
  3
"AmgDim|Product Description: AutoCAD Mechanical|Company: Autodesk, Inc."
 90
     1024
280
     0
281
     0
  0
CLASS
  1
ACAMGHOLECHARTSTDANSI
  2
AcAmgHoleChartStdANSI
  3
AmgDim|Product Description: AutoCAD Mechanical|Company: Autodesk, Inc.
 90
     1024
280
     0
281
     0
  0
CLASS
  1
ACAMGTITLESTD
  2
AcAmgTitleStd
  3
"AmgTitle|Product Description: AutoCAD Mechanical|Company: Autodesk, Inc."
 90
     4095
280
     0
281
     0
  0
CLASS
  1
ACMTAPERSTANDARDANSI
  2
AcmTaperStdANSI
  3
"Amdt_StdImp|Product Description: AutoCAD Mechanical|Company: Autodesk, Inc."
 90
     1024
280
     0
281
     0
  0
CLASS
  1
ACMANOOTATIONVIEWSTANDARDANSI
  2
AmdtAnViewStdANSI
  3
"Amdt_StdImp|Product Description: AutoCAD Mechanical|Company: Autodesk, Inc."
 90
     1024
280
     0
281
     0
  0
CLASS
  1
ACMSTANDARDISO
  2
AcmStandardISO
  3
"Amdt_StdImp|Product Description: AutoCAD Mechanical|Company: Autodesk, Inc."
 90
     1024
280
     0
281
     0
  0
CLASS
  1
AMDTEDGESTANDARDISO
  2
AmdtEdgeStdISO
  3
"Amdt_StdImp|Product Description: AutoCAD Mechanical|Company: Autodesk, Inc."
 90
     1024
280
     0
281
     0
  0
CLASS
  1
ACMSURFSTANDARDISO
  2
AcmSurfTextStdISO
  3
"Amdt_StdImp|Product Description: AutoCAD Mechanical|Company: Autodesk, Inc."
 90
     1024
280
     0
281
     0
  0
CLASS
  1
ACMFCFSTANDARDISO
  2
AcmFCFStdISO
  3
"Amdt_StdImp|Product Description: AutoCAD Mechanical|Company: Autodesk, Inc."
 90
     1024
280
     0
281
     0
  0
CLASS
  1
ACMWELDSTANDARDISO
  2
AcmWeldingStdISO
  3
"Amdt_StdImp|Product Description: AutoCAD Mechanical|Company: Autodesk, Inc."
 90
     1024
280
     0
281
     0
  0
CLASS
  1
ACMIDSTANDARDISO
  2
AcmIdStdISO
  3
"Amdt_StdImp|Product Description: AutoCAD Mechanical|Company: Autodesk, Inc."
 90
     1024
280
     0
281
     0
  0
CLASS
  1
ACMDATUMSTANDARDISO
  2
AcmDatumStdISO
  3
"Amdt_StdImp|Product Description: AutoCAD Mechanical|Company: Autodesk, Inc."
 90
     1024
280
     0
281
     0
  0
CLASS
  1
ACMBOMSTANDARDISO
  2
AcmBOMStdISO
  3
"Amdt_StdImp|Product Description: AutoCAD Mechanical|Company: Autodesk, Inc."
 90
     1024
280
     0
281
     0
  0
CLASS
  1
ACMDETAILSTANDARDISO
  2
AmdtDetailSymStdISO
  3
"Amdt_StdImp|Product Description: AutoCAD Mechanical|Company: Autodesk, Inc."
 90
     1024
280
     0
281
     0
  0
CLASS
  1
ACMSECTIONSTANDARDISO
  2
AmdtSectionSymStdISO
  3
"Amdt_StdImp|Product Description: AutoCAD Mechanical|Company: Autodesk, Inc."
 90
     1024
280
     0
281
     0
  0
CLASS
  1
ACMCENTERLINESTANDARDISO
  2
AmdtCenterLineStdISO
  3
"Amdt_StdImp|Product Description: AutoCAD Mechanical|Company: Autodesk, Inc."
 90
     1024
280
     0
281
     0
  0
CLASS
  1
ACMTHREADLINESTANDARDISO
  2
AmdtThreadLineStdISO
  3
"Amdt_StdImp|Product Description: AutoCAD Mechanical|Company: Autodesk, Inc."
 90
     1024
280
     0
281
     0
  0
CLASS
  1
ACMNOTESTANDARDISO
  2
AmdtNoteStdISO
  3
"Amdt_StdImp|Product Description: AutoCAD Mechanical|Company: Autodesk, Inc."
 90
     1024
280
     0
281
     0
  0
CLASS
  1
ACAMGHOLECHARTSTDISO
  2
AcAmgHoleChartStdISO
  3
AmgDim|Product Description: AutoCAD Mechanical|Company: Autodesk, Inc.
 90
     1024
280
     0
281
     0
  0
CLASS
  1
ACMTAPERSTANDARDISO
  2
AcmTaperStdISO
  3
"Amdt_StdImp|Product Description: AutoCAD Mechanical|Company: Autodesk, Inc."
 90
     1024
280
     0
281
     0
  0
CLASS
  1
ACMANOOTATIONVIEWSTANDARDISO
  2
AmdtAnViewStdISO
  3
"Amdt_StdImp|Product Description: AutoCAD Mechanical|Company: Autodesk, Inc."
 90
     1024
280
     0
281
     0
  0
CLASS
  1
AMDTADMENUSTATE
  2
AmdtAdMenuState
  3
DesignerServices
 90
     1024
280
     0
281
     0
  0
CLASS
  1
ADAPPL
  2
AcAdAppl
  3
DesignerServices
 90
     1024
280
     0
281
     0
  0
CLASS
  1
DEPMGR
  2
AcAdDepMgr
  3
DesignerServices
 90
     1024
280
     0
281
     0
  0
CLASS
  1
PARAMMGR
  2
AcAdParamMgr
  3
DesignerServices
 90
     1024
280
     0
281
     0
  0
CLASS
  1
PARAMSCOPE
  2
AcAdParamScope
  3
DesignerServices
 90
     1024
280
     0
281
     0
  0
CLASS
  1
NAMEDAPPL
  2
AcAdNamedAppl
  3
DesignerServices
 90
     1024
280
     0
281
     0
  0
CLASS
  1
AMDTDMMENUSTATE
  2
AmdtDmMenuState
  3
AcMechDwgViewMgmt
 90
     1024
280
     0
281
     0
  0
CLASS
  1
MAPIADMODULE
  2
MApiAdModule
  3
MApiAdServices
 90
     1024
280
     0
281
     0
  0
CLASS
  1
AMDTAMMENUSTATE
  2
AmdtAmMenuState
  3
DesignerAssemblies
 90
     1024
280
     0
281
     0
  0
CLASS
  1
ACAMPROJECT
  2
AcAmProject
  3
DesignerAssemblies
 90
     1024
280
     0
281
     0
  0
CLASS
  1
ACAMGRCOMPDEF
  2
AcAmGrCompDef
  3
DesignerAssemblies
 90
     1024
280
     0
281
     0
  0
CLASS
  1
ACCMCONTEXT
  2
AcCmContext
  3
DesignerAssemblies
 90
     1024
280
     0
281
     0
  0
CLASS
  1
ACAMCOMPDEF
  2
AcAmCompDef
  3
DesignerAssemblies
 90
     1024
280
     0
281
     0
  0
CLASS
  1
ACAMCOMPDEFMGR
  2
AcAmCompDefMgr
  3
DesignerAssemblies
 90
     1024
280
     0
281
     0
  0
CLASS
  1
AMCONTEXTMGR
  2
AcAmContextMgr
  3
DesignerAssemblies
 90
     1024
280
     0
281
     0
  0
CLASS
  1
ACAMCONTEXTMODELER
  2
AcAmContextModeler
  3
DesignerAssemblies
 90
     1024
280
     0
281
     0
  0
CLASS
  1
ACMDATADICTIONARY
  2
AcmDataDictionary
  3
"AcmSymBB|Product Description: AutoCAD Mechanical|Company: Autodesk, Inc."
 90
     1024
280
     0
281
     0
  0
CLASS
  1
ACMDATAENTRYBLOCK
  2
AcmDataEntryBlock
  3
AcmSymBB|Product Description: AutoCAD Mechanical|Company: Autodesk, Inc.
 90
     1024
280
     0
281
     0
  0
CLASS
  1
ACRFATTGENMGR
  2
AcRfAttGeneralMgr
  3
AcAttribServices
 90
     1024
280
     0
281
     0
  0
CLASS
  1
ACRFOBJATTMGR
  2
AcRfObjAttGroupMgr
  3
AcAttribServices
 90
     1024
280
     0
281
     0
  0
CLASS
  1
ACRFMCADAPIATTHOLDER
  2
AcRfMCADAPIAttHolder
  3
AcAttribServices
 90
     1024
280
     0
281
     0
  0
CLASS
  1
AMDTSYSATTR
  2
AmdtSystemAttribute
  3
AcAttribServices
 90
     1024
280
     0
281
     0
  0
CLASS
  1
CATALOGSTATE
  2
AcAmCatalogState
  3
DesignerAssemblies
 90
     1024
280
     0
281
     0
  0
CLASS
  1
ACAMGRCOMPDEFSET
  2
AcAmGrCompDefSet
  3
DesignerAssemblies
 90
     1024
280
     0
281
     0
  0
CLASS
  1
AMDTBROWSERDBTAB
  2
AmdtBrowserDbTab
  3
McadcomServices
 90
     1024
280
     0
281
     0
  0
CLASS
  1
CBROWSERAPPOBJECT
  2
CBrowserAppObject
  3
McadcomServices
 90
     1024
280
     0
281
     0
  0
CLASS
  1
DM_PLACEHOLDER
  2
AcDmSelsetPlaceholder
  3
AcMechDwgViewMgmt
 90
     1024
280
     0
281
     0
  0
CLASS
  1
ACAMGFILTERDAT
  2
AcAmgFilterDat
  3
"AcadM|Product Description: AutoCAD Mechanical|Company: Autodesk, Inc."
 90
     1024
280
     0
281
     0
  0
CLASS
  1
SORTENTSTABLE
  2
AcDbSortentsTable
  3
ObjectDBX Classes
 90
        0
280
     0
281
     0
  0
CLASS
  1
LAYER_INDEX
  2
AcDbLayerIndex
  3
ObjectDBX Classes
 90
        0
280
     0
281
     0
  0
CLASS
  1
IDBUFFER
  2
AcDbIdBuffer
  3
ObjectDBX Classes
 90
        0
280
     0
281
     0
  0
CLASS
  1
AMDTEDGESTANDARDISO13715
  2
AmdtEdgeStdISO13715
  3
"Amdt_StdImp|Product Description: AutoCAD Mechanical|Company: Autodesk, Inc."
 90
    33792
280
     0
281
     0
  0
CLASS
  1
ACMSURFSTANDARDISO2002
  2
AcmSurfTextStdISO2002
  3
"Amdt_StdImp|Product Description: AutoCAD Mechanical|Company: Autodesk, Inc."
 90
    33792
280
     0
281
     0
  0
CLASS
  1
ACMSECTIONSTANDARDISO2001
  2
AmdtSectionSymStdISO2001
  3
"Amdt_StdImp|Product Description: AutoCAD Mechanical|Company: Autodesk, Inc."
 90
    33792
280
     0
281
     0
  0
CLASS
  1
AEC_REFEDIT_STATUS_TRACKER
  2
AecDbRefEditStatusTracker
  3
AecArchBase50|Product Desc: Autodesk Architectural Desktop 2007 |Company: Autodesk,Inc. |WEB Address: www.autodesk.com
 90
      129
280
     0
281
     0
  0
CLASS
  1
NPOCOLLECTION
  2
AcDbImpNonPersistentObjectsCollection
  3
ObjectDBX Classes
 90
     1153
280
     0
281
     0
  0
ENDSEC
  0
SECTION
  2
TABLES
  0
TABLE
  2
VPORT
  5
8
330
0
100
AcDbSymbolTable
 70
     1
  0
VPORT
  5
57
330
8
100
AcDbSymbolTableRecord
100
AcDbViewportTableRecord
  2
*Active
 70
     0
 10
0.0
 20
0.0
 11
1.0
 21
1.0
 12
-17.11068724664289
 22
-6.733885044581541
 13
0.0
 23
0.0
 14
2.5
 24
2.5
 15
10.0
 25
10.0
 16
0.0
 26
0.0
 36
1.0
 17
603.4024432091187
 27
295.7500501123335
 37
0.0
 40
649.9853497117964
 41
1.71195652173913
 42
50.0
 43
0.0
 44
0.0
 50
0.0
 51
0.0
 71
     0
 72
   100
 73
     1
 74
     1
 75
     0
 76
     0
 77
     0
 78
     0
281
     0
 65
     0
110
0.0
120
0.0
130
0.0
111
1.0
121
0.0
131
0.0
112
0.0
122
1.0
132
0.0
 79
     0
146
0.0
  0
ENDTAB
  0
TABLE
  2
LTYPE
  5
5
330
0
100
AcDbSymbolTable
 70
    22
  0
LTYPE
  5
5B
330
5
100
AcDbSymbolTableRecord
100
AcDbLinetypeTableRecord
  2
ByBlock
 70
     0
  3

 72
    65
 73
     0
 40
0.0
  0
LTYPE
  5
5C
330
5
100
AcDbSymbolTableRecord
100
AcDbLinetypeTableRecord
  2
ByLayer
 70
     0
  3

 72
    65
 73
     0
 40
0.0
  0
LTYPE
  5
5D
330
5
100
AcDbSymbolTableRecord
100
AcDbLinetypeTableRecord
  2
Continuous
 70
     0
  3
Solid line
 72
    65
 73
     0
 40
0.0
  0
LTYPE
  5
86
330
5
100
AcDbSymbolTableRecord
100
AcDbLinetypeTableRecord
  2
CENTER
 70
     0
  3
____ _ ____ _ ____ _ ____ _ ____ _ ____ _ ____ 
 72
    65
 73
     4
 40
2.0
 49
1.25
 74
     0
 49
-0.25
 74
     0
 49
0.25
 74
     0
 49
-0.25
 74
     0
  0
LTYPE
  5
93
330
5
100
AcDbSymbolTableRecord
100
AcDbLinetypeTableRecord
  2
HIDDEN
 70
     0
  3
__ __ __ __ __ __ __ __ __ __ __ __ __ __ __ __
 72
    65
 73
     2
 40
0.375
 49
0.25
 74
     0
 49
-0.125
 74
     0
  0
LTYPE
  5
97
330
5
100
AcDbSymbolTableRecord
100
AcDbLinetypeTableRecord
  2
PHANTOM2
 70
     0
  3
___ _ _ ___ _ _ ___ _ _ ___ _ _ ___ _ _ ___ _ _
 72
    65
 73
     6
 40
1.25
 49
0.625
 74
     0
 49
-0.125
 74
     0
 49
0.125
 74
     0
 49
-0.125
 74
     0
 49
0.125
 74
     0
 49
-0.125
 74
     0
  0
LTYPE
  5
13A1
330
5
100
AcDbSymbolTableRecord
100
AcDbLinetypeTableRecord
  2
AM_ISO02W050
 70
     0
  3
__ __ __ __ __ __ __ __ __ __ __ __ __ __ __
 72
    65
 73
     2
 40
7.5
 49
6.0
 74
     0
 49
-1.5
 74
     0
  0
LTYPE
  5
13A2
330
5
100
AcDbSymbolTableRecord
100
AcDbLinetypeTableRecord
  2
AM_ISO08W050
 70
     0
  3
____ . ____ . ____ . ____ . ____ . ____ . ____
 72
    65
 73
     4
 40
18.0
 49
12.0
 74
     0
 49
-1.5
 74
     0
 49
3.0
 74
     0
 49
-1.5
 74
     0
  0
LTYPE
  5
13A3
330
5
100
AcDbSymbolTableRecord
100
AcDbLinetypeTableRecord
  2
AM_ISO09W050
 70
     0
  3
_____ . . _____ . . _____ . . ____ .. ____
 72
    65
 73
     6
 40
22.5
 49
12.0
 74
     0
 49
-1.5
 74
     0
 49
3.0
 74
     0
 49
-1.5
 74
     0
 49
3.0
 74
     0
 49
-1.5
 74
     0
  0
LTYPE
  5
13A4
330
5
100
AcDbSymbolTableRecord
100
AcDbLinetypeTableRecord
  2
Amconstr
 70
     0
  3
_______________________
 72
    65
 73
     2
 40
9999.0
 49
9999.0
 74
     0
 49
0.0
 74
     0
  0
LTYPE
  5
13A5
330
5
100
AcDbSymbolTableRecord
100
AcDbLinetypeTableRecord
  2
AM_ISO08W050x2
 70
     0
  3
__ . __ . __ . __ . __ . __
 72
    65
 73
     4
 40
9.0
 49
6.0
 74
     0
 49
-0.75
 74
     0
 49
1.5
 74
     0
 49
-0.75
 74
     0
  0
LTYPE
  5
13A6
330
5
100
AcDbSymbolTableRecord
100
AcDbLinetypeTableRecord
  2
AM_ISO02W050x2
 70
     0
  3
 _ _ _ _ _ _ _ _ _ _ _ _
 72
    65
 73
     2
 40
3.75
 49
3.0
 74
     0
 49
-0.75
 74
     0
  0
LTYPE
  5
13A7
330
5
100
AcDbSymbolTableRecord
100
AcDbLinetypeTableRecord
  2
Amzigzag
 70
     0
  3
/\/-/\/-/\/-/\/-/\/-/\/
 72
    65
 73
     2
 40
11.0001
 49
0.0001
 74
     4
 75
   135
340
A8
 46
0.04
 50
0.0
 44
0.0
 45
0.0
 49
-11.0
 74
     0
  0
LTYPE
  5
1AEB
330
5
100
AcDbSymbolTableRecord
100
AcDbLinetypeTableRecord
  2
ACISOWELD
 70
     0
  3
_ _ _ _ _
 72
    65
 73
     2
 40
2.0
 49
2.0
 74
     0
 49
-1.0
 74
     0
  0
LTYPE
  5
1AEC
330
5
100
AcDbSymbolTableRecord
100
AcDbLinetypeTableRecord
  2
ACISOTGB
 70
     0
  3
__ . . __ . .
 72
    65
 73
     6
 40
9.0
 49
4.0
 74
     0
 49
-1.0
 74
     0
 49
1.0
 74
     0
 49
-1.0
 74
     0
 49
1.0
 74
     0
 49
-1.0
 74
     0
  0
LTYPE
  5
1AED
330
5
100
AcDbSymbolTableRecord
100
AcDbLinetypeTableRecord
  2
ACISOTGL
 70
     0
  3
_ _ _ _ _
 72
    65
 73
     2
 40
3.0
 49
2.0
 74
     0
 49
-1.0
 74
     0
  0
LTYPE
  5
1E8D
330
5
100
AcDbSymbolTableRecord
100
AcDbLinetypeTableRecord
  2
ACANSTGB
 70
     0
  3
__ . . __ . .
 72
    65
 73
     6
 40
0.35433070866
 49
0.15748031496
 74
     0
 49
-0.03937007874
 74
     0
 49
0.03937007874
 74
     0
 49
-0.03937007874
 74
     0
 49
0.03937007874
 74
     0
 49
-0.03937007874
 74
     0
  0
LTYPE
  5
1E8E
330
5
100
AcDbSymbolTableRecord
100
AcDbLinetypeTableRecord
  2
ACANSTGL
 70
     0
  3
_ _ _ _ _
 72
    65
 73
     2
 40
0.11811023622
 49
0.07874015748
 74
     0
 49
-0.03937007874
 74
     0
  0
LTYPE
  5
1EA5
330
5
100
AcDbSymbolTableRecord
100
AcDbLinetypeTableRecord
  2
CENTER2
 70
     0
  3
Center (.5x) ___ _ ___ _ ___ _ ___ _ ___ _ ___
 72
    65
 73
     4
 40
1.125
 49
0.75
 74
     0
 49
-0.125
 74
     0
 49
0.125
 74
     0
 49
-0.125
 74
     0
  0
LTYPE
  5
1EA6
330
5
100
AcDbSymbolTableRecord
100
AcDbLinetypeTableRecord
  2
HIDDEN2
 70
     0
  3
Hidden (.5x) _ _ _ _ _ _ _ _ _ _ _ _ _ _ _ _ _
 72
    65
 73
     2
 40
0.1875
 49
0.125
 74
     0
 49
-0.0625
 74
     0
  0
LTYPE
  5
1EA7
330
5
100
AcDbSymbolTableRecord
100
AcDbLinetypeTableRecord
  2
Amzigzag2
 70
     0
  3
/\/-/\/-/\/-/\/-/\/-/\/
 72
    65
 73
     2
 40
0.4401
 49
0.0001
 74
     4
 75
   135
340
A8
 46
0.0016
 50
0.0
 44
0.0
 45
0.0
 49
-0.4400000000000001
 74
     0
  0
ENDTAB
  0
TABLE
  2
LAYER
  5
2
102
{ACAD_XDICTIONARY
360
14E0
102
}
330
0
100
AcDbSymbolTable
 70
     5
  0
LAYER
  5
54
330
2
100
AcDbSymbolTableRecord
100
AcDbLayerTableRecord
  2
0
 70
     0
 62
     7
  6
Continuous
370
    -3
390
F
  0
LAYER
  5
B6
330
2
100
AcDbSymbolTableRecord
100
AcDbLayerTableRecord
  2
Dimensions(ISO)
 70
     0
 62
   136
  6
Continuous
370
    20
390
F
  0
LAYER
  5
C2
330
2
100
AcDbSymbolTableRecord
100
AcDbLayerTableRecord
  2
Visible Edges(ISO)
 70
     0
 62
     7
  6
Continuous
370
    35
390
F
  0
LAYER
  5
F11
330
2
100
AcDbSymbolTableRecord
100
AcDbLayerTableRecord
  2
Defpoints
 70
     0
 62
     7
  6
Continuous
290
     0
370
    -3
390
F
  0
LAYER
  5
16C8
330
2
100
AcDbSymbolTableRecord
100
AcDbLayerTableRecord
  2
AM_0
 70
     0
 62
     7
  6
Continuous
370
    50
390
F
1001
AcAecLayerStandard
1000

1000

  0
ENDTAB
  0
TABLE
  2
STYLE
  5
3
330
0
100
AcDbSymbolTable
 70
     7
  0
STYLE
  5
55
330
3
100
AcDbSymbolTableRecord
100
AcDbTextStyleTableRecord
  2
STANDARD
 70
     0
 40
0.0
 41
1.0
 50
0.0
 71
     0
 42
3.5
  3
ISOCP.SHX
  4

  0
STYLE
  5
A8
330
3
100
AcDbSymbolTableRecord
100
AcDbTextStyleTableRecord
  2

 70
     1
 40
0.0
 41
1.0
 50
0.0
 71
     0
 42
0.2
  3
ltypeshp.shx
  4

  0
STYLE
  5
D0
330
3
100
AcDbSymbolTableRecord
100
AcDbTextStyleTableRecord
  2
Roxtec 4
 70
     0
 40
0.0
 41
1.0
 50
0.0
 71
     0
 42
0.2
  3
arial.ttf
  4

1001
ACAD
1000
Arial
1071
      256
  0
STYLE
  5
1AE9
330
3
100
AcDbSymbolTableRecord
100
AcDbTextStyleTableRecord
  2
ACISOTS
 70
     0
 40
1.0
 41
1.0
 50
0.0
 71
     0
 42
2.5
  3
isocp.shx
  4

  0
STYLE
  5
1AEA
330
3
100
AcDbSymbolTableRecord
100
AcDbTextStyleTableRecord
  2
ACISOGDT
 70
     0
 40
0.0
 41
1.0
 50
0.0
 71
     0
 42
2.5
  3
amgdt.shx
  4

  0
STYLE
  5
1E86
330
3
100
AcDbSymbolTableRecord
100
AcDbTextStyleTableRecord
  2
ACANSTS
 70
     0
 40
1.0
 41
1.0
 50
0.0
 71
     0
 42
3.5
  3
romans.shx
  4

  0
STYLE
  5
1E89
330
3
100
AcDbSymbolTableRecord
100
AcDbTextStyleTableRecord
  2
ACANSGDT
 70
     0
 40
0.0
 41
1.0
 50
0.0
 71
     0
 42
3.5
  3
amgdt.shx
  4

  0
ENDTAB
  0
TABLE
  2
VIEW
  5
6
330
0
100
AcDbSymbolTable
 70
     0
  0
ENDTAB
  0
TABLE
  2
UCS
  5
7
330
0
100
AcDbSymbolTable
 70
     0
  0
ENDTAB
  0
TABLE
  2
APPID
  5
9
330
0
100
AcDbSymbolTable
 70
    25
  0
APPID
  5
56
330
9
100
AcDbSymbolTableRecord
100
AcDbRegAppTableRecord
  2
ACAD
 70
     0
  0
APPID
  5
5E
330
9
100
AcDbSymbolTableRecord
100
AcDbRegAppTableRecord
  2
AcadAnnotative
 70
     0
  0
APPID
  5
109
330
9
100
AcDbSymbolTableRecord
100
AcDbRegAppTableRecord
  2
AcadAnnoPO
 70
     0
  0
APPID
  5
1374
330
9
100
AcDbSymbolTableRecord
100
AcDbRegAppTableRecord
  2
ACAD_MLEADERVER
 70
     0
  0
APPID
  5
138E
330
9
100
AcDbSymbolTableRecord
100
AcDbRegAppTableRecord
  2
AD_DRAW
 70
     0
  0
APPID
  5
138F
330
9
100
AcDbSymbolTableRecord
100
AcDbRegAppTableRecord
  2
DESIGNERASSEMBLIES
 70
     0
  0
APPID
  5
1390
330
9
100
AcDbSymbolTableRecord
100
AcDbRegAppTableRecord
  2
MCAD_NO_VIS
 70
     0
  0
APPID
  5
1391
330
9
100
AcDbSymbolTableRecord
100
AcDbRegAppTableRecord
  2
ASURF_PCURVE_APPNAME
 70
     0
  0
APPID
  5
1392
330
9
100
AcDbSymbolTableRecord
100
AcDbRegAppTableRecord
  2
ACAD_TEMP_GRAPHIC
 70
     0
  0
APPID
  5
1393
330
9
100
AcDbSymbolTableRecord
100
AcDbRegAppTableRecord
  2
ACATTRIBSERVICES
 70
     0
  0
APPID
  5
1394
330
9
100
AcDbSymbolTableRecord
100
AcDbRegAppTableRecord
  2
ACADM_DIM_EDIT
 70
     0
  0
APPID
  5
1395
330
9
100
AcDbSymbolTableRecord
100
AcDbRegAppTableRecord
  2
GENIUS_GENDIM_13
 70
     0
  0
APPID
  5
1396
330
9
100
AcDbSymbolTableRecord
100
AcDbRegAppTableRecord
  2
GENIUS_GENDTOL_13
 70
     0
  0
APPID
  5
1397
330
9
100
AcDbSymbolTableRecord
100
AcDbRegAppTableRecord
  2
GENIUS_GE3DTOL_13
 70
     0
  0
APPID
  5
1398
330
9
100
AcDbSymbolTableRecord
100
AcDbRegAppTableRecord
  2
AMG_3D2D_5.0
 70
     0
  0
APPID
  5
1399
330
9
100
AcDbSymbolTableRecord
100
AcDbRegAppTableRecord
  2
AMDT_DM_ADJ
 70
     0
  0
APPID
  5
139A
330
9
100
AcDbSymbolTableRecord
100
AcDbRegAppTableRecord
  2
ACAD_PSEXT
 70
     0
  0
APPID
  5
139B
330
9
100
AcDbSymbolTableRecord
100
AcDbRegAppTableRecord
  2
DCO15
 70
     0
  0
APPID
  5
139C
330
9
100
AcDbSymbolTableRecord
100
AcDbRegAppTableRecord
  2
ACAD_DSTYLE_DIMTEXT_FILL
 70
     0
  0
APPID
  5
139D
330
9
100
AcDbSymbolTableRecord
100
AcDbRegAppTableRecord
  2
AcAecLayerStandard
 70
     0
  0
APPID
  5
1DF2
330
9
100
AcDbSymbolTableRecord
100
AcDbRegAppTableRecord
  2
ACAD_DSTYLE_DIMARC_LENGTH_SYMBOL
 70
     0
  0
APPID
  5
1DF3
330
9
100
AcDbSymbolTableRecord
100
AcDbRegAppTableRecord
  2
ACAD_DSTYLE_DIM_LINETYPE
 70
     0
  0
APPID
  5
1DF4
330
9
100
AcDbSymbolTableRecord
100
AcDbRegAppTableRecord
  2
ACAD_DSTYLE_DIM_EXT1_LINETYPE
 70
     0
  0
APPID
  5
1DF5
330
9
100
AcDbSymbolTableRecord
100
AcDbRegAppTableRecord
  2
ACAD_DSTYLE_DIM_EXT2_LINETYPE
 70
     0
  0
APPID
  5
208A
330
9
100
AcDbSymbolTableRecord
100
AcDbRegAppTableRecord
  2
ACAD_EXEMPT_FROM_CAD_STANDARDS
 70
     0
  0
ENDTAB
  0
TABLE
  2
DIMSTYLE
  5
A
330
0
100
AcDbSymbolTable
 70
    14
100
AcDbDimStyleTable
 71
     2
340
1474
340
58
  0
DIMSTYLE
105
58
330
A
100
AcDbSymbolTableRecord
100
AcDbDimStyleTableRecord
  2
Standard
 70
     0
340
55
  0
DIMSTYLE
105
1474
330
A
100
AcDbSymbolTableRecord
100
AcDbDimStyleTableRecord
  2
AM_ISO
 70
     0
  4
"
 41
2.5
 42
1.0
 43
10.0
 44
1.0
 47
0.1
 48
0.1
 73
     0
 74
     0
 77
     1
 78
     8
 79
     2
140
3.5
141
0.0
143
0.0393701
146
0.71
147
1.5
171
     3
172
     1
176
   256
177
   256
178
     2
271
     2
272
     2
274
     3
283
     0
284
     8
340
55
371
    -1
372
    -1
  0
DIMSTYLE
105
1ADC
330
A
100
AcDbSymbolTableRecord
100
AcDbDimStyleTableRecord
  2
AM_ISO$3
 70
     0
  4
"
 41
2.5
 42
1.0
 43
10.0
 44
1.0
 47
0.1
 48
0.1
 73
     0
 77
     1
 78
     8
 79
     2
140
3.5
141
0.0
143
0.0393701
146
0.71
147
1.5
176
   256
177
   256
178
     2
271
     2
272
     3
274
     4
283
     0
284
     8
288
     1
289
     0
340
55
371
    -1
372
    -1
  0
DIMSTYLE
105
1ADD
330
A
100
AcDbSymbolTableRecord
100
AcDbDimStyleTableRecord
  2
AM_ISO$4
 70
     0
  4
"
 41
2.5
 42
1.0
 43
10.0
 44
1.0
 47
0.1
 48
0.1
 73
     0
 77
     1
 78
     8
 79
     2
140
3.5
141
0.0
143
0.0393701
146
0.71
147
1.5
176
   256
177
   256
178
     2
271
     2
272
     3
274
     4
283
     0
284
     8
288
     1
289
     0
340
55
371
    -1
372
    -1
  0
DIMSTYLE
105
1ADE
330
A
100
AcDbSymbolTableRecord
100
AcDbDimStyleTableRecord
  2
AM_ISO$6
 70
     0
  4
"
 41
2.5
 42
1.0
 43
10.0
 44
1.0
 47
0.1
 48
0.1
 73
     0
 74
     0
 78
     8
 79
     2
140
3.5
141
0.0
143
0.0393701
146
0.71
147
1.5
172
     1
176
   256
177
   256
178
     2
271
     2
272
     3
274
     4
283
     0
284
     8
340
55
371
    -1
372
    -1
  0
DIMSTYLE
105
1ADF
330
A
100
AcDbSymbolTableRecord
100
AcDbDimStyleTableRecord
  2
AM_ISO$7
 70
     0
  4
"
 41
2.5
 42
1.0
 43
10.0
 44
1.0
 47
0.1
 48
0.1
 73
     0
 74
     0
 77
     1
 78
     8
 79
     2
140
5.0
141
0.0
143
0.0393701
146
0.71
147
1.5
172
     1
176
   256
177
   256
178
     2
271
     2
272
     3
274
     4
283
     0
284
     8
340
55
371
    -1
372
    -1
  0
DIMSTYLE
105
1AE0
330
A
100
AcDbSymbolTableRecord
100
AcDbDimStyleTableRecord
  2
AM_ISO$SF
 70
     0
  4
"
 41
2.5
 42
1.0
 43
10.0
 44
1.0
 47
0.1
 48
0.1
 73
     0
 74
     0
 75
     1
 76
     1
 77
     1
 78
     8
 79
     2
140
3.5
141
0.0
143
0.0393701
146
0.71
147
1.5
172
     1
176
   256
177
   256
178
     2
271
     2
272
     3
274
     4
283
     0
284
     8
340
55
371
    -1
372
    -1
  0
DIMSTYLE
105
1AE5
330
A
100
AcDbSymbolTableRecord
100
AcDbDimStyleTableRecord
  2
AM_ISO$SH
 70
     0
  4
"
 41
2.5
 42
1.0
 43
10.0
 44
1.0
 47
0.1
 48
0.1
 73
     0
 74
     0
 75
     1
 76
     1
 77
     1
 78
     8
 79
     2
140
3.5
141
0.0
143
0.0393701
144
2.0
146
0.71
147
1.5
172
     1
173
     1
176
   256
177
   256
178
     2
271
     2
272
     3
274
     4
283
     0
284
     8
340
55
343
1AE1
371
    -1
372
    -1
  0
DIMSTYLE
105
1EA9
330
A
100
AcDbSymbolTableRecord
100
AcDbDimStyleTableRecord
  2
AM_ANSI
 70
     0
  4
mm
 41
0.1
 42
0.05
 43
0.5
 44
0.1
 47
0.1
 48
0.1
 78
     7
 79
     2
140
0.12
141
0.0
146
0.71
147
0.06
176
   256
177
   256
178
     2
274
     4
284
     7
340
55
371
    -1
372
    -1
  0
DIMSTYLE
105
1EAA
330
A
100
AcDbSymbolTableRecord
100
AcDbDimStyleTableRecord
  2
AM_ANSI$3
 70
     0
  4
mm
 41
0.1
 42
0.05
 43
0.5
 44
0.1
 47
0.1
 48
0.1
 78
     7
 79
     2
140
0.12
141
0.0
146
0.71
147
0.06
176
   256
177
   256
178
     2
274
     4
284
     7
288
     1
289
     0
340
55
371
    -1
372
    -1
  0
DIMSTYLE
105
1EAB
330
A
100
AcDbSymbolTableRecord
100
AcDbDimStyleTableRecord
  2
AM_ANSI$4
 70
     0
  4
mm
 41
0.1
 42
0.05
 43
0.5
 44
0.1
 47
0.1
 48
0.1
 78
     7
 79
     2
140
0.12
141
0.0
146
0.71
147
0.06
176
   256
177
   256
178
     2
274
     4
284
     7
288
     1
289
     0
340
55
371
    -1
372
    -1
  0
DIMSTYLE
105
1EAC
330
A
100
AcDbSymbolTableRecord
100
AcDbDimStyleTableRecord
  2
AM_ANSI$7
 70
     0
  4
mm
 41
0.1
 42
0.05
 43
0.5
 44
0.1
 47
0.1
 48
0.1
 78
     7
 79
     2
140
0.24
141
0.0
146
0.71
147
0.06
176
   256
177
   256
178
     2
274
     4
284
     7
340
55
371
    -1
372
    -1
  0
DIMSTYLE
105
1EAD
330
A
100
AcDbSymbolTableRecord
100
AcDbDimStyleTableRecord
  2
AM_ANSI$SF
 70
     0
  4
mm
 41
0.1
 42
0.05
 43
0.5
 44
0.1
 47
0.1
 48
0.1
 75
     1
 76
     1
 78
     7
 79
     2
140
0.12
141
0.0
146
0.71
147
0.06
176
   256
177
   256
178
     2
274
     4
284
     7
340
55
371
    -1
372
    -1
  0
DIMSTYLE
105
1EAE
330
A
100
AcDbSymbolTableRecord
100
AcDbDimStyleTableRecord
  2
AM_ANSI$SH
 70
     0
  4
mm
 41
0.1
 42
0.05
 43
0.5
 44
0.1
 47
0.1
 48
0.1
 75
     1
 76
     1
 78
     7
 79
     2
140
0.12
141
0.0
146
0.71
147
0.06
173
     1
176
   256
177
   256
178
     2
274
     4
284
     7
340
55
343
1AE1
371
    -1
372
    -1
  0
ENDTAB
  0
TABLE
  2
BLOCK_RECORD
  5
1
330
0
100
AcDbSymbolTable
 70
     4
  0
BLOCK_RECORD
  5
6C
102
{ACAD_XDICTIONARY
360
14CF
102
}
330
1
100
AcDbSymbolTableRecord
100
AcDbBlockTableRecord
  2
*Model_Space
340
6F
  0
BLOCK_RECORD
  5
14E9
330
1
100
AcDbSymbolTableRecord
100
AcDbBlockTableRecord
  2
*Paper_Space
340
14EA
  0
BLOCK_RECORD
  5
1AE1
330
1
100
AcDbSymbolTableRecord
100
AcDbBlockTableRecord
  2
GENAXEH
340
0
  0
BLOCK_RECORD
  5
208C
330
1
100
AcDbSymbolTableRecord
100
AcDbBlockTableRecord
  2
Sleev-IT_TC9090
340
0
310
2800000020000000200000000100080000000000000400000000000000000000000000000000000000000000000080000080000000808000800000008000800080800000C0C0C000C0DCC000F0CAA6000020400000206000002080000020A0000020C0000020E00000400000004020000040400000406000004080000040A0
310
000040C0000040E00000600000006020000060400000606000006080000060A0000060C0000060E00000800000008020000080400000806000008080000080A0000080C0000080E00000A0000000A0200000A0400000A0600000A0800000A0A00000A0C00000A0E00000C0000000C0200000C0400000C0600000C0800000C0
310
A00000C0C00000C0E00000E0000000E0200000E0400000E0600000E0800000E0A00000E0C00000E0E00040000000400020004000400040006000400080004000A0004000C0004000E00040200000402020004020400040206000402080004020A0004020C0004020E000404000004040200040404000404060004040800040
310
40A0004040C0004040E00040600000406020004060400040606000406080004060A0004060C0004060E00040800000408020004080400040806000408080004080A0004080C0004080E00040A0000040A0200040A0400040A0600040A0800040A0A00040A0C00040A0E00040C0000040C0200040C0400040C0600040C08000
310
40C0A00040C0C00040C0E00040E0000040E0200040E0400040E0600040E0800040E0A00040E0C00040E0E00080000000800020008000400080006000800080008000A0008000C0008000E00080200000802020008020400080206000802080008020A0008020C0008020E00080400000804020008040400080406000804080
310
008040A0008040C0008040E00080600000806020008060400080606000806080008060A0008060C0008060E00080800000808020008080400080806000808080008080A0008080C0008080E00080A0000080A0200080A0400080A0600080A0800080A0A00080A0C00080A0E00080C0000080C0200080C0400080C0600080C0
310
800080C0A00080C0C00080C0E00080E0000080E0200080E0400080E0600080E0800080E0A00080E0C00080E0E000C0000000C0002000C0004000C0006000C0008000C000A000C000C000C000E000C0200000C0202000C0204000C0206000C0208000C020A000C020C000C020E000C0400000C0402000C0404000C0406000C0
310
408000C040A000C040C000C040E000C0600000C0602000C0604000C0606000C0608000C060A000C060C000C060E000C0800000C0802000C0804000C0806000C0808000C080A000C080C000C080E000C0A00000C0A02000C0A04000C0A06000C0A08000C0A0A000C0A0C000C0A0E000C0C00000C0C02000C0C04000C0C06000
310
C0C08000C0C0A000F0FBFF00A4A0A000808080000000FF0000FF000000FFFF00FF000000FF00FF00FFFF0000FFFFFF0000000000000000000000000000000000000000000000000000000000000000000000000000000000000000000000000000000000000000000000000000000000000000000000000000000000000000
310
00000000000000000000000000000000000000000000000000000000000000000000000000000000000000000000000000000000000000000000000000000000000000000000000000000000000000000000000000000000000000000000000000000000000000000000000000000000000000000000000000000000000000
310
00000000000000000000000000000000000000000000000000000000000000000000000000000000000000000000000000000000000000000000000000000000000000000000000000000000000000FFFF00000000FFFF00000000FFFFFFFFFFFFFFFFFFFFFFFFFFFFFFFF0000FFFFFFFF0000FFFFFFFFFFFFFFFFFF000000
310
0000000000000000000000FFFFFFFFFFFFFF0000FFFFFFFFFF00FF00FF0000000000000000000000000000FF00FFFFFFFFFF0000FFFFFFFFFF00FF00FF0000000000000000000000000000FF00FFFFFFFFFF0000FFFFFFFFFF00FF00FFFF000000000000FF000000000000FF00FFFFFFFFFF0000FFFFFFFFFF00FF00FF0000
310
000000000000000000000000FF00FFFFFFFFFF0000FFFFFFFFFF00FF00FF0000000000000000000000000000FF00FFFFFFFFFF0000FFFFFFFFFFFFFFFFFF0000000000000000000000000000FFFFFFFF00FFFF0000000000000000FFFFFFFFFFFFFFFFFFFFFFFFFFFFFFFFFFFF00000000FFFF00000000000000000000FF00
310
FFFFFF000000000000FFFFFF00FF00000000000000000000000000000000FF0000000000000000000000000000FF00000000000000000000000000000000FF0000000000000000000000000000FF00000000000000000000000000000000FFFFFFFFFFFFFFFFFFFFFFFFFFFFFFFF00000000000000000000000000000000FF
310
000000FFFFFFFFFFFFFFFF000000FF0000000000000000000000000000000000000000FFFFFFFFFFFFFFFF000000000000000000000000000000000000000000000000000000000000000000000000000000000000000000000000000000000000000000000000000000000000000000000000000000000000000000000000
310
00000000000000000000000000000000000000000000000000000000000000000000000000000000000000000000000000000000000000000000000000000000000000000000000000000000000000000000000000000000000000000000000000000000000000000000000000000000000000000000000000000000000000
310
0000000000000000000000000000000000000000000000000000000000000000000000000000000000000000000000000000000000000000
102
{BLKREFS
331
2207
102
}
1001
ACAD
1000
DesignCenter Data
1002
{
1070
     1
1070
     4
1002
}
  0
ENDTAB
  0
ENDSEC
  0
SECTION
  2
BLOCKS
  0
BLOCK
  5
6D
330
6C
100
AcDbEntity
  8
0
100
AcDbBlockBegin
  2
*Model_Space
 70
     0
 10
0.0
 20
0.0
 30
0.0
  3
*Model_Space
  1

  0
ENDBLK
  5
6E
330
6C
100
AcDbEntity
  8
0
100
AcDbBlockEnd
  0
BLOCK
  5
14EB
330
14E9
100
AcDbEntity
 67
     1
  8
0
100
AcDbBlockBegin
  2
*Paper_Space
 70
     0
 10
0.0
 20
0.0
 30
0.0
  3
*Paper_Space
  1

  0
ENDBLK
  5
14EC
330
14E9
100
AcDbEntity
 67
     1
  8
0
100
AcDbBlockEnd
  0
BLOCK
  5
1EB0
330
1AE1
100
AcDbEntity
  8
0
100
AcDbBlockBegin
  2
GENAXEH
 70
     0
 10
0.0
 20
0.0
 30
0.0
  3
GENAXEH
  1

  0
LINE
  5
1EB1
330
1AE1
100
AcDbEntity
  8
0
100
AcDbLine
 10
-1.0
 20
0.0
 30
0.0
 11
1.0
 21
0.0
 31
0.0
  0
ENDBLK
  5
1EB2
330
1AE1
100
AcDbEntity
  8
0
100
AcDbBlockEnd
  0
BLOCK
  5
208D
330
208C
100
AcDbEntity
  8
0
100
AcDbBlockBegin
  2
Sleev-IT_TC9090
 70
     0
 10
0.0
 20
0.0
 30
0.0
  3
Sleev-IT_TC9090
  1

  0
LINE
  5
208F
330
208C
100
AcDbEntity
  8
Visible Edges(ISO)
100
AcDbLine
 10
-69.19999999613077
 20
37.49985714256565
 30
0.0
 11
-59.04999999613085
 21
37.49985714256565
 31
0.0
  0
LINE
  5
2090
330
208C
100
AcDbEntity
  8
Visible Edges(ISO)
100
AcDbLine
 10
-20.94999999613088
 20
37.49985714256565
 30
0.0
 11
18.95000000386915
 21
37.49985714256565
 31
0.0
  0
LINE
  5
2091
330
208C
100
AcDbEntity
  8
Visible Edges(ISO)
100
AcDbLine
 10
57.05000000386911
 20
37.49985714256565
 30
0.0
 11
67.20000000386915
 21
37.49985714256565
 31
0.0
  0
LINE
  5
2092
330
208C
100
AcDbEntity
  8
Visible Edges(ISO)
100
AcDbLine
 10
-69.19999999613077
 20
37.49985714256565
 30
0.0
 11
-69.19999999613202
 21
37.24081348276889
 31
0.0
  0
LINE
  5
2093
330
208C
100
AcDbEntity
  8
Visible Edges(ISO)
100
AcDbLine
 10
-69.1999999961335
 20
36.33240750983901
 30
0.0
 11
-69.19999999613401
 21
35.80838612002566
 31
0.0
  0
LINE
  5
2094
330
208C
100
AcDbEntity
  8
Visible Edges(ISO)
100
AcDbLine
 10
-69.19999999613532
 20
34.02440633285613
 30
0.0
 11
-69.19999999613589
 21
33.17210689875123
 31
0.0
  0
LINE
  5
2095
330
208C
100
AcDbEntity
  8
Visible Edges(ISO)
100
AcDbLine
 10
-69.19999999613697
 20
30.57703097496438
 30
0.0
 11
-69.19999999613748
 21
29.42725781876084
 31
0.0
  0
LINE
  5
2096
330
208C
100
AcDbEntity
  8
Visible Edges(ISO)
100
AcDbLine
 10
-69.1999999961385
 20
26.11487856364681
 30
0.0
 11
-69.19999999613884
 21
24.7091874829145
 31
0.0
  0
LINE
  5
2097
330
208C
100
AcDbEntity
  8
Visible Edges(ISO)
100
AcDbLine
 10
-69.1999999961397
 20
20.79922291307287
 30
0.0
 11
-69.19999999613986
 21
19.18841924596211
 31
0.0
  0
LINE
  5
2098
330
208C
100
AcDbEntity
  8
Visible Edges(ISO)
100
AcDbLine
 10
-69.19999999614049
 20
14.82218566826032
 30
0.0
 11
-69.19999999614077
 21
13.06448805620834
 31
0.0
  0
LINE
  5
2099
330
208C
100
AcDbEntity
  8
Visible Edges(ISO)
100
AcDbLine
 10
-69.19999999614105
 20
8.399792528255318
 30
0.0
 11
-69.19999999614105
 21
6.55872874259802
 31
0.0
  0
LINE
  5
209A
330
208C
100
AcDbEntity
  8
Visible Edges(ISO)
100
AcDbLine
 10
-69.19999999614117
 20
1.764165514519504
 30
0.0
 11
-69.19999999614105
 21
-0.0937236026844062
 31
0.0
  0
LINE
  5
209B
330
208C
100
AcDbEntity
  8
Visible Edges(ISO)
100
AcDbLine
 10
-69.199999996141
 20
-4.84486652371288
 30
0.0
 11
-69.19999999614089
 21
-6.652432019084812
 31
0.0
  0
LINE
  5
209C
330
208C
100
AcDbEntity
  8
Visible Edges(ISO)
100
AcDbLine
 10
-69.19999999614038
 20
-11.18843594891518
 30
0.0
 11
-69.19999999614015
 21
-12.88034769588643
 31
0.0
  0
LINE
  5
209D
330
208C
100
AcDbEntity
  8
Visible Edges(ISO)
100
AcDbLine
 10
-69.19999999613946
 20
-17.03726963405182
 30
0.0
 11
-69.19999999613901
 21
-18.55237753385364
 31
0.0
  0
LINE
  5
209E
330
208C
100
AcDbEntity
  8
Visible Edges(ISO)
100
AcDbLine
 10
-69.19999999613833
 20
-22.17997549075409
 30
0.0
 11
-69.19999999613782
 21
-23.46351959631281
 31
0.0
  0
LINE
  5
209F
330
208C
100
AcDbEntity
  8
Visible Edges(ISO)
100
AcDbLine
 10
-69.19999999613668
 20
-26.43068273017181
 30
0.0
 11
-69.19999999613617
 21
-27.43627241327067
 31
0.0
  0
LINE
  5
20A0
330
208C
100
AcDbEntity
  8
Visible Edges(ISO)
100
AcDbLine
 10
-69.19999999613486
 20
-29.6357597175624
 30
0.0
 11
-69.19999999613435
 21
-30.3270503470161
 31
0.0
  0
LINE
  5
20A1
330
208C
100
AcDbEntity
  8
Visible Edges(ISO)
100
AcDbLine
 10
-69.19999999613304
 20
-31.6793666198549
 30
0.0
 11
-69.19999999613253
 21
-32.03137315117479
 31
0.0
  0
LINE
  5
20A2
330
208C
100
AcDbEntity
  8
Visible Edges(ISO)
100
AcDbLine
 10
-69.19999999613105
 20
-32.48764215903492
 30
0.0
 11
-69.19999999613077
 21
-32.5
 31
0.0
  0
LINE
  5
20A3
330
208C
100
AcDbEntity
  8
Visible Edges(ISO)
100
AcDbLine
 10
67.20000000386654
 20
36.3324075098389
 30
0.0
 11
67.2000000038659
 21
35.80838612002566
 31
0.0
  0
LINE
  5
20A4
330
208C
100
AcDbEntity
  8
Visible Edges(ISO)
100
AcDbLine
 10
67.20000000386466
 20
34.02440633285613
 30
0.0
 11
67.20000000386415
 21
33.17210689875123
 31
0.0
  0
LINE
  5
20A5
330
208C
100
AcDbEntity
  8
Visible Edges(ISO)
100
AcDbLine
 10
67.20000000386296
 20
30.57703097496432
 30
0.0
 11
67.20000000386267
 21
29.42725781876084
 31
0.0
  0
LINE
  5
20A6
330
208C
100
AcDbEntity
  8
Visible Edges(ISO)
100
AcDbLine
 10
67.20000000386147
 20
26.11487856364664
 30
0.0
 11
67.20000000386119
 21
24.70918748291439
 31
0.0
  0
LINE
  5
20A7
330
208C
100
AcDbEntity
  8
Visible Edges(ISO)
100
AcDbLine
 10
67.20000000386045
 20
20.7992229130727
 30
0.0
 11
67.20000000386011
 21
19.18841924596199
 31
0.0
  0
LINE
  5
20A8
330
208C
100
AcDbEntity
  8
Visible Edges(ISO)
100
AcDbLine
 10
67.20000000385943
 20
14.82218566826032
 30
0.0
 11
67.20000000385937
 21
13.06448805620812
 31
0.0
  0
LINE
  5
20A9
330
208C
100
AcDbEntity
  8
Visible Edges(ISO)
100
AcDbLine
 10
67.20000000385898
 20
8.399792528255204
 30
0.0
 11
67.20000000385886
 21
6.55872874259802
 31
0.0
  0
LINE
  5
20AA
330
208C
100
AcDbEntity
  8
Visible Edges(ISO)
100
AcDbLine
 10
67.20000000385869
 20
1.764165514519504
 30
0.0
 11
67.20000000385886
 21
-0.0937236026844062
 31
0.0
  0
LINE
  5
20AB
330
208C
100
AcDbEntity
  8
Visible Edges(ISO)
100
AcDbLine
 10
67.20000000385898
 20
-4.844866523712767
 30
0.0
 11
67.20000000385915
 21
-6.652432019084812
 31
0.0
  0
LINE
  5
20AC
330
208C
100
AcDbEntity
  8
Visible Edges(ISO)
100
AcDbLine
 10
67.20000000385965
 20
-11.18843594891518
 30
0.0
 11
67.20000000385983
 21
-12.88034769588643
 31
0.0
  0
LINE
  5
20AD
330
208C
100
AcDbEntity
  8
Visible Edges(ISO)
100
AcDbLine
 10
67.20000000386045
 20
-17.03726963405182
 30
0.0
 11
67.20000000386079
 21
-18.55237753385364
 31
0.0
  0
LINE
  5
20AE
330
208C
100
AcDbEntity
  8
Visible Edges(ISO)
100
AcDbLine
 10
67.20000000386182
 20
-22.17997549075432
 30
0.0
 11
67.2000000038621
 21
-23.46351959631281
 31
0.0
  0
LINE
  5
20AF
330
208C
100
AcDbEntity
  8
Visible Edges(ISO)
100
AcDbLine
 10
67.20000000386318
 20
-26.43068273017192
 30
0.0
 11
67.20000000386369
 21
-27.43627241327081
 31
0.0
  0
LINE
  5
20B0
330
208C
100
AcDbEntity
  8
Visible Edges(ISO)
100
AcDbLine
 10
67.200000003865
 20
-29.6357597175624
 30
0.0
 11
67.20000000386557
 21
-30.3270503470161
 31
0.0
  0
LINE
  5
20B1
330
208C
100
AcDbEntity
  8
Visible Edges(ISO)
100
AcDbLine
 10
67.20000000386682
 20
-31.6793666198549
 30
0.0
 11
67.20000000386756
 21
-32.03137315117479
 31
0.0
  0
LINE
  5
20B2
330
208C
100
AcDbEntity
  8
Visible Edges(ISO)
100
AcDbLine
 10
67.20000000386898
 20
-32.48764215903492
 30
0.0
 11
67.20000000386915
 21
-32.5
 31
0.0
  0
LINE
  5
20B3
330
208C
100
AcDbEntity
  8
Visible Edges(ISO)
100
AcDbLine
 10
67.20000000386915
 20
37.49985714256565
 30
0.0
 11
67.20000000386784
 21
37.24081348276889
 31
0.0
  0
LINE
  5
20B4
330
208C
100
AcDbEntity
  8
Visible Edges(ISO)
100
AcDbLine
 10
-69.19999999613077
 20
-32.5
 30
0.0
 11
67.20000000386915
 21
-32.5
 31
0.0
  0
SPLINE
  5
20B5
330
208C
100
AcDbEntity
  8
Visible Edges(ISO)
100
AcDbSpline
210
0.0
220
0.0
230
1.0
 70
    11
 71
     3
 72
    38
 73
    34
 74
     0
 42
0.0000000001
 43
0.0000000001
 40
0.0
 40
0.0
 40
0.0
 40
0.0
 40
0.0942061347520245
 40
0.0942061347520245
 40
0.1884122695040489
 40
0.1884122695040489
 40
0.2826183211695981
 40
0.2826183211695981
 40
0.3768243728351473
 40
0.3768243728351473
 40
0.4710304245006966
 40
0.4710304245006966
 40
0.5652364761662458
 40
0.5652364761662458
 40
0.6594426109182703
 40
0.6594426109182703
 40
0.7536487456702947
 40
0.7536487456702947
 40
0.8478548804223191
 40
0.8478548804223191
 40
0.9420610151743435
 40
0.9420610151743435
 40
1.036267066839892
 40
1.036267066839892
 40
1.130473118505439
 40
1.130473118505439
 40
1.22467917017099
 40
1.22467917017099
 40
1.31888522183654
 40
1.31888522183654
 40
1.413091356588563
 40
1.413091356588563
 40
1.507297491340589
 40
1.507297491340589
 40
1.507297491340589
 40
1.507297491340589
 10
-60.49999999614119
 20
5.0
 30
0.0
 10
-60.18597954696781
 20
5.0
 30
0.0
 10
-59.85110130852888
 20
4.93722103919066
 30
0.0
 10
-59.23518467955966
 20
4.682053656056666
 30
0.0
 10
-58.95413719509628
 20
4.489671104887918
 30
0.0
 10
-58.51032908696487
 20
4.045862996756397
 30
0.0
 10
-58.31794638510046
 20
3.764815425192637
 30
0.0
 10
-58.0627788836278
 20
3.148898510674996
 30
0.0
 10
-57.99999999614119
 20
2.814020172218477
 30
0.0
 10
-57.99999999614119
 20
2.185979827781409
 30
0.0
 10
-58.0627788836278
 20
1.851101489325003
 30
0.0
 10
-58.31794638510046
 20
1.235184574807419
 30
0.0
 10
-58.51032908696487
 20
0.9541370032434883
 30
0.0
 10
-58.95413719509628
 20
0.5103288951120817
 30
0.0
 10
-59.23518467955966
 20
0.3179463439433903
 30
0.0
 10
-59.85110130852888
 20
0.0627789608092826
 30
0.0
 10
-60.18597954696781
 20
0.0
 30
0.0
 10
-60.81402044531455
 20
0.0
 30
0.0
 10
-61.14889868375337
 20
0.0627789608092826
 30
0.0
 10
-61.76481531272276
 20
0.3179463439433903
 30
0.0
 10
-62.04586279718597
 20
0.5103288951120817
 30
0.0
 10
-62.48967090531749
 20
0.9541370032434883
 30
0.0
 10
-62.68205360718184
 20
1.235184574807419
 30
0.0
 10
-62.93722110865457
 20
1.851101489325003
 30
0.0
 10
-62.99999999614119
 20
2.185979827781409
 30
0.0
 10
-62.99999999614119
 20
2.814020172218477
 30
0.0
 10
-62.93722110865457
 20
3.148898510674996
 30
0.0
 10
-62.68205360718184
 20
3.764815425192637
 30
0.0
 10
-62.48967090531749
 20
4.045862996756397
 30
0.0
 10
-62.04586279718597
 20
4.489671104887918
 30
0.0
 10
-61.76481531272276
 20
4.682053656056666
 30
0.0
 10
-61.14889868375337
 20
4.93722103919066
 30
0.0
 10
-60.81402044531467
 20
5.0
 30
0.0
 10
-60.49999999614119
 20
5.0
 30
0.0
  0
SPLINE
  5
20B6
330
208C
100
AcDbEntity
  8
Visible Edges(ISO)
100
AcDbSpline
210
0.0
220
0.0
230
1.0
 70
    11
 71
     3
 72
    38
 73
    34
 74
     0
 42
0.0000000001
 43
0.0000000001
 40
0.0
 40
0.0
 40
0.0
 40
0.0
 40
0.0942061347520238
 40
0.0942061347520238
 40
0.1884122695040476
 40
0.1884122695040476
 40
0.282618321169597
 40
0.282618321169597
 40
0.3768243728351466
 40
0.3768243728351466
 40
0.4710304245006962
 40
0.4710304245006962
 40
0.5652364761662457
 40
0.5652364761662457
 40
0.6594426109182697
 40
0.6594426109182697
 40
0.7536487456702936
 40
0.7536487456702936
 40
0.8478548804223176
 40
0.8478548804223176
 40
0.9420610151743415
 40
0.9420610151743415
 40
1.036267066839891
 40
1.036267066839891
 40
1.130473118505439
 40
1.130473118505439
 40
1.224679170170988
 40
1.224679170170988
 40
1.318885221836538
 40
1.318885221836538
 40
1.413091356588563
 40
1.413091356588563
 40
1.507297491340584
 40
1.507297491340584
 40
1.507297491340584
 40
1.507297491340584
 10
0.0000000038588155
 20
5.0
 30
0.0
 10
0.3140204530323558
 20
5.0
 30
0.0
 10
0.6488986914711177
 20
4.93722103919066
 30
0.0
 10
1.264815320440504
 20
4.682053656056666
 30
0.0
 10
1.545862804903663
 20
4.489671104887918
 30
0.0
 10
1.989670913035183
 20
4.045862996756397
 30
0.0
 10
2.182053614899473
 20
3.764815425192637
 30
0.0
 10
2.437221116372199
 20
3.148898510674996
 30
0.0
 10
2.500000003858986
 20
2.814020172218477
 30
0.0
 10
2.500000003858986
 20
2.185979827781409
 30
0.0
 10
2.437221116372199
 20
1.851101489325003
 30
0.0
 10
2.182053614899473
 20
1.235184574807419
 30
0.0
 10
1.989670913035183
 20
0.9541370032434883
 30
0.0
 10
1.545862804903663
 20
0.5103288951120817
 30
0.0
 10
1.264815320440504
 20
0.3179463439433903
 30
0.0
 10
0.6488986914711177
 20
0.0627789608092826
 30
0.0
 10
0.3140204530323558
 20
0.0
 30
0.0
 10
-0.3140204453144975
 20
0.0
 30
0.0
 10
-0.648898683753373
 20
0.0627789608092826
 30
0.0
 10
-1.264815312722646
 20
0.3179463439433903
 30
0.0
 10
-1.545862797186032
 20
0.5103288951120817
 30
0.0
 10
-1.989670905317495
 20
0.9541370032434883
 30
0.0
 10
-2.182053607181899
 20
1.235184574807419
 30
0.0
 10
-2.437221108654682
 20
1.851101489325003
 30
0.0
 10
-2.499999996141184
 20
2.185979827781409
 30
0.0
 10
-2.499999996141184
 20
2.814020172218477
 30
0.0
 10
-2.437221108654682
 20
3.148898510674996
 30
0.0
 10
-2.182053607181899
 20
3.764815425192523
 30
0.0
 10
-1.989670905317495
 20
4.045862996756397
 30
0.0
 10
-1.545862797186032
 20
4.489671104887918
 30
0.0
 10
-1.264815312722646
 20
4.682053656056666
 30
0.0
 10
-0.648898683753373
 20
4.93722103919066
 30
0.0
 10
-0.3140204453144975
 20
5.0
 30
0.0
 10
0.0000000038588155
 20
5.0
 30
0.0
  0
LINE
  5
20B7
330
208C
100
AcDbEntity
  8
Visible Edges(ISO)
100
AcDbLine
 10
-69.99999999613248
 20
-31.6793666198549
 30
0.0
 11
-69.99999999613248
 21
-32.03137315117479
 31
0.0
  0
LINE
  5
20B8
330
208C
100
AcDbEntity
  8
Visible Edges(ISO)
100
AcDbLine
 10
-69.19999999613253
 20
-32.03137315117479
 30
0.0
 11
-69.99999999613248
 21
-32.03137315117479
 31
0.0
  0
LINE
  5
20B9
330
208C
100
AcDbEntity
  8
Visible Edges(ISO)
100
AcDbLine
 10
-69.19999999613105
 20
-32.48764215903492
 30
0.0
 11
-69.99999999613106
 21
-32.48764215903492
 31
0.0
  0
LINE
  5
20BA
330
208C
100
AcDbEntity
  8
Visible Edges(ISO)
100
AcDbLine
 10
-69.99999999613106
 20
-32.48764215903492
 30
0.0
 11
-69.99999999613248
 21
-32.03137315117479
 31
0.0
  0
LINE
  5
20BB
330
208C
100
AcDbEntity
  8
Visible Edges(ISO)
100
AcDbLine
 10
-69.99999999613431
 20
-29.63575971756231
 30
0.0
 11
-69.99999999613447
 21
-30.3270503470161
 31
0.0
  0
LINE
  5
20BC
330
208C
100
AcDbEntity
  8
Visible Edges(ISO)
100
AcDbLine
 10
-69.19999999613435
 20
-30.3270503470161
 30
0.0
 11
-69.99999999613447
 21
-30.3270503470161
 31
0.0
  0
LINE
  5
20BD
330
208C
100
AcDbEntity
  8
Visible Edges(ISO)
100
AcDbLine
 10
-69.19999999613304
 20
-31.6793666198549
 30
0.0
 11
-69.99999999613294
 21
-31.6793666198549
 31
0.0
  0
LINE
  5
20BE
330
208C
100
AcDbEntity
  8
Visible Edges(ISO)
100
AcDbLine
 10
-69.99999999613294
 20
-31.6793666198549
 30
0.0
 11
-69.99999999613436
 21
-30.3270503470161
 31
0.0
  0
LINE
  5
20BF
330
208C
100
AcDbEntity
  8
Visible Edges(ISO)
100
AcDbLine
 10
-69.99999999613596
 20
-26.4306827301717
 30
0.0
 11
-69.99999999613618
 21
-27.43627241327067
 31
0.0
  0
LINE
  5
20C0
330
208C
100
AcDbEntity
  8
Visible Edges(ISO)
100
AcDbLine
 10
-69.19999999613617
 20
-27.43627241327067
 30
0.0
 11
-69.99999999613618
 21
-27.43627241327067
 31
0.0
  0
LINE
  5
20C1
330
208C
100
AcDbEntity
  8
Visible Edges(ISO)
100
AcDbLine
 10
-69.19999999613486
 20
-29.63575971756231
 30
0.0
 11
-69.99999999613487
 21
-29.63575971756231
 31
0.0
  0
LINE
  5
20C2
330
208C
100
AcDbEntity
  8
Visible Edges(ISO)
100
AcDbLine
 10
-69.99999999613487
 20
-29.63575971756231
 30
0.0
 11
-69.99999999613618
 21
-27.43627241327081
 31
0.0
  0
LINE
  5
20C3
330
208C
100
AcDbEntity
  8
Visible Edges(ISO)
100
AcDbLine
 10
-69.99999999613748
 20
-22.17997549075409
 30
0.0
 11
-69.99999999613766
 21
-23.46351959631281
 31
0.0
  0
LINE
  5
20C4
330
208C
100
AcDbEntity
  8
Visible Edges(ISO)
100
AcDbLine
 10
-69.19999999613782
 20
-23.46351959631281
 30
0.0
 11
-69.99999999613766
 21
-23.46351959631281
 31
0.0
  0
LINE
  5
20C5
330
208C
100
AcDbEntity
  8
Visible Edges(ISO)
100
AcDbLine
 10
-69.19999999613668
 20
-26.4306827301717
 30
0.0
 11
-69.99999999613663
 21
-26.4306827301717
 31
0.0
  0
LINE
  5
20C6
330
208C
100
AcDbEntity
  8
Visible Edges(ISO)
100
AcDbLine
 10
-69.99999999613653
 20
-26.4306827301717
 30
0.0
 11
-69.99999999613766
 21
-23.46351959631281
 31
0.0
  0
LINE
  5
20C7
330
208C
100
AcDbEntity
  8
Visible Edges(ISO)
100
AcDbLine
 10
-69.99999999613851
 20
-17.03726963405182
 30
0.0
 11
-69.99999999613902
 21
-18.55237753385364
 31
0.0
  0
LINE
  5
20C8
330
208C
100
AcDbEntity
  8
Visible Edges(ISO)
100
AcDbLine
 10
-69.19999999613901
 20
-18.55237753385364
 30
0.0
 11
-69.99999999613902
 21
-18.55237753385364
 31
0.0
  0
LINE
  5
20C9
330
208C
100
AcDbEntity
  8
Visible Edges(ISO)
100
AcDbLine
 10
-69.19999999613816
 20
-22.17997549075409
 30
0.0
 11
-69.99999999613817
 21
-22.17997549075409
 31
0.0
  0
LINE
  5
20CA
330
208C
100
AcDbEntity
  8
Visible Edges(ISO)
100
AcDbLine
 10
-69.99999999613805
 20
-22.17997549075409
 30
0.0
 11
-69.99999999613902
 21
-18.55237753385364
 31
0.0
  0
LINE
  5
20CB
330
208C
100
AcDbEntity
  8
Visible Edges(ISO)
100
AcDbLine
 10
-69.99999999613931
 20
-11.18843594891518
 30
0.0
 11
-69.99999999614004
 21
-12.88034769588643
 31
0.0
  0
LINE
  5
20CC
330
208C
100
AcDbEntity
  8
Visible Edges(ISO)
100
AcDbLine
 10
-69.19999999614015
 20
-12.88034769588643
 30
0.0
 11
-69.99999999614004
 21
-12.88034769588643
 31
0.0
  0
LINE
  5
20CD
330
208C
100
AcDbEntity
  8
Visible Edges(ISO)
100
AcDbLine
 10
-69.19999999613946
 20
-17.03726963405182
 30
0.0
 11
-69.99999999613947
 21
-17.03726963405182
 31
0.0
  0
LINE
  5
20CE
330
208C
100
AcDbEntity
  8
Visible Edges(ISO)
100
AcDbLine
 10
-69.99999999613937
 20
-17.03726963405171
 30
0.0
 11
-69.99999999614004
 21
-12.88034769588643
 31
0.0
  0
LINE
  5
20CF
330
208C
100
AcDbEntity
  8
Visible Edges(ISO)
100
AcDbLine
 10
-69.99999999613931
 20
-4.844866523712767
 30
0.0
 11
-69.99999999614084
 21
-6.652432019084812
 31
0.0
  0
LINE
  5
20D0
330
208C
100
AcDbEntity
  8
Visible Edges(ISO)
100
AcDbLine
 10
-69.19999999614089
 20
-6.652432019084812
 30
0.0
 11
-69.99999999614084
 21
-6.652432019084812
 31
0.0
  0
LINE
  5
20D1
330
208C
100
AcDbEntity
  8
Visible Edges(ISO)
100
AcDbLine
 10
-69.19999999614038
 20
-11.18843594891518
 30
0.0
 11
-69.99999999614027
 21
-11.18843594891518
 31
0.0
  0
LINE
  5
20D2
330
208C
100
AcDbEntity
  8
Visible Edges(ISO)
100
AcDbLine
 10
-69.99999999614027
 20
-11.18843594891518
 30
0.0
 11
-69.99999999614079
 21
-6.652432019084812
 31
0.0
  0
LINE
  5
20D3
330
208C
100
AcDbEntity
  8
Visible Edges(ISO)
100
AcDbLine
 10
-69.99999999613885
 20
1.033070827135531
 30
0.0
 11
-69.99999999614107
 21
-0.0937236026844062
 31
0.0
  0
LINE
  5
20D4
330
208C
100
AcDbEntity
  8
Visible Edges(ISO)
100
AcDbLine
 10
-69.19999999614105
 20
-0.0937236026844062
 30
0.0
 11
-69.99999999614107
 21
-0.0937236026844062
 31
0.0
  0
LINE
  5
20D5
330
208C
100
AcDbEntity
  8
Visible Edges(ISO)
100
AcDbLine
 10
-69.44764561875314
 20
1.033070827135531
 30
0.0
 11
-69.99999999613885
 21
1.033070827135531
 31
0.0
  0
LINE
  5
20D6
330
208C
100
AcDbEntity
  8
Visible Edges(ISO)
100
AcDbLine
 10
-69.199999996141
 20
-4.844866523712767
 30
0.0
 11
-69.99999999614096
 21
-4.844866523712767
 31
0.0
  0
LINE
  5
20D7
330
208C
100
AcDbEntity
  8
Visible Edges(ISO)
100
AcDbLine
 10
-69.99999999614096
 20
-4.844866523712767
 30
0.0
 11
-69.99999999614107
 21
-0.0937236026844062
 31
0.0
  0
LINE
  5
20D8
330
208C
100
AcDbEntity
  8
Visible Edges(ISO)
100
AcDbLine
 10
-69.19999999614105
 20
6.55872874259802
 30
0.0
 11
-69.99999999614107
 21
6.55872874259802
 31
0.0
  0
LINE
  5
20D9
330
208C
100
AcDbEntity
  8
Visible Edges(ISO)
100
AcDbLine
 10
-69.99999999614118
 20
1.764165514519504
 30
0.0
 11
-69.99999999613885
 21
1.387430113201787
 31
0.0
  0
LINE
  5
20DA
330
208C
100
AcDbEntity
  8
Visible Edges(ISO)
100
AcDbLine
 10
-69.44764561875314
 20
1.387430113201787
 30
0.0
 11
-69.99999999613885
 21
1.387430113201787
 31
0.0
  0
LINE
  5
20DB
330
208C
100
AcDbEntity
  8
Visible Edges(ISO)
100
AcDbLine
 10
-69.19999999614117
 20
1.764165514519504
 30
0.0
 11
-69.99999999614118
 21
1.764165514519504
 31
0.0
  0
LINE
  5
20DC
330
208C
100
AcDbEntity
  8
Visible Edges(ISO)
100
AcDbLine
 10
-69.99999999614118
 20
1.764165514519504
 30
0.0
 11
-69.99999999614107
 21
6.55872874259802
 31
0.0
  0
LINE
  5
20DD
330
208C
100
AcDbEntity
  8
Visible Edges(ISO)
100
AcDbLine
 10
-69.19999999614077
 20
13.06448805620834
 30
0.0
 11
-69.99999999614067
 21
13.06448805620834
 31
0.0
  0
LINE
  5
20DE
330
208C
100
AcDbEntity
  8
Visible Edges(ISO)
100
AcDbLine
 10
-69.99999999614107
 20
8.399792528255318
 30
0.0
 11
-69.9999999961388
 21
6.55872874259802
 31
0.0
  0
LINE
  5
20DF
330
208C
100
AcDbEntity
  8
Visible Edges(ISO)
100
AcDbLine
 10
-69.19999999614105
 20
8.399792528255318
 30
0.0
 11
-69.99999999614107
 21
8.399792528255318
 31
0.0
  0
LINE
  5
20E0
330
208C
100
AcDbEntity
  8
Visible Edges(ISO)
100
AcDbLine
 10
-69.99999999614107
 20
8.399792528255318
 30
0.0
 11
-69.99999999614067
 21
13.06448805620834
 31
0.0
  0
LINE
  5
20E1
330
208C
100
AcDbEntity
  8
Visible Edges(ISO)
100
AcDbLine
 10
-69.19999999613986
 20
19.18841924596211
 30
0.0
 11
-69.99999999613999
 21
19.18841924596211
 31
0.0
  0
LINE
  5
20E2
330
208C
100
AcDbEntity
  8
Visible Edges(ISO)
100
AcDbLine
 10
-69.9999999961405
 20
14.82218566826032
 30
0.0
 11
-69.99999999613937
 21
13.06448805620834
 31
0.0
  0
LINE
  5
20E3
330
208C
100
AcDbEntity
  8
Visible Edges(ISO)
100
AcDbLine
 10
-69.19999999614055
 20
14.82218566826032
 30
0.0
 11
-69.9999999961405
 21
14.82218566826032
 31
0.0
  0
LINE
  5
20E4
330
208C
100
AcDbEntity
  8
Visible Edges(ISO)
100
AcDbLine
 10
-69.9999999961405
 20
14.82218566826032
 30
0.0
 11
-69.99999999613999
 21
19.18841924596199
 31
0.0
  0
LINE
  5
20E5
330
208C
100
AcDbEntity
  8
Visible Edges(ISO)
100
AcDbLine
 10
-69.19999999613884
 20
24.7091874829145
 30
0.0
 11
-69.9999999961388
 21
24.7091874829145
 31
0.0
  0
LINE
  5
20E6
330
208C
100
AcDbEntity
  8
Visible Edges(ISO)
100
AcDbLine
 10
-69.99999999613971
 20
20.79922291307287
 30
0.0
 11
-69.99999999613897
 21
19.18841924596211
 31
0.0
  0
LINE
  5
20E7
330
208C
100
AcDbEntity
  8
Visible Edges(ISO)
100
AcDbLine
 10
-69.1999999961397
 20
20.79922291307287
 30
0.0
 11
-69.99999999613971
 21
20.79922291307287
 31
0.0
  0
LINE
  5
20E8
330
208C
100
AcDbEntity
  8
Visible Edges(ISO)
100
AcDbLine
 10
-69.99999999613971
 20
20.79922291307287
 30
0.0
 11
-69.9999999961388
 21
24.7091874829145
 31
0.0
  0
LINE
  5
20E9
330
208C
100
AcDbEntity
  8
Visible Edges(ISO)
100
AcDbLine
 10
-69.19999999613748
 20
29.42725781876084
 30
0.0
 11
-69.99999999613748
 21
29.42725781876084
 31
0.0
  0
LINE
  5
20EA
330
208C
100
AcDbEntity
  8
Visible Edges(ISO)
100
AcDbLine
 10
-69.99999999613851
 20
26.1148785636467
 30
0.0
 11
-69.99999999613805
 21
24.70918748291439
 31
0.0
  0
LINE
  5
20EB
330
208C
100
AcDbEntity
  8
Visible Edges(ISO)
100
AcDbLine
 10
-69.1999999961385
 20
26.1148785636467
 30
0.0
 11
-69.99999999613851
 21
26.1148785636467
 31
0.0
  0
LINE
  5
20EC
330
208C
100
AcDbEntity
  8
Visible Edges(ISO)
100
AcDbLine
 10
-69.99999999613851
 20
26.1148785636467
 30
0.0
 11
-69.99999999613748
 21
29.42725781876084
 31
0.0
  0
LINE
  5
20ED
330
208C
100
AcDbEntity
  8
Visible Edges(ISO)
100
AcDbLine
 10
-69.19999999613589
 20
33.17210689875123
 30
0.0
 11
-69.99999999613578
 21
33.17210689875123
 31
0.0
  0
LINE
  5
20EE
330
208C
100
AcDbEntity
  8
Visible Edges(ISO)
100
AcDbLine
 10
-69.99999999613698
 20
30.57703097496438
 30
0.0
 11
-69.99999999613681
 21
29.42725781876084
 31
0.0
  0
LINE
  5
20EF
330
208C
100
AcDbEntity
  8
Visible Edges(ISO)
100
AcDbLine
 10
-69.19999999613697
 20
30.57703097496438
 30
0.0
 11
-69.99999999613698
 21
30.57703097496438
 31
0.0
  0
LINE
  5
20F0
330
208C
100
AcDbEntity
  8
Visible Edges(ISO)
100
AcDbLine
 10
-69.99999999613698
 20
30.57703097496438
 30
0.0
 11
-69.99999999613578
 21
33.17210689875123
 31
0.0
  0
LINE
  5
20F1
330
208C
100
AcDbEntity
  8
Visible Edges(ISO)
100
AcDbLine
 10
-69.19999999613401
 20
35.80838612002566
 30
0.0
 11
-69.99999999613402
 21
35.80838612002566
 31
0.0
  0
LINE
  5
20F2
330
208C
100
AcDbEntity
  8
Visible Edges(ISO)
100
AcDbLine
 10
-69.99999999613527
 20
34.02440633285613
 30
0.0
 11
-69.99999999613516
 21
33.17210689875123
 31
0.0
  0
LINE
  5
20F3
330
208C
100
AcDbEntity
  8
Visible Edges(ISO)
100
AcDbLine
 10
-69.19999999613532
 20
34.02440633285613
 30
0.0
 11
-69.99999999613527
 21
34.02440633285613
 31
0.0
  0
LINE
  5
20F4
330
208C
100
AcDbEntity
  8
Visible Edges(ISO)
100
AcDbLine
 10
-69.99999999613527
 20
34.02440633285613
 30
0.0
 11
-69.99999999613402
 21
35.80838612002566
 31
0.0
  0
LINE
  5
20F5
330
208C
100
AcDbEntity
  8
Visible Edges(ISO)
100
AcDbLine
 10
-69.19999999613202
 20
37.24081348276889
 30
0.0
 11
-69.99999999613198
 21
37.24081348276889
 31
0.0
  0
LINE
  5
20F6
330
208C
100
AcDbEntity
  8
Visible Edges(ISO)
100
AcDbLine
 10
-69.99999999613351
 20
36.33240750983901
 30
0.0
 11
-69.99999999613334
 21
35.80838612002566
 31
0.0
  0
LINE
  5
20F7
330
208C
100
AcDbEntity
  8
Visible Edges(ISO)
100
AcDbLine
 10
-69.1999999961335
 20
36.33240750983901
 30
0.0
 11
-69.99999999613351
 21
36.33240750983901
 31
0.0
  0
LINE
  5
20F8
330
208C
100
AcDbEntity
  8
Visible Edges(ISO)
100
AcDbLine
 10
-69.99999999613351
 20
36.3324075098389
 30
0.0
 11
-69.99999999613198
 21
37.24081348276883
 31
0.0
  0
LINE
  5
20F9
330
208C
100
AcDbEntity
  8
Visible Edges(ISO)
100
AcDbLine
 10
68.00000000386654
 20
35.80838612002566
 30
0.0
 11
68.00000000386654
 21
36.33240750983901
 31
0.0
  0
LINE
  5
20FA
330
208C
100
AcDbEntity
  8
Visible Edges(ISO)
100
AcDbLine
 10
67.20000000386654
 20
36.33240750983901
 30
0.0
 11
68.00000000386654
 21
36.33240750983901
 31
0.0
  0
LINE
  5
20FB
330
208C
100
AcDbEntity
  8
Visible Edges(ISO)
100
AcDbLine
 10
67.20000000386784
 20
37.24081348276889
 30
0.0
 11
68.00000000386785
 21
37.24081348276889
 31
0.0
  0
LINE
  5
20FC
330
208C
100
AcDbEntity
  8
Visible Edges(ISO)
100
AcDbLine
 10
68.00000000386785
 20
37.24081348276889
 30
0.0
 11
68.00000000386654
 21
36.33240750983901
 31
0.0
  0
LINE
  5
20FD
330
208C
100
AcDbEntity
  8
Visible Edges(ISO)
100
AcDbLine
 10
67.20000000386898
 20
-32.48764215903492
 30
0.0
 11
68.00000000386882
 21
-32.48764215903492
 31
0.0
  0
LINE
  5
20FE
330
208C
100
AcDbEntity
  8
Visible Edges(ISO)
100
AcDbLine
 10
68.00000000386751
 20
-32.03137315117479
 30
0.0
 11
68.00000000386751
 21
-31.6793666198549
 31
0.0
  0
LINE
  5
20FF
330
208C
100
AcDbEntity
  8
Visible Edges(ISO)
100
AcDbLine
 10
67.20000000386756
 20
-32.03137315117479
 30
0.0
 11
68.00000000386751
 21
-32.03137315117479
 31
0.0
  0
LINE
  5
2100
330
208C
100
AcDbEntity
  8
Visible Edges(ISO)
100
AcDbLine
 10
68.00000000386751
 20
-32.03137315117479
 30
0.0
 11
68.00000000386882
 21
-32.48764215903492
 31
0.0
  0
LINE
  5
2101
330
208C
100
AcDbEntity
  8
Visible Edges(ISO)
100
AcDbLine
 10
67.20000000386682
 20
-31.6793666198549
 30
0.0
 11
68.00000000386694
 21
-31.6793666198549
 31
0.0
  0
LINE
  5
2102
330
208C
100
AcDbEntity
  8
Visible Edges(ISO)
100
AcDbLine
 10
68.00000000386564
 20
-30.3270503470161
 30
0.0
 11
68.00000000386564
 21
-29.63575971756231
 31
0.0
  0
LINE
  5
2103
330
208C
100
AcDbEntity
  8
Visible Edges(ISO)
100
AcDbLine
 10
67.20000000386557
 20
-30.3270503470161
 30
0.0
 11
68.00000000386564
 21
-30.3270503470161
 31
0.0
  0
LINE
  5
2104
330
208C
100
AcDbEntity
  8
Visible Edges(ISO)
100
AcDbLine
 10
68.00000000386552
 20
-30.3270503470161
 30
0.0
 11
68.00000000386694
 21
-31.6793666198549
 31
0.0
  0
LINE
  5
2105
330
208C
100
AcDbEntity
  8
Visible Edges(ISO)
100
AcDbLine
 10
67.200000003865
 20
-29.63575971756231
 30
0.0
 11
68.00000000386501
 21
-29.63575971756231
 31
0.0
  0
LINE
  5
2106
330
208C
100
AcDbEntity
  8
Visible Edges(ISO)
100
AcDbLine
 10
68.0000000038637
 20
-27.43627241327081
 30
0.0
 11
68.00000000386393
 21
-26.4306827301717
 31
0.0
  0
LINE
  5
2107
330
208C
100
AcDbEntity
  8
Visible Edges(ISO)
100
AcDbLine
 10
67.20000000386369
 20
-27.43627241327081
 30
0.0
 11
68.0000000038637
 21
-27.43627241327081
 31
0.0
  0
LINE
  5
2108
330
208C
100
AcDbEntity
  8
Visible Edges(ISO)
100
AcDbLine
 10
68.00000000386382
 20
-27.43627241327081
 30
0.0
 11
68.00000000386501
 21
-29.63575971756231
 31
0.0
  0
LINE
  5
2109
330
208C
100
AcDbEntity
  8
Visible Edges(ISO)
100
AcDbLine
 10
67.20000000386335
 20
-26.4306827301717
 30
0.0
 11
68.00000000386337
 21
-26.4306827301717
 31
0.0
  0
LINE
  5
210A
330
208C
100
AcDbEntity
  8
Visible Edges(ISO)
100
AcDbLine
 10
68.00000000386211
 20
-23.46351959631281
 30
0.0
 11
68.00000000386251
 21
-22.1799754907542
 31
0.0
  0
LINE
  5
210B
330
208C
100
AcDbEntity
  8
Visible Edges(ISO)
100
AcDbLine
 10
67.2000000038621
 20
-23.46351959631281
 30
0.0
 11
68.00000000386211
 21
-23.46351959631281
 31
0.0
  0
LINE
  5
210C
330
208C
100
AcDbEntity
  8
Visible Edges(ISO)
100
AcDbLine
 10
68.00000000386211
 20
-23.46351959631281
 30
0.0
 11
68.00000000386337
 21
-26.43068273017181
 31
0.0
  0
LINE
  5
210D
330
208C
100
AcDbEntity
  8
Visible Edges(ISO)
100
AcDbLine
 10
67.20000000386182
 20
-22.1799754907542
 30
0.0
 11
68.00000000386183
 21
-22.1799754907542
 31
0.0
  0
LINE
  5
210E
330
208C
100
AcDbEntity
  8
Visible Edges(ISO)
100
AcDbLine
 10
68.00000000386098
 20
-18.55237753385364
 30
0.0
 11
68.00000000386138
 21
-17.03726963405182
 31
0.0
  0
LINE
  5
210F
330
208C
100
AcDbEntity
  8
Visible Edges(ISO)
100
AcDbLine
 10
67.20000000386079
 20
-18.55237753385364
 30
0.0
 11
68.00000000386098
 21
-18.55237753385364
 31
0.0
  0
LINE
  5
2110
330
208C
100
AcDbEntity
  8
Visible Edges(ISO)
100
AcDbLine
 10
68.00000000386081
 20
-18.55237753385364
 30
0.0
 11
68.00000000386183
 21
-22.1799754907542
 31
0.0
  0
LINE
  5
2111
330
208C
100
AcDbEntity
  8
Visible Edges(ISO)
100
AcDbLine
 10
67.2000000038605
 20
-17.03726963405182
 30
0.0
 11
68.00000000386052
 21
-17.03726963405182
 31
0.0
  0
LINE
  5
2112
330
208C
100
AcDbEntity
  8
Visible Edges(ISO)
100
AcDbLine
 10
68.00000000385984
 20
-12.88034769588643
 30
0.0
 11
68.00000000386074
 21
-11.18843594891518
 31
0.0
  0
LINE
  5
2113
330
208C
100
AcDbEntity
  8
Visible Edges(ISO)
100
AcDbLine
 10
67.20000000385983
 20
-12.88034769588643
 30
0.0
 11
68.00000000385984
 21
-12.88034769588643
 31
0.0
  0
LINE
  5
2114
330
208C
100
AcDbEntity
  8
Visible Edges(ISO)
100
AcDbLine
 10
68.00000000385984
 20
-12.88034769588643
 30
0.0
 11
68.00000000386052
 21
-17.03726963405182
 31
0.0
  0
LINE
  5
2115
330
208C
100
AcDbEntity
  8
Visible Edges(ISO)
100
AcDbLine
 10
67.20000000385965
 20
-11.18843594891518
 30
0.0
 11
68.00000000385967
 21
-11.18843594891518
 31
0.0
  0
LINE
  5
2116
330
208C
100
AcDbEntity
  8
Visible Edges(ISO)
100
AcDbLine
 10
68.00000000385916
 20
-6.652432019084812
 30
0.0
 11
68.00000000386074
 21
-4.844866523712767
 31
0.0
  0
LINE
  5
2117
330
208C
100
AcDbEntity
  8
Visible Edges(ISO)
100
AcDbLine
 10
67.20000000385915
 20
-6.652432019084812
 30
0.0
 11
68.00000000385916
 21
-6.652432019084812
 31
0.0
  0
LINE
  5
2118
330
208C
100
AcDbEntity
  8
Visible Edges(ISO)
100
AcDbLine
 10
68.00000000385916
 20
-6.652432019084812
 30
0.0
 11
68.00000000385967
 21
-11.18843594891518
 31
0.0
  0
LINE
  5
2119
330
208C
100
AcDbEntity
  8
Visible Edges(ISO)
100
AcDbLine
 10
67.20000000385898
 20
-4.844866523712767
 30
0.0
 11
68.00000000385899
 21
-4.844866523712767
 31
0.0
  0
LINE
  5
211A
330
208C
100
AcDbEntity
  8
Visible Edges(ISO)
100
AcDbLine
 10
68.00000000385882
 20
-0.0937236026844062
 30
0.0
 11
68.00000000386114
 21
1.033070827135531
 31
0.0
  0
LINE
  5
211B
330
208C
100
AcDbEntity
  8
Visible Edges(ISO)
100
AcDbLine
 10
67.20000000386119
 20
1.033070827135531
 30
0.0
 11
68.00000000386114
 21
1.033070827135531
 31
0.0
  0
LINE
  5
211C
330
208C
100
AcDbEntity
  8
Visible Edges(ISO)
100
AcDbLine
 10
67.20000000385886
 20
-0.0937236026844062
 30
0.0
 11
68.00000000385882
 21
-0.0937236026844062
 31
0.0
  0
LINE
  5
211D
330
208C
100
AcDbEntity
  8
Visible Edges(ISO)
100
AcDbLine
 10
68.00000000385882
 20
-0.0937236026844062
 30
0.0
 11
68.00000000385899
 21
-4.844866523712767
 31
0.0
  0
LINE
  5
211E
330
208C
100
AcDbEntity
  8
Visible Edges(ISO)
100
AcDbLine
 10
68.00000000386114
 20
1.387430113201787
 30
0.0
 11
68.00000000385882
 21
1.764165514519504
 31
0.0
  0
LINE
  5
211F
330
208C
100
AcDbEntity
  8
Visible Edges(ISO)
100
AcDbLine
 10
67.20000000385886
 20
1.764165514519504
 30
0.0
 11
68.00000000385882
 21
1.764165514519504
 31
0.0
  0
LINE
  5
2120
330
208C
100
AcDbEntity
  8
Visible Edges(ISO)
100
AcDbLine
 10
67.20000000386119
 20
1.387430113201787
 30
0.0
 11
68.00000000386114
 21
1.387430113201787
 31
0.0
  0
LINE
  5
2121
330
208C
100
AcDbEntity
  8
Visible Edges(ISO)
100
AcDbLine
 10
67.20000000385886
 20
6.55872874259802
 30
0.0
 11
68.00000000385882
 21
6.55872874259802
 31
0.0
  0
LINE
  5
2122
330
208C
100
AcDbEntity
  8
Visible Edges(ISO)
100
AcDbLine
 10
68.00000000385882
 20
6.55872874259802
 30
0.0
 11
68.00000000385882
 21
1.764165514519504
 31
0.0
  0
LINE
  5
2123
330
208C
100
AcDbEntity
  8
Visible Edges(ISO)
100
AcDbLine
 10
68.0000000038612
 20
6.55872874259802
 30
0.0
 11
68.00000000385899
 21
8.399792528255318
 31
0.0
  0
LINE
  5
2124
330
208C
100
AcDbEntity
  8
Visible Edges(ISO)
100
AcDbLine
 10
67.20000000385898
 20
8.399792528255318
 30
0.0
 11
68.00000000385899
 21
8.399792528255318
 31
0.0
  0
LINE
  5
2125
330
208C
100
AcDbEntity
  8
Visible Edges(ISO)
100
AcDbLine
 10
67.20000000385937
 20
13.06448805620817
 30
0.0
 11
68.00000000385939
 21
13.06448805620817
 31
0.0
  0
LINE
  5
2126
330
208C
100
AcDbEntity
  8
Visible Edges(ISO)
100
AcDbLine
 10
68.00000000385916
 20
13.06448805620812
 30
0.0
 11
68.00000000385899
 21
8.399792528255204
 31
0.0
  0
LINE
  5
2127
330
208C
100
AcDbEntity
  8
Visible Edges(ISO)
100
AcDbLine
 10
68.00000000386069
 20
13.06448805620817
 30
0.0
 11
68.00000000385949
 21
14.82218566826032
 31
0.0
  0
LINE
  5
2128
330
208C
100
AcDbEntity
  8
Visible Edges(ISO)
100
AcDbLine
 10
67.20000000385943
 20
14.82218566826032
 30
0.0
 11
68.00000000385949
 21
14.82218566826032
 31
0.0
  0
LINE
  5
2129
330
208C
100
AcDbEntity
  8
Visible Edges(ISO)
100
AcDbLine
 10
67.20000000386011
 20
19.18841924596199
 30
0.0
 11
68.00000000386012
 21
19.18841924596199
 31
0.0
  0
LINE
  5
212A
330
208C
100
AcDbEntity
  8
Visible Edges(ISO)
100
AcDbLine
 10
68.00000000386012
 20
19.18841924596199
 30
0.0
 11
68.00000000385944
 21
14.82218566826032
 31
0.0
  0
LINE
  5
212B
330
208C
100
AcDbEntity
  8
Visible Edges(ISO)
100
AcDbLine
 10
68.00000000386103
 20
19.18841924596199
 30
0.0
 11
68.00000000386035
 21
20.79922291307281
 31
0.0
  0
LINE
  5
212C
330
208C
100
AcDbEntity
  8
Visible Edges(ISO)
100
AcDbLine
 10
67.20000000386045
 20
20.79922291307281
 30
0.0
 11
68.00000000386035
 21
20.79922291307281
 31
0.0
  0
LINE
  5
212D
330
208C
100
AcDbEntity
  8
Visible Edges(ISO)
100
AcDbLine
 10
67.20000000386119
 20
24.70918748291439
 30
0.0
 11
68.00000000386114
 21
24.70918748291439
 31
0.0
  0
LINE
  5
212E
330
208C
100
AcDbEntity
  8
Visible Edges(ISO)
100
AcDbLine
 10
68.00000000386114
 20
24.70918748291439
 30
0.0
 11
68.00000000386035
 21
20.79922291307281
 31
0.0
  0
LINE
  5
212F
330
208C
100
AcDbEntity
  8
Visible Edges(ISO)
100
AcDbLine
 10
68.00000000386194
 20
24.70918748291439
 30
0.0
 11
68.00000000386143
 21
26.1148785636467
 31
0.0
  0
LINE
  5
2130
330
208C
100
AcDbEntity
  8
Visible Edges(ISO)
100
AcDbLine
 10
67.20000000386147
 20
26.1148785636467
 30
0.0
 11
68.00000000386143
 21
26.1148785636467
 31
0.0
  0
LINE
  5
2131
330
208C
100
AcDbEntity
  8
Visible Edges(ISO)
100
AcDbLine
 10
67.20000000386267
 20
29.42725781876084
 30
0.0
 11
68.00000000386251
 21
29.42725781876084
 31
0.0
  0
LINE
  5
2132
330
208C
100
AcDbEntity
  8
Visible Edges(ISO)
100
AcDbLine
 10
68.00000000386251
 20
29.42725781876084
 30
0.0
 11
68.00000000386143
 21
26.1148785636467
 31
0.0
  0
LINE
  5
2133
330
208C
100
AcDbEntity
  8
Visible Edges(ISO)
100
AcDbLine
 10
68.00000000386308
 20
29.42725781876084
 30
0.0
 11
68.00000000386297
 21
30.57703097496432
 31
0.0
  0
LINE
  5
2134
330
208C
100
AcDbEntity
  8
Visible Edges(ISO)
100
AcDbLine
 10
67.20000000386296
 20
30.57703097496432
 30
0.0
 11
68.00000000386297
 21
30.57703097496432
 31
0.0
  0
LINE
  5
2135
330
208C
100
AcDbEntity
  8
Visible Edges(ISO)
100
AcDbLine
 10
67.20000000386415
 20
33.17210689875123
 30
0.0
 11
68.00000000386416
 21
33.17210689875123
 31
0.0
  0
LINE
  5
2136
330
208C
100
AcDbEntity
  8
Visible Edges(ISO)
100
AcDbLine
 10
68.00000000386416
 20
33.17210689875111
 30
0.0
 11
68.00000000386297
 21
30.57703097496432
 31
0.0
  0
LINE
  5
2137
330
208C
100
AcDbEntity
  8
Visible Edges(ISO)
100
AcDbLine
 10
68.00000000386472
 20
33.17210689875123
 30
0.0
 11
68.00000000386461
 21
34.02440633285613
 31
0.0
  0
LINE
  5
2138
330
208C
100
AcDbEntity
  8
Visible Edges(ISO)
100
AcDbLine
 10
67.20000000386466
 20
34.02440633285613
 30
0.0
 11
68.00000000386461
 21
34.02440633285613
 31
0.0
  0
LINE
  5
2139
330
208C
100
AcDbEntity
  8
Visible Edges(ISO)
100
AcDbLine
 10
67.2000000038659
 20
35.80838612002566
 30
0.0
 11
68.00000000386592
 21
35.80838612002566
 31
0.0
  0
LINE
  5
213A
330
208C
100
AcDbEntity
  8
Visible Edges(ISO)
100
AcDbLine
 10
68.00000000386592
 20
35.80838612002566
 30
0.0
 11
68.00000000386461
 21
34.02440633285613
 31
0.0
  0
SPLINE
  5
213B
330
208C
100
AcDbEntity
  8
Visible Edges(ISO)
100
AcDbSpline
210
0.0
220
0.0
230
1.0
 70
     8
 71
     3
 72
    16
 73
    12
 74
     0
 42
0.0000000001
 43
0.0000000001
 40
0.0
 40
0.0
 40
0.0
 40
0.0
 40
0.1021911755767939
 40
0.1021911755767939
 40
0.2024599310573494
 40
0.2024599310573494
 40
0.3021684466835093
 40
0.3021684466835093
 40
0.3995527581516489
 40
0.3995527581516489
 40
0.4320324912750302
 40
0.4320324912750302
 40
0.4320324912750302
 40
0.4320324912750302
 10
-47.49999999613282
 20
39.30966621664402
 30
0.0
 10
-47.84063724805548
 20
39.30966621664402
 30
0.0
 10
-48.18568209975905
 20
39.30880406907369
 30
0.0
 10
-48.82500100362477
 20
39.30552276226001
 30
0.0
 10
-49.12815741089634
 20
39.30309167787612
 30
0.0
 10
-49.659653125342
 20
39.29702020841552
 30
0.0
 10
-49.89538183393995
 20
39.29329831419614
 30
0.0
 10
-50.26332027796286
 20
39.28529472033813
 30
0.0
 10
-50.40627496317819
 20
39.28061219928935
 30
0.0
 10
-50.49988346778047
 20
39.27601209954514
 30
0.0
 10
-50.51566443350885
 20
39.2749318630394
 30
0.0
 10
-50.51566443267569
 20
39.27493186310312
 30
0.0
  0
SPLINE
  5
213C
330
208C
100
AcDbEntity
  8
Visible Edges(ISO)
100
AcDbSpline
210
0.0
220
0.0
230
1.0
 70
     8
 71
     3
 72
    34
 73
    30
 74
     0
 42
0.0000000001
 43
0.0000000001
 40
0.0
 40
0.0
 40
0.0
 40
0.0
 40
0.0519599399027099
 40
0.0519599399027099
 40
0.1029774789852558
 40
0.1029774789852558
 40
0.1540136830541682
 40
0.1540136830541682
 40
0.1790378891919806
 40
0.1790378891919806
 40
0.2027758129673361
 40
0.2027758129673361
 40
0.2202082770434089
 40
0.2202082770434089
 40
0.2403312189744041
 40
0.2403312189744041
 40
0.2563785666899793
 40
0.2563785666899793
 40
0.2870294334414916
 40
0.2870294334414916
 40
0.379154034360641
 40
0.379154034360641
 40
0.4561956474864082
 40
0.4561956474864082
 40
0.567046407766426
 40
0.567046407766426
 40
0.6719706333064232
 40
0.6719706333064232
 40
0.7133938225561624
 40
0.7133938225561624
 40
0.7133938225561624
 40
0.7133938225561624
 10
-52.29999999613188
 20
40.86064519227835
 30
0.0
 10
-52.29999999613188
 20
41.03376385337049
 30
0.0
 10
-52.27117021652651
 20
41.20911255843521
 30
0.0
 10
-52.16134783111226
 20
41.53411768155189
 30
0.0
 10
-52.07996586114683
 20
41.68822939294364
 30
0.0
 10
-51.87552061343598
 20
41.95963015273918
 30
0.0
 10
-51.74981465791853
 20
42.08030749074083
 30
0.0
 10
-51.54234856277946
 20
42.22408989097118
 30
0.0
 10
-51.47024049754651
 20
42.2661349748999
 30
0.0
 10
-51.32580451545152
 20
42.33612462012934
 30
0.0
 10
-51.25283041474506
 20
42.36497696445212
 30
0.0
 10
-51.12852362258599
 20
42.4045056769417
 30
0.0
 10
-51.07584993818045
 20
42.41814079674918
 30
0.0
 10
-50.97346575998483
 20
42.4401600837902
 30
0.0
 10
-50.92538933777501
 20
42.44761359917385
 30
0.0
 10
-50.85775151829927
 20
42.45653136634348
 30
0.0
 10
-50.83286294223364
 20
42.45915503363
 30
0.0
 10
-50.76749676464806
 20
42.46536190316436
 30
0.0
 10
-50.73216139744386
 20
42.46775828276486
 30
0.0
 10
-50.58551615919634
 20
42.47653195830486
 30
0.0
 10
-50.46086054005349
 20
42.48077280094799
 30
0.0
 10
-50.16239045222187
 20
42.48852994101537
 30
0.0
 10
-50.00174133040025
 20
42.4917450460195
 30
0.0
 10
-49.56038857992735
 20
42.49870654881118
 30
0.0
 10
-49.25151678207237
 20
42.50213483145819
 30
0.0
 10
-48.60421636881705
 20
42.50698911290652
 30
0.0
 10
-48.26029549503267
 20
42.50857168474602
 30
0.0
 10
-47.77643407740464
 20
42.50952980464001
 30
0.0
 10
-47.63807729363196
 20
42.509666216644
 30
0.0
 10
-47.49999999613282
 20
42.509666216644
 30
0.0
  0
LINE
  5
213D
330
208C
100
AcDbEntity
  8
Visible Edges(ISO)
100
AcDbLine
 10
-32.49999999613283
 20
39.30966621664402
 30
0.0
 11
-47.49999999613282
 21
39.30966621664402
 31
0.0
  0
LINE
  5
213E
330
208C
100
AcDbEntity
  8
Visible Edges(ISO)
100
AcDbLine
 10
-32.49999999613283
 20
42.509666216644
 30
0.0
 11
-47.49999999613282
 21
42.509666216644
 31
0.0
  0
LINE
  5
213F
330
208C
100
AcDbEntity
  8
Visible Edges(ISO)
100
AcDbLine
 10
-52.29999999613188
 20
40.86064519227835
 30
0.0
 11
-52.29999999612721
 21
40.6186038844732
 31
0.0
  0
SPLINE
  5
2140
330
208C
100
AcDbEntity
  8
Visible Edges(ISO)
100
AcDbSpline
210
0.0
220
0.0
230
1.0
 70
     8
 71
     3
 72
    20
 73
    16
 74
     0
 42
0.0000000001
 43
0.0000000001
 40
0.2634724178933286
 40
0.2634724178933286
 40
0.2634724178933286
 40
0.2634724178933286
 40
0.2660117957805305
 40
0.2660117957805305
 40
0.2933446530837144
 40
0.2933446530837144
 40
0.3417035937068384
 40
0.3417035937068384
 40
0.4168781932496942
 40
0.4168781932496942
 40
0.5091210338940064
 40
0.5091210338940064
 40
0.6072711309347018
 40
0.6072711309347018
 40
0.6961672813125148
 40
0.6961672813125148
 40
0.6961672813125148
 40
0.6961672813125148
 10
-29.48433555958849
 20
39.27493186310312
 30
0.0
 10
-29.48433555958917
 20
39.27493186310312
 30
0.0
 10
-29.48443800425469
 20
39.27493967976488
 30
0.0
 10
-29.4867559055474
 20
39.27510965146399
 30
0.0
 10
-29.49935655311555
 20
39.27594181311884
 30
0.0
 10
-29.550491770978
 20
39.27853392052418
 30
0.0
 10
-29.60231313242804
 20
39.28063655581383
 30
0.0
 10
-29.76664521387488
 20
39.28587603675715
 30
0.0
 10
-29.89953968059194
 20
39.28909559248621
 30
0.0
 10
-30.24694929107477
 20
39.29558511046833
 30
0.0
 10
-30.47787424875963
 20
39.29880602416313
 30
0.0
 10
-31.00245861618305
 20
39.3042045616508
 30
0.0
 10
-31.30579984148608
 20
39.3063718577863
 30
0.0
 10
-31.9044463129452
 20
39.30901798531733
 30
0.0
 10
-32.20367949487349
 20
39.30966621664402
 30
0.0
 10
-32.49999999613283
 20
39.30966621664402
 30
0.0
  0
SPLINE
  5
2141
330
208C
100
AcDbEntity
  8
Visible Edges(ISO)
100
AcDbSpline
210
0.0
220
0.0
230
1.0
 70
     8
 71
     3
 72
    32
 73
    28
 74
     0
 42
0.0000000001
 43
0.0000000001
 40
0.0
 40
0.0
 40
0.0
 40
0.0
 40
0.1053677743416109
 40
0.1053677743416109
 40
0.2089126099943379
 40
0.2089126099943379
 40
0.3132001350361565
 40
0.3132001350361565
 40
0.4202108265460968
 40
0.4202108265460968
 40
0.454486453033536
 40
0.454486453033536
 40
0.480394630334587
 40
0.480394630334587
 40
0.4935633730004846
 40
0.4935633730004846
 40
0.5090286926682353
 40
0.5090286926682353
 40
0.5286678343371225
 40
0.5286678343371225
 40
0.5614231584147617
 40
0.5614231584147617
 40
0.607882220361014
 40
0.607882220361014
 40
0.6585997069934442
 40
0.6585997069934442
 40
0.7131297026459297
 40
0.7131297026459297
 40
0.7131297026459297
 40
0.7131297026459297
 10
-32.49999999613283
 20
42.509666216644
 30
0.0
 10
-32.1487740816608
 20
42.509666216644
 30
0.0
 10
-31.79304355236218
 20
42.5087641535124
 30
0.0
 10
-31.13322075924464
 20
42.5053225908486
 30
0.0
 10
-30.82021968042949
 20
42.50277128693966
 30
0.0
 10
-30.26581201455338
 20
42.49631089625188
 30
0.0
 10
-30.01844602428537
 20
42.49232662853984
 30
0.0
 10
-29.61109171237456
 20
42.48314546510886
 30
0.0
 10
-29.45440314681753
 20
42.47834465915434
 30
0.0
 10
-29.28426937210418
 20
42.46886698009911
 30
0.0
 10
-29.24553053836047
 20
42.466406300973
 30
0.0
 10
-29.16363139260284
 20
42.45893692011486
 30
0.0
 10
-29.12240348594048
 20
42.45480592057589
 30
0.0
 10
-29.03608311161207
 20
42.44116428408938
 30
0.0
 10
-29.00244531200468
 20
42.43509480825418
 30
0.0
 10
-28.92379221975915
 20
42.41790805974017
 30
0.0
 10
-28.87741807647052
 20
42.40594908604521
 30
0.0
 10
-28.77167976202185
 20
42.37322181664262
 30
0.0
 10
-28.71134239771698
 20
42.35075172441935
 30
0.0
 10
-28.5543710788113
 20
42.2810411806297
 30
0.0
 10
-28.4588970636072
 20
42.22666232374251
 30
0.0
 10
-28.24494225671868
 20
42.07375616022438
 30
0.0
 10
-28.13103787063017
 20
41.96437075029462
 30
0.0
 10
-27.932682585127
 20
41.70877550508783
 30
0.0
 10
-27.84946746892666
 20
41.55687524554702
 30
0.0
 10
-27.73183622995481
 20
41.22658034993981
 30
0.0
 10
-27.69999999613185
 20
41.04232669257266
 30
0.0
 10
-27.69999999613185
 20
40.86064519227829
 30
0.0
  0
SPLINE
  5
2142
330
208C
100
AcDbEntity
  8
Visible Edges(ISO)
100
AcDbSpline
210
0.0
220
0.0
230
1.0
 70
     8
 71
     3
 72
    14
 73
    10
 74
     0
 42
0.0000000001
 43
0.0000000001
 40
0.5503308630482559
 40
0.5503308630482559
 40
0.5503308630482559
 40
0.5503308630482559
 40
0.5614231584147352
 40
0.5614231584147352
 40
0.6078822203609772
 40
0.6078822203609772
 40
0.6585997069934125
 40
0.6585997069934125
 40
0.713129702645929
 40
0.713129702645929
 40
0.713129702645929
 40
0.713129702645929
 10
-51.53745355995818
 20
39.25469978187209
 30
0.0
 10
-51.56884231511606
 20
39.27401321155151
 30
0.0
 10
-51.59961388047697
 20
39.29440252381363
 30
0.0
 10
-51.75505773554016
 20
39.40549291652701
 30
0.0
 10
-51.86896212162867
 20
39.51487832645682
 30
0.0
 10
-52.06731740713201
 20
39.7704735716635
 30
0.0
 10
-52.15053252333229
 20
39.92237383120431
 30
0.0
 10
-52.26816376230431
 20
40.25266872681164
 30
0.0
 10
-52.29999999612721
 20
40.43692238417884
 30
0.0
 10
-52.29999999612721
 20
40.61860388447331
 30
0.0
  0
LINE
  5
2143
330
208C
100
AcDbEntity
  8
Visible Edges(ISO)
100
AcDbLine
 10
-27.69999999612719
 20
40.6186038844732
 30
0.0
 11
-27.69999999613185
 21
40.86064519227835
 31
0.0
  0
SPLINE
  5
2144
330
208C
100
AcDbEntity
  8
Visible Edges(ISO)
100
AcDbSpline
210
0.0
220
0.0
230
1.0
 70
     8
 71
     3
 72
    14
 73
    10
 74
     0
 42
0.0000000001
 43
0.0000000001
 40
0.0
 40
0.0
 40
0.0
 40
0.0
 40
0.0519599399027101
 40
0.0519599399027101
 40
0.1029774789852588
 40
0.1029774789852588
 40
0.1540136830541692
 40
0.1540136830541692
 40
0.1627873417605902
 40
0.1627873417605902
 40
0.1627873417605902
 40
0.1627873417605902
 10
-27.69999999612719
 20
40.61860388447331
 30
0.0
 10
-27.69999999612719
 20
40.44548522338113
 30
0.0
 10
-27.72882977573249
 20
40.27013651831651
 30
0.0
 10
-27.8386521611468
 20
39.94513139519984
 30
0.0
 10
-27.92003413111217
 20
39.79101968380798
 30
0.0
 10
-28.12447937882303
 20
39.51961892401249
 30
0.0
 10
-28.25018533434047
 20
39.39894158601084
 30
0.0
 10
-28.41332564146052
 20
39.28587875077335
 30
0.0
 10
-28.43773309746803
 20
39.26994211182165
 30
0.0
 10
-28.46252952647268
 20
39.25468492543513
 30
0.0
  0
SPLINE
  5
2145
330
208C
100
AcDbEntity
  8
Visible Edges(ISO)
100
AcDbSpline
210
0.0
220
0.0
230
1.0
 70
     8
 71
     3
 72
    16
 73
    12
 74
     0
 42
0.0000000001
 43
0.0000000001
 40
0.0
 40
0.0
 40
0.0
 40
0.0
 40
0.1021911755767939
 40
0.1021911755767939
 40
0.2024599310573494
 40
0.2024599310573494
 40
0.3021684466835093
 40
0.3021684466835093
 40
0.3995527581516489
 40
0.3995527581516489
 40
0.4320324912750302
 40
0.4320324912750302
 40
0.4320324912750302
 40
0.4320324912750302
 10
30.50000000386717
 20
39.30966621664402
 30
0.0
 10
30.15936275194457
 20
39.30966621664402
 30
0.0
 10
29.81431790024084
 20
39.30880406907369
 30
0.0
 10
29.17499899637522
 20
39.30552276226001
 30
0.0
 10
28.8718425891035
 20
39.30309167787612
 30
0.0
 10
28.340346874658
 20
39.29702020841552
 30
0.0
 10
28.10461816605999
 20
39.29329831419614
 30
0.0
 10
27.73667972203702
 20
39.28529472033813
 30
0.0
 10
27.59372503682187
 20
39.28061219928935
 30
0.0
 10
27.50011653221964
 20
39.27601209954514
 30
0.0
 10
27.48433556649104
 20
39.2749318630394
 30
0.0
 10
27.48433556732431
 20
39.27493186310312
 30
0.0
  0
SPLINE
  5
2146
330
208C
100
AcDbEntity
  8
Visible Edges(ISO)
100
AcDbSpline
210
0.0
220
0.0
230
1.0
 70
     8
 71
     3
 72
    34
 73
    30
 74
     0
 42
0.0000000001
 43
0.0000000001
 40
0.0
 40
0.0
 40
0.0
 40
0.0
 40
0.0519599399027099
 40
0.0519599399027099
 40
0.1029774789852558
 40
0.1029774789852558
 40
0.1540136830541682
 40
0.1540136830541682
 40
0.1790378891919806
 40
0.1790378891919806
 40
0.2027758129673361
 40
0.2027758129673361
 40
0.2202082770434089
 40
0.2202082770434089
 40
0.2403312189744041
 40
0.2403312189744041
 40
0.2563785666899793
 40
0.2563785666899793
 40
0.2870294334414916
 40
0.2870294334414916
 40
0.379154034360641
 40
0.379154034360641
 40
0.4561956474864082
 40
0.4561956474864082
 40
0.567046407766426
 40
0.567046407766426
 40
0.6719706333064232
 40
0.6719706333064232
 40
0.7133938225561624
 40
0.7133938225561624
 40
0.7133938225561624
 40
0.7133938225561624
 10
25.70000000386801
 20
40.86064519227835
 30
0.0
 10
25.70000000386801
 20
41.03376385337049
 30
0.0
 10
25.72882978347349
 20
41.20911255843515
 30
0.0
 10
25.83865216888785
 20
41.53411768155189
 30
0.0
 10
25.92003413885311
 20
41.68822939294364
 30
0.0
 10
26.12447938656397
 20
41.95963015273918
 30
0.0
 10
26.25018534208147
 20
42.08030749074083
 30
0.0
 10
26.45765143722048
 20
42.22408989097118
 30
0.0
 10
26.52975950245343
 20
42.2661349748999
 30
0.0
 10
26.67419548454848
 20
42.33612462012934
 30
0.0
 10
26.74716958525494
 20
42.36497696445212
 30
0.0
 10
26.87147637741413
 20
42.4045056769417
 30
0.0
 10
26.92415006181943
 20
42.41814079674918
 30
0.0
 10
27.02653424001522
 20
42.4401600837902
 30
0.0
 10
27.07461066222493
 20
42.44761359917385
 30
0.0
 10
27.14224848170073
 20
42.45653136634348
 30
0.0
 10
27.1671370577663
 20
42.45915503363
 30
0.0
 10
27.232503235352
 20
42.46536190316436
 30
0.0
 10
27.26783860255614
 20
42.46775828276486
 30
0.0
 10
27.41448384080348
 20
42.47653195830486
 30
0.0
 10
27.53913945994646
 20
42.48077280094799
 30
0.0
 10
27.83760954777813
 20
42.48852994101537
 30
0.0
 10
27.99825866959964
 20
42.4917450460195
 30
0.0
 10
28.43961142007265
 20
42.49870654881118
 30
0.0
 10
28.74848321792768
 20
42.50213483145819
 30
0.0
 10
29.39578363118295
 20
42.50698911290652
 30
0.0
 10
29.73970450496734
 20
42.50857168474602
 30
0.0
 10
30.22356592259536
 20
42.50952980464001
 30
0.0
 10
30.36192270636798
 20
42.509666216644
 30
0.0
 10
30.50000000386717
 20
42.509666216644
 30
0.0
  0
LINE
  5
2147
330
208C
100
AcDbEntity
  8
Visible Edges(ISO)
100
AcDbLine
 10
45.500000003867
 20
39.30966621664402
 30
0.0
 11
30.50000000386717
 21
39.30966621664402
 31
0.0
  0
LINE
  5
2148
330
208C
100
AcDbEntity
  8
Visible Edges(ISO)
100
AcDbLine
 10
45.500000003867
 20
42.509666216644
 30
0.0
 11
30.50000000386717
 21
42.509666216644
 31
0.0
  0
LINE
  5
2149
330
208C
100
AcDbEntity
  8
Visible Edges(ISO)
100
AcDbLine
 10
25.70000000386801
 20
40.86064519227835
 30
0.0
 11
25.70000000387279
 21
40.6186038844732
 31
0.0
  0
SPLINE
  5
214A
330
208C
100
AcDbEntity
  8
Visible Edges(ISO)
100
AcDbSpline
210
0.0
220
0.0
230
1.0
 70
     8
 71
     3
 72
    20
 73
    16
 74
     0
 42
0.0000000001
 43
0.0000000001
 40
0.2634724178933286
 40
0.2634724178933286
 40
0.2634724178933286
 40
0.2634724178933286
 40
0.2660117957805305
 40
0.2660117957805305
 40
0.2933446530837144
 40
0.2933446530837144
 40
0.3417035937068384
 40
0.3417035937068384
 40
0.4168781932496942
 40
0.4168781932496942
 40
0.5091210338940064
 40
0.5091210338940064
 40
0.6072711309347018
 40
0.6072711309347018
 40
0.6961672813125148
 40
0.6961672813125148
 40
0.6961672813125148
 40
0.6961672813125148
 10
48.51566444041151
 20
39.27493186310312
 30
0.0
 10
48.51566444041072
 20
39.27493186310312
 30
0.0
 10
48.51556199574514
 20
39.27493967976488
 30
0.0
 10
48.51324409445254
 20
39.27510965146399
 30
0.0
 10
48.50064344688433
 20
39.27594181311884
 30
0.0
 10
48.44950822902195
 20
39.27853392052418
 30
0.0
 10
48.39768686757167
 20
39.28063655581383
 30
0.0
 10
48.233354786125
 20
39.28587603675715
 30
0.0
 10
48.10046031940794
 20
39.28909559248621
 30
0.0
 10
47.75305070892511
 20
39.29558511046833
 30
0.0
 10
47.52212575124019
 20
39.29880602416313
 30
0.0
 10
46.99754138381694
 20
39.3042045616508
 30
0.0
 10
46.69420015851398
 20
39.3063718577863
 30
0.0
 10
46.09555368705463
 20
39.30901798531733
 30
0.0
 10
45.79632050512645
 20
39.30966621664402
 30
0.0
 10
45.500000003867
 20
39.30966621664402
 30
0.0
  0
SPLINE
  5
214B
330
208C
100
AcDbEntity
  8
Visible Edges(ISO)
100
AcDbSpline
210
0.0
220
0.0
230
1.0
 70
     8
 71
     3
 72
    32
 73
    28
 74
     0
 42
0.0000000001
 43
0.0000000001
 40
0.0
 40
0.0
 40
0.0
 40
0.0
 40
0.1053677743416109
 40
0.1053677743416109
 40
0.2089126099943379
 40
0.2089126099943379
 40
0.3132001350361565
 40
0.3132001350361565
 40
0.4202108265460968
 40
0.4202108265460968
 40
0.454486453033536
 40
0.454486453033536
 40
0.480394630334587
 40
0.480394630334587
 40
0.4935633730004846
 40
0.4935633730004846
 40
0.5090286926682353
 40
0.5090286926682353
 40
0.5286678343371225
 40
0.5286678343371225
 40
0.5614231584147617
 40
0.5614231584147617
 40
0.607882220361014
 40
0.607882220361014
 40
0.6585997069934442
 40
0.6585997069934442
 40
0.7131297026459297
 40
0.7131297026459297
 40
0.7131297026459297
 40
0.7131297026459297
 10
45.500000003867
 20
42.509666216644
 30
0.0
 10
45.85122591833914
 20
42.509666216644
 30
0.0
 10
46.20695644763765
 20
42.5087641535124
 30
0.0
 10
46.86677924075519
 20
42.5053225908486
 30
0.0
 10
47.17978031957033
 20
42.50277128693966
 30
0.0
 10
47.73418798544651
 20
42.49631089625188
 30
0.0
 10
47.98155397571451
 20
42.49232662853984
 30
0.0
 10
48.38890828762533
 20
42.48314546510886
 30
0.0
 10
48.54559685318247
 20
42.47834465915434
 30
0.0
 10
48.71573062789583
 20
42.46886698009911
 30
0.0
 10
48.75446946163953
 20
42.466406300973
 30
0.0
 10
48.8363686073971
 20
42.45893692011486
 30
0.0
 10
48.87759651405946
 20
42.45480592057589
 30
0.0
 10
48.96391688838781
 20
42.44116428408938
 30
0.0
 10
48.9975546879952
 20
42.43509480825418
 30
0.0
 10
49.07620778024067
 20
42.41790805974017
 30
0.0
 10
49.12258192352948
 20
42.40594908604521
 30
0.0
 10
49.22832023797804
 20
42.37322181664262
 30
0.0
 10
49.28865760228285
 20
42.35075172441935
 30
0.0
 10
49.44562892118864
 20
42.2810411806297
 30
0.0
 10
49.54110293639269
 20
42.22666232374251
 30
0.0
 10
49.75505774328121
 20
42.07375616022438
 30
0.0
 10
49.86896212936972
 20
41.96437075029462
 30
0.0
 10
50.067317414873
 20
41.70877550508765
 30
0.0
 10
50.15053253107317
 20
41.55687524554702
 30
0.0
 10
50.26816377004519
 20
41.22658034993981
 30
0.0
 10
50.30000000386798
 20
41.04232669257266
 30
0.0
 10
50.30000000386798
 20
40.86064519227829
 30
0.0
  0
SPLINE
  5
214C
330
208C
100
AcDbEntity
  8
Visible Edges(ISO)
100
AcDbSpline
210
0.0
220
0.0
230
1.0
 70
     8
 71
     3
 72
    14
 73
    10
 74
     0
 42
0.0000000001
 43
0.0000000001
 40
0.5503308630482549
 40
0.5503308630482549
 40
0.5503308630482549
 40
0.5503308630482549
 40
0.5614231584147352
 40
0.5614231584147352
 40
0.6078822203609772
 40
0.6078822203609772
 40
0.6585997069934125
 40
0.6585997069934125
 40
0.713129702645929
 40
0.713129702645929
 40
0.713129702645929
 40
0.713129702645929
 10
26.46254644004171
 20
39.25469978187198
 30
0.0
 10
26.43115768488395
 20
39.27401321155151
 30
0.0
 10
26.40038611952304
 20
39.29440252381363
 30
0.0
 10
26.24494226445978
 20
39.40549291652701
 30
0.0
 10
26.13103787837122
 20
39.51487832645682
 30
0.0
 10
25.93268259286799
 20
39.7704735716635
 30
0.0
 10
25.84946747666766
 20
39.92237383120431
 30
0.0
 10
25.73183623769575
 20
40.25266872681164
 30
0.0
 10
25.70000000387279
 20
40.43692238417884
 30
0.0
 10
25.70000000387279
 20
40.6186038844732
 30
0.0
  0
LINE
  5
214D
330
208C
100
AcDbEntity
  8
Visible Edges(ISO)
100
AcDbLine
 10
50.3000000038727
 20
40.6186038844732
 30
0.0
 11
50.30000000386798
 21
40.86064519227835
 31
0.0
  0
SPLINE
  5
214E
330
208C
100
AcDbEntity
  8
Visible Edges(ISO)
100
AcDbSpline
210
0.0
220
0.0
230
1.0
 70
     8
 71
     3
 72
    14
 73
    10
 74
     0
 42
0.0000000001
 43
0.0000000001
 40
0.0
 40
0.0
 40
0.0
 40
0.0
 40
0.0519599399027101
 40
0.0519599399027101
 40
0.1029774789852588
 40
0.1029774789852588
 40
0.1540136830541692
 40
0.1540136830541692
 40
0.1627873417605911
 40
0.1627873417605911
 40
0.1627873417605911
 40
0.1627873417605911
 10
50.3000000038727
 20
40.61860388447331
 30
0.0
 10
50.3000000038727
 20
40.44548522338113
 30
0.0
 10
50.27117022426733
 20
40.27013651831651
 30
0.0
 10
50.16134783885309
 20
39.94513139519984
 30
0.0
 10
50.07996586888765
 20
39.79101968380798
 30
0.0
 10
49.87552062117697
 20
39.51961892401249
 30
0.0
 10
49.74981466565953
 20
39.39894158601084
 30
0.0
 10
49.58667435853953
 20
39.28587875077335
 30
0.0
 10
49.56226690253192
 20
39.26994211182165
 30
0.0
 10
49.5374704735272
 20
39.25468492543513
 30
0.0
  0
LINE
  5
214F
330
208C
100
AcDbEntity
  8
Visible Edges(ISO)
100
AcDbLine
 10
-48.94999999613185
 20
39.25467763189118
 30
0.0
 11
-50.66804260592488
 21
39.25467763189118
 31
0.0
  0
LINE
  5
2150
330
208C
100
AcDbEntity
  8
Visible Edges(ISO)
100
AcDbLine
 10
-50.73195738633882
 20
39.25467763189118
 30
0.0
 11
-54.29999999613187
 21
39.25467763189118
 31
0.0
  0
ELLIPSE
  5
2151
330
208C
100
AcDbEntity
  8
Visible Edges(ISO)
100
AcDbEllipse
 10
-25.69999999613299
 20
36.65695841132805
 30
0.0
 11
4.750000000000026
 21
-0.0000000000000001
 31
0.0
210
0.0
220
0.0
230
1.0
 40
0.2181596346561672
 41
4.712388980384121
 42
6.283185307185393
  0
LINE
  5
2152
330
208C
100
AcDbEntity
  8
Visible Edges(ISO)
100
AcDbLine
 10
-54.29999999613449
 20
35.62070014671121
 30
0.0
 11
-25.69999999613435
 21
35.62070014671121
 31
0.0
  0
ELLIPSE
  5
2153
330
208C
100
AcDbEntity
  8
Visible Edges(ISO)
100
AcDbEllipse
 10
-54.29999999613318
 20
36.65695841132805
 30
0.0
 11
-4.750000000000028
 21
0.0000000000000007
 31
0.0
210
0.0
220
0.0
230
1.0
 40
0.2181596346561672
 41
0.0000000000121998
 42
1.570796326800699
  0
ELLIPSE
  5
2154
330
208C
100
AcDbEntity
  8
Visible Edges(ISO)
100
AcDbEllipse
 10
-54.29999999613329
 20
38.21841936727435
 30
0.0
 11
-4.75000000000003
 21
0.0000000000000001
 31
0.0
210
0.0
220
0.0
230
1.0
 40
0.2181596346561672
 41
4.712388980384105
 42
7.853981633973899
  0
ELLIPSE
  5
2155
330
208C
100
AcDbEntity
  8
Visible Edges(ISO)
100
AcDbEllipse
 10
-47.94999999613184
 20
39.25467763189118
 30
0.0
 11
-1.000000000000005
 21
0.0
 31
0.0
210
0.0
220
0.0
230
1.0
 40
0.2181596346561672
 41
0.0000000000121102
 42
1.570796326800686
  0
LINE
  5
2156
330
208C
100
AcDbEntity
  8
Visible Edges(ISO)
100
AcDbLine
 10
-54.29999999613454
 20
37.18216110265763
 30
0.0
 11
-25.69999999613447
 21
37.18216110265763
 31
0.0
  0
ELLIPSE
  5
2157
330
208C
100
AcDbEntity
  8
Visible Edges(ISO)
100
AcDbEllipse
 10
-25.69999999613305
 20
38.21841936727435
 30
0.0
 11
4.75000000000003
 21
-0.0000000000000001
 31
0.0
210
0.0
220
0.0
230
1.0
 40
0.2181596346561672
 41
4.712388980384121
 42
7.853981633973914
  0
LINE
  5
2158
330
208C
100
AcDbEntity
  8
Visible Edges(ISO)
100
AcDbLine
 10
-25.69999999613179
 20
39.25467763189118
 30
0.0
 11
-29.26804260592479
 21
39.25467763189118
 31
0.0
  0
LINE
  5
2159
330
208C
100
AcDbEntity
  8
Visible Edges(ISO)
100
AcDbLine
 10
-29.33195738633867
 20
39.25467763189118
 30
0.0
 11
-31.04999999613176
 21
39.25467763189118
 31
0.0
  0
ELLIPSE
  5
215A
330
208C
100
AcDbEntity
  8
Visible Edges(ISO)
100
AcDbEllipse
 10
-32.04999999613176
 20
39.25467763189118
 30
0.0
 11
1.000000000000005
 21
0.0
 31
0.0
210
0.0
220
0.0
230
1.0
 40
0.2181596346561672
 41
4.712388980384121
 42
6.283185307185342
  0
ELLIPSE
  5
215B
330
208C
100
AcDbEntity
  8
Visible Edges(ISO)
100
AcDbEllipse
 10
-54.29999999613329
 20
38.21841936727435
 30
0.0
 11
-2.05000000000001
 21
0.0
 31
0.0
210
0.0
220
0.0
230
1.0
 40
0.2181596346561671
 41
0.0
 42
6.283185307179584
  0
ELLIPSE
  5
215C
330
208C
100
AcDbEntity
  8
Visible Edges(ISO)
100
AcDbEllipse
 10
-25.69999999613305
 20
38.21841936727435
 30
0.0
 11
-2.05000000000001
 21
0.0
 31
0.0
210
0.0
220
0.0
230
1.0
 40
0.2181596346561671
 41
0.0
 42
6.283185307179584
  0
LINE
  5
215D
330
208C
100
AcDbEntity
  8
Visible Edges(ISO)
100
AcDbLine
 10
-32.04999999613284
 20
44.90966621664386
 30
0.0
 11
-32.04999999613307
 21
44.81331860650999
 31
0.0
  0
LINE
  5
215E
330
208C
100
AcDbEntity
  8
Visible Edges(ISO)
100
AcDbLine
 10
-47.94999999613287
 20
44.90966621664386
 30
0.0
 11
-47.94999999613316
 21
44.81331860650999
 31
0.0
  0
LINE
  5
215F
330
208C
100
AcDbEntity
  8
Visible Edges(ISO)
100
AcDbLine
 10
-47.94999999613281
 20
38.56747478272433
 30
0.0
 11
-47.94999999613236
 21
39.30917527374771
 31
0.0
  0
LINE
  5
2160
330
208C
100
AcDbEntity
  8
Visible Edges(ISO)
100
AcDbLine
 10
-47.94999999613236
 20
42.5091828492483
 30
0.0
 11
-47.94999999613247
 21
42.88098627164811
 31
0.0
  0
LINE
  5
2161
330
208C
100
AcDbEntity
  8
Visible Edges(ISO)
100
AcDbLine
 10
-47.94999999613355
 20
42.88098627164811
 30
0.0
 11
-47.94999999613366
 21
44.44244722759452
 31
0.0
  0
LINE
  5
2162
330
208C
100
AcDbEntity
  8
Visible Edges(ISO)
100
AcDbLine
 10
-47.94999999613366
 20
44.44244722759452
 30
0.0
 11
-47.94999999613316
 21
44.81331860650999
 31
0.0
  0
LINE
  5
2163
330
208C
100
AcDbEntity
  8
Visible Edges(ISO)
100
AcDbLine
 10
-32.04999999613267
 20
38.56747478272433
 30
0.0
 11
-32.04999999613227
 21
39.30917527374771
 31
0.0
  0
LINE
  5
2164
330
208C
100
AcDbEntity
  8
Visible Edges(ISO)
100
AcDbLine
 10
-32.04999999613227
 20
42.5091828492483
 30
0.0
 11
-32.04999999613244
 21
42.88098627164811
 31
0.0
  0
LINE
  5
2165
330
208C
100
AcDbEntity
  8
Visible Edges(ISO)
100
AcDbLine
 10
-32.04999999613352
 20
44.44244722759452
 30
0.0
 11
-32.04999999613296
 21
44.81331860650999
 31
0.0
  0
LINE
  5
2166
330
208C
100
AcDbEntity
  8
Visible Edges(ISO)
100
AcDbLine
 10
-32.04999999613352
 20
42.88098627164811
 30
0.0
 11
-32.04999999613352
 21
44.44244722759452
 31
0.0
  0
LINE
  5
2167
330
208C
100
AcDbEntity
  8
Visible Edges(ISO)
100
AcDbLine
 10
-47.94999999613366
 20
44.44244722759452
 30
0.0
 11
-32.04999999613352
 21
44.44244722759452
 31
0.0
  0
LINE
  5
2168
330
208C
100
AcDbEntity
  8
Visible Edges(ISO)
100
AcDbLine
 10
-47.94999999613355
 20
42.88098627164811
 30
0.0
 11
-32.04999999613352
 21
42.88098627164811
 31
0.0
  0
LINE
  5
2169
330
208C
100
AcDbEntity
  8
Visible Edges(ISO)
100
AcDbLine
 10
-59.04999999613329
 20
38.21841936727435
 30
0.0
 11
-59.04999999613318
 21
36.65695841132805
 31
0.0
  0
LINE
  5
216A
330
208C
100
AcDbEntity
  8
Visible Edges(ISO)
100
AcDbLine
 10
-20.9499999961331
 20
38.21841936727435
 30
0.0
 11
-20.94999999613287
 21
36.65695841132805
 31
0.0
  0
LINE
  5
216B
330
208C
100
AcDbEntity
  8
Visible Edges(ISO)
100
AcDbLine
 10
-47.94999999613287
 20
44.90966621664386
 30
0.0
 11
-32.04999999613284
 21
44.90966621664386
 31
0.0
  0
LINE
  5
216C
330
208C
100
AcDbEntity
  8
Visible Edges(ISO)
100
AcDbLine
 10
29.05000000386815
 20
39.25467763189118
 30
0.0
 11
27.33195739407506
 21
39.25467763189118
 31
0.0
  0
LINE
  5
216D
330
208C
100
AcDbEntity
  8
Visible Edges(ISO)
100
AcDbLine
 10
27.26804261366118
 20
39.25467763189118
 30
0.0
 11
23.70000000386813
 21
39.25467763189118
 31
0.0
  0
ELLIPSE
  5
216E
330
208C
100
AcDbEntity
  8
Visible Edges(ISO)
100
AcDbEllipse
 10
52.3000000038669
 20
36.65695841132805
 30
0.0
 11
4.750000000000026
 21
-0.0000000000000001
 31
0.0
210
0.0
220
0.0
230
1.0
 40
0.2181596346561672
 41
4.712388980384121
 42
6.283185307185393
  0
LINE
  5
216F
330
208C
100
AcDbEntity
  8
Visible Edges(ISO)
100
AcDbLine
 10
23.70000000386546
 20
35.62070014671121
 30
0.0
 11
52.30000000386564
 21
35.62070014671121
 31
0.0
  0
ELLIPSE
  5
2170
330
208C
100
AcDbEntity
  8
Visible Edges(ISO)
100
AcDbEllipse
 10
23.70000000386682
 20
36.65695841132805
 30
0.0
 11
-4.750000000000028
 21
0.0000000000000007
 31
0.0
210
0.0
220
0.0
230
1.0
 40
0.2181596346561672
 41
0.0000000000121998
 42
1.570796326800715
  0
ELLIPSE
  5
2171
330
208C
100
AcDbEntity
  8
Visible Edges(ISO)
100
AcDbEllipse
 10
23.70000000386671
 20
38.21841936727435
 30
0.0
 11
-4.75000000000003
 21
0.0000000000000001
 31
0.0
210
0.0
220
0.0
230
1.0
 40
0.2181596346561672
 41
4.712388980384121
 42
7.853981633973914
  0
ELLIPSE
  5
2172
330
208C
100
AcDbEntity
  8
Visible Edges(ISO)
100
AcDbEllipse
 10
30.05000000386815
 20
39.25467763189118
 30
0.0
 11
-1.000000000000005
 21
0.0
 31
0.0
210
0.0
220
0.0
230
1.0
 40
0.2181596346561672
 41
0.0000000000121102
 42
1.570796326800723
  0
LINE
  5
2173
330
208C
100
AcDbEntity
  8
Visible Edges(ISO)
100
AcDbLine
 10
23.70000000386534
 20
37.18216110265763
 30
0.0
 11
52.30000000386548
 21
37.18216110265763
 31
0.0
  0
ELLIPSE
  5
2174
330
208C
100
AcDbEntity
  8
Visible Edges(ISO)
100
AcDbEllipse
 10
52.30000000386684
 20
38.21841936727435
 30
0.0
 11
4.75000000000003
 21
-0.0000000000000001
 31
0.0
210
0.0
220
0.0
230
1.0
 40
0.2181596346561672
 41
4.712388980384121
 42
7.853981633973914
  0
LINE
  5
2175
330
208C
100
AcDbEntity
  8
Visible Edges(ISO)
100
AcDbLine
 10
52.3000000038682
 20
39.25467763189118
 30
0.0
 11
48.7319573940752
 21
39.25467763189118
 31
0.0
  0
LINE
  5
2176
330
208C
100
AcDbEntity
  8
Visible Edges(ISO)
100
AcDbLine
 10
48.66804261366133
 20
39.25467763189118
 30
0.0
 11
46.95000000386824
 21
39.25467763189118
 31
0.0
  0
ELLIPSE
  5
2177
330
208C
100
AcDbEntity
  8
Visible Edges(ISO)
100
AcDbEllipse
 10
45.95000000386812
 20
39.25467763189118
 30
0.0
 11
1.000000000000005
 21
0.0
 31
0.0
210
0.0
220
0.0
230
1.0
 40
0.2181596346561672
 41
4.712388980384121
 42
6.283185307185342
  0
ELLIPSE
  5
2178
330
208C
100
AcDbEntity
  8
Visible Edges(ISO)
100
AcDbEllipse
 10
23.70000000386671
 20
38.21841936727435
 30
0.0
 11
-2.05000000000001
 21
0.0
 31
0.0
210
0.0
220
0.0
230
1.0
 40
0.2181596346561671
 41
0.0
 42
6.283185307179584
  0
ELLIPSE
  5
2179
330
208C
100
AcDbEntity
  8
Visible Edges(ISO)
100
AcDbEllipse
 10
52.30000000386684
 20
38.21841936727435
 30
0.0
 11
-2.05000000000001
 21
0.0
 31
0.0
210
0.0
220
0.0
230
1.0
 40
0.2181596346561671
 41
0.0
 42
6.283185307179584
  0
LINE
  5
217A
330
208C
100
AcDbEntity
  8
Visible Edges(ISO)
100
AcDbLine
 10
45.95000000386716
 20
44.90966621664386
 30
0.0
 11
45.95000000386682
 21
44.81331860650999
 31
0.0
  0
LINE
  5
217B
330
208C
100
AcDbEntity
  8
Visible Edges(ISO)
100
AcDbLine
 10
30.05000000386701
 20
44.90966621664386
 30
0.0
 11
30.05000000386684
 21
44.81331860650999
 31
0.0
  0
LINE
  5
217C
330
208C
100
AcDbEntity
  8
Visible Edges(ISO)
100
AcDbLine
 10
30.05000000386724
 20
38.56747478272433
 30
0.0
 11
30.05000000386758
 21
39.30917527374771
 31
0.0
  0
LINE
  5
217D
330
208C
100
AcDbEntity
  8
Visible Edges(ISO)
100
AcDbLine
 10
30.05000000386753
 20
42.5091828492483
 30
0.0
 11
30.05000000386747
 21
42.88098627164811
 31
0.0
  0
LINE
  5
217E
330
208C
100
AcDbEntity
  8
Visible Edges(ISO)
100
AcDbLine
 10
30.05000000386644
 20
42.88098627164811
 30
0.0
 11
30.05000000386633
 21
44.44244722759452
 31
0.0
  0
LINE
  5
217F
330
208C
100
AcDbEntity
  8
Visible Edges(ISO)
100
AcDbLine
 10
30.05000000386633
 20
44.44244722759452
 30
0.0
 11
30.05000000386684
 21
44.81331860650999
 31
0.0
  0
LINE
  5
2180
330
208C
100
AcDbEntity
  8
Visible Edges(ISO)
100
AcDbLine
 10
45.95000000386721
 20
38.56747478272433
 30
0.0
 11
45.95000000386767
 21
39.30917527374771
 31
0.0
  0
LINE
  5
2181
330
208C
100
AcDbEntity
  8
Visible Edges(ISO)
100
AcDbLine
 10
45.95000000386761
 20
42.5091828492483
 30
0.0
 11
45.95000000386744
 21
42.88098627164811
 31
0.0
  0
LINE
  5
2182
330
208C
100
AcDbEntity
  8
Visible Edges(ISO)
100
AcDbLine
 10
45.95000000386647
 20
44.44244722759452
 30
0.0
 11
45.95000000386693
 21
44.81331860650999
 31
0.0
  0
LINE
  5
2183
330
208C
100
AcDbEntity
  8
Visible Edges(ISO)
100
AcDbLine
 10
45.95000000386647
 20
42.88098627164811
 30
0.0
 11
45.95000000386647
 21
44.44244722759452
 31
0.0
  0
LINE
  5
2184
330
208C
100
AcDbEntity
  8
Visible Edges(ISO)
100
AcDbLine
 10
30.05000000386633
 20
44.44244722759452
 30
0.0
 11
45.95000000386647
 21
44.44244722759452
 31
0.0
  0
LINE
  5
2185
330
208C
100
AcDbEntity
  8
Visible Edges(ISO)
100
AcDbLine
 10
30.05000000386644
 20
42.88098627164811
 30
0.0
 11
45.95000000386647
 21
42.88098627164811
 31
0.0
  0
LINE
  5
2186
330
208C
100
AcDbEntity
  8
Visible Edges(ISO)
100
AcDbLine
 10
18.9500000038667
 20
38.21841936727435
 30
0.0
 11
18.95000000386682
 21
36.65695841132805
 31
0.0
  0
LINE
  5
2187
330
208C
100
AcDbEntity
  8
Visible Edges(ISO)
100
AcDbLine
 10
57.05000000386689
 20
38.21841936727435
 30
0.0
 11
57.05000000386701
 21
36.65695841132805
 31
0.0
  0
LINE
  5
2188
330
208C
100
AcDbEntity
  8
Visible Edges(ISO)
100
AcDbLine
 10
30.05000000386701
 20
44.90966621664386
 30
0.0
 11
45.95000000386716
 21
44.90966621664386
 31
0.0
  0
LINE
  5
2189
330
208C
100
AcDbEntity
  8
Visible Edges(ISO)
100
AcDbLine
 10
-31.84999999612813
 20
42.6415154664553
 30
0.0
 11
-31.84999999612813
 21
46.74151546645538
 31
0.0
  0
ARC
  5
218A
330
208C
100
AcDbEntity
  8
Visible Edges(ISO)
100
AcDbCircle
 10
-43.67417672400551
 20
44.69151546645531
 30
0.0
 40
5.000000000000047
100
AcDbArc
 50
146.6329870307672
 51
205.8863246654194
  0
LINE
  5
218B
330
208C
100
AcDbEntity
  8
Visible Edges(ISO)
100
AcDbLine
 10
-46.24999999612817
 20
46.24151546645532
 30
0.0
 11
-46.04999999612807
 21
46.24151546645532
 31
0.0
  0
LINE
  5
218C
330
208C
100
AcDbEntity
  8
Visible Edges(ISO)
100
AcDbLine
 10
-44.44999999612815
 20
46.24151546645532
 30
0.0
 11
-35.54999999612807
 21
46.24151546645532
 31
0.0
  0
LINE
  5
218D
330
208C
100
AcDbEntity
  8
Visible Edges(ISO)
100
AcDbLine
 10
-33.94999999612816
 20
46.24151546645532
 30
0.0
 11
-33.74999999612817
 21
46.24151546645532
 31
0.0
  0
LINE
  5
218E
330
208C
100
AcDbEntity
  8
Visible Edges(ISO)
100
AcDbLine
 10
-32.14999999612832
 20
46.24151546645532
 30
0.0
 11
-31.84999999612813
 21
46.24151546645532
 31
0.0
  0
LINE
  5
218F
330
208C
100
AcDbEntity
  8
Visible Edges(ISO)
100
AcDbLine
 10
-32.04999999612818
 20
43.1415154664553
 30
0.0
 11
-31.84999999612813
 21
43.1415154664553
 31
0.0
  0
ARC
  5
2190
330
208C
100
AcDbEntity
  8
Visible Edges(ISO)
100
AcDbCircle
 10
-31.84999999612813
 20
43.1415154664553
 30
0.0
 40
0.5000000000000072
100
AcDbArc
 50
270.0
 51
0.0
  0
ARC
  5
2191
330
208C
100
AcDbEntity
  8
Visible Edges(ISO)
100
AcDbCircle
 10
-31.84999999612813
 20
46.24151546645532
 30
0.0
 40
0.5000000000000072
100
AcDbArc
 50
0.0
 51
90.0
  0
LINE
  5
2192
330
208C
100
AcDbEntity
  8
Visible Edges(ISO)
100
AcDbLine
 10
-31.34999999612813
 20
43.1415154664553
 30
0.0
 11
-31.34999999612813
 21
46.24151546645532
 31
0.0
  0
LINE
  5
2193
330
208C
100
AcDbEntity
  8
Visible Edges(ISO)
100
AcDbLine
 10
46.15000000387181
 20
42.6415154664553
 30
0.0
 11
46.15000000387181
 21
46.74151546645538
 31
0.0
  0
ARC
  5
2194
330
208C
100
AcDbEntity
  8
Visible Edges(ISO)
100
AcDbCircle
 10
34.32582327599431
 20
44.69151546645531
 30
0.0
 40
5.000000000000047
100
AcDbArc
 50
146.6329870307672
 51
205.8863246654194
  0
LINE
  5
2195
330
208C
100
AcDbEntity
  8
Visible Edges(ISO)
100
AcDbLine
 10
31.75000000387178
 20
46.24151546645532
 30
0.0
 11
31.95000000387182
 21
46.24151546645532
 31
0.0
  0
LINE
  5
2196
330
208C
100
AcDbEntity
  8
Visible Edges(ISO)
100
AcDbLine
 10
33.55000000387173
 20
46.24151546645532
 30
0.0
 11
42.45000000387181
 21
46.24151546645532
 31
0.0
  0
LINE
  5
2197
330
208C
100
AcDbEntity
  8
Visible Edges(ISO)
100
AcDbLine
 10
44.05000000387173
 20
46.24151546645532
 30
0.0
 11
44.25000000387166
 21
46.24151546645532
 31
0.0
  0
LINE
  5
2198
330
208C
100
AcDbEntity
  8
Visible Edges(ISO)
100
AcDbLine
 10
45.85000000387174
 20
46.24151546645532
 30
0.0
 11
46.15000000387181
 21
46.24151546645532
 31
0.0
  0
LINE
  5
2199
330
208C
100
AcDbEntity
  8
Visible Edges(ISO)
100
AcDbLine
 10
45.95000000387182
 20
43.1415154664553
 30
0.0
 11
46.15000000387181
 21
43.14151546645518
 31
0.0
  0
ARC
  5
219A
330
208C
100
AcDbEntity
  8
Visible Edges(ISO)
100
AcDbCircle
 10
46.15000000387181
 20
43.14151546645518
 30
0.0
 40
0.5000000000000072
100
AcDbArc
 50
270.0
 51
0.0
  0
ARC
  5
219B
330
208C
100
AcDbEntity
  8
Visible Edges(ISO)
100
AcDbCircle
 10
46.15000000387181
 20
46.24151546645532
 30
0.0
 40
0.5000000000000072
100
AcDbArc
 50
0.0
 51
90.0
  0
LINE
  5
219C
330
208C
100
AcDbEntity
  8
Visible Edges(ISO)
100
AcDbLine
 10
46.65000000387175
 20
43.1415154664553
 30
0.0
 11
46.65000000387175
 21
46.24151546645532
 31
0.0
  0
LINE
  5
219D
330
208C
100
AcDbEntity
  8
Visible Edges(ISO)
100
AcDbLine
 10
-46.24999999612902
 20
46.44094435742454
 30
0.0
 11
-46.24999999612834
 21
48.02239398631769
 31
0.0
  0
LINE
  5
219E
330
208C
100
AcDbEntity
  8
Visible Edges(ISO)
100
AcDbLine
 10
-47.8499999961283
 20
48.02239398631769
 30
0.0
 11
-47.84999999612899
 21
46.44094435742454
 31
0.0
  0
LINE
  5
219F
330
208C
100
AcDbEntity
  8
Visible Edges(ISO)
100
AcDbLine
 10
-46.24999999612902
 20
46.44094435742454
 30
0.0
 11
-46.24999999612919
 21
44.90966621664386
 31
0.0
  0
LINE
  5
21A0
330
208C
100
AcDbEntity
  8
Visible Edges(ISO)
100
AcDbLine
 10
-47.84999999612899
 20
46.44094435742466
 30
0.0
 11
-47.84999999612904
 21
44.90966621664386
 31
0.0
  0
SPLINE
  5
21A1
330
208C
100
AcDbEntity
  8
Visible Edges(ISO)
100
AcDbSpline
210
0.0
220
0.0
230
1.0
 70
     8
 71
     3
 72
    18
 73
    14
 74
     0
 42
0.0000000001
 43
0.0000000001
 40
-0.2268318577318744
 40
-0.2268318577318744
 40
-0.2268318577318744
 40
-0.2268318577318744
 40
-0.2161308797569122
 40
-0.2161308797569122
 40
-0.2017239574910138
 40
-0.2017239574910138
 40
-0.1884812694400794
 40
-0.1884812694400794
 40
-0.175238581389145
 40
-0.175238581389145
 40
-0.1619807948949765
 40
-0.1619807948949765
 40
-0.1502662987162917
 40
-0.1502662987162917
 40
-0.1502662987162917
 40
-0.1502662987162917
 10
-46.07449980085351
 20
46.74551715080087
 30
0.0
 10
-46.09764189961867
 20
46.7183457742833
 30
0.0
 10
-46.11968837257331
 20
46.6893083973336
 30
0.0
 10
-46.16489798756117
 20
46.62226687965523
 30
0.0
 10
-46.18571718373613
 20
46.58471567418655
 30
0.0
 10
-46.21454401699367
 20
46.52446366582336
 30
0.0
 10
-46.22547144714099
 20
46.49652549446813
 30
0.0
 10
-46.24016196819503
 20
46.45244917520801
 30
0.0
 10
-46.24413824434197
 20
46.43635953590297
 30
0.0
 10
-46.24860893505155
 20
46.41788909612285
 30
0.0
 10
-46.24944468773196
 20
46.41395368915488
 30
0.0
 10
-46.25004697091833
 20
46.42010690000313
 30
0.0
 10
-46.25001412732086
 20
46.42861611384387
 30
0.0
 10
-46.25000265249747
 20
46.4409558598374
 30
0.0
  0
ELLIPSE
  5
21A2
330
208C
100
AcDbEntity
  8
Visible Edges(ISO)
100
AcDbEllipse
 10
-45.44999999612679
 20
46.27549686782936
 30
0.0
 11
-2.400000003814954
 21
-0.000000000001976
 31
0.0
210
0.0
220
0.0
230
1.0
 40
0.9400405659428772
 41
4.767845863706137
 42
5.397576471752927
  0
ELLIPSE
  5
21A3
330
208C
100
AcDbEntity
  8
Visible Edges(ISO)
100
AcDbEllipse
 10
-45.44999999612855
 20
46.27549686783083
 30
0.0
 11
-0.8000000038125667
 21
-0.0000000000006584
 31
0.0
210
0.0
220
0.0
230
1.0
 40
0.940040565942877
 41
5.56045105395797
 42
5.608053778059735
  0
ELLIPSE
  5
21A4
330
208C
100
AcDbEntity
  8
Visible Edges(ISO)
100
AcDbEllipse
 10
-34.54999999612676
 20
46.27549686782936
 30
0.0
 11
-2.400000003814961
 21
-0.0000000000022095
 31
0.0
210
0.0
220
0.0
230
1.0
 40
0.9400405659428772
 41
4.02720148901458
 42
4.656932097061391
  0
SPLINE
  5
21A5
330
208C
100
AcDbEntity
  8
Visible Edges(ISO)
100
AcDbSpline
210
0.0
220
0.0
230
1.0
 70
     8
 71
     3
 72
    16
 73
    12
 74
     0
 42
0.0000000001
 43
0.0000000001
 40
0.3000006640377484
 40
0.3000006640377484
 40
0.3000006640377484
 40
0.3000006640377484
 40
0.3168544923014624
 40
0.3168544923014624
 40
0.335257438310785
 40
0.335257438310785
 40
0.3513102044179778
 40
0.3513102044179778
 40
0.364937644404936
 40
0.364937644404936
 40
0.3768352607540017
 40
0.3768352607540017
 40
0.3768352607540017
 40
0.3768352607540017
 10
-33.74999498026301
 20
46.440956282103
 30
0.0
 10
-33.74996225374201
 20
46.42333764114783
 30
0.0
 10
-33.74981068029735
 20
46.41423287508632
 30
0.0
 10
-33.75193873807257
 20
46.41870176538112
 30
0.0
 10
-33.75481695411782
 20
46.43444389132532
 30
0.0
 10
-33.76885091147654
 20
46.48076031620019
 30
0.0
 10
-33.78149442313463
 20
46.51581090012115
 30
0.0
 10
-33.81191312068251
 20
46.58005263987781
 30
0.0
 10
-33.83112871586127
 20
46.61532359194672
 30
0.0
 10
-33.87583235852179
 20
46.68336461282564
 30
0.0
 10
-33.90020079118483
 20
46.71581286443148
 30
0.0
 10
-33.92550019139986
 20
46.74551715080087
 30
0.0
  0
ELLIPSE
  5
21A6
330
208C
100
AcDbEntity
  8
Visible Edges(ISO)
100
AcDbEllipse
 10
-34.54999999612585
 20
46.27549686783015
 30
0.0
 11
-0.8000000038137269
 21
-0.0000000000007352
 31
0.0
210
0.0
220
0.0
230
1.0
 40
0.9400405659428772
 41
3.816724182707826
 42
3.864326906809457
  0
LINE
  5
21A7
330
208C
100
AcDbEntity
  8
Visible Edges(ISO)
100
AcDbLine
 10
-32.14999999612905
 20
46.44094435742454
 30
0.0
 11
-32.14999999612837
 21
48.02239398631769
 31
0.0
  0
LINE
  5
21A8
330
208C
100
AcDbEntity
  8
Visible Edges(ISO)
100
AcDbLine
 10
-32.14999999612917
 20
44.90966621664386
 30
0.0
 11
-32.14999999612905
 21
46.44094435742454
 31
0.0
  0
LINE
  5
21A9
330
208C
100
AcDbEntity
  8
Visible Edges(ISO)
100
AcDbLine
 10
-33.74999999612919
 20
44.90966621664386
 30
0.0
 11
-33.74999999612902
 21
46.44094435742454
 31
0.0
  0
LINE
  5
21AA
330
208C
100
AcDbEntity
  8
Visible Edges(ISO)
100
AcDbLine
 10
-33.74999999612834
 20
48.02239398631769
 30
0.0
 11
-33.74999999612902
 21
46.44094435742454
 31
0.0
  0
LINE
  5
21AB
330
208C
100
AcDbEntity
  8
Visible Edges(ISO)
100
AcDbLine
 10
-46.24999999612834
 20
48.02239398631769
 30
0.0
 11
-47.8499999961283
 21
48.02239398631769
 31
0.0
  0
LINE
  5
21AC
330
208C
100
AcDbEntity
  8
Visible Edges(ISO)
100
AcDbLine
 10
-33.74999999612834
 20
48.02239398631769
 30
0.0
 11
-32.14999999612837
 21
48.02239398631769
 31
0.0
  0
LINE
  5
21AD
330
208C
100
AcDbEntity
  8
Visible Edges(ISO)
100
AcDbLine
 10
31.75000000387104
 20
46.44094435742454
 30
0.0
 11
31.75000000387167
 21
48.02239398631769
 31
0.0
  0
LINE
  5
21AE
330
208C
100
AcDbEntity
  8
Visible Edges(ISO)
100
AcDbLine
 10
30.15000000387164
 20
48.02239398631769
 30
0.0
 11
30.15000000387102
 21
46.44094435742454
 31
0.0
  0
LINE
  5
21AF
330
208C
100
AcDbEntity
  8
Visible Edges(ISO)
100
AcDbLine
 10
31.75000000387104
 20
46.44094435742454
 30
0.0
 11
31.75000000387098
 21
44.90966621664386
 31
0.0
  0
LINE
  5
21B0
330
208C
100
AcDbEntity
  8
Visible Edges(ISO)
100
AcDbLine
 10
30.15000000387102
 20
46.44094435742466
 30
0.0
 11
30.15000000387079
 21
44.90966621664386
 31
0.0
  0
SPLINE
  5
21B1
330
208C
100
AcDbEntity
  8
Visible Edges(ISO)
100
AcDbSpline
210
0.0
220
0.0
230
1.0
 70
     8
 71
     3
 72
    18
 73
    14
 74
     0
 42
0.0000000001
 43
0.0000000001
 40
-0.2268318577318744
 40
-0.2268318577318744
 40
-0.2268318577318744
 40
-0.2268318577318744
 40
-0.2161308797569122
 40
-0.2161308797569122
 40
-0.2017239574910138
 40
-0.2017239574910138
 40
-0.1884812694400794
 40
-0.1884812694400794
 40
-0.175238581389145
 40
-0.175238581389145
 40
-0.1619807948949765
 40
-0.1619807948949765
 40
-0.1502662987162917
 40
-0.1502662987162917
 40
-0.1502662987162917
 40
-0.1502662987162917
 10
31.92550019914648
 20
46.74551715080087
 30
0.0
 10
31.90235810038121
 20
46.7183457742833
 30
0.0
 10
31.8803116274267
 20
46.6893083973336
 30
0.0
 10
31.83510201243894
 20
46.62226687965523
 30
0.0
 10
31.8142828162637
 20
46.58471567418655
 30
0.0
 10
31.78545598300633
 20
46.52446366582336
 30
0.0
 10
31.77452855285896
 20
46.49652549446813
 30
0.0
 10
31.75983803180498
 20
46.45244917520801
 30
0.0
 10
31.75586175565797
 20
46.43635953590297
 30
0.0
 10
31.75139106494845
 20
46.41788909612285
 30
0.0
 10
31.75055531226803
 20
46.41395368915488
 30
0.0
 10
31.74995302908184
 20
46.42010690000313
 30
0.0
 10
31.74998587267919
 20
46.42861611384387
 30
0.0
 10
31.74999734750247
 20
46.4409558598374
 30
0.0
  0
ELLIPSE
  5
21B2
330
208C
100
AcDbEntity
  8
Visible Edges(ISO)
100
AcDbEllipse
 10
32.55000000387315
 20
46.27549686782936
 30
0.0
 11
-2.40000000381493
 21
-0.0000000000019757
 31
0.0
210
0.0
220
0.0
230
1.0
 40
0.9400405659428772
 41
4.767845863706137
 42
5.397576471752948
  0
ELLIPSE
  5
21B3
330
208C
100
AcDbEntity
  8
Visible Edges(ISO)
100
AcDbEllipse
 10
32.55000000387145
 20
46.27549686783083
 30
0.0
 11
-0.8000000038125667
 21
-0.0000000000006584
 31
0.0
210
0.0
220
0.0
230
1.0
 40
0.940040565942877
 41
5.56045105395797
 42
5.608053778059735
  0
ELLIPSE
  5
21B4
330
208C
100
AcDbEntity
  8
Visible Edges(ISO)
100
AcDbEllipse
 10
43.45000000387318
 20
46.27549686782936
 30
0.0
 11
-2.400000003814961
 21
-0.0000000000022095
 31
0.0
210
0.0
220
0.0
230
1.0
 40
0.9400405659428772
 41
4.02720148901458
 42
4.656932097061391
  0
SPLINE
  5
21B5
330
208C
100
AcDbEntity
  8
Visible Edges(ISO)
100
AcDbSpline
210
0.0
220
0.0
230
1.0
 70
     8
 71
     3
 72
    16
 73
    12
 74
     0
 42
0.0000000001
 43
0.0000000001
 40
0.3000006640377484
 40
0.3000006640377484
 40
0.3000006640377484
 40
0.3000006640377484
 40
0.3168544923014624
 40
0.3168544923014624
 40
0.335257438310785
 40
0.335257438310785
 40
0.3513102044179778
 40
0.3513102044179778
 40
0.364937644404936
 40
0.364937644404936
 40
0.3768352607540017
 40
0.3768352607540017
 40
0.3768352607540017
 40
0.3768352607540017
 10
44.25000501973705
 20
46.440956282103
 30
0.0
 10
44.25003774625781
 20
46.42333764114783
 30
0.0
 10
44.25018931970249
 20
46.41423287508632
 30
0.0
 10
44.24806126192732
 20
46.41870176538112
 30
0.0
 10
44.24518304588213
 20
46.43444389132532
 30
0.0
 10
44.23114908852329
 20
46.48076031620019
 30
0.0
 10
44.2185055768652
 20
46.51581090012115
 30
0.0
 10
44.1880868793175
 20
46.58005263987781
 30
0.0
 10
44.16887128413867
 20
46.61532359194672
 30
0.0
 10
44.1241676414782
 20
46.68336461282564
 30
0.0
 10
44.09979920881506
 20
46.71581286443148
 30
0.0
 10
44.07449980860002
 20
46.74551715080087
 30
0.0
  0
ELLIPSE
  5
21B6
330
208C
100
AcDbEntity
  8
Visible Edges(ISO)
100
AcDbEllipse
 10
43.4500000038725
 20
46.27549686782879
 30
0.0
 11
-0.8000000038158841
 21
-0.0000000000007366
 31
0.0
210
0.0
220
0.0
230
1.0
 40
0.940040565942877
 41
3.816724182707817
 42
3.864326906809321
  0
LINE
  5
21B7
330
208C
100
AcDbEntity
  8
Visible Edges(ISO)
100
AcDbLine
 10
45.85000000387094
 20
46.44094435742454
 30
0.0
 11
45.85000000387151
 21
48.02239398631769
 31
0.0
  0
LINE
  5
21B8
330
208C
100
AcDbEntity
  8
Visible Edges(ISO)
100
AcDbLine
 10
45.85000000387071
 20
44.90966621664386
 30
0.0
 11
45.85000000387094
 21
46.44094435742454
 31
0.0
  0
LINE
  5
21B9
330
208C
100
AcDbEntity
  8
Visible Edges(ISO)
100
AcDbLine
 10
44.25000000387081
 20
44.90966621664386
 30
0.0
 11
44.25000000387098
 21
46.44094435742454
 31
0.0
  0
LINE
  5
21BA
330
208C
100
AcDbEntity
  8
Visible Edges(ISO)
100
AcDbLine
 10
44.25000000387166
 20
48.02239398631769
 30
0.0
 11
44.25000000387098
 21
46.44094435742454
 31
0.0
  0
LINE
  5
21BB
330
208C
100
AcDbEntity
  8
Visible Edges(ISO)
100
AcDbLine
 10
31.75000000387167
 20
48.02239398631769
 30
0.0
 11
30.15000000387164
 21
48.02239398631769
 31
0.0
  0
LINE
  5
21BC
330
208C
100
AcDbEntity
  8
Visible Edges(ISO)
100
AcDbLine
 10
44.25000000387166
 20
48.02239398631769
 30
0.0
 11
45.85000000387151
 21
48.02239398631769
 31
0.0
  0
LINE
  5
21BD
330
208C
100
AcDbEntity
  8
Visible Edges(ISO)
100
AcDbLine
 10
-36.04999999612881
 20
49.26106605525319
 30
0.0
 11
-43.94999999612866
 21
49.26106605525319
 31
0.0
  0
LINE
  5
21BE
330
208C
100
AcDbEntity
  8
Visible Edges(ISO)
100
AcDbLine
 10
-36.04999999612898
 20
47.75700114974461
 30
0.0
 11
-43.94999999612884
 21
47.75700114974461
 31
0.0
  0
ELLIPSE
  5
21BF
330
208C
100
AcDbEntity
  8
Visible Edges(ISO)
100
AcDbEllipse
 10
-43.94999999612884
 20
47.2869808667732
 30
0.0
 11
-2.099999999999992
 21
-0.0000000000000011
 31
0.0
210
0.0
220
0.0
230
1.0
 40
0.9400405659428775
 41
4.712388980384485
 42
6.283185307179588
  0
ELLIPSE
  5
21C0
330
208C
100
AcDbEntity
  8
Visible Edges(ISO)
100
AcDbEllipse
 10
-43.94999999612884
 20
47.2869808667732
 30
0.0
 11
-0.4999999999999976
 21
0.000000000000001
 31
0.0
210
0.0
220
0.0
230
1.0
 40
0.9400405659428775
 41
4.712388980384407
 42
6.283185307179548
  0
ELLIPSE
  5
21C1
330
208C
100
AcDbEntity
  8
Visible Edges(ISO)
100
AcDbEllipse
 10
-36.04999999612898
 20
47.2869808667732
 30
0.0
 11
2.099999999999992
 21
-0.000000000000001
 31
0.0
210
0.0
220
0.0
230
1.0
 40
0.9400405659428775
 41
0.0000000000002222
 42
1.570796326794897
  0
ELLIPSE
  5
21C2
330
208C
100
AcDbEntity
  8
Visible Edges(ISO)
100
AcDbEllipse
 10
-36.04999999612898
 20
47.2869808667732
 30
0.0
 11
0.4999999999999976
 21
-0.000000000000001
 31
0.0
210
0.0
220
0.0
230
1.0
 40
0.9400405659428775
 41
0.0000000000002673
 42
1.570796326794898
  0
SPLINE
  5
21C3
330
208C
100
AcDbEntity
  8
Visible Edges(ISO)
100
AcDbSpline
210
0.0
220
0.0
230
1.0
 70
     8
 71
     3
 72
    14
 73
    10
 74
     0
 42
0.0000000001
 43
0.0000000001
 40
0.0458042681856744
 40
0.0458042681856744
 40
0.0458042681856744
 40
0.0458042681856744
 40
0.0585875600170131
 40
0.0585875600170131
 40
0.073041044602065
 40
0.073041044602065
 40
0.0945060823934307
 40
0.0945060823934307
 40
0.1161010670067831
 40
0.1161010670067831
 40
0.1161010670067831
 40
0.1161010670067831
 10
-35.55914091734201
 20
46.24151554102417
 30
0.0
 10
-35.55976254382688
 20
46.25908780210983
 30
0.0
 10
-35.56010533627028
 20
46.27523392185213
 30
0.0
 10
-35.56009827534121
 20
46.3062801688161
 30
0.0
 10
-35.55966054312518
 20
46.32092761255449
 30
0.0
 10
-35.55765298566229
 20
46.35251117842801
 30
0.0
 10
-35.55562815292501
 20
46.3668074129074
 30
0.0
 10
-35.55179347392908
 20
46.38621721688571
 30
0.0
 10
-35.54999999612829
 20
46.39126039855528
 30
0.0
 10
-35.54999999612829
 20
46.39150595055435
 30
0.0
  0
SPLINE
  5
21C4
330
208C
100
AcDbEntity
  8
Visible Edges(ISO)
100
AcDbSpline
210
0.0
220
0.0
230
1.0
 70
     8
 71
     3
 72
    14
 73
    10
 74
     0
 42
0.0000000001
 43
0.0000000001
 40
0.0
 40
0.0
 40
0.0
 40
0.0
 40
0.0219985935332422
 40
0.0219985935332422
 40
0.0439655821689672
 40
0.0439655821689672
 40
0.0586635947703901
 40
0.0586635947703901
 40
0.0713868340795229
 40
0.0713868340795229
 40
0.0713868340795229
 40
0.0713868340795229
 10
-44.44999999612815
 20
46.39150595055435
 30
0.0
 10
-44.44999999612815
 20
46.39126059915071
 30
0.0
 10
-44.44820851938778
 20
46.38621851154335
 30
0.0
 10
-44.44436806046633
 20
46.36679312994215
 30
0.0
 10
-44.44233867586336
 20
46.35244626734549
 30
0.0
 10
-44.4403366004725
 20
46.3208090520639
 30
0.0
 10
-44.43989437766885
 20
46.30609725012163
 30
0.0
 10
-44.43990107418431
 20
46.27490161827864
 30
0.0
 10
-44.44023731838405
 20
46.25895080300165
 30
0.0
 10
-44.44085364873148
 20
46.24151555123211
 30
0.0
  0
LINE
  5
21C5
330
208C
100
AcDbEntity
  8
Visible Edges(ISO)
100
AcDbLine
 10
-46.04999999612886
 20
47.2869808667732
 30
0.0
 11
-46.0499999961292
 21
44.90966621664398
 31
0.0
  0
LINE
  5
21C6
330
208C
100
AcDbEntity
  8
Visible Edges(ISO)
100
AcDbLine
 10
-44.44999999612901
 20
47.2869808667732
 30
0.0
 11
-44.44999999612917
 21
44.90966621664398
 31
0.0
  0
LINE
  5
21C7
330
208C
100
AcDbEntity
  8
Visible Edges(ISO)
100
AcDbLine
 10
-33.94999999612918
 20
44.90966621664398
 30
0.0
 11
-33.94999999612901
 21
47.2869808667732
 31
0.0
  0
LINE
  5
21C8
330
208C
100
AcDbEntity
  8
Visible Edges(ISO)
100
AcDbLine
 10
-35.5499999961292
 20
44.90966621664398
 30
0.0
 11
-35.54999999612886
 21
47.2869808667732
 31
0.0
  0
LINE
  5
21C9
330
208C
100
AcDbEntity
  8
Visible Edges(ISO)
100
AcDbLine
 10
-49.31564668758966
 20
39.30092115263318
 30
0.0
 11
-49.42941734137554
 21
39.25467763189118
 31
0.0
  0
LINE
  5
21CA
330
208C
100
AcDbEntity
  8
Visible Edges(ISO)
100
AcDbLine
 10
-30.57058265088256
 20
39.25467763189118
 30
0.0
 11
-30.68435330466849
 21
39.30092115263318
 31
0.0
  0
LINE
  5
21CB
330
208C
100
AcDbEntity
  8
Visible Edges(ISO)
100
AcDbLine
 10
41.95000000387119
 20
49.26106605525319
 30
0.0
 11
34.05000000387133
 21
49.26106605525319
 31
0.0
  0
LINE
  5
21CC
330
208C
100
AcDbEntity
  8
Visible Edges(ISO)
100
AcDbLine
 10
41.95000000387113
 20
47.75700114974461
 30
0.0
 11
34.05000000387111
 21
47.75700114974461
 31
0.0
  0
ELLIPSE
  5
21CD
330
208C
100
AcDbEntity
  8
Visible Edges(ISO)
100
AcDbEllipse
 10
34.05000000387111
 20
47.2869808667732
 30
0.0
 11
-2.099999999999992
 21
-0.0000000000000011
 31
0.0
210
0.0
220
0.0
230
1.0
 40
0.9400405659428775
 41
4.712388980384485
 42
6.283185307179588
  0
ELLIPSE
  5
21CE
330
208C
100
AcDbEntity
  8
Visible Edges(ISO)
100
AcDbEllipse
 10
34.05000000387111
 20
47.2869808667732
 30
0.0
 11
-0.4999999999999976
 21
0.000000000000001
 31
0.0
210
0.0
220
0.0
230
1.0
 40
0.9400405659428775
 41
4.712388980384407
 42
6.283185307179548
  0
ELLIPSE
  5
21CF
330
208C
100
AcDbEntity
  8
Visible Edges(ISO)
100
AcDbEllipse
 10
41.95000000387103
 20
47.2869808667732
 30
0.0
 11
2.099999999999992
 21
-0.000000000000001
 31
0.0
210
0.0
220
0.0
230
1.0
 40
0.9400405659428775
 41
0.0000000000002222
 42
1.570796326794897
  0
ELLIPSE
  5
21D0
330
208C
100
AcDbEntity
  8
Visible Edges(ISO)
100
AcDbEllipse
 10
41.95000000387103
 20
47.2869808667732
 30
0.0
 11
0.4999999999999976
 21
-0.000000000000001
 31
0.0
210
0.0
220
0.0
230
1.0
 40
0.9400405659428775
 41
0.0000000000002673
 42
1.570796326794898
  0
SPLINE
  5
21D1
330
208C
100
AcDbEntity
  8
Visible Edges(ISO)
100
AcDbSpline
210
0.0
220
0.0
230
1.0
 70
     8
 71
     3
 72
    14
 73
    10
 74
     0
 42
0.0000000001
 43
0.0000000001
 40
0.0458042681856722
 40
0.0458042681856722
 40
0.0458042681856722
 40
0.0458042681856722
 40
0.0585875600170131
 40
0.0585875600170131
 40
0.073041044602065
 40
0.073041044602065
 40
0.0945060823934307
 40
0.0945060823934307
 40
0.1161010670067831
 40
0.1161010670067831
 40
0.1161010670067831
 40
0.1161010670067831
 10
42.44085908265799
 20
46.24151554102417
 30
0.0
 10
42.44023745617312
 20
46.25908780210983
 30
0.0
 10
42.43989466372966
 20
46.27523392185202
 30
0.0
 10
42.43990172465868
 20
46.3062801688161
 30
0.0
 10
42.44033945687471
 20
46.32092761255449
 30
0.0
 10
42.44234701433771
 20
46.35251117842801
 30
0.0
 10
42.44437184707487
 20
46.3668074129074
 30
0.0
 10
42.44820652607097
 20
46.38621721688571
 30
0.0
 10
42.45000000387181
 20
46.39126039855528
 30
0.0
 10
42.45000000387181
 20
46.39150595055435
 30
0.0
  0
SPLINE
  5
21D2
330
208C
100
AcDbEntity
  8
Visible Edges(ISO)
100
AcDbSpline
210
0.0
220
0.0
230
1.0
 70
     8
 71
     3
 72
    14
 73
    10
 74
     0
 42
0.0000000001
 43
0.0000000001
 40
0.0
 40
0.0
 40
0.0
 40
0.0
 40
0.0219985935332422
 40
0.0219985935332422
 40
0.0439655821689672
 40
0.0439655821689672
 40
0.0586635947703901
 40
0.0586635947703901
 40
0.0713868340795251
 40
0.0713868340795251
 40
0.0713868340795251
 40
0.0713868340795251
 10
33.55000000387179
 20
46.39150595055435
 30
0.0
 10
33.55000000387179
 20
46.39126059915071
 30
0.0
 10
33.55179148061222
 20
46.38621851154335
 30
0.0
 10
33.55563193953372
 20
46.36679312994215
 30
0.0
 10
33.55766132413669
 20
46.35244626734549
 30
0.0
 10
33.55966339952761
 20
46.3208090520639
 30
0.0
 10
33.56010562233104
 20
46.30609725012163
 30
0.0
 10
33.56009892581585
 20
46.27490161827864
 30
0.0
 10
33.55976268161595
 20
46.25895080300165
 30
0.0
 10
33.55914635126851
 20
46.24151555123211
 30
0.0
  0
LINE
  5
21D3
330
208C
100
AcDbEntity
  8
Visible Edges(ISO)
100
AcDbLine
 10
31.95000000387114
 20
47.2869808667732
 30
0.0
 11
31.9500000038708
 21
44.90966621664398
 31
0.0
  0
LINE
  5
21D4
330
208C
100
AcDbEntity
  8
Visible Edges(ISO)
100
AcDbLine
 10
33.55000000387105
 20
47.2869808667732
 30
0.0
 11
33.55000000387082
 21
44.90966621664398
 31
0.0
  0
LINE
  5
21D5
330
208C
100
AcDbEntity
  8
Visible Edges(ISO)
100
AcDbLine
 10
44.05000000387082
 20
44.90966621664398
 30
0.0
 11
44.05000000387104
 21
47.2869808667732
 31
0.0
  0
LINE
  5
21D6
330
208C
100
AcDbEntity
  8
Visible Edges(ISO)
100
AcDbLine
 10
42.45000000387079
 20
44.90966621664398
 30
0.0
 11
42.45000000387102
 21
47.2869808667732
 31
0.0
  0
LINE
  5
21D7
330
208C
100
AcDbEntity
  8
Visible Edges(ISO)
100
AcDbLine
 10
28.68435331241034
 20
39.30092115263318
 30
0.0
 11
28.57058265862446
 21
39.25467763189118
 31
0.0
  0
LINE
  5
21D8
330
208C
100
AcDbEntity
  8
Visible Edges(ISO)
100
AcDbLine
 10
47.42941734911744
 20
39.25467763189118
 30
0.0
 11
47.31564669533151
 21
39.30092115263318
 31
0.0
  0
LINE
  5
21D9
330
208C
100
AcDbEntity
  8
Visible Edges(ISO)
100
AcDbLine
 10
-72.19999999613105
 20
27.78022942933865
 30
0.0
 11
-73.39999999613104
 21
27.78022942933865
 31
0.0
  0
LINE
  5
21DA
330
208C
100
AcDbEntity
  8
Visible Edges(ISO)
100
AcDbLine
 10
-86.39999999613104
 20
27.78022942933865
 30
0.0
 11
-88.39999999613104
 21
27.78022942933865
 31
0.0
  0
SPLINE
  5
21DB
330
208C
100
AcDbEntity
  8
Visible Edges(ISO)
100
AcDbSpline
210
0.0
220
0.0
230
1.0
 70
     8
 71
     3
 72
    12
 73
     8
 74
     0
 42
0.0000000001
 43
0.0000000001
 40
0.6555195817224079
 40
0.6555195817224079
 40
0.6555195817224079
 40
0.6555195817224079
 40
0.6667209865142559
 40
0.6667209865142559
 40
0.7778113389191818
 40
0.7778113389191818
 40
0.8888575761531674
 40
0.8888575761531674
 40
0.8888575761531674
 40
0.8888575761531674
 10
-70.00033252918695
 20
28.74164900981663
 30
0.0
 10
-70.02633128893899
 20
28.71319168930279
 30
0.0
 10
-70.05257479943185
 20
28.68568988422572
 30
0.0
 10
-70.34075355089488
 20
28.39737977867282
 30
0.0
 10
-70.71016036681505
 20
28.15040677061137
 30
0.0
 10
-71.39420572599306
 20
27.86693543854648
 30
0.0
 10
-71.82984587201787
 20
27.78022942933865
 30
0.0
 10
-72.19999999613105
 20
27.78022942933865
 30
0.0
  0
ARC
  5
21DC
330
208C
100
AcDbEntity
  8
Visible Edges(ISO)
100
AcDbCircle
 10
-72.19999999613077
 20
-25.79999999999998
 30
0.0
 40
3.0
100
AcDbArc
 50
42.83342806606607
 51
90.0
  0
LINE
  5
21DD
330
208C
100
AcDbEntity
  8
Visible Edges(ISO)
100
AcDbLine
 10
-88.39999999613075
 20
-22.79999999999998
 30
0.0
 11
-88.39999999613104
 21
27.78022942933865
 31
0.0
  0
LINE
  5
21DE
330
208C
100
AcDbEntity
  8
Visible Edges(ISO)
100
AcDbLine
 10
-88.39999999613075
 20
-22.79999999999998
 30
0.0
 11
-86.39999999613076
 21
-22.79999999999998
 31
0.0
  0
LINE
  5
21DF
330
208C
100
AcDbEntity
  8
Visible Edges(ISO)
100
AcDbLine
 10
-73.39999999613081
 20
-22.79999999999998
 30
0.0
 11
-72.19999999613077
 21
-22.79999999999998
 31
0.0
  0
LINE
  5
21E0
330
208C
100
AcDbEntity
  8
Visible Edges(ISO)
100
AcDbLine
 10
-84.89999999613468
 20
34.5
 30
0.0
 11
-84.89999999613468
 21
25.59220647751101
 31
0.0
  0
LINE
  5
21E1
330
208C
100
AcDbEntity
  8
Visible Edges(ISO)
100
AcDbLine
 10
-74.89999999613468
 20
25.59220647751101
 30
0.0
 11
-74.89999999613468
 21
34.5
 31
0.0
  0
LINE
  5
21E2
330
208C
100
AcDbEntity
  8
Visible Edges(ISO)
100
AcDbLine
 10
-74.89999999613468
 20
25.59220647751101
 30
0.0
 11
-84.89999999613468
 21
25.59220647751101
 31
0.0
  0
ARC
  5
21E3
330
208C
100
AcDbEntity
  8
Visible Edges(ISO)
100
AcDbCircle
 10
-79.89999999613468
 20
34.5
 30
0.0
 40
4.999999999999995
100
AcDbArc
 50
0.0
 51
180.0
  0
LINE
  5
21E4
330
208C
100
AcDbEntity
  8
Visible Edges(ISO)
100
AcDbLine
 10
-80.699999996136
 20
30.99999999999989
 30
0.0
 11
-80.699999996136
 21
37.99999999999989
 31
0.0
  0
LINE
  5
21E5
330
208C
100
AcDbEntity
  8
Visible Edges(ISO)
100
AcDbLine
 10
-79.09999999613603
 20
37.99999999999989
 30
0.0
 11
-79.09999999613603
 21
30.99999999999989
 31
0.0
  0
LINE
  5
21E6
330
208C
100
AcDbEntity
  8
Visible Edges(ISO)
100
AcDbLine
 10
-79.09999999613535
 20
30.99999999999989
 30
0.0
 11
-80.69999999613537
 21
30.99999999999989
 31
0.0
  0
LINE
  5
21E7
330
208C
100
AcDbEntity
  8
Visible Edges(ISO)
100
AcDbLine
 10
-80.69999999613537
 20
37.99999999999989
 30
0.0
 11
-79.09999999613535
 21
37.99999999999989
 31
0.0
  0
LINE
  5
21E8
330
208C
100
AcDbEntity
  8
Visible Edges(ISO)
100
AcDbLine
 10
-77.87927405397238
 20
30.99999999999989
 30
0.0
 11
-79.09999999613603
 21
30.99999999999989
 31
0.0
  0
LINE
  5
21E9
330
208C
100
AcDbEntity
  8
Visible Edges(ISO)
100
AcDbLine
 10
-75.85854811180865
 20
34.5
 30
0.0
 11
-77.87927405397238
 21
30.99999999999989
 31
0.0
  0
LINE
  5
21EA
330
208C
100
AcDbEntity
  8
Visible Edges(ISO)
100
AcDbLine
 10
-77.87927405397238
 20
37.99999999999989
 30
0.0
 11
-75.85854811180865
 21
34.5
 31
0.0
  0
LINE
  5
21EB
330
208C
100
AcDbEntity
  8
Visible Edges(ISO)
100
AcDbLine
 10
-79.09999999613603
 20
37.99999999999989
 30
0.0
 11
-77.87927405397238
 21
37.99999999999989
 31
0.0
  0
LINE
  5
21EC
330
208C
100
AcDbEntity
  8
Visible Edges(ISO)
100
AcDbLine
 10
-81.92072593829966
 20
37.99999999999989
 30
0.0
 11
-80.699999996136
 21
37.99999999999989
 31
0.0
  0
LINE
  5
21ED
330
208C
100
AcDbEntity
  8
Visible Edges(ISO)
100
AcDbLine
 10
-83.94145188046337
 20
34.5
 30
0.0
 11
-81.92072593829966
 21
37.99999999999989
 31
0.0
  0
LINE
  5
21EE
330
208C
100
AcDbEntity
  8
Visible Edges(ISO)
100
AcDbLine
 10
-81.92072593829966
 20
30.99999999999989
 30
0.0
 11
-83.94145188046337
 21
34.5
 31
0.0
  0
LINE
  5
21EF
330
208C
100
AcDbEntity
  8
Visible Edges(ISO)
100
AcDbLine
 10
-80.699999996136
 20
30.99999999999989
 30
0.0
 11
-81.92072593829966
 21
30.99999999999989
 31
0.0
  0
LINE
  5
21F0
330
208C
100
AcDbEntity
  8
Visible Edges(ISO)
100
AcDbLine
 10
-73.39999999613081
 20
29.0
 30
0.0
 11
-73.39999999613081
 21
-24.0
 31
0.0
  0
LINE
  5
21F1
330
208C
100
AcDbEntity
  8
Visible Edges(ISO)
100
AcDbLine
 10
-86.39999999613076
 20
-24.0
 30
0.0
 11
-86.39999999613076
 21
29.0
 31
0.0
  0
LINE
  5
21F2
330
208C
100
AcDbEntity
  8
Visible Edges(ISO)
100
AcDbLine
 10
-73.39999999613081
 20
-24.0
 30
0.0
 11
-86.39999999613076
 21
-24.0
 31
0.0
  0
LINE
  5
21F3
330
208C
100
AcDbEntity
  8
Visible Edges(ISO)
100
AcDbLine
 10
-73.39999999613081
 20
29.0
 30
0.0
 11
-74.89999999613082
 21
29.0
 31
0.0
  0
LINE
  5
21F4
330
208C
100
AcDbEntity
  8
Visible Edges(ISO)
100
AcDbLine
 10
-84.89999999613081
 20
29.0
 30
0.0
 11
-86.39999999613076
 21
29.0
 31
0.0
  0
LINE
  5
21F5
330
208C
100
AcDbEntity
  8
Dimensions(ISO)
  6
Continuous
 62
     7
370
    25
100
AcDbLine
 10
69.20000000386671
 20
27.15601399363482
 30
0.0
 11
88.27343955722312
 21
27.15601399363482
 31
0.0
  0
LINE
  5
21F6
330
208C
100
AcDbEntity
  8
Dimensions(ISO)
  6
Continuous
 62
     7
370
    25
100
AcDbLine
 10
71.20000000386915
 20
-27.19999999999999
 30
0.0
 11
88.27343955722312
 21
-27.19999999999999
 31
0.0
  0
LINE
  5
21F7
330
208C
100
AcDbEntity
  8
Dimensions(ISO)
  6
Continuous
 62
     7
370
    25
100
AcDbLine
 10
81.92343955722305
 20
22.1560139936347
 30
0.0
 11
81.92343955722305
 21
-22.19999999999999
 31
0.0
  0
SOLID
  5
21F8
330
208C
100
AcDbEntity
  8
Dimensions(ISO)
  6
Continuous
 62
     7
100
AcDbTrace
 10
81.09010622388984
 20
22.1560139936347
 30
0.0
 11
82.75677289055641
 21
22.1560139936347
 31
0.0
 12
81.92343955722305
 22
27.15601399363482
 32
0.0
 13
81.92343955722305
 23
27.15601399363482
 33
0.0
  0
SOLID
  5
21F9
330
208C
100
AcDbEntity
  8
Dimensions(ISO)
  6
Continuous
 62
     7
100
AcDbTrace
 10
81.09010622388984
 20
-22.19999999999999
 30
0.0
 11
82.75677289055641
 21
-22.19999999999999
 31
0.0
 12
81.92343955722305
 22
-27.19999999999999
 32
0.0
 13
81.92343955722305
 23
-27.19999999999999
 33
0.0
  0
MTEXT
  5
21FA
330
208C
100
AcDbEntity
  8
Dimensions(ISO)
  6
Continuous
 62
     7
370
    25
100
AcDbMText
 10
92.02825027294148
 20
-36.86783202091792
 30
0.0
 40
8.0
 41
0.0
 71
     1
 72
     1
  1
\A1; 92 [3,622"]\PPLASTIC PIPE
  7
Roxtec 4
 11
0.0000000000000001
 21
1.0
 31
0.0
 73
     1
 44
1.0
1001
ACAD
1000
MTEXTBEGIN
1070
    73
1070
     1
1070
    44
1040
1.0
1070
    74
1070
     0
1000
MTEXTEND
  0
LINE
  5
21FB
330
208C
100
AcDbEntity
  8
Dimensions(ISO)
  6
Continuous
 62
     7
370
    25
100
AcDbLine
 10
68.00000000386723
 20
41.24081348276883
 30
0.0
 11
68.00000000386723
 21
82.32884957241124
 31
0.0
  0
LINE
  5
21FC
330
208C
100
AcDbEntity
  8
Dimensions(ISO)
  6
Continuous
 62
     7
370
    25
100
AcDbLine
 10
-69.99999999613265
 20
41.24081348276888
 30
0.0
 11
-69.99999999613265
 21
82.32884957241124
 31
0.0
  0
LINE
  5
21FD
330
208C
100
AcDbEntity
  8
Dimensions(ISO)
  6
Continuous
 62
     7
370
    25
100
AcDbLine
 10
63.00000000386723
 20
75.97884957241126
 30
0.0
 11
-64.99999999613265
 21
75.97884957241126
 31
0.0
  0
SOLID
  5
21FE
330
208C
100
AcDbEntity
  8
Dimensions(ISO)
  6
Continuous
 62
     7
100
AcDbTrace
 10
63.00000000386723
 20
76.81218290574458
 30
0.0
 11
63.00000000386723
 21
75.14551623907795
 31
0.0
 12
68.00000000386723
 22
75.97884957241126
 32
0.0
 13
68.00000000386723
 23
75.97884957241126
 33
0.0
  0
SOLID
  5
21FF
330
208C
100
AcDbEntity
  8
Dimensions(ISO)
  6
Continuous
 62
     7
100
AcDbTrace
 10
-64.99999999613265
 20
76.81218290574458
 30
0.0
 11
-64.99999999613265
 21
75.14551623907795
 31
0.0
 12
-69.99999999613265
 22
75.97884957241126
 32
0.0
 13
-69.99999999613265
 23
75.97884957241126
 33
0.0
  0
MTEXT
  5
2200
330
208C
100
AcDbEntity
  8
Dimensions(ISO)
  6
Continuous
 62
     7
370
    25
100
AcDbMText
 10
-0.9999999961327716
 20
82.74705148237035
 30
0.0
 40
8.0
 41
0.0
 71
     5
 72
     1
  1
\A1;(138 5,433")
  7
Roxtec 4
 73
     1
 44
1.0
1001
ACAD
1000
MTEXTBEGIN
1070
    73
1070
     1
1070
    44
1040
1.0
1070
    74
1070
     0
1000
MTEXTEND
  0
LINE
  5
2201
330
208C
100
AcDbEntity
  8
Dimensions(ISO)
  6
Continuous
 62
     7
370
    25
100
AcDbLine
 10
-92.3999999961307
 20
27.78022942933865
 30
0.0
 11
-114.0678484392659
 21
27.78022942933865
 31
0.0
  0
LINE
  5
2202
330
208C
100
AcDbEntity
  8
Dimensions(ISO)
  6
Continuous
 62
     7
370
    25
100
AcDbLine
 10
-92.3999999961307
 20
-22.79999999999998
 30
0.0
 11
-114.0678484392659
 21
-22.79999999999998
 31
0.0
  0
LINE
  5
2203
330
208C
100
AcDbEntity
  8
Dimensions(ISO)
  6
Continuous
 62
     7
370
    25
100
AcDbLine
 10
-107.717848439266
 20
22.78022942933865
 30
0.0
 11
-107.717848439266
 21
-17.79999999999995
 31
0.0
  0
SOLID
  5
2204
330
208C
100
AcDbEntity
  8
Dimensions(ISO)
  6
Continuous
 62
     7
100
AcDbTrace
 10
-108.5511817725993
 20
22.78022942933865
 30
0.0
 11
-106.8845151059326
 21
22.78022942933865
 31
0.0
 12
-107.717848439266
 22
27.78022942933865
 32
0.0
 13
-107.717848439266
 23
27.78022942933865
 33
0.0
  0
SOLID
  5
2205
330
208C
100
AcDbEntity
  8
Dimensions(ISO)
  6
Continuous
 62
     7
100
AcDbTrace
 10
-108.5511817725993
 20
-17.79999999999995
 30
0.0
 11
-106.8845151059326
 21
-17.79999999999995
 31
0.0
 12
-107.717848439266
 22
-22.79999999999998
 32
0.0
 13
-107.717848439266
 23
-22.79999999999998
 33
0.0
  0
MTEXT
  5
2206
330
208C
100
AcDbEntity
  8
Dimensions(ISO)
  6
Continuous
 62
     7
370
    25
100
AcDbMText
 10
-125.7301245008137
 20
2.490114714669402
 30
0.0
 40
8.0
 41
0.0
 71
     5
 72
     1
  1
\A1; 90 [3,543"] \PSTEEL PIPE
  7
Roxtec 4
 11
0.0000000000000001
 21
1.0
 31
0.0
 73
     1
 44
1.0
1001
ACAD
1000
MTEXTBEGIN
1070
    73
1070
     1
1070
    44
1040
1.0
1070
    74
1070
     0
1000
MTEXTEND
  0
ENDBLK
  5
208E
330
208C
100
AcDbEntity
  8
0
100
AcDbBlockEnd
  0
ENDSEC
  0
SECTION
  2
ENTITIES
  0
INSERT
  5
2207
330
6C
100
AcDbEntity
  8
AM_0
100
AcDbBlockReference
  2
Sleev-IT_TC9090
 10
367.4183261091072
 20
276.8550539015335
 30
0.0
  0
ENDSEC
  0
SECTION
  2
OBJECTS
  0
DICTIONARY
  5
C
330
0
100
AcDbDictionary
281
     1
  3
ACAD_2007HEADERVARS_RT
350
220C
  3
ACAD_CIP_PREVIOUS_PRODUCT_INFO
350
129F
  3
ACAD_COLOR
350
63
  3
ACAD_GROUP
350
D
  3
ACAD_LAYOUT
350
62
  3
ACAD_MATERIAL
350
10
  3
ACAD_MLEADERSTYLE
350
66
  3
ACAD_MLINESTYLE
350
5F
  3
ACAD_PLOTSETTINGS
350
61
  3
ACAD_PLOTSTYLENAME
350
E
  3
ACAD_SCALELIST
350
42
  3
ACAD_TABLESTYLE
350
64
  3
ACAD_VISUALSTYLE
350
29
  3
ACDB_RECOMPOSE_DATA
350
133E
  3
AcDbVariableDictionary
350
12A0
  3
AcmDictionary
350
142C
  3
AMG
350
138C
  3
AMGSNAPSETTINGS
350
14BB
  3
DWGPROPS
350
220B
  3
MAPISURF_MODULE
350
1E82
  0
DICTIONARY
  5
14E0
330
2
100
AcDbDictionary
280
     1
281
     1
  3
ACAD_LAYERSTATES
360
14E1
  3
AMLAYER_GROUPCOLORS
360
16C9
  0
DICTIONARY
  5
14CF
330
6C
100
AcDbDictionary
280
     1
281
     1
  3
ACAD_INDEX
360
1667
  3
ACAD_SORTENTS
360
14D0
  0
DICTIONARY
  5
220C
102
{ACAD_REACTORS
330
C
102
}
330
C
100
AcDbDictionary
281
     1
  3
DIMARCSYM
350
220D
  3
DIMLTEX1
350
220F
  3
DIMLTEX2
350
2210
  3
DIMLTYPE
350
220E
  0
XRECORD
  5
129F
102
{ACAD_REACTORS
330
C
102
}
330
C
100
AcDbXrecord
280
     1
300
INVNTOR
300
2012
300
85795PDSP_2012_0F
  0
DICTIONARY
  5
63
102
{ACAD_REACTORS
330
C
102
}
330
C
100
AcDbDictionary
281
     1
  0
DICTIONARY
  5
D
102
{ACAD_REACTORS
330
C
102
}
330
C
100
AcDbDictionary
281
     1
  0
DICTIONARY
  5
62
102
{ACAD_REACTORS
330
C
102
}
330
C
100
AcDbDictionary
281
     1
  3
Layout1
350
14EA
  3
Model
350
6F
  0
DICTIONARY
  5
10
102
{ACAD_REACTORS
330
C
102
}
330
C
100
AcDbDictionary
281
     1
  3
ByBlock
350
19
  3
ByLayer
350
11
  3
Global
350
21
  0
DICTIONARY
  5
66
102
{ACAD_REACTORS
330
C
102
}
330
C
100
AcDbDictionary
281
     1
  3
Standard
350
67
  0
DICTIONARY
  5
5F
102
{ACAD_REACTORS
330
C
102
}
330
C
100
AcDbDictionary
281
     1
  3
Standard
350
60
  0
DICTIONARY
  5
61
102
{ACAD_REACTORS
330
C
102
}
330
C
100
AcDbDictionary
281
     1
  0
ACDBDICTIONARYWDFLT
  5
E
102
{ACAD_REACTORS
330
C
102
}
330
C
100
AcDbDictionary
281
     1
  3
Normal
350
F
100
AcDbDictionaryWithDefault
340
F
  0
DICTIONARY
  5
42
102
{ACAD_REACTORS
330
C
102
}
330
C
100
AcDbDictionary
281
     1
  3
A0
350
43
  3
A1
350
44
  3
A2
350
45
  3
A3
350
46
  3
A4
350
47
  3
A5
350
48
  3
A6
350
49
  3
A7
350
4A
  3
A8
350
4B
  3
A9
350
4C
  3
B0
350
4D
  3
B1
350
4E
  3
B2
350
4F
  3
B3
350
50
  3
B4
350
51
  3
B5
350
52
  3
B6
350
53
  0
DICTIONARY
  5
64
102
{ACAD_REACTORS
330
C
102
}
330
C
100
AcDbDictionary
281
     1
  3
Standard
350
65
  0
DICTIONARY
  5
29
102
{ACAD_REACTORS
330
C
102
}
330
C
100
AcDbDictionary
281
     1
  3
2dWireframe
350
2F
  3
3D Hidden
350
1383
  3
3dWireframe
350
1382
  3
Basic
350
2E
  3
Brighten
350
35
  3
ColorChange
350
39
  3
Conceptual
350
32
  3
Dim
350
34
  3
EdgeColorOff
350
41
  3
Facepattern
350
38
  3
Flat
350
2A
  3
FlatWithEdges
350
2B
  3
Gouraud
350
2C
  3
GouraudWithEdges
350
2D
  3
Hidden
350
31
  3
JitterOff
350
3F
  3
Linepattern
350
37
  3
OverhangOff
350
40
  3
Realistic
350
33
  3
Shaded
350
3E
  3
Shaded with edges
350
3D
  3
Shades of Gray
350
3A
  3
Sketchy
350
3B
  3
Thicken
350
36
  3
Wireframe
350
30
  3
X-Ray
350
3C
  0
XRECORD
  5
133E
102
{ACAD_REACTORS
330
C
102
}
330
C
100
AcDbXrecord
280
     1
 90
        1
330
65
  0
DICTIONARY
  5
12A0
102
{ACAD_REACTORS
330
C
102
}
330
C
100
AcDbDictionary
281
     1
  3
CANNOSCALE
350
12A4
  3
CMLEADERSTYLE
350
12A2
  3
CTABLESTYLE
350
12A1
  3
DIMASSOC
350
12AB
  3
HIDETEXT
350
12AA
  3
INDEXCTL
350
12A9
  3
LAYEREVAL
350
12A6
  3
LAYERNOTIFY
350
12A7
  3
LIGHTINGUNITS
350
12A5
  3
MSLTSCALE
350
12A3
  3
SORTENTS
350
12A8
  3
XCLIPFRAME
350
12AC
  0
DICTIONARY
  5
142C
102
{ACAD_REACTORS
330
C
102
}
330
C
100
AcDbDictionary
281
     1
  3
AcmStdDictionary
350
142D
  3
AMDTSECTSYM_ARROWCOLOR
350
16C0
  0
DICTIONARY
  5
138C
102
{ACAD_REACTORS
330
C
102
}
330
C
100
AcDbDictionary
281
     1
  3
AcMgSettings
350
138D
  0
DICTIONARY
  5
14BB
102
{ACAD_REACTORS
330
C
102
}
330
C
100
AcDbDictionary
281
     1
  3
DIMENSION
350
16C1
  3
FEA
350
16C2
  3
HATCH
350
16C3
  3
SYMBOLS
350
16C4
  0
XRECORD
  5
220B
102
{ACAD_REACTORS
330
C
102
}
330
C
100
AcDbXrecord
280
     1
  1
DWGPROPS COOKIE
  2
dlkhaslkghalkghagh
  3

  4
se-jenboh
  6

  7

  8
se-jenboh
  9

300
Manager=
301
Company=
302
Category=CERTIFICATE DRAWING
303
Part Number=TR_INFO
304
Description=
305
Project=
306
Designer=se-jenboh
307
Engineer=
308
Authority=
309
Cost Center=
 40
0.0310558680555556
 41
2456353.56383809
 42
2456359.669758611
  1

 90
       37
300
Vendor=
300
User Status=
300
Design Status=WorkInProgress
300
Checked by=
300
Engr Approved by=
300
Mfg Approved by=
300
Tolerance=
300
Scale=1:-
300
Weld class=
300
Total weight=
300
Surface roughness=
300
Approved by=se-tontor
300
Created by=se-ronpet
300
Created date=2012-02-03
300
Document number=S1026334
300
Format= 
300
Reviewed by=
300
Revised by=se-ronpet
300
Revised date=2013-01-07
300
Revision note=NO OF LAYERS ADDED
300
Status=
300
Title=TRANSITION COLLAR
300
Title 2=ASSEMBLY
300
Type=Information Drawing
300
Version=B
300
Approved date=2013-01-07
300
AmdtFileType=84
  0
DICTIONARY
  5
14E1
102
{ACAD_REACTORS
330
14E0
102
}
330
14E0
100
AcDbDictionary
281
     1
  0
DICTIONARY
  5
16C9
102
{ACAD_REACTORS
330
14E0
102
}
330
14E0
100
AcDbDictionary
280
     1
281
     1
  0
DICTIONARY
  5
1667
102
{ACAD_REACTORS
330
14CF
102
}
330
14CF
100
AcDbDictionary
281
     1
  3
*A1
350
1668
  0
SORTENTSTABLE
  5
14D0
102
{ACAD_REACTORS
330
14CF
102
}
330
14CF
100
AcDbSortentsTable
330
6C
  0
XRECORD
  5
220D
102
{ACAD_REACTORS
330
220C
102
}
330
220C
100
AcDbXrecord
280
     1
 70
     1
  0
XRECORD
  5
220F
102
{ACAD_REACTORS
330
220C
102
}
330
220C
100
AcDbXrecord
280
     1
340
5B
  0
XRECORD
  5
2210
102
{ACAD_REACTORS
330
220C
102
}
330
220C
100
AcDbXrecord
280
     1
340
5B
  0
XRECORD
  5
220E
102
{ACAD_REACTORS
330
220C
102
}
330
220C
100
AcDbXrecord
280
     1
340
5B
  0
LAYOUT
  5
14EA
102
{ACAD_XDICTIONARY
360
2214
102
}
102
{ACAD_REACTORS
330
62
102
}
330
62
100
AcDbPlotSettings
  1

  2
PDF Writer - bioPDF
  4

  6

 40
0.0
 41
0.0
 42
0.0
 43
0.0
 44
0.0
 45
0.0
 46
0.0
 47
0.0
 48
0.0
 49
0.0
140
0.0
141
0.0
142
1.0
143
1.0
 70
   688
 72
     0
 73
     0
 74
     5
  7

 75
    16
147
1.0
148
0.0
149
0.0
100
AcDbLayout
  1
Layout1
 70
     1
 71
     1
 10
0.0
 20
0.0
 11
12.0
 21
9.0
 12
0.0
 22
0.0
 32
0.0
 14
0.0
 24
0.0
 34
0.0
 15
0.0
 25
0.0
 35
0.0
146
0.0
 13
0.0
 23
0.0
 33
0.0
 16
1.0
 26
0.0
 36
0.0
 17
0.0
 27
1.0
 37
0.0
 76
     0
330
14E9
  0
LAYOUT
  5
6F
102
{ACAD_XDICTIONARY
360
2212
102
}
102
{ACAD_REACTORS
330
62
102
}
330
62
100
AcDbPlotSettings
  1

  2

  4

  6

 40
0.0
 41
0.0
 42
0.0
 43
0.0
 44
0.0
 45
0.0
 46
0.0
 47
0.0
 48
0.0
 49
0.0
140
0.0
141
0.0
142
1.0
143
1.0
 70
  1712
 72
     0
 73
     0
 74
     0
  7

 75
     0
147
1.0
148
0.0
149
0.0
100
AcDbLayout
  1
Model
 70
     1
 71
     0
 10
0.0
 20
0.0
 11
12.0
 21
9.0
 12
0.0
 22
0.0
 32
0.0
 14
0.0
 24
0.0
 34
0.0
 15
0.0
 25
0.0
 35
0.0
146
0.0
 13
0.0
 23
0.0
 33
0.0
 16
1.0
 26
0.0
 36
0.0
 17
0.0
 27
1.0
 37
0.0
 76
     0
330
6C
331
57
  0
MATERIAL
  5
19
102
{ACAD_XDICTIONARY
360
1A
102
}
102
{ACAD_REACTORS
330
10
102
}
330
10
100
AcDbMaterial
  1
ByBlock
 72
     0
 43
0.0208333333333333
 43
0.0
 43
0.0
 43
0.0
 43
0.0
 43
0.0208333333333333
 43
0.0
 43
0.0
 43
0.0
 43
0.0
 43
1.0
 43
0.0
 43
0.0
 43
0.0
 43
0.0
 43
1.0
 77
     0
 47
0.0208333333333333
 47
0.0
 47
0.0
 47
0.0
 47
0.0
 47
0.0208333333333333
 47
0.0
 47
0.0
 47
0.0
 47
0.0
 47
1.0
 47
0.0
 47
0.0
 47
0.0
 47
0.0
 47
1.0
171
     0
 49
0.0208333333333333
 49
0.0
 49
0.0
 49
0.0
 49
0.0
 49
0.0208333333333333
 49
0.0
 49
0.0
 49
0.0
 49
0.0
 49
1.0
 49
0.0
 49
0.0
 49
0.0
 49
0.0
 49
1.0
175
     0
142
0.0208333333333333
142
0.0
142
0.0
142
0.0
142
0.0
142
0.0208333333333333
142
0.0
142
0.0
142
0.0
142
0.0
142
1.0
142
0.0
142
0.0
142
0.0
142
0.0
142
1.0
179
     0
144
0.0208333333333333
144
0.0
144
0.0
144
0.0
144
0.0
144
0.0208333333333333
144
0.0
144
0.0
144
0.0
144
0.0
144
1.0
144
0.0
144
0.0
144
0.0
144
0.0
144
1.0
147
0.0208333333333333
147
0.0
147
0.0
147
0.0
147
0.0
147
0.0208333333333333
147
0.0
147
0.0
147
0.0
147
0.0
147
1.0
147
0.0
147
0.0
147
0.0
147
0.0
147
1.0
  0
MATERIAL
  5
11
102
{ACAD_XDICTIONARY
360
12
102
}
102
{ACAD_REACTORS
330
10
102
}
330
10
100
AcDbMaterial
  1
ByLayer
 72
     0
 43
0.0208333333333333
 43
0.0
 43
0.0
 43
0.0
 43
0.0
 43
0.0208333333333333
 43
0.0
 43
0.0
 43
0.0
 43
0.0
 43
1.0
 43
0.0
 43
0.0
 43
0.0
 43
0.0
 43
1.0
 77
     0
 47
0.0208333333333333
 47
0.0
 47
0.0
 47
0.0
 47
0.0
 47
0.0208333333333333
 47
0.0
 47
0.0
 47
0.0
 47
0.0
 47
1.0
 47
0.0
 47
0.0
 47
0.0
 47
0.0
 47
1.0
171
     0
 49
0.0208333333333333
 49
0.0
 49
0.0
 49
0.0
 49
0.0
 49
0.0208333333333333
 49
0.0
 49
0.0
 49
0.0
 49
0.0
 49
1.0
 49
0.0
 49
0.0
 49
0.0
 49
0.0
 49
1.0
175
     0
142
0.0208333333333333
142
0.0
142
0.0
142
0.0
142
0.0
142
0.0208333333333333
142
0.0
142
0.0
142
0.0
142
0.0
142
1.0
142
0.0
142
0.0
142
0.0
142
0.0
142
1.0
179
     0
144
0.0208333333333333
144
0.0
144
0.0
144
0.0
144
0.0
144
0.0208333333333333
144
0.0
144
0.0
144
0.0
144
0.0
144
1.0
144
0.0
144
0.0
144
0.0
144
0.0
144
1.0
147
0.0208333333333333
147
0.0
147
0.0
147
0.0
147
0.0
147
0.0208333333333333
147
0.0
147
0.0
147
0.0
147
0.0
147
1.0
147
0.0
147
0.0
147
0.0
147
0.0
147
1.0
  0
MATERIAL
  5
21
102
{ACAD_XDICTIONARY
360
22
102
}
102
{ACAD_REACTORS
330
10
102
}
330
10
100
AcDbMaterial
  1
Global
 72
     0
 43
0.0208333333333333
 43
0.0
 43
0.0
 43
0.0
 43
0.0
 43
0.0208333333333333
 43
0.0
 43
0.0
 43
0.0
 43
0.0
 43
1.0
 43
0.0
 43
0.0
 43
0.0
 43
0.0
 43
1.0
 77
     0
 47
0.0208333333333333
 47
0.0
 47
0.0
 47
0.0
 47
0.0
 47
0.0208333333333333
 47
0.0
 47
0.0
 47
0.0
 47
0.0
 47
1.0
 47
0.0
 47
0.0
 47
0.0
 47
0.0
 47
1.0
171
     0
 49
0.0208333333333333
 49
0.0
 49
0.0
 49
0.0
 49
0.0
 49
0.0208333333333333
 49
0.0
 49
0.0
 49
0.0
 49
0.0
 49
1.0
 49
0.0
 49
0.0
 49
0.0
 49
0.0
 49
1.0
175
     0
142
0.0208333333333333
142
0.0
142
0.0
142
0.0
142
0.0
142
0.0208333333333333
142
0.0
142
0.0
142
0.0
142
0.0
142
1.0
142
0.0
142
0.0
142
0.0
142
0.0
142
1.0
179
     0
144
0.0208333333333333
144
0.0
144
0.0
144
0.0
144
0.0
144
0.0208333333333333
144
0.0
144
0.0
144
0.0
144
0.0
144
1.0
144
0.0
144
0.0
144
0.0
144
0.0
144
1.0
147
0.0208333333333333
147
0.0
147
0.0
147
0.0
147
0.0
147
0.0208333333333333
147
0.0
147
0.0
147
0.0
147
0.0
147
1.0
147
0.0
147
0.0
147
0.0
147
0.0
147
1.0
  0
MLEADERSTYLE
  5
67
102
{ACAD_XDICTIONARY
360
12AF
102
}
102
{ACAD_REACTORS
330
66
102
}
330
66
100
AcDbMLeaderStyle
170
     2
171
     1
172
     0
 90
        2
 40
0.0
 41
0.0
173
     1
 91
-1056964608
340
5B
 92
       -2
290
     1
 42
0.09
291
     1
 43
0.36
  3
Standard
 44
0.18
300

342
55
174
     1
178
     6
175
     1
176
     0
 93
-1056964608
 45
0.18
292
     0
297
     0
 46
0.18
 94
-1056964608
 47
1.0
 49
1.0
140
1.0
293
     1
141
0.0
294
     1
177
     0
142
1.0
295
     0
296
     0
143
0.125
1001
ACAD_MLEADERVER
1070
     2
  0
MLINESTYLE
  5
60
102
{ACAD_REACTORS
330
5F
102
}
330
5F
100
AcDbMlineStyle
  2
STANDARD
 70
     0
  3

 62
   256
 51
90.0
 52
90.0
 71
     2
 49
0.5
 62
   256
  6
BYLAYER
 49
-0.5
 62
   256
  6
BYLAYER
  0
ACDBPLACEHOLDER
  5
F
102
{ACAD_REACTORS
330
E
102
}
330
E
  0
SCALE
  5
43
102
{ACAD_REACTORS
330
42
102
}
330
42
100
AcDbScale
 70
     0
300
1:1
140
1.0
141
1.0
290
     1
  0
SCALE
  5
44
102
{ACAD_REACTORS
330
42
102
}
330
42
100
AcDbScale
 70
     0
300
1/128" = 1'-0"
140
0.0078125
141
12.0
290
     0
  0
SCALE
  5
45
102
{ACAD_REACTORS
330
42
102
}
330
42
100
AcDbScale
 70
     0
300
1/64" = 1'-0"
140
0.015625
141
12.0
290
     0
  0
SCALE
  5
46
102
{ACAD_REACTORS
330
42
102
}
330
42
100
AcDbScale
 70
     0
300
1/32" = 1'-0"
140
0.03125
141
12.0
290
     0
  0
SCALE
  5
47
102
{ACAD_REACTORS
330
42
102
}
330
42
100
AcDbScale
 70
     0
300
1/16" = 1'-0"
140
0.0625
141
12.0
290
     0
  0
SCALE
  5
48
102
{ACAD_REACTORS
330
42
102
}
330
42
100
AcDbScale
 70
     0
300
3/32" = 1'-0"
140
0.09375
141
12.0
290
     0
  0
SCALE
  5
49
102
{ACAD_REACTORS
330
42
102
}
330
42
100
AcDbScale
 70
     0
300
1/8" = 1'-0"
140
0.125
141
12.0
290
     0
  0
SCALE
  5
4A
102
{ACAD_REACTORS
330
42
102
}
330
42
100
AcDbScale
 70
     0
300
3/16" = 1'-0"
140
0.1875
141
12.0
290
     0
  0
SCALE
  5
4B
102
{ACAD_REACTORS
330
42
102
}
330
42
100
AcDbScale
 70
     0
300
1/4" = 1'-0"
140
0.25
141
12.0
290
     0
  0
SCALE
  5
4C
102
{ACAD_REACTORS
330
42
102
}
330
42
100
AcDbScale
 70
     0
300
3/8" = 1'-0"
140
0.375
141
12.0
290
     0
  0
SCALE
  5
4D
102
{ACAD_REACTORS
330
42
102
}
330
42
100
AcDbScale
 70
     0
300
1/2" = 1'-0"
140
0.5
141
12.0
290
     0
  0
SCALE
  5
4E
102
{ACAD_REACTORS
330
42
102
}
330
42
100
AcDbScale
 70
     0
300
3/4" = 1'-0"
140
0.75
141
12.0
290
     0
  0
SCALE
  5
4F
102
{ACAD_REACTORS
330
42
102
}
330
42
100
AcDbScale
 70
     0
300
1" = 1'-0"
140
1.0
141
12.0
290
     0
  0
SCALE
  5
50
102
{ACAD_REACTORS
330
42
102
}
330
42
100
AcDbScale
 70
     0
300
1-1/2" = 1'-0"
140
1.5
141
12.0
290
     0
  0
SCALE
  5
51
102
{ACAD_REACTORS
330
42
102
}
330
42
100
AcDbScale
 70
     0
300
3" = 1'-0"
140
3.0
141
12.0
290
     0
  0
SCALE
  5
52
102
{ACAD_REACTORS
330
42
102
}
330
42
100
AcDbScale
 70
     0
300
6" = 1'-0"
140
6.0
141
12.0
290
     0
  0
SCALE
  5
53
102
{ACAD_REACTORS
330
42
102
}
330
42
100
AcDbScale
 70
     0
300
1'-0" = 1'-0"
140
12.0
141
12.0
290
     0
  0
TABLESTYLE
  5
65
102
{ACAD_XDICTIONARY
360
12AD
102
}
102
{ACAD_REACTORS
330
64
102
}
330
64
100
AcDbTableStyle
  3
Standard
 70
     0
 71
     0
 40
0.06
 41
0.06
280
     0
281
     0
  7
STANDARD
140
0.18
170
     2
 62
     0
 63
     7
283
     0
274
    -2
284
     1
 64
     0
275
    -2
285
     1
 65
     0
276
    -2
286
     1
 66
     0
277
    -2
287
     1
 67
     0
278
    -2
288
     1
 68
     0
279
    -2
289
     1
 69
     0
  7
STANDARD
140
0.25
170
     5
 62
     0
 63
     7
283
     0
274
    -2
284
     1
 64
     0
275
    -2
285
     1
 65
     0
276
    -2
286
     1
 66
     0
277
    -2
287
     1
 67
     0
278
    -2
288
     1
 68
     0
279
    -2
289
     1
 69
     0
  7
STANDARD
140
0.18
170
     5
 62
     0
 63
     7
283
     0
274
    -2
284
     1
 64
     0
275
    -2
285
     1
 65
     0
276
    -2
286
     1
 66
     0
277
    -2
287
     1
 67
     0
278
    -2
288
     1
 68
     0
279
    -2
289
     1
 69
     0
  0
VISUALSTYLE
  5
2F
102
{ACAD_XDICTIONARY
360
134D
102
}
102
{ACAD_REACTORS
330
29
102
}
330
29
100
AcDbVisualStyle
  2
2dWireframe
 70
     4
 71
     0
 72
     2
 73
     0
 90
        0
 40
-0.6
 41
-30.0
 62
     5
 63
     7
 74
     1
 91
        4
 64
     7
 65
   257
 75
     1
175
     1
 42
1.0
 92
        0
 66
   257
 43
1.0
 76
     1
 77
     6
 78
     2
 67
     7
 79
     5
170
     0
171
     0
290
     0
174
     0
 93
        1
 44
0.0
173
     0
291
     0
 45
0.0
1001
ACAD
1000
AcDbSavedByObjectVersion
1070
     0
1000
AcDbSavedByObjectVersion
1070
     0
1000
AcDbSavedByObjectVersion
1070
     0
  0
VISUALSTYLE
  5
1383
102
{ACAD_REACTORS
330
29
102
}
330
29
100
AcDbVisualStyle
  2
3D Hidden
 70
     6
 71
     1
 72
     2
 73
     2
 90
        0
 40
-0.6
 41
-30.0
 62
     5
 63
     7
 74
     2
 91
        2
 64
     7
 65
   257
 75
     2
175
     1
 42
40.0
 92
        0
 66
   257
 43
1.0
 76
     1
 77
     6
 78
     2
 67
     7
 79
     3
170
     0
171
     0
290
     0
174
     0
 93
        1
 44
0.0
173
     0
291
     0
 45
0.0
1001
ACAD
1000
AcDbSavedByObjectVersion
1070
     0
1000
AcDbSavedByObjectVersion
1070
     0
1000
AcDbSavedByObjectVersion
1070
     0
  0
VISUALSTYLE
  5
1382
102
{ACAD_REACTORS
330
29
102
}
330
29
100
AcDbVisualStyle
  2
3dWireframe
 70
     5
 71
     0
 72
     2
 73
     0
 90
        0
 40
-0.6
 41
-30.0
 62
     5
 63
     7
 74
     1
 91
        4
 64
     7
 65
   257
 75
     1
175
     1
 42
1.0
 92
        0
 66
   257
 43
1.0
 76
     1
 77
     6
 78
     2
 67
     7
 79
     5
170
     0
171
     0
290
     0
174
     0
 93
        1
 44
0.0
173
     0
291
     0
 45
0.0
1001
ACAD
1000
AcDbSavedByObjectVersion
1070
     0
1000
AcDbSavedByObjectVersion
1070
     0
1000
AcDbSavedByObjectVersion
1070
     0
  0
VISUALSTYLE
  5
2E
102
{ACAD_XDICTIONARY
360
134B
102
}
102
{ACAD_REACTORS
330
29
102
}
330
29
100
AcDbVisualStyle
  2
Basic
 70
     7
 71
     1
 72
     0
 73
     1
 90
        0
 40
-0.6
 41
-30.0
 62
     5
 63
     7
 74
     0
 91
        4
 64
     7
 65
   257
 75
     1
175
     1
 42
1.0
 92
        8
 66
     7
 43
1.0
 76
     1
 77
     6
 78
     2
 67
     7
 79
     5
170
     0
171
     0
290
     0
174
     0
 93
        1
 44
0.0
173
     0
291
     1
 45
0.0
1001
ACAD
1000
AcDbSavedByObjectVersion
1070
     0
1000
AcDbSavedByObjectVersion
1070
     0
1000
AcDbSavedByObjectVersion
1070
     0
  0
VISUALSTYLE
  5
35
102
{ACAD_XDICTIONARY
360
1359
102
}
102
{ACAD_REACTORS
330
29
102
}
330
29
100
AcDbVisualStyle
  2
Brighten
 70
    12
 71
     2
 72
     2
 73
     0
 90
        0
 40
-0.6
 41
-30.0
 62
     5
 63
     7
 74
     1
 91
        4
 64
     7
 65
   257
 75
     1
175
     1
 42
1.0
 92
        8
 66
     7
 43
1.0
 76
     1
 77
     6
 78
     2
 67
     7
 79
     5
170
     0
171
     0
290
     0
174
     0
 93
        1
 44
50.0
173
     0
291
     1
 45
0.0
1001
ACAD
1000
AcDbSavedByObjectVersion
1070
     0
1000
AcDbSavedByObjectVersion
1070
     0
1000
AcDbSavedByObjectVersion
1070
     0
  0
VISUALSTYLE
  5
39
102
{ACAD_XDICTIONARY
360
1361
102
}
102
{ACAD_REACTORS
330
29
102
}
330
29
100
AcDbVisualStyle
  2
ColorChange
 70
    16
 71
     2
 72
     2
 73
     3
 90
        0
 40
-0.6
 41
-30.0
 62
     5
 63
     8
 74
     1
 91
        4
 64
     7
 65
   257
 75
     1
175
     1
 42
1.0
 92
        8
 66
     8
 43
1.0
 76
     1
 77
     6
 78
     2
 67
     7
 79
     5
170
     0
171
     0
290
     0
174
     0
 93
        1
 44
0.0
173
     0
291
     1
 45
0.0
1001
ACAD
1000
AcDbSavedByObjectVersion
1070
     0
1000
AcDbSavedByObjectVersion
1070
     0
1000
AcDbSavedByObjectVersion
1070
     0
  0
VISUALSTYLE
  5
32
102
{ACAD_XDICTIONARY
360
1353
102
}
102
{ACAD_REACTORS
330
29
102
}
330
29
100
AcDbVisualStyle
  2
Conceptual
 70
     9
 71
     3
 72
     2
 73
     0
 90
        0
 40
-0.6
 41
-30.0
 62
     5
 63
     7
 74
     2
 91
        2
 64
     7
 65
   257
 75
     1
175
     1
 42
179.0
 92
        8
 66
     7
 43
1.0
 76
     1
 77
     6
 78
     2
 67
     7
 79
     3
170
     0
171
     0
290
     0
174
     0
 93
        1
 44
0.0
173
     0
291
     0
 45
0.0
1001
ACAD
1000
AcDbSavedByObjectVersion
1070
     0
1000
AcDbSavedByObjectVersion
1070
     0
1000
AcDbSavedByObjectVersion
1070
     0
  0
VISUALSTYLE
  5
34
102
{ACAD_XDICTIONARY
360
1357
102
}
102
{ACAD_REACTORS
330
29
102
}
330
29
100
AcDbVisualStyle
  2
Dim
 70
    11
 71
     2
 72
     2
 73
     0
 90
        0
 40
-0.6
 41
-30.0
 62
     5
 63
     7
 74
     1
 91
        4
 64
     7
 65
   257
 75
     1
175
     1
 42
1.0
 92
        8
 66
     7
 43
1.0
 76
     1
 77
     6
 78
     2
 67
     7
 79
     5
170
     0
171
     0
290
     0
174
     0
 93
        1
 44
-50.0
173
     0
291
     1
 45
0.0
1001
ACAD
1000
AcDbSavedByObjectVersion
1070
     0
1000
AcDbSavedByObjectVersion
1070
     0
1000
AcDbSavedByObjectVersion
1070
     0
  0
VISUALSTYLE
  5
41
102
{ACAD_XDICTIONARY
360
1371
102
}
102
{ACAD_REACTORS
330
29
102
}
330
29
100
AcDbVisualStyle
  2
EdgeColorOff
 70
    22
 71
     2
 72
     2
 73
     0
 90
        0
 40
-0.6
 41
-30.0
 62
     5
 63
     7
 74
     1
 91
        4
 64
     7
 65
   257
 75
     1
175
     1
 42
1.0
 92
        8
 66
     7
 43
1.0
 76
     1
 77
     6
 78
     2
 67
     7
 79
     5
170
     0
171
     0
290
     0
174
     0
 93
        1
 44
0.0
173
     0
291
     1
 45
0.0
1001
ACAD
1000
AcDbSavedByObjectVersion
1070
     0
1000
AcDbSavedByObjectVersion
1070
     0
1000
AcDbSavedByObjectVersion
1070
     0
  0
VISUALSTYLE
  5
38
102
{ACAD_XDICTIONARY
360
135F
102
}
102
{ACAD_REACTORS
330
29
102
}
330
29
100
AcDbVisualStyle
  2
Facepattern
 70
    15
 71
     2
 72
     2
 73
     0
 90
        0
 40
-0.6
 41
-30.0
 62
     5
 63
     7
 74
     1
 91
        4
 64
     7
 65
   257
 75
     1
175
     1
 42
1.0
 92
        8
 66
     7
 43
1.0
 76
     1
 77
     6
 78
     2
 67
     7
 79
     5
170
     0
171
     0
290
     0
174
     0
 93
        1
 44
0.0
173
     0
291
     1
 45
0.0
1001
ACAD
1000
AcDbSavedByObjectVersion
1070
     0
1000
AcDbSavedByObjectVersion
1070
     0
1000
AcDbSavedByObjectVersion
1070
     0
  0
VISUALSTYLE
  5
2A
102
{ACAD_XDICTIONARY
360
1343
102
}
102
{ACAD_REACTORS
330
29
102
}
330
29
100
AcDbVisualStyle
  2
Flat
 70
     0
 71
     2
 72
     1
 73
     1
 90
        2
 40
-0.6
 41
30.0
 62
     5
 63
     7
 74
     0
 91
        0
 64
     7
 65
   257
 75
     1
175
     1
 42
1.0
 92
        8
 66
     7
 43
1.0
 76
     1
 77
     6
 78
     2
 67
     7
 79
     5
170
     0
171
     0
290
     0
174
     0
 93
       13
 44
0.0
173
     0
291
     1
 45
0.0
1001
ACAD
1000
AcDbSavedByObjectVersion
1070
     0
1000
AcDbSavedByObjectVersion
1070
     0
1000
AcDbSavedByObjectVersion
1070
     0
  0
VISUALSTYLE
  5
2B
102
{ACAD_XDICTIONARY
360
1345
102
}
102
{ACAD_REACTORS
330
29
102
}
330
29
100
AcDbVisualStyle
  2
FlatWithEdges
 70
     1
 71
     2
 72
     1
 73
     1
 90
        2
 40
-0.6
 41
30.0
 62
     5
 63
     7
 74
     1
 91
        0
 64
     7
 65
   257
 75
     1
175
     1
 42
1.0
 92
        0
 66
   257
 43
1.0
 76
     1
 77
     6
 78
     2
 67
     7
 79
     5
170
     0
171
     0
290
     0
174
     0
 93
       13
 44
0.0
173
     0
291
     1
 45
0.0
1001
ACAD
1000
AcDbSavedByObjectVersion
1070
     0
1000
AcDbSavedByObjectVersion
1070
     0
1000
AcDbSavedByObjectVersion
1070
     0
  0
VISUALSTYLE
  5
2C
102
{ACAD_XDICTIONARY
360
1347
102
}
102
{ACAD_REACTORS
330
29
102
}
330
29
100
AcDbVisualStyle
  2
Gouraud
 70
     2
 71
     2
 72
     2
 73
     1
 90
        2
 40
-0.6
 41
30.0
 62
     5
 63
     7
 74
     0
 91
        0
 64
     7
 65
   257
 75
     1
175
     1
 42
1.0
 92
        0
 66
     7
 43
1.0
 76
     1
 77
     6
 78
     2
 67
     7
 79
     5
170
     0
171
     0
290
     0
174
     0
 93
       13
 44
0.0
173
     0
291
     1
 45
0.0
1001
ACAD
1000
AcDbSavedByObjectVersion
1070
     0
1000
AcDbSavedByObjectVersion
1070
     0
1000
AcDbSavedByObjectVersion
1070
     0
  0
VISUALSTYLE
  5
2D
102
{ACAD_XDICTIONARY
360
1349
102
}
102
{ACAD_REACTORS
330
29
102
}
330
29
100
AcDbVisualStyle
  2
GouraudWithEdges
 70
     3
 71
     2
 72
     2
 73
     1
 90
        2
 40
-0.6
 41
30.0
 62
     5
 63
     7
 74
     1
 91
        0
 64
     7
 65
   257
 75
     1
175
     1
 42
1.0
 92
        0
 66
   257
 43
1.0
 76
     1
 77
     6
 78
     2
 67
     7
 79
     5
170
     0
171
     0
290
     0
174
     0
 93
       13
 44
0.0
173
     0
291
     1
 45
0.0
1001
ACAD
1000
AcDbSavedByObjectVersion
1070
     0
1000
AcDbSavedByObjectVersion
1070
     0
1000
AcDbSavedByObjectVersion
1070
     0
  0
VISUALSTYLE
  5
31
102
{ACAD_XDICTIONARY
360
1351
102
}
102
{ACAD_REACTORS
330
29
102
}
330
29
100
AcDbVisualStyle
  2
Hidden
 70
     6
 71
     1
 72
     2
 73
     2
 90
        0
 40
-0.6
 41
-30.0
 62
     5
 63
     7
 74
     2
 91
        2
 64
     7
 65
   257
 75
     2
175
     1
 42
40.0
 92
        0
 66
   257
 43
1.0
 76
     1
 77
     6
 78
     2
 67
     7
 79
     3
170
     0
171
     0
290
     0
174
     0
 93
        1
 44
0.0
173
     0
291
     0
 45
0.0
1001
ACAD
1000
AcDbSavedByObjectVersion
1070
     0
1000
AcDbSavedByObjectVersion
1070
     0
1000
AcDbSavedByObjectVersion
1070
     0
  0
VISUALSTYLE
  5
3F
102
{ACAD_XDICTIONARY
360
136D
102
}
102
{ACAD_REACTORS
330
29
102
}
330
29
100
AcDbVisualStyle
  2
JitterOff
 70
    20
 71
     2
 72
     2
 73
     0
 90
        0
 40
-0.6
 41
-30.0
 62
     5
 63
     7
 74
     1
 91
        4
 64
     7
 65
   257
 75
     1
175
     1
 42
1.0
 92
       10
 66
     7
 43
1.0
 76
     1
 77
     6
 78
     2
 67
     7
 79
     5
170
     0
171
     0
290
     0
174
     0
 93
        1
 44
0.0
173
     0
291
     1
 45
0.0
1001
ACAD
1000
AcDbSavedByObjectVersion
1070
     0
1000
AcDbSavedByObjectVersion
1070
     0
1000
AcDbSavedByObjectVersion
1070
     0
  0
VISUALSTYLE
  5
37
102
{ACAD_XDICTIONARY
360
135D
102
}
102
{ACAD_REACTORS
330
29
102
}
330
29
100
AcDbVisualStyle
  2
Linepattern
 70
    14
 71
     2
 72
     2
 73
     0
 90
        0
 40
-0.6
 41
-30.0
 62
     5
 63
     7
 74
     1
 91
        4
 64
     7
 65
   257
 75
     7
175
     7
 42
1.0
 92
        8
 66
     7
 43
1.0
 76
     1
 77
     6
 78
     2
 67
     7
 79
     5
170
     0
171
     0
290
     0
174
     0
 93
        1
 44
0.0
173
     0
291
     1
 45
0.0
1001
ACAD
1000
AcDbSavedByObjectVersion
1070
     0
1000
AcDbSavedByObjectVersion
1070
     0
1000
AcDbSavedByObjectVersion
1070
     0
  0
VISUALSTYLE
  5
40
102
{ACAD_XDICTIONARY
360
136F
102
}
102
{ACAD_REACTORS
330
29
102
}
330
29
100
AcDbVisualStyle
  2
OverhangOff
 70
    21
 71
     2
 72
     2
 73
     0
 90
        0
 40
-0.6
 41
-30.0
 62
     5
 63
     7
 74
     1
 91
        4
 64
     7
 65
   257
 75
     1
175
     1
 42
1.0
 92
        9
 66
     7
 43
1.0
 76
     1
 77
     6
 78
     2
 67
     7
 79
     5
170
     0
171
     0
290
     0
174
     0
 93
        1
 44
0.0
173
     0
291
     1
 45
0.0
1001
ACAD
1000
AcDbSavedByObjectVersion
1070
     0
1000
AcDbSavedByObjectVersion
1070
     0
1000
AcDbSavedByObjectVersion
1070
     0
  0
VISUALSTYLE
  5
33
102
{ACAD_XDICTIONARY
360
1355
102
}
102
{ACAD_REACTORS
330
29
102
}
330
29
100
AcDbVisualStyle
  2
Realistic
 70
     8
 71
     2
 72
     2
 73
     0
 90
        2
 40
-0.6
 41
30.0
 62
     5
 63
     7
 74
     0
 91
        0
 64
     7
 65
   257
 75
     1
175
     1
 42
1.0
 92
        8
 66
   257
 43
1.0
 76
     1
 77
     6
 78
     2
 67
     7
 79
     3
170
     0
171
     0
290
     0
174
     0
 93
       13
 44
0.0
173
     0
291
     0
 45
0.0
1001
ACAD
1000
AcDbSavedByObjectVersion
1070
     0
1000
AcDbSavedByObjectVersion
1070
     0
1000
AcDbSavedByObjectVersion
1070
     0
  0
VISUALSTYLE
  5
3E
102
{ACAD_XDICTIONARY
360
136B
102
}
102
{ACAD_REACTORS
330
29
102
}
330
29
100
AcDbVisualStyle
  2
Shaded
 70
    27
 71
     2
 72
     2
 73
     1
 90
        2
 40
-0.6
 41
30.0
 62
     5
 63
     7
 74
     0
 91
        4
 64
     7
 65
   257
 75
     1
175
     1
 42
1.0
 92
        8
 66
   257
 43
1.0
 76
     1
 77
     6
 78
     2
 67
     8
 79
     3
170
     0
171
     0
290
     0
174
     0
 93
        5
 44
0.0
173
     0
291
     0
 45
0.0
1001
ACAD
1000
AcDbSavedByObjectVersion
1070
     0
1000
AcDbSavedByObjectVersion
1070
     0
1000
AcDbSavedByObjectVersion
1070
     0
  0
VISUALSTYLE
  5
3D
102
{ACAD_XDICTIONARY
360
1369
102
}
102
{ACAD_REACTORS
330
29
102
}
330
29
100
AcDbVisualStyle
  2
Shaded with edges
 70
    26
 71
     2
 72
     2
 73
     1
 90
        2
 40
-0.6
 41
30.0
 62
     5
 63
     7
 74
     1
 91
       10
 64
     7
 65
   257
 75
     2
175
     1
 42
1.0
 92
        8
 66
   257
 43
1.0
 76
     1
 77
     6
 78
     2
 67
     7
 79
     3
170
     0
171
     0
290
     0
174
     0
 93
        5
 44
0.0
173
     0
291
     0
 45
0.0
1001
ACAD
1000
AcDbSavedByObjectVersion
1070
     0
1000
AcDbSavedByObjectVersion
1070
     0
1000
AcDbSavedByObjectVersion
1070
     0
  0
VISUALSTYLE
  5
3A
102
{ACAD_XDICTIONARY
360
1363
102
}
102
{ACAD_REACTORS
330
29
102
}
330
29
100
AcDbVisualStyle
  2
Shades of Gray
 70
    23
 71
     2
 72
     2
 73
     3
 90
        0
 40
-0.6
 41
-30.0
 62
     5
 63
     7
 74
     2
 91
        2
 64
     7
 65
     7
 75
     1
175
     1
 42
40.0
 92
        8
 66
     7
 43
1.0
 76
     1
 77
     6
 78
     2
 67
     7
 79
     3
170
     0
171
     0
290
     0
174
     0
 93
        1
 44
0.0
173
     0
291
     0
 45
0.0
1001
ACAD
1000
AcDbSavedByObjectVersion
1070
     0
1000
AcDbSavedByObjectVersion
1070
     0
1000
AcDbSavedByObjectVersion
1070
     0
  0
VISUALSTYLE
  5
3B
102
{ACAD_XDICTIONARY
360
1365
102
}
102
{ACAD_REACTORS
330
29
102
}
330
29
100
AcDbVisualStyle
  2
Sketchy
 70
    24
 71
     1
 72
     2
 73
     2
 90
        0
 40
-0.6
 41
-30.0
 62
     5
 63
     7
 74
     2
 91
        2
 64
     7
 65
     7
 75
     1
175
     1
 42
40.0
 92
       11
 66
     7
 43
1.0
 76
     1
 77
     6
 78
     2
 67
     7
 79
     6
170
     0
171
     0
290
     0
174
     0
 93
        1
 44
0.0
173
     0
291
     0
 45
0.0
1001
ACAD
1000
AcDbSavedByObjectVersion
1070
     0
1000
AcDbSavedByObjectVersion
1070
     0
1000
AcDbSavedByObjectVersion
1070
     0
  0
VISUALSTYLE
  5
36
102
{ACAD_XDICTIONARY
360
135B
102
}
102
{ACAD_REACTORS
330
29
102
}
330
29
100
AcDbVisualStyle
  2
Thicken
 70
    13
 71
     2
 72
     2
 73
     0
 90
        0
 40
-0.6
 41
-30.0
 62
     5
 63
     7
 74
     1
 91
        4
 64
     7
 65
   257
 75
     1
175
     1
 42
1.0
 92
       12
 66
     7
 43
1.0
 76
     1
 77
     6
 78
     2
 67
     7
 79
     5
170
     0
171
     0
290
     0
174
     0
 93
        1
 44
0.0
173
     0
291
     1
 45
0.0
1001
ACAD
1000
AcDbSavedByObjectVersion
1070
     0
1000
AcDbSavedByObjectVersion
1070
     0
1000
AcDbSavedByObjectVersion
1070
     0
  0
VISUALSTYLE
  5
30
102
{ACAD_XDICTIONARY
360
134F
102
}
102
{ACAD_REACTORS
330
29
102
}
330
29
100
AcDbVisualStyle
  2
Wireframe
 70
     5
 71
     0
 72
     2
 73
     0
 90
        0
 40
-0.6
 41
-30.0
 62
     5
 63
     7
 74
     1
 91
        4
 64
     7
 65
   257
 75
     1
175
     1
 42
1.0
 92
        0
 66
   257
 43
1.0
 76
     1
 77
     6
 78
     2
 67
     7
 79
     3
170
     0
171
     0
290
     0
174
     0
 93
        1
 44
0.0
173
     0
291
     0
 45
0.0
1001
ACAD
1000
AcDbSavedByObjectVersion
1070
     0
1000
AcDbSavedByObjectVersion
1070
     0
1000
AcDbSavedByObjectVersion
1070
     0
  0
VISUALSTYLE
  5
3C
102
{ACAD_XDICTIONARY
360
1367
102
}
102
{ACAD_REACTORS
330
29
102
}
330
29
100
AcDbVisualStyle
  2
X-Ray
 70
    25
 71
     2
 72
     2
 73
     1
 90
        1
 40
0.5
 41
-30.0
 62
     5
 63
     7
 74
     1
 91
        0
 64
     7
 65
   257
 75
     1
175
     1
 42
1.0
 92
        8
 66
     7
 43
1.0
 76
     1
 77
     6
 78
     2
 67
     7
 79
     3
170
     0
171
     0
290
     0
174
     0
 93
       13
 44
0.0
173
     0
291
     0
 45
0.0
1001
ACAD
1000
AcDbSavedByObjectVersion
1070
     0
1000
AcDbSavedByObjectVersion
1070
     0
1000
AcDbSavedByObjectVersion
1070
     0
  0
DICTIONARYVAR
  5
12A4
102
{ACAD_REACTORS
330
12A0
102
}
330
12A0
100
DictionaryVariables
280
     0
  1
1:1
  0
DICTIONARYVAR
  5
12A2
102
{ACAD_REACTORS
330
12A0
102
}
330
12A0
100
DictionaryVariables
280
     0
  1
STANDARD
  0
DICTIONARYVAR
  5
12A1
102
{ACAD_REACTORS
330
12A0
102
}
330
12A0
100
DictionaryVariables
280
     0
  1
STANDARD
  0
DICTIONARYVAR
  5
12AB
102
{ACAD_REACTORS
330
12A0
102
}
330
12A0
100
DictionaryVariables
280
     0
  1
2
  0
DICTIONARYVAR
  5
12AA
102
{ACAD_REACTORS
330
12A0
102
}
330
12A0
100
DictionaryVariables
280
     0
  1
1
  0
DICTIONARYVAR
  5
12A9
102
{ACAD_REACTORS
330
12A0
102
}
330
12A0
100
DictionaryVariables
280
     0
  1
1
  0
DICTIONARYVAR
  5
12A6
102
{ACAD_REACTORS
330
12A0
102
}
330
12A0
100
DictionaryVariables
280
     0
  1
0
  0
DICTIONARYVAR
  5
12A7
102
{ACAD_REACTORS
330
12A0
102
}
330
12A0
100
DictionaryVariables
280
     0
  1
0
  0
DICTIONARYVAR
  5
12A5
102
{ACAD_REACTORS
330
12A0
102
}
330
12A0
100
DictionaryVariables
280
     0
  1
2
  0
DICTIONARYVAR
  5
12A3
102
{ACAD_REACTORS
330
12A0
102
}
330
12A0
100
DictionaryVariables
280
     0
  1
1
  0
DICTIONARYVAR
  5
12A8
102
{ACAD_REACTORS
330
12A0
102
}
330
12A0
100
DictionaryVariables
280
     0
  1
127
  0
DICTIONARYVAR
  5
12AC
102
{ACAD_REACTORS
330
12A0
102
}
330
12A0
100
DictionaryVariables
280
     0
  1
0
  0
DICTIONARY
  5
142D
102
{ACAD_REACTORS
330
142C
102
}
330
142C
100
AcDbDictionary
281
     1
  0
XRECORD
  5
16C0
102
{ACAD_REACTORS
330
142C
102
}
330
142C
100
AcDbXrecord
280
     1
 90
-1056964608
  0
DICTIONARY
  5
138D
102
{ACAD_REACTORS
330
138C
102
}
330
138C
100
AcDbDictionary
281
     1
  3
DWGSETTINGS
350
1E00
  3
TRANSSETTINGS
350
1E04
  0
ACAMGFILTERDAT
  5
16C1
102
{ACAD_REACTORS
330
14BB
102
}
330
14BB
100
AcAmgFilterDat
 70
    15
  1
DIMENSION,AMDT_*_DIM
  2
*
  3
*
  4
*
  5
*
290
     1
  0
ACAMGFILTERDAT
  5
16C2
102
{ACAD_REACTORS
330
14BB
102
}
330
14BB
100
AcAmgFilterDat
 70
    15
  1
*
  2
AM_FEA-AM_*
  3
*
  4
*
  5
*
290
     1
  0
ACAMGFILTERDAT
  5
16C3
102
{ACAD_REACTORS
330
14BB
102
}
330
14BB
100
AcAmgFilterDat
 70
    15
  1
HATCH
  2
*
  3
*
  4
*
  5
*
290
     1
  0
ACAMGFILTERDAT
  5
16C4
102
{ACAD_REACTORS
330
14BB
102
}
330
14BB
100
AcAmgFilterDat
 70
    15
  1
ACMFCFRAME,ACMDATUMTARGET,ACMDATUMID,ACMWELDSYM,ACMSURFSYM,ACMFEATID,ACMPARTREF,ACMBALLOON
  2
*
  3
*
  4
*
  5
*
290
     1
  0
LAYER_INDEX
  5
1668
102
{ACAD_REACTORS
330
1667
102
}
330
1667
100
AcDbIndex
 40
2456359.669758611
100
AcDbLayerIndex
  8
0
360
1669
 90
        0
  8
Dimensions(ISO)
360
166A
 90
        0
  8
Visible Edges(ISO)
360
166B
 90
        0
  8
Defpoints
360
166C
 90
        0
  8
AM_0
360
16CC
 90
        1
  0
DICTIONARY
  5
2214
330
14EA
100
AcDbDictionary
280
     1
281
     1
  3
ACAD_XREC_ROUNDTRIP
360
2215
  0
DICTIONARY
  5
2212
330
6F
100
AcDbDictionary
280
     1
281
     1
  3
ACAD_XREC_ROUNDTRIP
360
2213
  0
DICTIONARY
  5
1A
330
19
100
AcDbDictionary
280
     1
281
     1
  3
ACAD_XREC_ROUNDTRIP
360
1341
  3
BUMPTILE
360
1C
  3
DIFFUSETILE
360
1B
  3
OPACITYTILE
360
1F
  3
REFLECTIONTILE
360
1E
  3
REFRACTIONTILE
360
20
  3
SPECULARTILE
360
1D
  0
DICTIONARY
  5
12
330
11
100
AcDbDictionary
280
     1
281
     1
  3
ACAD_XREC_ROUNDTRIP
360
1340
  3
BUMPTILE
360
14
  3
DIFFUSETILE
360
13
  3
FBXASSET
360
E0
  3
OPACITYTILE
360
17
  3
REFLECTIONTILE
360
16
  3
REFRACTIONTILE
360
18
  3
SPECULARTILE
360
15
  0
DICTIONARY
  5
22
330
21
100
AcDbDictionary
280
     1
281
     1
  3
ACAD_XREC_ROUNDTRIP
360
1342
  3
BUMPTILE
360
24
  3
DIFFUSETILE
360
23
  3
OPACITYTILE
360
27
  3
REFLECTIONTILE
360
26
  3
REFRACTIONTILE
360
28
  3
SPECULARTILE
360
25
  0
DICTIONARY
  5
12AF
330
67
100
AcDbDictionary
280
     1
281
     1
  3
ACAD_XREC_ROUNDTRIP
360
12B0
  0
DICTIONARY
  5
12AD
330
65
100
AcDbDictionary
280
     1
281
     1
  3
ACAD_ROUNDTRIP_2008_TABLESTYLE_CELLSTYLEMAP
360
220A
  3
ACAD_XREC_ROUNDTRIP
360
2211
  0
DICTIONARY
  5
134D
330
2F
100
AcDbDictionary
280
     1
281
     1
  3
ACAD_XREC_ROUNDTRIP
360
134E
  0
DICTIONARY
  5
134B
330
2E
100
AcDbDictionary
280
     1
281
     1
  3
ACAD_XREC_ROUNDTRIP
360
134C
  0
DICTIONARY
  5
1359
330
35
100
AcDbDictionary
280
     1
281
     1
  3
ACAD_XREC_ROUNDTRIP
360
135A
  0
DICTIONARY
  5
1361
330
39
100
AcDbDictionary
280
     1
281
     1
  3
ACAD_XREC_ROUNDTRIP
360
1362
  0
DICTIONARY
  5
1353
330
32
100
AcDbDictionary
280
     1
281
     1
  3
ACAD_XREC_ROUNDTRIP
360
1354
  0
DICTIONARY
  5
1357
330
34
100
AcDbDictionary
280
     1
281
     1
  3
ACAD_XREC_ROUNDTRIP
360
1358
  0
DICTIONARY
  5
1371
330
41
100
AcDbDictionary
280
     1
281
     1
  3
ACAD_XREC_ROUNDTRIP
360
1372
  0
DICTIONARY
  5
135F
330
38
100
AcDbDictionary
280
     1
281
     1
  3
ACAD_XREC_ROUNDTRIP
360
1360
  0
DICTIONARY
  5
1343
330
2A
100
AcDbDictionary
280
     1
281
     1
  3
ACAD_XREC_ROUNDTRIP
360
1344
  0
DICTIONARY
  5
1345
330
2B
100
AcDbDictionary
280
     1
281
     1
  3
ACAD_XREC_ROUNDTRIP
360
1346
  0
DICTIONARY
  5
1347
330
2C
100
AcDbDictionary
280
     1
281
     1
  3
ACAD_XREC_ROUNDTRIP
360
1348
  0
DICTIONARY
  5
1349
330
2D
100
AcDbDictionary
280
     1
281
     1
  3
ACAD_XREC_ROUNDTRIP
360
134A
  0
DICTIONARY
  5
1351
330
31
100
AcDbDictionary
280
     1
281
     1
  3
ACAD_XREC_ROUNDTRIP
360
1352
  0
DICTIONARY
  5
136D
330
3F
100
AcDbDictionary
280
     1
281
     1
  3
ACAD_XREC_ROUNDTRIP
360
136E
  0
DICTIONARY
  5
135D
330
37
100
AcDbDictionary
280
     1
281
     1
  3
ACAD_XREC_ROUNDTRIP
360
135E
  0
DICTIONARY
  5
136F
330
40
100
AcDbDictionary
280
     1
281
     1
  3
ACAD_XREC_ROUNDTRIP
360
1370
  0
DICTIONARY
  5
1355
330
33
100
AcDbDictionary
280
     1
281
     1
  3
ACAD_XREC_ROUNDTRIP
360
1356
  0
DICTIONARY
  5
136B
330
3E
100
AcDbDictionary
280
     1
281
     1
  3
ACAD_XREC_ROUNDTRIP
360
136C
  0
DICTIONARY
  5
1369
330
3D
100
AcDbDictionary
280
     1
281
     1
  3
ACAD_XREC_ROUNDTRIP
360
136A
  0
DICTIONARY
  5
1363
330
3A
100
AcDbDictionary
280
     1
281
     1
  3
ACAD_XREC_ROUNDTRIP
360
1364
  0
DICTIONARY
  5
1365
330
3B
100
AcDbDictionary
280
     1
281
     1
  3
ACAD_XREC_ROUNDTRIP
360
1366
  0
DICTIONARY
  5
135B
330
36
100
AcDbDictionary
280
     1
281
     1
  3
ACAD_XREC_ROUNDTRIP
360
135C
  0
DICTIONARY
  5
134F
330
30
100
AcDbDictionary
280
     1
281
     1
  3
ACAD_XREC_ROUNDTRIP
360
1350
  0
DICTIONARY
  5
1367
330
3C
100
AcDbDictionary
280
     1
281
     1
  3
ACAD_XREC_ROUNDTRIP
360
1368
  0
IDBUFFER
  5
1669
330
0
100
AcDbIdBuffer
  0
IDBUFFER
  5
166A
330
0
100
AcDbIdBuffer
  0
IDBUFFER
  5
166B
330
0
100
AcDbIdBuffer
  0
IDBUFFER
  5
166C
330
0
100
AcDbIdBuffer
  0
IDBUFFER
  5
16CC
330
0
100
AcDbIdBuffer
330
2207
  0
XRECORD
  5
2215
102
{ACAD_REACTORS
330
2214
102
}
330
2214
100
AcDbXrecord
280
     1
102
SHADEPLOT
 70
     0
102
SHADEPLOTRESLEVEL
 70
     2
102
SHADEPLOTCUSTOMDPI
 70
   300
  0
XRECORD
  5
2213
102
{ACAD_REACTORS
330
2212
102
}
330
2212
100
AcDbXrecord
280
     1
102
SHADEPLOT
 70
     0
102
SHADEPLOTRESLEVEL
 70
     2
102
SHADEPLOTCUSTOMDPI
 70
   300
  0
XRECORD
  5
1341
102
{ACAD_REACTORS
330
1A
102
}
330
1A
100
AcDbXrecord
280
     1
102
MATERIAL
148
0.0
149
0.0
149
0.0
 93
        0
 94
      127
282
     0
 72
     0
 77
     0
171
     0
175
     0
179
     0
273
     0
  0
XRECORD
  5
1C
102
{ACAD_REACTORS
330
1A
102
}
330
1A
100
AcDbXrecord
280
     1
270
     1
271
     1
  0
XRECORD
  5
1B
102
{ACAD_REACTORS
330
1A
102
}
330
1A
100
AcDbXrecord
280
     1
270
     1
271
     1
  0
XRECORD
  5
1F
102
{ACAD_REACTORS
330
1A
102
}
330
1A
100
AcDbXrecord
280
     1
270
     1
271
     1
  0
XRECORD
  5
1E
102
{ACAD_REACTORS
330
1A
102
}
330
1A
100
AcDbXrecord
280
     1
270
     1
271
     1
  0
XRECORD
  5
20
102
{ACAD_REACTORS
330
1A
102
}
330
1A
100
AcDbXrecord
280
     1
270
     1
271
     1
  0
XRECORD
  5
1D
102
{ACAD_REACTORS
330
1A
102
}
330
1A
100
AcDbXrecord
280
     1
270
     1
271
     1
  0
XRECORD
  5
1340
102
{ACAD_REACTORS
330
12
102
}
330
12
100
AcDbXrecord
280
     1
102
MATERIAL
148
0.0
149
0.0
149
0.0
 93
        0
 94
      127
282
     0
 72
     0
 77
     0
171
     0
175
     0
179
     0
273
     0
  0
XRECORD
  5
14
102
{ACAD_REACTORS
330
12
102
}
330
12
100
AcDbXrecord
280
     1
270
     1
271
     1
  0
XRECORD
  5
13
102
{ACAD_REACTORS
330
12
102
}
330
12
100
AcDbXrecord
280
     1
270
     1
271
     1
  0
XRECORD
  5
E0
102
{ACAD_REACTORS
330
12
102
}
330
12
100
AcDbXrecord
280
     1
 70
     1
 90
1959938040
 71
     1
  1
59165DAA-CC43-427C-B8C7-9A0835C56BDC
311
504B03040A0000080000FC6B61423DEE336E79000000790000001B0000006175746F6465736B2D64657369676E2D7061636B6167652E786D6C3C3F786D6C2076657273696F6E3D22312E302220656E636F64696E673D227574662D3822203F3E3C666F726D6174733E3C666F726D61743E687474703A2F2F736368656D612E
311
6175746F6465736B2E636F6D2F64657369676E2D7061636B6167652F323030393C2F666F726D61743E3C2F666F726D6174733E504B0304140006080800FC6B6142D486FD9CA0000000F4000000130000005B436F6E74656E745F54797065735D2E786D6C7D8EC10E82300C865F65E91D8A1E8C310C0EEA1BF002731658846E
311
D98AC1B77784ABF1D8FE5FBFBF75BBCE937A534CCEB38643598122B6FEE978D0B0485F9C41B54DDD7D022595594E1A469170414C76A4D9A4D207E29CF43ECE46F218070CC6BECC4078ACAA135ACF422C856C0E68EA1BF5669944DDD7BCDE7B1F8E415D77AECB980613C2E4AC91FC167A2B244592486606FC29C8FD7F045B9A
311
EF7053A7E60B504B0304140006080800FC6B6142BD29EC18EC0000007C01000008000000636F72652E786D6C8D90618E83201085AF42E6EF0605B4D51AA471BBF6047B0182D4925630029B3DFE626B93DD7F9B90CCE4F1BE99C9E3C7EFE98EBEF4E28DB32DD08C00D256B9C1D8B185182EB80674147C712EFCB201B272D22D
311
AC32083E2E2ECE9BA49C0DDA86A45A37E84D94DEEB0048DD53D38257573DC94CC6901CFE96CD52DDE4A833FAEA121CA319D0738919D23C73317A017162657FFED853CCFABEC76555EF71776015AECB8EF5077A7EDF75279EAFB0E0C14CAFFD6AD132E8010423B4C0243DFA498BA6A0CDAE7A23B42184E7ABFD0F14E7E19F50
311
3436146C3BF7897910341DF2F8103C5FB348E51154AA6B6EE207504B0304140006080800FC6B614255019EA25F0000007C00000007000000636E782E786D6C4DCB3B0E80201045D1AD90E915ED2CF8AC45050C11660C8261F98AB1B07AC9C97D42D718D865D3E909258CFD00CCE24AC6E326A164D74DC0B4128928FF326038
311
472BA13128B1252AC747C6BAB984FC68F0B87FE8960A5C09FE86CFB69FBA01504B0304140006080800FC6B61427D625C5867010000020300000C0000006662782F636F72652E786D6C8D525B6E833010BC8AE5DF0A8C813C651CA52939412FE08043AD808D8C8D72FC2E8F284D15451108AC999DDDD901B6BB3635EAA5ED94
311
D119A6618491D4852995AE32ECDD395863B4E3CC1AE3FE9461A44523333CC098B3CA1ADFCE5061B493DA01AA4D296750749D741815351C32DC153FB211A1F00E2ABA4BD88AE2222A19D21068A8E3AC73160CA069C8F0C4FC7CBA3232E19C79AFCA9955254C5367252DE68738CD8F5F4B1AC4799E07E96ABD0CF69B7815ACD3
311
7D9C6FE8F173B13F3032883973AAB9B92BAC144E9698C7114D82086EFA4D936D42B78BD54744B751C4C850FE20F26DF9A6C82BED9278B63BC93ACC291819897FDB42440E75A2073F8433328408AF31E1C7A0211008D989537DDBE302502F0B676C0A4C69FC9DEA45ED254C8DD0783132B1D0796C009B3DED13BFE8F3BA077C
311
40A12BB0261C1C4FDE0DD3D934758EA29536E8DD1569631B51DFCD4D16EFCFFBA0A7F2C2D4C6BEA326F3AA640E930C7F2FFF05504B0304140006080800FC6B6142436040FB7D0000009D0000000B0000006662782F636E782E786D6C4DCCD10A83201805E05791FFDE52D7B6066AAC95EF11CB42321DA6638FBF1C5DECE61C
311
F8381CDE7C568BDE3A6CC63B01B42080B47BFAD1B859408A13AE01359207EFE3DF0C901B562D2033483E079F5E078D7A1A928DBB5AE3960359AFCE945C18AE6A76CA51E1DB9D30DCB6FD4351D511DA5DA194BCFC3DED9D8FE517504B0304140006080800FC6B6142461AF8712A01000014020000310000006662782F324546
311
35313036322D343832332D343832342D394130322D4242454346314644303144372F636F72652E786D6C8D515B6EC23010BC8AE52FAA2A899D07A4C8312A054ED00B18C7A416C48EFCA8387ED74D90DA3F246BD7DA9D991DEDB2DD7DBCA16FE5BCB6A6C334271829236DAFCDD0E1182E598BD18E33676DF803C3C888517538
311
95316783B3715A4AD29AA04C80AAB1BD5A8AC27B15309237F874D8CB2F358A5CC400087FCD2721AF625039CDA10D38CE7C706000CD4352C4BC3C9E1A4AD66556B76595429DBDBD9332DBEF8F1F277A3A107AD8B062267216A3EE17BAEEC18EBE68E59E154964CE821E1FF6A55322A81EF884561981473F69B5ADE8B6D9BC12
311
BA25841509FE8F14A7FE4952D42654E56277A679CC292BE60667BD8DE7DBC38CBA4FD60594E6ADBC922F98939C90B62D6953B26286C20240735D2F9A3E58070B5E5DCF80A6CD2CBCAE392BD28D20FD1E1072BA27FF01504B0304140006080800FC6B6142E67208244E01000033030000300000006662782F32454635313036
311
322D343832332D343832342D394130322D4242454346314644303144372F636E782E786D6CD593CD6EC32010845F0571AD629B3A4DAB0813A9873E410FBD62D82434182C7EAAE6EDBB2424CD25871E2B59C89A1D66569F6CBEF99E2CF982108D7703654D470938E5B571BB81E6B45DBC50B2113C789F6E6C943839C1408B4C
311
05DF059FE72A69D8CA6C13AAD6B8431503449F83828872B949AC57D26200B8454611A611B4064DAE467CDB42C055501C8F24ED81BCBD7E103F7E824A91B72545F0B674085ECEDA7463A2445919E340A3DAC3241B9993D7100F8D964936ACB974DDD9E93789940B97CA1C0C29E5032D271575A30639F2168782C714905E35A5
311
E30C54C879B646C98490DB93F1EC113C1B9756CBEA35083EA09BADFAE512C34E33C19399A03A5400994053F1D8B17ED1E1C3DE59BFEED9FAE9F9A163EBAEE36DB10B3E7A6FEB258C81E067A2BC4BE012158CB7657C0F5FF5116D02B2F6E1F8079008A0B69EE95C33FE339FF6F47D23AE807F81F801504B0304140006080800
311
FC6B61423A503E909B0500007B100000340000006662782F32454635313036322D343832332D343832342D394130322D4242454346314644303144372F6F626A656374732E786D6CAD575B8F9B3814FE2B887D0E845CA6332B862A219D2AEA4E5B356AB50F23450E18C63BE622DB4C33FDF5FB190C81349966577D016CECE3
311
73BEF39D8BFDB7FB8C5BCF544856E4B7B6E78C6D8BE65111B33CBDB52B958CAE6DEB6DE08BA250BD65B695938CDEDA7ADA0EFC54145569A6629A908AABA3D9BBE5DF968C684E6D2BE244CA5B5B468F34230EA9541153F9E4C44411274DF68EE7340B87625341CAC723A125113457D014F339A4588D52DE7038B6DDC077F5FF
311
C0D74FB36A7A7E955BDB333C9FE552913CFAE9B02331536FB67A3799DF8CE6B3D97434BB9A78A3E5DD7235F2DE4CC7E15518DE2CDEDDE060A90424194D044DECE03DB0112CF2DDE657E0572C57D38959621CE40AFACCB4A7EC606279BEDBACE9AC33469E523F2AF29C46355640A3B6CF888E6949F3183E675442B31E42E3E1
311
D0D338F67E4FF5D81CD99FBE0C81FE8E9EA056F7F6DDD7B4D8FD0313E4250C12926A0636581A431BAE8E0F08EF8A829B7F4C5A19515430C22DCE768288173BC052BD24F007623493858E066D811DC00BCDEF215D1046BFE6F9292D938A734D633BA8A3608B58A14AD69AB11F541CB4EF23039DE02BCD866B63907A29A91DDC
311
3414B93E625303A4957092C2E53053EF9C4E8E0C0D759CAE5776F0E16EB7DFE8D83D7D78298A920AA5E9036AB58E6BDF1A25A3937791E7F406FB489503285F80FC4784FA4115F84DB0FD6C3F33A7284172991422836FACB1351AE331B6BCFAA9BF7B5FBEDB6D1E7AEF1C9E70B686EA37E039B4A1EFCB1E9C81FF0CC217626A
311
4CDB4484236DDCB31C00699258BCC014F270B2DBDBC11A590E5919BB080F3C980C759FF1E9BB460C12457D52EF9D03CBA3B4784182066C3523A146437EA3E0C14F3FA5B3FA60B3EC1CBCF3DF42D7C56AF36153898444F4DEC4F48A262C670A25EEC09BBE4203CC07163DD197EF858861E8CF786FFA7867E62809B435E61AF8
311
B4CDE97A7038797040847D69A1D38DFF8B1360842EAC3DF9F74C46947392D3A26ACF7DB57EA06C3410EB60D74CEE0ACCA1B08034CD9FA31844918E042B35885DB5EA92A673C6BAAFEB8F60A41D2C5FFE222FFDECB53BE4DEA8E085D8EE5EB64D5A3A09F5B721B70D06AE9602BAD741D2C6BF017D1BB324A92492E0095CBFAD
311
C3BEEF745A408A68A536D13283FD082E220C695BB9A8D682A09216F996A16E22EE4E1ED0970F480D036A81E7349694275BC679956D13C6518DB61929CFC0F1FFF5DF5559B9255951E5EA8CEC81EAA80E43DD07EC95DF898A1EED6053BF474BE4DE98C667C8A06BC909AC06AE9DDF7857F3D562310A43DD3F4DDE84A3E575F8
311
6674B3185F4FE7E1FC6AB982E946A3BA890AFCB6D4F4231A5E4269F32BC18CFBBEAE113F2609D8C13D51F2E17D139EEDFBEBDA412FECBBD8837AD96D5CC4CFE8FB68FC6B0187952705ADB392D38CE68AE818BAD71FFC0B419F3150A6995F6724A51748F9F47E73640C662ED8F759C73BFD7EB4D7CC863A204F0A518F55B6CB
311
09E3471BD30649A7CC53835FEB93EEDD149A76A847C631E84C65C1598C3C185B292D32AA900D2F284222A312D4EBF7F4B1B97B5CB0FBB9E91015D971DA6AF248D0247389B000C9AB480DE7AD3FD0D4E9BEEAD646B9759EF03099C2B6C0995B1B4DBA621195CE0E055AB742B57070A9DFC983B3244F397AED665337EE76696C
311
0625B95B7249FF64EC6A52B8310069A444DF808608DEA99509FC5A37F33FFA4F86B7EA5844E17357A9CE96C344674C7D0C42B431CADC16D0C43C99A3F708D4D7CDF29C7ACD00918B6E59AF92A0913A5244A4F54D41EB67545AAC3EBBE850ACF527ABE4550A5F5E2E692428C85CE900078BC00A23B3240A540DFF7CF82C0ADC
311
6433EB8E81020F619165456E060B7313B6368FB8D7C60F480B545F48E4C364EC4D1EEA8B80B99B6C77445287C4F20913F0A9601DC403C78391CD6D1115A8F9D1AD73B5138EB8B95E59A6A4CD20D410A59F55352C6839726A217AF46552C74A7F41F9EA5DC0AD974205812E3EF817504B0304140006080000FC6B6142000000
311
000000000000000000350000006662782F32454635313036322D343832332D343832342D394130322D4242454346314644303144372F76657274696365732E62696E504B0304140006080800FC6B6142F270F1330600000004000000360000006662782F32454635313036322D343832332D343832342D394130322D424245
311
4346314644303144372F747269616E676C65732E62696E636660600000504B0304140006080000FC6B6142000000000000000000000000370000006662782F32454635313036322D343832332D343832342D394130322D4242454346314644303144372F617474726962757465732E62696E504B0304140006080800FC6B61
311
42D5987DFC8F00000041010000360000006662782F32454635313036322D343832332D343832342D394130322D4242454346314644303144372F6469726563746F72792E786D6C858F410EC2201045AF4266AF15DDB800BA74E7C21B903225242D6328188F2FA5C4183471359997F9FF81E89FF3C41E1816475E02DF1F80A1
311
1FC8386F25A438EECEC07A250251FC3803E6F58C12560C4AD840E95E91C151A72936F496F35732D860FE635F62C8F2DA16B505C545B74125BAA2FA9E05D7CC053D063734D5C7665FD55B6B8D15D5E9BFEAFD8490FFA45E504B0304140006080800FC6B6142AE82C280FE000000A00100003B0000006662782F324546353130
311
36322D343832332D343832342D394130322D4242454346314644303144372F7265736F75726365732F636F72652E786D6C8D505B6E833010BC0ADADF0AB08104828C239A9213F40296D9502BC1467E543D7E4DA052FB57C9F2AEE6A11D0D3B7FCD8FE413AD534677403302096A6946A5A70E82BFA50D2467CEAC31FE970C12
311
2D66EC608581B3C99AB0EC9034DAA3F611D566C41D14CEA187443EE2D281931F388B4C041F15EE9E2D42DEC58419CD221D759C396F6380643BB2FEC02D3A13AC44C7F28DE52C0435EE1A35C69BEAA6D002BF14D5707D3B92B4188621ADEAE698F6A7A24E9BAA2F8613BDBE1EFA0BCB5733675ECD3F19A545E171045E105AA6
311
243EFA4ECBB6A4EDA17E21B42584E5ABFC8F292CE33F4D41695F167BDCCDE680D318E4497096AF7DC5F12C33CEB55BFE0D504B010214000A0000080000FC6B61423DEE336E79000000790000001B00000000000000000000000000000000006175746F6465736B2D64657369676E2D7061636B6167652E786D6C504B010214
311
00140006080800FC6B6142D486FD9CA0000000F40000001300000000000000000000000000B20000005B436F6E74656E745F54797065735D2E786D6C504B01021400140006080800FC6B6142BD29EC18EC0000007C010000080000000000000000000000000083010000636F72652E786D6C504B01021400140006080800FC
311
6B614255019EA25F0000007C000000070000000000000000000000000095020000636E782E786D6C504B01021400140006080800FC6B61427D625C5867010000020300000C00000000000000000000000000190300006662782F636F72652E786D6C504B01021400140006080800FC6B6142436040FB7D0000009D0000000B
311
00000000000000000000000000AA0400006662782F636E782E786D6C504B01021400140006080800FC6B6142461AF8712A010000140200003100000000000000000000000000500500006662782F32454635313036322D343832332D343832342D394130322D4242454346314644303144372F636F72652E786D6C504B0102
311
1400140006080800FC6B6142E67208244E010000330300003000000000000000000000000000C90600006662782F32454635313036322D343832332D343832342D394130322D4242454346314644303144372F636E782E786D6C504B01021400140006080800FC6B61423A503E909B0500007B100000340000000000000000
311
0000000000650800006662782F32454635313036322D343832332D343832342D394130322D4242454346314644303144372F6F626A656374732E786D6C504B01021400140006080000FC6B61420000000000000000000000003500000000000000000000000000520E00006662782F32454635313036322D343832332D3438
311
32342D394130322D4242454346314644303144372F76657274696365732E62696E504B01021400140006080800FC6B6142F270F13306000000040000003600000000000000000000000000A50E00006662782F32454635313036322D343832332D343832342D394130322D4242454346314644303144372F747269616E676C
311
65732E62696E504B01021400140006080000FC6B61420000000000000000000000003700000000000000000000000000FF0E00006662782F32454635313036322D343832332D343832342D394130322D4242454346314644303144372F617474726962757465732E62696E504B01021400140006080800FC6B6142D5987DFC
311
8F000000410100003600000000000000000000000000540F00006662782F32454635313036322D343832332D343832342D394130322D4242454346314644303144372F6469726563746F72792E786D6C504B01021400140006080800FC6B6142AE82C280FE000000A00100003B000000000000000000000000003710000066
311
62782F32454635313036322D343832332D343832342D394130322D4242454346314644303144372F7265736F75726365732F636F72652E786D6C504B0506000000000E000E00800400008E1100000000
310
504B03040A0000080000FC6B61423DEE336E79000000790000001B0000006175746F6465736B2D64657369676E2D7061636B6167652E786D6C3C3F786D6C2076657273696F6E3D22312E302220656E636F64696E673D227574662D3822203F3E3C666F726D6174733E3C666F726D61743E687474703A2F2F736368656D612E
310
6175746F6465736B2E636F6D2F64657369676E2D7061636B6167652F323030393C2F666F726D61743E3C2F666F726D6174733E504B0304140006080800FC6B6142D486FD9CA0000000F4000000130000005B436F6E74656E745F54797065735D2E786D6C7D8EC10E82300C865F65E91D8A1E8C310C0EEA1BF002731658846E
310
D98AC1B77784ABF1D8FE5FBFBF75BBCE937A534CCEB38643598122B6FEE978D0B0485F9C41B54DDD7D022595594E1A469170414C76A4D9A4D207E29CF43ECE46F218070CC6BECC4078ACAA135ACF422C856C0E68EA1BF5669944DDD7BCDE7B1F8E415D77AECB980613C2E4AC91FC167A2B244592486606FC29C8FD7F045B9A
310
EF7053A7E60B504B0304140006080800FC6B61427E485631EC0000007C01000008000000636F72652E786D6C8D905D6EC3201084AF82F6B5C2063BCD8F8589E2109FA01740405C94182C03558F5F9C3852FB56096957C37CBBAB61C7EFF18EBECC1CAC772DD08200324E796DDDD0428A57BC0774E46CF63EFEB2017272342D
310
2C327036CC3E4DABA4BC8BC6C5AC3AAFCD2ACA104C04A4EEB96921A84F33CA42A6981DE1564C52DDE4600AFAEA329C92D5E8B9C4EA3CCF5EAD99818B33E92F97D3168BC386E24DDFF7B8DB8B0A77E4204EFDEEDC09B165E5027316EDF8DAAF6623A3D1C02B426B4CF2A31FB46E6ADABCEFDE086D0861E562FF03A549FF134A
310
D6C5BA5ACF7D620138CD873C3E382B972C72790495EB921BFF01504B0304140006080800FC6B614255019EA25F0000007C00000007000000636E782E786D6C4DCB3B0E80201045D1AD90E915ED2CF8AC45050C11660C8261F98AB1B07AC9C97D42D718D865D3E909258CFD00CCE24AC6E326A164D74DC0B4128928FF326038
310
472BA13128B1252AC747C6BAB984FC68F0B87FE8960A5C09FE86CFB69FBA01504B0304140006080800FC6B6142207E721567010000020300000C0000006662782F636F72652E786D6C8D52ED8E8230107C95A67F2FD0163CBF526A54E409EE052A548E082D292DF1F16FF9309E978B3110686676766707F8EED6D4A857B6AB
310
8C4E300B29464AE7A6A8749960EF2EC11AA39DE0D618F7AB0C232D1B95E001C68297D6F8768672A39DD20E506D0A3583B2EB94C328AFE190E02EFF568D0CA57750D15DC356E65759AA908540439DE09DB360004D4386271697F38D930917DCFBAA98D9AA8069D5A552168BF448B3D369BF0CD2CD82058B2CCB82C33A8D8203
310
DDA4FB6C753CA4E99293412CB8AB9ABBBBDC2AE954814544591C50B8D9178BB731DB7EAE3E28DB52CAC950FE24F26DF1A6C857DAC5D16C77927558303032127FB685881CEA640F7E88E06408115E63C2CF41432010B293E7FABEC715A05EE5CED8053085F10FAA97B5573095A2F1E26462A1F3D80036FBB74FF4A2CFEB1EF0
310
01A52EC19A74703C7B374CE7D3D4398A56D9A07737A48D6D64FD3037597C3C1F83FE95E7A636F61D35995725739864F87BC50F504B0304140006080800FC6B61428B76C57B7E0000009D0000000B0000006662782F636E782E786D6C4DCCD10A83201886E15B91FFDC955A33418DD1F23E625944A6C3E9D8E5AF46073BFAE0
310
E1E395ED6773E86DE36B095E01B99480AC7F8471F1B3829C26DC006AB58C21A4BF1B203F6C56C1C1A0E51C437E9E34DA69C82EEDEA16BF9E58B37B238860D8D09EE3AAE404DF98E8706F4C57F19A5222AE506859FC4AFB1E61FD05504B0304140006080800FC6B6142F89A9FE82A01000014020000310000006662782F3533
310
4438393139332D463245372D343037312D413339432D4546464334373532323139362F636F72652E786D6C8D515B6EC32010BC0AE22B55651B8C13C71126AAD2E404BD800B244589C1E251E5F85D6A476AFF222140B333B3A35DBEBF8F37F4AD7D30CEF6989604236DA553C65E7A9CE2B9D862B417DC3B17FFD030B2C3A87B
310
9C612CF8C5BB342D9074366A1B01B54EE9051C42D0112379834F8F83FCD2E3500E2902235CCB6990D7E1A24B5A4219788287E821009A9BE41B8B357BDF76B463C5A93EB645435A5ABCB1EE501C4FA743D3AEEB9A761B5ECD42C153326A911B0571CCD968FFAC49160B1ECDF8882FBD1EA25658D484B282C0A11F94ED18DDAD
310
DB57427784F02AD3FF89D2A49E14256323AB97B8B32C604179351704572E7DDE1E61F47D723EA2DC6F15B47CC182948412DA357900331506009E9B66F10CD17918F0EAFA096CB6186F1AC1ABBC23787E17086FDEA7F801504B0304140006080800FC6B614280D5C7335601000033030000300000006662782F353344383931
310
39332D463245372D343037312D413339432D4546464334373532323139362F636E782E786D6CBD93CD6AC33010845F45E85A625B719A86202BD0439FA0875E1569D3A89125A39FD2BC7D578992E69243A1148C30B3A399E5C3E69BAFD1924F08D1783750D6749480535E1BF73ED09C76B315251BC183F7E9C6468993230CB4
310
C854F0F7E0F354250D3B996D42D51A77A86280E8735010512E3789F54A5A0C0037CB28C2B805AD4193AB11DF7610701514B74792F6405E9EDF88DF7E804A91B72545F0B674085ECEDA7463A2445919E340A3DAC3281B9993D7100F8D964936ACB974DDD9E92789940B97CA1C0C29E5032D271575A30639F2168782C714905E
310
35A5E30454C869B246C98490DB93F1EC113C1B97968BEA35083EA0BB9F2F572B0C3BCD044F6684EA500164024DC5BC63FDACC387BDB27EDDB3F5E3D343C7D65DC7DB62177CEBBDAD973006829F88F22E814B5430DE96F13D7CD547B409C8DA87E32F402280DA7AA673CDF84B3E6CD92F16FFC8A73D7DDF882BE05F20BE0150
310
4B0304140006080800FC6B6142648D11FA59070000941B0000340000006662782F35334438393139332D463245372D343037312D413339432D4546464334373532323139362F6F626A656374732E786D6CED59DD739B3810FF5718EED9D8C4769ADC103A89DD743CBDB49DFADAB987CC3032C8441721184924F1FDF5B7FA00
310
033109BEE6DEFA6003425AEDFEF6534BF0FE29A3CE03E682E4ECC2F5BD89EB6016E70961E9855BCAEDE8CC75DE8701CF73D998E63A0C65F8C255C36E18A43C2F0B3B94E02D2AA9EC8C5E5FFDE5881833EC3A3145425CB822BEC319F25029F3048B7B2F411279E9F6C9F33D33B14D36E5A8B8EB102D10C74C02A730CE808A63
310
98F2DB8F13771C0663F53E0CD4BF9D351D346BD63F6BACA56E7349989088C5CF58EA90990E6269EACF961F4EE6E7A3F96C361DCD4E4FFCD1D5F5D572E4BF9B4E16A78BC5F9E58773606F93E7D4CA94E002B304F4B773433F18AB37B5E81681435CC7396338D64002545AAC2E4182056CD5806FD27EF495448DD75AC2C6F34C
310
BDB72C3486A76D2A7DB38601D1A20B82D8ED2A89AB6B53BE7CF337082E861825175802B74272D0AE85878357B8E124189BD130D8EC7541849321893941D4A164C31107A5C05435250CCC024B46390707528E92406BCEBC6EDB1678E6EBAE7388CB6D49A9F20C37D48E1581FB61293467E41FCCF7DC3791019E40DA92307966
310
B994BB02BBE17930D68361A02ED313FBD200E96C294A8546C4BCED08BA50AEBF5ABAE1A7EBCDD35A8583C39B173C2F3097CAE8941E355F60C8F6AA50B2DBFA8334A71680300654BB720FCA3740FE33448F3D2BA0374E9E664F333B5772C4C436E719E8C69938A309FC4D1C5FFFABFBC65D30AE17B7B5D78727B8A982EAECE7
310
F16CCBA0B1B2FC37E00C830730F89C4FEDAB758C28D8F30D610090321287E63004A17DBB7972C315044E08F4B00AD1D0079181DD07B80DC696CC5E2B957B59AF6380A8DD633A4449009BB64860A3474F1F217B7012EFD5D414B10FDEF99B98EBE572FD695DF22D8AF18DF5E925DE12462464CDC30CB5306F49748F778F394F
310
40D0E778AF9B7867762B01682BCC15F06905827AD8EFDCDA20867569AEC24DF0CA0E2084CAD50DFA3744C49852C4705E56FBD6D14D196AEDF1B66670C31303F1F4A463C21C3F10555580D3EC67B41885BC1F73522810DDF0A391AC0E9A5E8F74DF579FC122EBF93DB3560C422F43F44F1DB40EE0D0B2EC0A690B442DF0661F
310
CEE39CE63CDAEC2213E95CA825808DB6B7FC681185586F94A4A8800769BFAB424A6AA48D12B2DD9602E2EA01167FAC164D739878537FEE34FF3BCE3883680BBE8BB8F5BBCE1E11C9508AA32D4AFAB66BEE56D3169A640F698EB714E4220F44EE2224A34982D363A0398AF8F99B524F692E04615840BE3A087E138D890781C4
310
68B3625969B5033411518625A2C720A0C8F480ABD38EAE7163281D5EE7B1B6DE9734D624FA3F590447504BE62C22508A420E799571DF9B430C69A36B50EEE00BD656D1D662D0124A8878173D6292DEC9635037E47B708FE14852CA282F500C663D80EC335F514AEDF0BE41F1BDCA1F515CD2B7321081E93622949659043FC2
310
E0E431C4B5EBC0F4220A0DE226F6499C41518664C9876C723A9F3CDBC7D40CDD10D8D8684B2884ED2843450FEAAD80A8EB11A706DF52EF51EAA6CC8A086579C906198A37ED7A9325DF55AB223B905F552A42D95811B604C380305967D52A6683A9EBC00A6EA403D52E12282BA83985BD9278FCDA9B34E5DE0DB8F5D3B7DD20
310
83C2AF477BCD883AAB60B03CB60A03F188647CE7866B7D1D5D41FD9DE0649FEAAB5AB3590102622A92979C58157D5F4179636B3437BC4152DC7E3459B7BA7E5F79D0FD08C6B0066A977AE14A019D612691AA4C6ED40DFD862004B76898F195CAA9C750B94C125D35227A4DFAD4D92A235A9B66C42BEE30CB33F8B15BC2625A
310
26F81625E23EBA91345A13C5BA95D2CB4885F18B027EF9B8EEC003230344FAAA0A3CFCD8596B4717AA5C3A4844DE95D986210241B0255A6A74E3152CB51AA9B45C5FD59902EA2E3030ABE2D9AF9345B31DF1EB64915AC3F8A993C5D5EE0FB46BF6451AE93C56767DD431A0CE4F8ACA5B1C0374DBA1A65A671193CCADFCD699
310
22088A55941F5C8D5541C310ECE3F83F67EDBE2C68B6EBF07F5CD6F69F551C476595D664D5A53A50B9AE9A396C7EEE9FCE979797A3C54235684FDE2D4657678B77A3F3CBC9D974BE989F5E2D17359ADA51C3A00E663A77C1B3096AD5B07AB218405756E49424709A4F9C1443CC9770A61FD03EE71916903C9BCDEEC436E507
310
AC7E307D4E893614579CDC2168105301691D302A63D91E777E83D6A48483F6850B4D23EF1EFEAC55BA0E649E0B175A0592C458781B6833A9869E260E2957E77E4B0CF0412C5529D12CAA9FEB550A9B56F8AFA70C490356AE560F030AB702BA5FAD0E85E6CDF2141F2578C58E8324DC6E4A09D59A91653F500BA3B7D9ABDFC8
310
4609BBB75B3F81EBBE2C96EFE9392D44067D3278D1080CD591443CD5FD6EC59865E972F9750C7D3667F5C5296899822E87531A710CC65CAA820AAC08ACC2D22C9004535DFC7EFB95E7F0892773745574BBC8B32C67F6E112CE63097C2272D677F0C127B985B201ABB6BAB83D99F827B7BA9D6D3BECD10609ECA97A0806AA32
310
4289D03136B0C867AD29DBB81C2B2574A6AF968E0D9FD0063016F4ACBB6B3E6F39E03DEA438AF215EDE1959C2F76B4C77A2A5803875E74F82F504B0304140006080000FC6B6142000000000000000000000000350000006662782F35334438393139332D463245372D343037312D413339432D454646433437353232313936
310
2F76657274696365732E62696E504B0304140006080800FC6B6142F270F1330600000004000000360000006662782F35334438393139332D463245372D343037312D413339432D4546464334373532323139362F747269616E676C65732E62696E636660600000504B0304140006080000FC6B614200000000000000000000
310
0000370000006662782F35334438393139332D463245372D343037312D413339432D4546464334373532323139362F617474726962757465732E62696E504B0304140006080800FC6B6142D5987DFC8F00000041010000360000006662782F35334438393139332D463245372D343037312D413339432D4546464334373532
310
323139362F6469726563746F72792E786D6C858F410EC2201045AF4266AF15DDB800BA74E7C21B903225242D6328188F2FA5C4183471359997F9FF81E89FF3C41E1816475E02DF1F80A11FC8386F25A438EECEC07A250251FC3803E6F58C12560C4AD840E95E91C151A72936F496F35732D860FE635F62C8F2DA16B505C545
310
B74125BAA2FA9E05D7CC053D063734D5C7665FD55B6B8D15D5E9BFEAFD8490FFA45E504B0304140006080800FC6B614216A20B00FE000000A00100003B0000006662782F35334438393139332D463245372D343037312D413339432D4546464334373532323139362F7265736F75726365732F636F72652E786D6C8D505B6A
310
C33010BC8AD9DF225BB2932631B2421CC727E80584BC714462C9E8517AFCCA890BED5F41689779B0C3F0E3D7F4C83ED1796D4D032CA790A15176D0666C20862BD9437614DC591B7EC9203372C2061618041F9D8DF30A296B029A905063075C41E93D06C8D4232D0D7875C349E63286A4F0F77C96EA2E47CC599EE8A413DC07
310
970264AF23CB0FC2A1B7D129F4BC78B182C7A88755A38774535F353A10DD99F697CB694BBAC386914DDFF7A4DD772569E9A13BF5BB73DB75EFBC58CC82073DFD64540E65C00144495945687AEC835575C5EAEDEE8DB29A525E2CF23FA6380FFF34456D4255AE715F360F82A5204F42F062E92B8D6799692EDD8A6F504B0102
310
14000A0000080000FC6B61423DEE336E79000000790000001B00000000000000000000000000000000006175746F6465736B2D64657369676E2D7061636B6167652E786D6C504B01021400140006080800FC6B6142D486FD9CA0000000F40000001300000000000000000000000000B20000005B436F6E74656E745F547970
310
65735D2E786D6C504B01021400140006080800FC6B61427E485631EC0000007C010000080000000000000000000000000083010000636F72652E786D6C504B01021400140006080800FC6B614255019EA25F0000007C000000070000000000000000000000000095020000636E782E786D6C504B01021400140006080800FC
310
6B6142207E721567010000020300000C00000000000000000000000000190300006662782F636F72652E786D6C504B01021400140006080800FC6B61428B76C57B7E0000009D0000000B00000000000000000000000000AA0400006662782F636E782E786D6C504B01021400140006080800FC6B6142F89A9FE82A01000014
310
0200003100000000000000000000000000510500006662782F35334438393139332D463245372D343037312D413339432D4546464334373532323139362F636F72652E786D6C504B01021400140006080800FC6B614280D5C73356010000330300003000000000000000000000000000CA0600006662782F35334438393139
310
332D463245372D343037312D413339432D4546464334373532323139362F636E782E786D6C504B01021400140006080800FC6B6142648D11FA59070000941B000034000000000000000000000000006E0800006662782F35334438393139332D463245372D343037312D413339432D4546464334373532323139362F6F626A
310
656374732E786D6C504B01021400140006080000FC6B61420000000000000000000000003500000000000000000000000000191000006662782F35334438393139332D463245372D343037312D413339432D4546464334373532323139362F76657274696365732E62696E504B01021400140006080800FC6B6142F270F133
310
060000000400000036000000000000000000000000006C1000006662782F35334438393139332D463245372D343037312D413339432D4546464334373532323139362F747269616E676C65732E62696E504B01021400140006080000FC6B61420000000000000000000000003700000000000000000000000000C610000066
310
62782F35334438393139332D463245372D343037312D413339432D4546464334373532323139362F617474726962757465732E62696E504B01021400140006080800FC6B6142D5987DFC8F0000004101000036000000000000000000000000001B1100006662782F35334438393139332D463245372D343037312D41333943
310
2D4546464334373532323139362F6469726563746F72792E786D6C504B01021400140006080800FC6B614216A20B00FE000000A00100003B00000000000000000000000000FE1100006662782F35334438393139332D463245372D343037312D413339432D4546464334373532323139362F7265736F75726365732F636F72
310
652E786D6C504B0506000000000E000E0080040000551300000000
  0
XRECORD
  5
17
102
{ACAD_REACTORS
330
12
102
}
330
12
100
AcDbXrecord
280
     1
270
     1
271
     1
  0
XRECORD
  5
16
102
{ACAD_REACTORS
330
12
102
}
330
12
100
AcDbXrecord
280
     1
270
     1
271
     1
  0
XRECORD
  5
18
102
{ACAD_REACTORS
330
12
102
}
330
12
100
AcDbXrecord
280
     1
270
     1
271
     1
  0
XRECORD
  5
15
102
{ACAD_REACTORS
330
12
102
}
330
12
100
AcDbXrecord
280
     1
270
     1
271
     1
  0
XRECORD
  5
1342
102
{ACAD_REACTORS
330
22
102
}
330
22
100
AcDbXrecord
280
     1
102
MATERIAL
148
0.0
149
0.0
149
0.0
 93
        0
 94
      127
282
     0
 72
     0
 77
     0
171
     0
175
     0
179
     0
273
     0
  0
XRECORD
  5
24
102
{ACAD_REACTORS
330
22
102
}
330
22
100
AcDbXrecord
280
     1
270
     1
271
     1
  0
XRECORD
  5
23
102
{ACAD_REACTORS
330
22
102
}
330
22
100
AcDbXrecord
280
     1
270
     1
271
     1
  0
XRECORD
  5
27
102
{ACAD_REACTORS
330
22
102
}
330
22
100
AcDbXrecord
280
     1
270
     1
271
     1
  0
XRECORD
  5
26
102
{ACAD_REACTORS
330
22
102
}
330
22
100
AcDbXrecord
280
     1
270
     1
271
     1
  0
XRECORD
  5
28
102
{ACAD_REACTORS
330
22
102
}
330
22
100
AcDbXrecord
280
     1
270
     1
271
     1
  0
XRECORD
  5
25
102
{ACAD_REACTORS
330
22
102
}
330
22
100
AcDbXrecord
280
     1
270
     1
271
     1
  0
XRECORD
  5
12B0
102
{ACAD_REACTORS
330
12AF
102
}
330
12AF
100
AcDbXrecord
280
     1
102
ACAD_ROUNDTRIP_2012_MLEADER_STYLE
298
     1
  0
CELLSTYLEMAP
  5
220A
102
{ACAD_REACTORS
330
12AD
102
}
330
12AD
100
AcDbCellStyleMap
 90
        3
300
CELLSTYLE
  1
TABLEFORMAT_BEGIN
 90
        5
170
     1
 91
        0
 92
    32768
 62
   257
 93
        1
300
CONTENTFORMAT
  1
CONTENTFORMAT_BEGIN
 90
        0
 91
        0
 92
      512
 93
        0
300

 40
0.0
140
1.0
 94
        5
 62
     0
340
55
144
0.25
309
CONTENTFORMAT_END
171
     1
301
MARGIN
  1
CELLMARGIN_BEGIN
 40
0.06
 40
0.06
 40
0.06
 40
0.06
 40
0.18
 40
0.18
309
CELLMARGIN_END
 94
        6
 95
        1
302
GRIDFORMAT
  1
GRIDFORMAT_BEGIN
 90
        0
 91
        1
 62
     0
 92
       -2
340
0
 93
        0
 40
0.045
309
GRIDFORMAT_END
 95
        2
302
GRIDFORMAT
  1
GRIDFORMAT_BEGIN
 90
        0
 91
        1
 62
     0
 92
       -2
340
0
 93
        0
 40
0.045
309
GRIDFORMAT_END
 95
        4
302
GRIDFORMAT
  1
GRIDFORMAT_BEGIN
 90
        0
 91
        1
 62
     0
 92
       -2
340
0
 93
        0
 40
0.045
309
GRIDFORMAT_END
 95
        8
302
GRIDFORMAT
  1
GRIDFORMAT_BEGIN
 90
        0
 91
        1
 62
     0
 92
       -2
340
0
 93
        0
 40
0.045
309
GRIDFORMAT_END
 95
       16
302
GRIDFORMAT
  1
GRIDFORMAT_BEGIN
 90
        0
 91
        1
 62
     0
 92
       -2
340
0
 93
        0
 40
0.045
309
GRIDFORMAT_END
 95
       32
302
GRIDFORMAT
  1
GRIDFORMAT_BEGIN
 90
        0
 91
        1
 62
     0
 92
       -2
340
0
 93
        0
 40
0.045
309
GRIDFORMAT_END
309
TABLEFORMAT_END
  1
CELLSTYLE_BEGIN
 90
        1
 91
        1
300
_TITLE
309
CELLSTYLE_END
300
CELLSTYLE
  1
TABLEFORMAT_BEGIN
 90
        5
170
     1
 91
        0
 92
        0
 62
   257
 93
        1
300
CONTENTFORMAT
  1
CONTENTFORMAT_BEGIN
 90
        0
 91
        0
 92
      512
 93
        0
300

 40
0.0
140
1.0
 94
        5
 62
     0
340
55
144
0.18
309
CONTENTFORMAT_END
171
     1
301
MARGIN
  1
CELLMARGIN_BEGIN
 40
0.06
 40
0.06
 40
0.06
 40
0.06
 40
0.18
 40
0.18
309
CELLMARGIN_END
 94
        6
 95
        1
302
GRIDFORMAT
  1
GRIDFORMAT_BEGIN
 90
        0
 91
        1
 62
     0
 92
       -2
340
0
 93
        0
 40
0.045
309
GRIDFORMAT_END
 95
        2
302
GRIDFORMAT
  1
GRIDFORMAT_BEGIN
 90
        0
 91
        1
 62
     0
 92
       -2
340
0
 93
        0
 40
0.045
309
GRIDFORMAT_END
 95
        4
302
GRIDFORMAT
  1
GRIDFORMAT_BEGIN
 90
        0
 91
        1
 62
     0
 92
       -2
340
0
 93
        0
 40
0.045
309
GRIDFORMAT_END
 95
        8
302
GRIDFORMAT
  1
GRIDFORMAT_BEGIN
 90
        0
 91
        1
 62
     0
 92
       -2
340
0
 93
        0
 40
0.045
309
GRIDFORMAT_END
 95
       16
302
GRIDFORMAT
  1
GRIDFORMAT_BEGIN
 90
        0
 91
        1
 62
     0
 92
       -2
340
0
 93
        0
 40
0.045
309
GRIDFORMAT_END
 95
       32
302
GRIDFORMAT
  1
GRIDFORMAT_BEGIN
 90
        0
 91
        1
 62
     0
 92
       -2
340
0
 93
        0
 40
0.045
309
GRIDFORMAT_END
309
TABLEFORMAT_END
  1
CELLSTYLE_BEGIN
 90
        2
 91
        1
300
_HEADER
309
CELLSTYLE_END
300
CELLSTYLE
  1
TABLEFORMAT_BEGIN
 90
        5
170
     1
 91
        0
 92
        0
 62
   257
 93
        1
300
CONTENTFORMAT
  1
CONTENTFORMAT_BEGIN
 90
        0
 91
        0
 92
      512
 93
        0
300

 40
0.0
140
1.0
 94
        2
 62
     0
340
55
144
0.18
309
CONTENTFORMAT_END
171
     1
301
MARGIN
  1
CELLMARGIN_BEGIN
 40
0.06
 40
0.06
 40
0.06
 40
0.06
 40
0.18
 40
0.18
309
CELLMARGIN_END
 94
        6
 95
        1
302
GRIDFORMAT
  1
GRIDFORMAT_BEGIN
 90
        0
 91
        1
 62
     0
 92
       -2
340
0
 93
        0
 40
0.045
309
GRIDFORMAT_END
 95
        2
302
GRIDFORMAT
  1
GRIDFORMAT_BEGIN
 90
        0
 91
        1
 62
     0
 92
       -2
340
0
 93
        0
 40
0.045
309
GRIDFORMAT_END
 95
        4
302
GRIDFORMAT
  1
GRIDFORMAT_BEGIN
 90
        0
 91
        1
 62
     0
 92
       -2
340
0
 93
        0
 40
0.045
309
GRIDFORMAT_END
 95
        8
302
GRIDFORMAT
  1
GRIDFORMAT_BEGIN
 90
        0
 91
        1
 62
     0
 92
       -2
340
0
 93
        0
 40
0.045
309
GRIDFORMAT_END
 95
       16
302
GRIDFORMAT
  1
GRIDFORMAT_BEGIN
 90
        0
 91
        1
 62
     0
 92
       -2
340
0
 93
        0
 40
0.045
309
GRIDFORMAT_END
 95
       32
302
GRIDFORMAT
  1
GRIDFORMAT_BEGIN
 90
        0
 91
        1
 62
     0
 92
       -2
340
0
 93
        0
 40
0.045
309
GRIDFORMAT_END
309
TABLEFORMAT_END
  1
CELLSTYLE_BEGIN
 90
        3
 91
        2
300
_DATA
309
CELLSTYLE_END
  0
XRECORD
  5
2211
102
{ACAD_REACTORS
330
12AD
102
}
330
12AD
100
AcDbXrecord
280
     1
102
ACAD_ROUNDTRIP_PRE2007_TABLESTYLE
 90
      512
 91
        0
  1

 92
      512
 93
        0
  2

 94
      512
 95
        0
  3

  0
XRECORD
  5
134E
102
{ACAD_REACTORS
330
134D
102
}
330
134D
100
AcDbXrecord
280
     1
102
RTVSPropertyOp0
 70
     1
102
RTVSPropertyOp1
 70
     1
102
RTVSPropertyOp2
 70
     1
102
RTVSPropertyOp3
 70
     1
102
RTVSPropertyOp4
 70
     1
102
RTVSPropertyOp5
 70
     1
102
RTVSPropertyOp6
 70
     1
102
RTVSPropertyOp7
 70
     1
102
RTVSPropertyOp8
 70
     1
102
RTVSPropertyOp9
 70
     1
102
RTVSPropertyOp10
 70
     1
102
RTVSPropertyOp11
 70
     1
102
RTVSPropertyOp12
 70
     1
102
RTVSPropertyOp13
 70
     1
102
RTVSPropertyOp14
 70
     1
102
RTVSPropertyOp15
 70
     1
102
RTVSPropertyOp16
 70
     1
102
RTVSPropertyOp17
 70
     1
102
RTVSPropertyOp18
 70
     1
102
RTVSPropertyOp19
 70
     1
102
RTVSPropertyOp20
 70
     1
102
RTVSPropertyOp21
 70
     1
102
RTVSPropertyOp22
 70
     1
102
RTVSPropertyOp23
 70
     1
102
RTVSPropertyOp24
 70
     1
102
RTVSPropertyOp25
 70
     1
102
RTVSPropertyOp26
 70
     1
102
RTVSPropertyOp27
 70
     1
102
RTVSPropertyOp28
 70
     1
102
RTVSPropertyOp29
 70
     1
102
RTVSPropertyOp30
 70
     1
102
RTVSPropertyOp31
 70
     1
102
RTVSPropertyOp32
 70
     1
  0
XRECORD
  5
134C
102
{ACAD_REACTORS
330
134B
102
}
330
134B
100
AcDbXrecord
280
     1
102
RTVSPropertyOp0
 70
     1
102
RTVSPropertyOp1
 70
     1
102
RTVSPropertyOp2
 70
     1
102
RTVSPropertyOp3
 70
     1
102
RTVSPropertyOp4
 70
     1
102
RTVSPropertyOp5
 70
     1
102
RTVSPropertyOp6
 70
     1
102
RTVSPropertyOp7
 70
     1
102
RTVSPropertyOp8
 70
     1
102
RTVSPropertyOp9
 70
     1
102
RTVSPropertyOp10
 70
     1
102
RTVSPropertyOp11
 70
     1
102
RTVSPropertyOp12
 70
     1
102
RTVSPropertyOp13
 70
     1
102
RTVSPropertyOp14
 70
     1
102
RTVSPropertyOp15
 70
     1
102
RTVSPropertyOp16
 70
     1
102
RTVSPropertyOp17
 70
     1
102
RTVSPropertyOp18
 70
     1
102
RTVSPropertyOp19
 70
     1
102
RTVSPropertyOp20
 70
     1
102
RTVSPropertyOp21
 70
     1
102
RTVSPropertyOp22
 70
     1
102
RTVSPropertyOp23
 70
     1
102
RTVSPropertyOp24
 70
     1
102
RTVSPropertyOp25
 70
     1
102
RTVSPropertyOp26
 70
     1
102
RTVSPropertyOp27
 70
     1
102
RTVSPropertyOp28
 70
     1
102
RTVSPropertyOp29
 70
     1
102
RTVSPropertyOp30
 70
     1
102
RTVSPropertyOp31
 70
     1
102
RTVSPropertyOp32
 70
     1
  0
XRECORD
  5
135A
102
{ACAD_REACTORS
330
1359
102
}
330
1359
100
AcDbXrecord
280
     1
102
RTVSPropertyOp0
 70
     1
102
RTVSPropertyOp1
 70
     1
102
RTVSPropertyOp2
 70
     1
102
RTVSPropertyOp3
 70
     1
102
RTVSPropertyOp4
 70
     1
102
RTVSPropertyOp5
 70
     1
102
RTVSPropertyOp6
 70
     1
102
RTVSPropertyOp7
 70
     1
102
RTVSPropertyOp8
 70
     1
102
RTVSPropertyOp9
 70
     1
102
RTVSPropertyOp10
 70
     1
102
RTVSPropertyOp11
 70
     1
102
RTVSPropertyOp12
 70
     1
102
RTVSPropertyOp13
 70
     1
102
RTVSPropertyOp14
 70
     1
102
RTVSPropertyOp15
 70
     1
102
RTVSPropertyOp16
 70
     1
102
RTVSPropertyOp17
 70
     1
102
RTVSPropertyOp18
 70
     1
102
RTVSPropertyOp19
 70
     1
102
RTVSPropertyOp20
 70
     1
102
RTVSPropertyOp21
 70
     1
102
RTVSPropertyOp22
 70
     1
102
RTVSPropertyOp23
 70
     1
102
RTVSPropertyOp24
 70
     1
102
RTVSPropertyOp25
 70
     1
102
RTVSPropertyOp26
 70
     1
102
RTVSPropertyOp27
 70
     1
102
RTVSPropertyOp28
 70
     1
102
RTVSPropertyOp29
 70
     1
102
RTVSPropertyOp30
 70
     1
102
RTVSPropertyOp31
 70
     1
102
RTVSPropertyOp32
 70
     1
  0
XRECORD
  5
1362
102
{ACAD_REACTORS
330
1361
102
}
330
1361
100
AcDbXrecord
280
     1
102
RTVSPropertyOp0
 70
     1
102
RTVSPropertyOp1
 70
     1
102
RTVSPropertyOp2
 70
     1
102
RTVSPropertyOp3
 70
     1
102
RTVSPropertyOp4
 70
     1
102
RTVSPropertyOp5
 70
     1
102
RTVSPropertyOp6
 70
     1
102
RTVSPropertyOp7
 70
     1
102
RTVSPropertyOp8
 70
     1
102
RTVSPropertyOp9
 70
     1
102
RTVSPropertyOp10
 70
     1
102
RTVSPropertyOp11
 70
     1
102
RTVSPropertyOp12
 70
     1
102
RTVSPropertyOp13
 70
     1
102
RTVSPropertyOp14
 70
     1
102
RTVSPropertyOp15
 70
     1
102
RTVSPropertyOp16
 70
     1
102
RTVSPropertyOp17
 70
     1
102
RTVSPropertyOp18
 70
     1
102
RTVSPropertyOp19
 70
     1
102
RTVSPropertyOp20
 70
     1
102
RTVSPropertyOp21
 70
     1
102
RTVSPropertyOp22
 70
     1
102
RTVSPropertyOp23
 70
     1
102
RTVSPropertyOp24
 70
     1
102
RTVSPropertyOp25
 70
     1
102
RTVSPropertyOp26
 70
     1
102
RTVSPropertyOp27
 70
     1
102
RTVSPropertyOp28
 70
     1
102
RTVSPropertyOp29
 70
     1
102
RTVSPropertyOp30
 70
     1
102
RTVSPropertyOp31
 70
     1
102
RTVSPropertyOp32
 70
     1
  0
XRECORD
  5
1354
102
{ACAD_REACTORS
330
1353
102
}
330
1353
100
AcDbXrecord
280
     1
102
RTVSPropertyOp0
 70
     1
102
RTVSPropertyOp1
 70
     1
102
RTVSPropertyOp2
 70
     1
102
RTVSPropertyOp3
 70
     1
102
RTVSPropertyOp4
 70
     1
102
RTVSPropertyOp5
 70
     1
102
RTVSPropertyOp6
 70
     1
102
RTVSPropertyOp7
 70
     1
102
RTVSPropertyOp8
 70
     1
102
RTVSPropertyOp9
 70
     1
102
RTVSPropertyOp10
 70
     1
102
RTVSPropertyOp11
 70
     1
102
RTVSPropertyOp12
 70
     1
102
RTVSPropertyOp13
 70
     1
102
RTVSPropertyOp14
 70
     1
102
RTVSPropertyOp15
 70
     1
102
RTVSPropertyOp16
 70
     1
102
RTVSPropertyOp17
 70
     1
102
RTVSPropertyOp18
 70
     1
102
RTVSPropertyOp19
 70
     1
102
RTVSPropertyOp20
 70
     1
102
RTVSPropertyOp21
 70
     1
102
RTVSPropertyOp22
 70
     1
102
RTVSPropertyOp23
 70
     1
102
RTVSPropertyOp24
 70
     1
102
RTVSPropertyOp25
 70
     1
102
RTVSPropertyOp26
 70
     1
102
RTVSPropertyOp27
 70
     1
102
RTVSPropertyOp28
 70
     1
102
RTVSPropertyOp29
 70
     1
102
RTVSPropertyOp30
 70
     1
102
RTVSPropertyOp31
 70
     1
102
RTVSPropertyOp32
 70
     1
  0
XRECORD
  5
1358
102
{ACAD_REACTORS
330
1357
102
}
330
1357
100
AcDbXrecord
280
     1
102
RTVSPropertyOp0
 70
     1
102
RTVSPropertyOp1
 70
     1
102
RTVSPropertyOp2
 70
     1
102
RTVSPropertyOp3
 70
     1
102
RTVSPropertyOp4
 70
     1
102
RTVSPropertyOp5
 70
     1
102
RTVSPropertyOp6
 70
     1
102
RTVSPropertyOp7
 70
     1
102
RTVSPropertyOp8
 70
     1
102
RTVSPropertyOp9
 70
     1
102
RTVSPropertyOp10
 70
     1
102
RTVSPropertyOp11
 70
     1
102
RTVSPropertyOp12
 70
     1
102
RTVSPropertyOp13
 70
     1
102
RTVSPropertyOp14
 70
     1
102
RTVSPropertyOp15
 70
     1
102
RTVSPropertyOp16
 70
     1
102
RTVSPropertyOp17
 70
     1
102
RTVSPropertyOp18
 70
     1
102
RTVSPropertyOp19
 70
     1
102
RTVSPropertyOp20
 70
     1
102
RTVSPropertyOp21
 70
     1
102
RTVSPropertyOp22
 70
     1
102
RTVSPropertyOp23
 70
     1
102
RTVSPropertyOp24
 70
     1
102
RTVSPropertyOp25
 70
     1
102
RTVSPropertyOp26
 70
     1
102
RTVSPropertyOp27
 70
     1
102
RTVSPropertyOp28
 70
     1
102
RTVSPropertyOp29
 70
     1
102
RTVSPropertyOp30
 70
     1
102
RTVSPropertyOp31
 70
     1
102
RTVSPropertyOp32
 70
     1
  0
XRECORD
  5
1372
102
{ACAD_REACTORS
330
1371
102
}
330
1371
100
AcDbXrecord
280
     1
102
RTVSPropertyOp0
 70
     0
102
RTVSPropertyOp1
 70
     0
102
RTVSPropertyOp2
 70
     0
102
RTVSPropertyOp3
 70
     0
102
RTVSPropertyOp4
 70
     0
102
RTVSPropertyOp5
 70
     0
102
RTVSPropertyOp6
 70
     0
102
RTVSPropertyOp7
 70
     0
102
RTVSPropertyOp8
 70
     0
102
RTVSPropertyOp9
 70
     0
102
RTVSPropertyOp10
 70
     0
102
RTVSPropertyOp11
 70
     0
102
RTVSPropertyOp12
 70
     0
102
RTVSPropertyOp13
 70
     0
102
RTVSPropertyOp14
 70
     2
102
RTVSPropertyOp15
 70
     0
102
RTVSPropertyOp16
 70
     0
102
RTVSPropertyOp17
 70
     0
102
RTVSPropertyOp18
 70
     0
102
RTVSPropertyOp19
 70
     0
102
RTVSPropertyOp20
 70
     0
102
RTVSPropertyOp21
 70
     0
102
RTVSPropertyOp22
 70
     0
102
RTVSPropertyOp23
 70
     0
102
RTVSPropertyOp24
 70
     0
102
RTVSPropertyOp25
 70
     0
102
RTVSPropertyOp26
 70
     0
102
RTVSPropertyOp27
 70
     0
102
RTVSPropertyOp28
 70
     0
102
RTVSPropertyOp29
 70
     0
102
RTVSPropertyOp30
 70
     0
102
RTVSPropertyOp31
 70
     0
102
RTVSPropertyOp32
 70
     0
  0
XRECORD
  5
1360
102
{ACAD_REACTORS
330
135F
102
}
330
135F
100
AcDbXrecord
280
     1
102
RTVSPropertyOp0
 70
     1
102
RTVSPropertyOp1
 70
     1
102
RTVSPropertyOp2
 70
     1
102
RTVSPropertyOp3
 70
     1
102
RTVSPropertyOp4
 70
     1
102
RTVSPropertyOp5
 70
     1
102
RTVSPropertyOp6
 70
     1
102
RTVSPropertyOp7
 70
     1
102
RTVSPropertyOp8
 70
     1
102
RTVSPropertyOp9
 70
     1
102
RTVSPropertyOp10
 70
     1
102
RTVSPropertyOp11
 70
     1
102
RTVSPropertyOp12
 70
     1
102
RTVSPropertyOp13
 70
     1
102
RTVSPropertyOp14
 70
     1
102
RTVSPropertyOp15
 70
     1
102
RTVSPropertyOp16
 70
     1
102
RTVSPropertyOp17
 70
     1
102
RTVSPropertyOp18
 70
     1
102
RTVSPropertyOp19
 70
     1
102
RTVSPropertyOp20
 70
     1
102
RTVSPropertyOp21
 70
     1
102
RTVSPropertyOp22
 70
     1
102
RTVSPropertyOp23
 70
     1
102
RTVSPropertyOp24
 70
     1
102
RTVSPropertyOp25
 70
     1
102
RTVSPropertyOp26
 70
     1
102
RTVSPropertyOp27
 70
     1
102
RTVSPropertyOp28
 70
     1
102
RTVSPropertyOp29
 70
     1
102
RTVSPropertyOp30
 70
     1
102
RTVSPropertyOp31
 70
     1
102
RTVSPropertyOp32
 70
     1
  0
XRECORD
  5
1344
102
{ACAD_REACTORS
330
1343
102
}
330
1343
100
AcDbXrecord
280
     1
102
RTVSPropertyOp0
 70
     1
102
RTVSPropertyOp1
 70
     1
102
RTVSPropertyOp2
 70
     1
102
RTVSPropertyOp3
 70
     1
102
RTVSPropertyOp4
 70
     1
102
RTVSPropertyOp5
 70
     1
102
RTVSPropertyOp6
 70
     1
102
RTVSPropertyOp7
 70
     1
102
RTVSPropertyOp8
 70
     1
102
RTVSPropertyOp9
 70
     1
102
RTVSPropertyOp10
 70
     1
102
RTVSPropertyOp11
 70
     1
102
RTVSPropertyOp12
 70
     1
102
RTVSPropertyOp13
 70
     1
102
RTVSPropertyOp14
 70
     1
102
RTVSPropertyOp15
 70
     1
102
RTVSPropertyOp16
 70
     1
102
RTVSPropertyOp17
 70
     1
102
RTVSPropertyOp18
 70
     1
102
RTVSPropertyOp19
 70
     1
102
RTVSPropertyOp20
 70
     1
102
RTVSPropertyOp21
 70
     1
102
RTVSPropertyOp22
 70
     1
102
RTVSPropertyOp23
 70
     1
102
RTVSPropertyOp24
 70
     1
102
RTVSPropertyOp25
 70
     1
102
RTVSPropertyOp26
 70
     1
102
RTVSPropertyOp27
 70
     1
102
RTVSPropertyOp28
 70
     1
102
RTVSPropertyOp29
 70
     1
102
RTVSPropertyOp30
 70
     1
102
RTVSPropertyOp31
 70
     1
102
RTVSPropertyOp32
 70
     1
  0
XRECORD
  5
1346
102
{ACAD_REACTORS
330
1345
102
}
330
1345
100
AcDbXrecord
280
     1
102
RTVSPropertyOp0
 70
     1
102
RTVSPropertyOp1
 70
     1
102
RTVSPropertyOp2
 70
     1
102
RTVSPropertyOp3
 70
     1
102
RTVSPropertyOp4
 70
     1
102
RTVSPropertyOp5
 70
     1
102
RTVSPropertyOp6
 70
     1
102
RTVSPropertyOp7
 70
     1
102
RTVSPropertyOp8
 70
     1
102
RTVSPropertyOp9
 70
     1
102
RTVSPropertyOp10
 70
     1
102
RTVSPropertyOp11
 70
     1
102
RTVSPropertyOp12
 70
     1
102
RTVSPropertyOp13
 70
     1
102
RTVSPropertyOp14
 70
     1
102
RTVSPropertyOp15
 70
     1
102
RTVSPropertyOp16
 70
     1
102
RTVSPropertyOp17
 70
     1
102
RTVSPropertyOp18
 70
     1
102
RTVSPropertyOp19
 70
     1
102
RTVSPropertyOp20
 70
     1
102
RTVSPropertyOp21
 70
     1
102
RTVSPropertyOp22
 70
     1
102
RTVSPropertyOp23
 70
     1
102
RTVSPropertyOp24
 70
     1
102
RTVSPropertyOp25
 70
     1
102
RTVSPropertyOp26
 70
     1
102
RTVSPropertyOp27
 70
     1
102
RTVSPropertyOp28
 70
     1
102
RTVSPropertyOp29
 70
     1
102
RTVSPropertyOp30
 70
     1
102
RTVSPropertyOp31
 70
     1
102
RTVSPropertyOp32
 70
     1
  0
XRECORD
  5
1348
102
{ACAD_REACTORS
330
1347
102
}
330
1347
100
AcDbXrecord
280
     1
102
RTVSPropertyOp0
 70
     1
102
RTVSPropertyOp1
 70
     1
102
RTVSPropertyOp2
 70
     1
102
RTVSPropertyOp3
 70
     1
102
RTVSPropertyOp4
 70
     1
102
RTVSPropertyOp5
 70
     1
102
RTVSPropertyOp6
 70
     1
102
RTVSPropertyOp7
 70
     1
102
RTVSPropertyOp8
 70
     1
102
RTVSPropertyOp9
 70
     1
102
RTVSPropertyOp10
 70
     1
102
RTVSPropertyOp11
 70
     1
102
RTVSPropertyOp12
 70
     1
102
RTVSPropertyOp13
 70
     1
102
RTVSPropertyOp14
 70
     1
102
RTVSPropertyOp15
 70
     1
102
RTVSPropertyOp16
 70
     1
102
RTVSPropertyOp17
 70
     1
102
RTVSPropertyOp18
 70
     1
102
RTVSPropertyOp19
 70
     1
102
RTVSPropertyOp20
 70
     1
102
RTVSPropertyOp21
 70
     1
102
RTVSPropertyOp22
 70
     1
102
RTVSPropertyOp23
 70
     1
102
RTVSPropertyOp24
 70
     1
102
RTVSPropertyOp25
 70
     1
102
RTVSPropertyOp26
 70
     1
102
RTVSPropertyOp27
 70
     1
102
RTVSPropertyOp28
 70
     1
102
RTVSPropertyOp29
 70
     1
102
RTVSPropertyOp30
 70
     1
102
RTVSPropertyOp31
 70
     1
102
RTVSPropertyOp32
 70
     1
  0
XRECORD
  5
134A
102
{ACAD_REACTORS
330
1349
102
}
330
1349
100
AcDbXrecord
280
     1
102
RTVSPropertyOp0
 70
     1
102
RTVSPropertyOp1
 70
     1
102
RTVSPropertyOp2
 70
     1
102
RTVSPropertyOp3
 70
     1
102
RTVSPropertyOp4
 70
     1
102
RTVSPropertyOp5
 70
     1
102
RTVSPropertyOp6
 70
     1
102
RTVSPropertyOp7
 70
     1
102
RTVSPropertyOp8
 70
     1
102
RTVSPropertyOp9
 70
     1
102
RTVSPropertyOp10
 70
     1
102
RTVSPropertyOp11
 70
     1
102
RTVSPropertyOp12
 70
     1
102
RTVSPropertyOp13
 70
     1
102
RTVSPropertyOp14
 70
     1
102
RTVSPropertyOp15
 70
     1
102
RTVSPropertyOp16
 70
     1
102
RTVSPropertyOp17
 70
     1
102
RTVSPropertyOp18
 70
     1
102
RTVSPropertyOp19
 70
     1
102
RTVSPropertyOp20
 70
     1
102
RTVSPropertyOp21
 70
     1
102
RTVSPropertyOp22
 70
     1
102
RTVSPropertyOp23
 70
     1
102
RTVSPropertyOp24
 70
     1
102
RTVSPropertyOp25
 70
     1
102
RTVSPropertyOp26
 70
     1
102
RTVSPropertyOp27
 70
     1
102
RTVSPropertyOp28
 70
     1
102
RTVSPropertyOp29
 70
     1
102
RTVSPropertyOp30
 70
     1
102
RTVSPropertyOp31
 70
     1
102
RTVSPropertyOp32
 70
     1
  0
XRECORD
  5
1352
102
{ACAD_REACTORS
330
1351
102
}
330
1351
100
AcDbXrecord
280
     1
102
RTVSPropertyOp0
 70
     1
102
RTVSPropertyOp1
 70
     1
102
RTVSPropertyOp2
 70
     1
102
RTVSPropertyOp3
 70
     1
102
RTVSPropertyOp4
 70
     1
102
RTVSPropertyOp5
 70
     1
102
RTVSPropertyOp6
 70
     1
102
RTVSPropertyOp7
 70
     1
102
RTVSPropertyOp8
 70
     1
102
RTVSPropertyOp9
 70
     1
102
RTVSPropertyOp10
 70
     1
102
RTVSPropertyOp11
 70
     1
102
RTVSPropertyOp12
 70
     1
102
RTVSPropertyOp13
 70
     1
102
RTVSPropertyOp14
 70
     1
102
RTVSPropertyOp15
 70
     1
102
RTVSPropertyOp16
 70
     1
102
RTVSPropertyOp17
 70
     1
102
RTVSPropertyOp18
 70
     1
102
RTVSPropertyOp19
 70
     1
102
RTVSPropertyOp20
 70
     1
102
RTVSPropertyOp21
 70
     1
102
RTVSPropertyOp22
 70
     1
102
RTVSPropertyOp23
 70
     1
102
RTVSPropertyOp24
 70
     1
102
RTVSPropertyOp25
 70
     1
102
RTVSPropertyOp26
 70
     1
102
RTVSPropertyOp27
 70
     1
102
RTVSPropertyOp28
 70
     1
102
RTVSPropertyOp29
 70
     1
102
RTVSPropertyOp30
 70
     1
102
RTVSPropertyOp31
 70
     1
102
RTVSPropertyOp32
 70
     1
  0
XRECORD
  5
136E
102
{ACAD_REACTORS
330
136D
102
}
330
136D
100
AcDbXrecord
280
     1
102
RTVSPropertyOp0
 70
     0
102
RTVSPropertyOp1
 70
     0
102
RTVSPropertyOp2
 70
     0
102
RTVSPropertyOp3
 70
     0
102
RTVSPropertyOp4
 70
     0
102
RTVSPropertyOp5
 70
     0
102
RTVSPropertyOp6
 70
     0
102
RTVSPropertyOp7
 70
     0
102
RTVSPropertyOp8
 70
     0
102
RTVSPropertyOp9
 70
     0
102
RTVSPropertyOp10
 70
     0
102
RTVSPropertyOp11
 70
     0
102
RTVSPropertyOp12
 70
     0
102
RTVSPropertyOp13
 70
     0
102
RTVSPropertyOp14
 70
     2
102
RTVSPropertyOp15
 70
     0
102
RTVSPropertyOp16
 70
     0
102
RTVSPropertyOp17
 70
     0
102
RTVSPropertyOp18
 70
     0
102
RTVSPropertyOp19
 70
     0
102
RTVSPropertyOp20
 70
     0
102
RTVSPropertyOp21
 70
     0
102
RTVSPropertyOp22
 70
     0
102
RTVSPropertyOp23
 70
     0
102
RTVSPropertyOp24
 70
     0
102
RTVSPropertyOp25
 70
     0
102
RTVSPropertyOp26
 70
     0
102
RTVSPropertyOp27
 70
     0
102
RTVSPropertyOp28
 70
     0
102
RTVSPropertyOp29
 70
     0
102
RTVSPropertyOp30
 70
     0
102
RTVSPropertyOp31
 70
     0
102
RTVSPropertyOp32
 70
     0
  0
XRECORD
  5
135E
102
{ACAD_REACTORS
330
135D
102
}
330
135D
100
AcDbXrecord
280
     1
102
RTVSPropertyOp0
 70
     1
102
RTVSPropertyOp1
 70
     1
102
RTVSPropertyOp2
 70
     1
102
RTVSPropertyOp3
 70
     1
102
RTVSPropertyOp4
 70
     1
102
RTVSPropertyOp5
 70
     1
102
RTVSPropertyOp6
 70
     1
102
RTVSPropertyOp7
 70
     1
102
RTVSPropertyOp8
 70
     1
102
RTVSPropertyOp9
 70
     1
102
RTVSPropertyOp10
 70
     1
102
RTVSPropertyOp11
 70
     1
102
RTVSPropertyOp12
 70
     1
102
RTVSPropertyOp13
 70
     1
102
RTVSPropertyOp14
 70
     1
102
RTVSPropertyOp15
 70
     1
102
RTVSPropertyOp16
 70
     1
102
RTVSPropertyOp17
 70
     1
102
RTVSPropertyOp18
 70
     1
102
RTVSPropertyOp19
 70
     1
102
RTVSPropertyOp20
 70
     1
102
RTVSPropertyOp21
 70
     1
102
RTVSPropertyOp22
 70
     1
102
RTVSPropertyOp23
 70
     1
102
RTVSPropertyOp24
 70
     1
102
RTVSPropertyOp25
 70
     1
102
RTVSPropertyOp26
 70
     1
102
RTVSPropertyOp27
 70
     1
102
RTVSPropertyOp28
 70
     1
102
RTVSPropertyOp29
 70
     1
102
RTVSPropertyOp30
 70
     1
102
RTVSPropertyOp31
 70
     1
102
RTVSPropertyOp32
 70
     1
  0
XRECORD
  5
1370
102
{ACAD_REACTORS
330
136F
102
}
330
136F
100
AcDbXrecord
280
     1
102
RTVSPropertyOp0
 70
     0
102
RTVSPropertyOp1
 70
     0
102
RTVSPropertyOp2
 70
     0
102
RTVSPropertyOp3
 70
     0
102
RTVSPropertyOp4
 70
     0
102
RTVSPropertyOp5
 70
     0
102
RTVSPropertyOp6
 70
     0
102
RTVSPropertyOp7
 70
     0
102
RTVSPropertyOp8
 70
     0
102
RTVSPropertyOp9
 70
     0
102
RTVSPropertyOp10
 70
     0
102
RTVSPropertyOp11
 70
     0
102
RTVSPropertyOp12
 70
     0
102
RTVSPropertyOp13
 70
     0
102
RTVSPropertyOp14
 70
     2
102
RTVSPropertyOp15
 70
     0
102
RTVSPropertyOp16
 70
     0
102
RTVSPropertyOp17
 70
     0
102
RTVSPropertyOp18
 70
     0
102
RTVSPropertyOp19
 70
     0
102
RTVSPropertyOp20
 70
     0
102
RTVSPropertyOp21
 70
     0
102
RTVSPropertyOp22
 70
     0
102
RTVSPropertyOp23
 70
     0
102
RTVSPropertyOp24
 70
     0
102
RTVSPropertyOp25
 70
     0
102
RTVSPropertyOp26
 70
     0
102
RTVSPropertyOp27
 70
     0
102
RTVSPropertyOp28
 70
     0
102
RTVSPropertyOp29
 70
     0
102
RTVSPropertyOp30
 70
     0
102
RTVSPropertyOp31
 70
     0
102
RTVSPropertyOp32
 70
     0
  0
XRECORD
  5
1356
102
{ACAD_REACTORS
330
1355
102
}
330
1355
100
AcDbXrecord
280
     1
102
RTVSPropertyOp0
 70
     1
102
RTVSPropertyOp1
 70
     1
102
RTVSPropertyOp2
 70
     1
102
RTVSPropertyOp3
 70
     1
102
RTVSPropertyOp4
 70
     1
102
RTVSPropertyOp5
 70
     1
102
RTVSPropertyOp6
 70
     1
102
RTVSPropertyOp7
 70
     1
102
RTVSPropertyOp8
 70
     1
102
RTVSPropertyOp9
 70
     1
102
RTVSPropertyOp10
 70
     1
102
RTVSPropertyOp11
 70
     1
102
RTVSPropertyOp12
 70
     1
102
RTVSPropertyOp13
 70
     1
102
RTVSPropertyOp14
 70
     1
102
RTVSPropertyOp15
 70
     1
102
RTVSPropertyOp16
 70
     1
102
RTVSPropertyOp17
 70
     1
102
RTVSPropertyOp18
 70
     1
102
RTVSPropertyOp19
 70
     1
102
RTVSPropertyOp20
 70
     1
102
RTVSPropertyOp21
 70
     1
102
RTVSPropertyOp22
 70
     1
102
RTVSPropertyOp23
 70
     1
102
RTVSPropertyOp24
 70
     1
102
RTVSPropertyOp25
 70
     1
102
RTVSPropertyOp26
 70
     1
102
RTVSPropertyOp27
 70
     1
102
RTVSPropertyOp28
 70
     1
102
RTVSPropertyOp29
 70
     1
102
RTVSPropertyOp30
 70
     1
102
RTVSPropertyOp31
 70
     1
102
RTVSPropertyOp32
 70
     1
  0
XRECORD
  5
136C
102
{ACAD_REACTORS
330
136B
102
}
330
136B
100
AcDbXrecord
280
     1
102
RTVSPropertyOp0
 70
     1
102
RTVSPropertyOp1
 70
     1
102
RTVSPropertyOp2
 70
     1
102
RTVSPropertyOp3
 70
     1
102
RTVSPropertyOp4
 70
     1
102
RTVSPropertyOp5
 70
     1
102
RTVSPropertyOp6
 70
     1
102
RTVSPropertyOp7
 70
     1
102
RTVSPropertyOp8
 70
     1
102
RTVSPropertyOp9
 70
     1
102
RTVSPropertyOp10
 70
     1
102
RTVSPropertyOp11
 70
     1
102
RTVSPropertyOp12
 70
     1
102
RTVSPropertyOp13
 70
     1
102
RTVSPropertyOp14
 70
     1
102
RTVSPropertyOp15
 70
     1
102
RTVSPropertyOp16
 70
     1
102
RTVSPropertyOp17
 70
     1
102
RTVSPropertyOp18
 70
     1
102
RTVSPropertyOp19
 70
     1
102
RTVSPropertyOp20
 70
     1
102
RTVSPropertyOp21
 70
     1
102
RTVSPropertyOp22
 70
     1
102
RTVSPropertyOp23
 70
     1
102
RTVSPropertyOp24
 70
     1
102
RTVSPropertyOp25
 70
     1
102
RTVSPropertyOp26
 70
     1
102
RTVSPropertyOp27
 70
     1
102
RTVSPropertyOp28
 70
     1
102
RTVSPropertyOp29
 70
     1
102
RTVSPropertyOp30
 70
     1
102
RTVSPropertyOp31
 70
     1
102
RTVSPropertyOp32
 70
     1
  0
XRECORD
  5
136A
102
{ACAD_REACTORS
330
1369
102
}
330
1369
100
AcDbXrecord
280
     1
102
RTVSPropertyOp0
 70
     1
102
RTVSPropertyOp1
 70
     1
102
RTVSPropertyOp2
 70
     1
102
RTVSPropertyOp3
 70
     1
102
RTVSPropertyOp4
 70
     1
102
RTVSPropertyOp5
 70
     1
102
RTVSPropertyOp6
 70
     1
102
RTVSPropertyOp7
 70
     1
102
RTVSPropertyOp8
 70
     1
102
RTVSPropertyOp9
 70
     1
102
RTVSPropertyOp10
 70
     1
102
RTVSPropertyOp11
 70
     1
102
RTVSPropertyOp12
 70
     1
102
RTVSPropertyOp13
 70
     1
102
RTVSPropertyOp14
 70
     1
102
RTVSPropertyOp15
 70
     1
102
RTVSPropertyOp16
 70
     1
102
RTVSPropertyOp17
 70
     1
102
RTVSPropertyOp18
 70
     1
102
RTVSPropertyOp19
 70
     1
102
RTVSPropertyOp20
 70
     1
102
RTVSPropertyOp21
 70
     1
102
RTVSPropertyOp22
 70
     1
102
RTVSPropertyOp23
 70
     1
102
RTVSPropertyOp24
 70
     1
102
RTVSPropertyOp25
 70
     1
102
RTVSPropertyOp26
 70
     1
102
RTVSPropertyOp27
 70
     1
102
RTVSPropertyOp28
 70
     1
102
RTVSPropertyOp29
 70
     1
102
RTVSPropertyOp30
 70
     1
102
RTVSPropertyOp31
 70
     1
102
RTVSPropertyOp32
 70
     1
  0
XRECORD
  5
1364
102
{ACAD_REACTORS
330
1363
102
}
330
1363
100
AcDbXrecord
280
     1
102
RTVSPropertyOp0
 70
     1
102
RTVSPropertyOp1
 70
     1
102
RTVSPropertyOp2
 70
     1
102
RTVSPropertyOp3
 70
     1
102
RTVSPropertyOp4
 70
     1
102
RTVSPropertyOp5
 70
     1
102
RTVSPropertyOp6
 70
     1
102
RTVSPropertyOp7
 70
     1
102
RTVSPropertyOp8
 70
     1
102
RTVSPropertyOp9
 70
     1
102
RTVSPropertyOp10
 70
     1
102
RTVSPropertyOp11
 70
     1
102
RTVSPropertyOp12
 70
     1
102
RTVSPropertyOp13
 70
     1
102
RTVSPropertyOp14
 70
     1
102
RTVSPropertyOp15
 70
     1
102
RTVSPropertyOp16
 70
     1
102
RTVSPropertyOp17
 70
     1
102
RTVSPropertyOp18
 70
     1
102
RTVSPropertyOp19
 70
     1
102
RTVSPropertyOp20
 70
     1
102
RTVSPropertyOp21
 70
     1
102
RTVSPropertyOp22
 70
     1
102
RTVSPropertyOp23
 70
     1
102
RTVSPropertyOp24
 70
     1
102
RTVSPropertyOp25
 70
     1
102
RTVSPropertyOp26
 70
     1
102
RTVSPropertyOp27
 70
     1
102
RTVSPropertyOp28
 70
     1
102
RTVSPropertyOp29
 70
     1
102
RTVSPropertyOp30
 70
     1
102
RTVSPropertyOp31
 70
     1
102
RTVSPropertyOp32
 70
     1
  0
XRECORD
  5
1366
102
{ACAD_REACTORS
330
1365
102
}
330
1365
100
AcDbXrecord
280
     1
102
RTVSPropertyOp0
 70
     1
102
RTVSPropertyOp1
 70
     1
102
RTVSPropertyOp2
 70
     1
102
RTVSPropertyOp3
 70
     1
102
RTVSPropertyOp4
 70
     1
102
RTVSPropertyOp5
 70
     1
102
RTVSPropertyOp6
 70
     1
102
RTVSPropertyOp7
 70
     1
102
RTVSPropertyOp8
 70
     1
102
RTVSPropertyOp9
 70
     1
102
RTVSPropertyOp10
 70
     1
102
RTVSPropertyOp11
 70
     1
102
RTVSPropertyOp12
 70
     1
102
RTVSPropertyOp13
 70
     1
102
RTVSPropertyOp14
 70
     1
102
RTVSPropertyOp15
 70
     1
102
RTVSPropertyOp16
 70
     1
102
RTVSPropertyOp17
 70
     1
102
RTVSPropertyOp18
 70
     1
102
RTVSPropertyOp19
 70
     1
102
RTVSPropertyOp20
 70
     1
102
RTVSPropertyOp21
 70
     1
102
RTVSPropertyOp22
 70
     1
102
RTVSPropertyOp23
 70
     1
102
RTVSPropertyOp24
 70
     1
102
RTVSPropertyOp25
 70
     1
102
RTVSPropertyOp26
 70
     1
102
RTVSPropertyOp27
 70
     1
102
RTVSPropertyOp28
 70
     1
102
RTVSPropertyOp29
 70
     1
102
RTVSPropertyOp30
 70
     1
102
RTVSPropertyOp31
 70
     1
102
RTVSPropertyOp32
 70
     1
  0
XRECORD
  5
135C
102
{ACAD_REACTORS
330
135B
102
}
330
135B
100
AcDbXrecord
280
     1
102
RTVSPropertyOp0
 70
     1
102
RTVSPropertyOp1
 70
     1
102
RTVSPropertyOp2
 70
     1
102
RTVSPropertyOp3
 70
     1
102
RTVSPropertyOp4
 70
     1
102
RTVSPropertyOp5
 70
     1
102
RTVSPropertyOp6
 70
     1
102
RTVSPropertyOp7
 70
     1
102
RTVSPropertyOp8
 70
     1
102
RTVSPropertyOp9
 70
     1
102
RTVSPropertyOp10
 70
     1
102
RTVSPropertyOp11
 70
     1
102
RTVSPropertyOp12
 70
     1
102
RTVSPropertyOp13
 70
     1
102
RTVSPropertyOp14
 70
     1
102
RTVSPropertyOp15
 70
     1
102
RTVSPropertyOp16
 70
     1
102
RTVSPropertyOp17
 70
     1
102
RTVSPropertyOp18
 70
     1
102
RTVSPropertyOp19
 70
     1
102
RTVSPropertyOp20
 70
     1
102
RTVSPropertyOp21
 70
     1
102
RTVSPropertyOp22
 70
     1
102
RTVSPropertyOp23
 70
     1
102
RTVSPropertyOp24
 70
     1
102
RTVSPropertyOp25
 70
     1
102
RTVSPropertyOp26
 70
     1
102
RTVSPropertyOp27
 70
     1
102
RTVSPropertyOp28
 70
     1
102
RTVSPropertyOp29
 70
     1
102
RTVSPropertyOp30
 70
     1
102
RTVSPropertyOp31
 70
     1
102
RTVSPropertyOp32
 70
     1
  0
XRECORD
  5
1350
102
{ACAD_REACTORS
330
134F
102
}
330
134F
100
AcDbXrecord
280
     1
102
RTVSPropertyOp0
 70
     1
102
RTVSPropertyOp1
 70
     1
102
RTVSPropertyOp2
 70
     1
102
RTVSPropertyOp3
 70
     1
102
RTVSPropertyOp4
 70
     1
102
RTVSPropertyOp5
 70
     1
102
RTVSPropertyOp6
 70
     1
102
RTVSPropertyOp7
 70
     1
102
RTVSPropertyOp8
 70
     1
102
RTVSPropertyOp9
 70
     1
102
RTVSPropertyOp10
 70
     1
102
RTVSPropertyOp11
 70
     1
102
RTVSPropertyOp12
 70
     1
102
RTVSPropertyOp13
 70
     1
102
RTVSPropertyOp14
 70
     1
102
RTVSPropertyOp15
 70
     1
102
RTVSPropertyOp16
 70
     1
102
RTVSPropertyOp17
 70
     1
102
RTVSPropertyOp18
 70
     1
102
RTVSPropertyOp19
 70
     1
102
RTVSPropertyOp20
 70
     1
102
RTVSPropertyOp21
 70
     1
102
RTVSPropertyOp22
 70
     1
102
RTVSPropertyOp23
 70
     1
102
RTVSPropertyOp24
 70
     1
102
RTVSPropertyOp25
 70
     1
102
RTVSPropertyOp26
 70
     1
102
RTVSPropertyOp27
 70
     1
102
RTVSPropertyOp28
 70
     1
102
RTVSPropertyOp29
 70
     1
102
RTVSPropertyOp30
 70
     1
102
RTVSPropertyOp31
 70
     1
102
RTVSPropertyOp32
 70
     1
  0
XRECORD
  5
1368
102
{ACAD_REACTORS
330
1367
102
}
330
1367
100
AcDbXrecord
280
     1
102
RTVSPropertyOp0
 70
     1
102
RTVSPropertyOp1
 70
     1
102
RTVSPropertyOp2
 70
     1
102
RTVSPropertyOp3
 70
     1
102
RTVSPropertyOp4
 70
     1
102
RTVSPropertyOp5
 70
     1
102
RTVSPropertyOp6
 70
     1
102
RTVSPropertyOp7
 70
     1
102
RTVSPropertyOp8
 70
     1
102
RTVSPropertyOp9
 70
     1
102
RTVSPropertyOp10
 70
     1
102
RTVSPropertyOp11
 70
     1
102
RTVSPropertyOp12
 70
     1
102
RTVSPropertyOp13
 70
     1
102
RTVSPropertyOp14
 70
     1
102
RTVSPropertyOp15
 70
     1
102
RTVSPropertyOp16
 70
     1
102
RTVSPropertyOp17
 70
     1
102
RTVSPropertyOp18
 70
     1
102
RTVSPropertyOp19
 70
     1
102
RTVSPropertyOp20
 70
     1
102
RTVSPropertyOp21
 70
     1
102
RTVSPropertyOp22
 70
     1
102
RTVSPropertyOp23
 70
     1
102
RTVSPropertyOp24
 70
     1
102
RTVSPropertyOp25
 70
     1
102
RTVSPropertyOp26
 70
     1
102
RTVSPropertyOp27
 70
     1
102
RTVSPropertyOp28
 70
     1
102
RTVSPropertyOp29
 70
     1
102
RTVSPropertyOp30
 70
     1
102
RTVSPropertyOp31
 70
     1
102
RTVSPropertyOp32
 70
     1
  0
ENDSEC
  0
EOF
