  0
SECTION
  2
HEADER
  9
$ACADVER
  1
AC1015
  9
$ACADMAINTVER
 70
    20
  9
$DWGCODEPAGE
  3
ANSI_1252
  9
$INSBASE
 10
0.0
 20
0.0
 30
0.0
  9
$EXTMIN
 10
1030.268261857436
 20
670.4318713307052
 30
0.0
  9
$EXTMAX
 10
1162.268261857436
 20
800.9728710532481
 30
0.0
  9
$LIMMIN
 10
0.0
 20
0.0
  9
$LIMMAX
 10
420.0
 20
297.0
  9
$ORTHOMODE
 70
     0
  9
$REGENMODE
 70
     1
  9
$FILLMODE
 70
     1
  9
$QTEXTMODE
 70
     0
  9
$MIRRTEXT
 70
     0
  9
$LTSCALE
 40
1.0
  9
$ATTMODE
 70
     1
  9
$TEXTSIZE
 40
3.5
  9
$TRACEWID
 40
1.0
  9
$TEXTSTYLE
  7
STANDARD
  9
$CLAYER
  8
AM_0
  9
$CELTYPE
  6
BYLAYER
  9
$CECOLOR
 62
   256
  9
$CELTSCALE
 40
1.0
  9
$DISPSILH
 70
     0
  9
$DIMSCALE
 40
1.0
  9
$DIMASZ
 40
3.5
  9
$DIMEXO
 40
1.0
  9
$DIMDLI
 40
10.0
  9
$DIMRND
 40
0.0
  9
$DIMDLE
 40
0.0
  9
$DIMEXE
 40
1.0
  9
$DIMTP
 40
0.1
  9
$DIMTM
 40
0.1
  9
$DIMTXT
 40
3.5
  9
$DIMCEN
 40
0.0
  9
$DIMTSZ
 40
0.0
  9
$DIMTOL
 70
     0
  9
$DIMLIM
 70
     0
  9
$DIMTIH
 70
     0
  9
$DIMTOH
 70
     0
  9
$DIMSE1
 70
     0
  9
$DIMSE2
 70
     0
  9
$DIMTAD
 70
     1
  9
$DIMZIN
 70
     8
  9
$DIMBLK
  1

  9
$DIMASO
 70
     1
  9
$DIMSHO
 70
     1
  9
$DIMPOST
  1

  9
$DIMAPOST
  1
"
  9
$DIMALT
 70
     0
  9
$DIMALTD
 70
     2
  9
$DIMALTF
 40
0.0393701
  9
$DIMLFAC
 40
1.0
  9
$DIMTOFL
 70
     1
  9
$DIMTVP
 40
0.0
  9
$DIMTIX
 70
     0
  9
$DIMSOXD
 70
     0
  9
$DIMSAH
 70
     0
  9
$DIMBLK1
  1

  9
$DIMBLK2
  1

  9
$DIMSTYLE
  2
AM_ISO
  9
$DIMCLRD
 70
   256
  9
$DIMCLRE
 70
   256
  9
$DIMCLRT
 70
     2
  9
$DIMTFAC
 40
0.71
  9
$DIMGAP
 40
1.5
  9
$DIMJUST
 70
     0
  9
$DIMSD1
 70
     0
  9
$DIMSD2
 70
     0
  9
$DIMTOLJ
 70
     0
  9
$DIMTZIN
 70
     8
  9
$DIMALTZ
 70
     0
  9
$DIMALTTZ
 70
     0
  9
$DIMUPT
 70
     0
  9
$DIMDEC
 70
     2
  9
$DIMTDEC
 70
     3
  9
$DIMALTU
 70
     2
  9
$DIMALTTD
 70
     4
  9
$DIMTXSTY
  7
STANDARD
  9
$DIMAUNIT
 70
     0
  9
$DIMADEC
 70
     0
  9
$DIMALTRND
 40
0.0
  9
$DIMAZIN
 70
     2
  9
$DIMDSEP
 70
    46
  9
$DIMATFIT
 70
     3
  9
$DIMFRAC
 70
     0
  9
$DIMLDRBLK
  1

  9
$DIMLUNIT
 70
     2
  9
$DIMLWD
 70
    -1
  9
$DIMLWE
 70
    -1
  9
$DIMTMOVE
 70
     0
  9
$LUNITS
 70
     2
  9
$LUPREC
 70
     2
  9
$SKETCHINC
 40
1.0
  9
$FILLETRAD
 40
0.0
  9
$AUNITS
 70
     0
  9
$AUPREC
 70
     0
  9
$MENU
  1
.
  9
$ELEVATION
 40
0.0
  9
$PELEVATION
 40
0.0
  9
$THICKNESS
 40
0.0
  9
$LIMCHECK
 70
     0
  9
$CHAMFERA
 40
2.5
  9
$CHAMFERB
 40
2.5
  9
$CHAMFERC
 40
20.0
  9
$CHAMFERD
 40
0.0
  9
$SKPOLY
 70
     1
  9
$TDCREATE
 40
2456346.581612859
  9
$TDUCREATE
 40
2456346.539946192
  9
$TDUPDATE
 40
2456359.637406539
  9
$TDUUPDATE
 40
2456359.595739872
  9
$TDINDWG
 40
0.0129566782
  9
$TDUSRTIMER
 40
0.0129562616
  9
$USRTIMER
 70
     1
  9
$ANGBASE
 50
0.0
  9
$ANGDIR
 70
     0
  9
$PDMODE
 70
     0
  9
$PDSIZE
 40
0.0
  9
$PLINEWID
 40
0.0
  9
$SPLFRAME
 70
     0
  9
$SPLINETYPE
 70
     6
  9
$SPLINESEGS
 70
     8
  9
$HANDSEED
  5
2289
  9
$SURFTAB1
 70
     6
  9
$SURFTAB2
 70
     6
  9
$SURFTYPE
 70
     6
  9
$SURFU
 70
     6
  9
$SURFV
 70
     6
  9
$UCSBASE
  2

  9
$UCSNAME
  2

  9
$UCSORG
 10
0.0
 20
0.0
 30
0.0
  9
$UCSXDIR
 10
1.0
 20
0.0
 30
0.0
  9
$UCSYDIR
 10
0.0
 20
1.0
 30
0.0
  9
$UCSORTHOREF
  2

  9
$UCSORTHOVIEW
 70
     0
  9
$UCSORGTOP
 10
0.0
 20
0.0
 30
0.0
  9
$UCSORGBOTTOM
 10
0.0
 20
0.0
 30
0.0
  9
$UCSORGLEFT
 10
0.0
 20
0.0
 30
0.0
  9
$UCSORGRIGHT
 10
0.0
 20
0.0
 30
0.0
  9
$UCSORGFRONT
 10
0.0
 20
0.0
 30
0.0
  9
$UCSORGBACK
 10
0.0
 20
0.0
 30
0.0
  9
$PUCSBASE
  2

  9
$PUCSNAME
  2

  9
$PUCSORG
 10
0.0
 20
0.0
 30
0.0
  9
$PUCSXDIR
 10
1.0
 20
0.0
 30
0.0
  9
$PUCSYDIR
 10
0.0
 20
1.0
 30
0.0
  9
$PUCSORTHOREF
  2

  9
$PUCSORTHOVIEW
 70
     0
  9
$PUCSORGTOP
 10
0.0
 20
0.0
 30
0.0
  9
$PUCSORGBOTTOM
 10
0.0
 20
0.0
 30
0.0
  9
$PUCSORGLEFT
 10
0.0
 20
0.0
 30
0.0
  9
$PUCSORGRIGHT
 10
0.0
 20
0.0
 30
0.0
  9
$PUCSORGFRONT
 10
0.0
 20
0.0
 30
0.0
  9
$PUCSORGBACK
 10
0.0
 20
0.0
 30
0.0
  9
$USERI1
 70
     0
  9
$USERI2
 70
     0
  9
$USERI3
 70
     0
  9
$USERI4
 70
     0
  9
$USERI5
 70
     0
  9
$USERR1
 40
0.0
  9
$USERR2
 40
0.0
  9
$USERR3
 40
0.0
  9
$USERR4
 40
0.0
  9
$USERR5
 40
0.0
  9
$WORLDVIEW
 70
     1
  9
$SHADEDGE
 70
     3
  9
$SHADEDIF
 70
    70
  9
$TILEMODE
 70
     1
  9
$MAXACTVP
 70
    48
  9
$PINSBASE
 10
0.0
 20
0.0
 30
0.0
  9
$PLIMCHECK
 70
     0
  9
$PEXTMIN
 10
1.000000000000000E+20
 20
1.000000000000000E+20
 30
1.000000000000000E+20
  9
$PEXTMAX
 10
-1.000000000000000E+20
 20
-1.000000000000000E+20
 30
-1.000000000000000E+20
  9
$PLIMMIN
 10
-0.2500002402958907
 20
-0.2499999962453767
  9
$PLIMMAX
 10
10.74999951940821
 20
8.249999763458731
  9
$UNITMODE
 70
     0
  9
$VISRETAIN
 70
     1
  9
$PLINEGEN
 70
     0
  9
$PSLTSCALE
 70
     1
  9
$TREEDEPTH
 70
  3020
  9
$CMLSTYLE
  2
STANDARD
  9
$CMLJUST
 70
     0
  9
$CMLSCALE
 40
1.0
  9
$PROXYGRAPHICS
 70
     1
  9
$MEASUREMENT
 70
     1
  9
$CELWEIGHT
370
    -1
  9
$ENDCAPS
280
     0
  9
$JOINSTYLE
280
     0
  9
$LWDISPLAY
290
     0
  9
$INSUNITS
 70
     4
  9
$HYPERLINKBASE
  1

  9
$STYLESHEET
  1
@LAYOUT.CTB
  9
$XEDIT
290
     1
  9
$CEPSNTYPE
380
     0
  9
$PSTYLEMODE
290
     1
  9
$FINGERPRINTGUID
  2
{CA768934-4D5D-4225-83F3-3C33ACFC75AF}
  9
$VERSIONGUID
  2
{E1E06B83-C853-4206-B560-C42D053AD5C7}
  9
$EXTNAMES
290
     1
  9
$PSVPSCALE
 40
0.0
  9
$OLESTARTUP
290
     0
  0
ENDSEC
  0
SECTION
  2
CLASSES
  0
CLASS
  1
DICTIONARYVAR
  2
AcDbDictionaryVar
  3
ObjectDBX Classes
 90
        0
280
     0
281
     0
  0
CLASS
  1
ACMESTATEMGR
  2
AcMeStateMgr
  3
AcMeServices
 90
     1024
280
     0
281
     0
  0
CLASS
  1
ACMESCOPE
  2
AcMeScope
  3
AcMeServices
 90
     1024
280
     0
281
     0
  0
CLASS
  1
ACMECOMMANDHISTORY
  2
AcMeCommandHistory
  3
AcMeServices
 90
     1024
280
     0
281
     0
  0
CLASS
  1
ACRFINSADJUSTERMGR
  2
AcRfInsAdjusterMgr
  3
AcMeServices
 90
     1024
280
     0
281
     0
  0
CLASS
  1
ACMEDRAWINGMAN
  2
AcMeDrawingMan
  3
AcMeServices
 90
     1024
280
     0
281
     0
  0
CLASS
  1
AMATTR
  2
AcMeAttribute
  3
AcMeServices
 90
    33792
280
     0
281
     0
  0
CLASS
  1
ACMEBOMCOLUMN
  2
AcMeBOMColumn
  3
AcMeServices
 90
    33792
280
     0
281
     0
  0
CLASS
  1
ACMEBOMCONF
  2
AcMeBOMConf
  3
AcMeServices
 90
    33792
280
     0
281
     0
  0
CLASS
  1
ACMEBOMTABLE
  2
AcMeBOMTable
  3
AcMeServices
 90
    33792
280
     0
281
     0
  0
CLASS
  1
ACMEBOMENTRY
  2
AcMeBOMEntry
  3
AcMeServices
 90
    33792
280
     0
281
     0
  0
CLASS
  1
ACMEVIEW
  2
AcMeView
  3
AcMeServices
 90
     1024
280
     0
281
     0
  0
CLASS
  1
ACGREFMASTER
  2
AcGrefMaster
  3
AcAttribServices
 90
     1024
280
     0
281
     0
  0
CLASS
  1
AMIMASTER
  2
AmiMaster
  3
AmiServices
 90
     1024
280
     0
281
     0
  0
CLASS
  1
ACASGREFMASTER
  2
AcAsGrefMaster
  3
AutoSurfResolverServices
 90
     1024
280
     0
281
     0
  0
CLASS
  1
ADAPPL
  2
AcAdAppl
  3
DesignerServices
 90
     1024
280
     0
281
     0
  0
CLASS
  1
DEPMGR
  2
AcAdDepMgr
  3
DesignerServices
 90
     1024
280
     0
281
     0
  0
CLASS
  1
PARAMMGR
  2
AcAdParamMgr
  3
DesignerServices
 90
     1024
280
     0
281
     0
  0
CLASS
  1
PARAMSCOPE
  2
AcAdParamScope
  3
DesignerServices
 90
     1024
280
     0
281
     0
  0
CLASS
  1
ACIMSYSVARMAN
  2
AcImSysVarManager
  3
AcMeServices
 90
     1024
280
     0
281
     0
  0
CLASS
  1
ACIMINTSYSVAR
  2
AcImIntSysVar
  3
AcMeServices
 90
     1024
280
     0
281
     0
  0
CLASS
  1
ACIMREALSYSVAR
  2
AcImRealSysVar
  3
AcMeServices
 90
     1024
280
     0
281
     0
  0
CLASS
  1
ACIMSTRSYSVAR
  2
AcImStrSysVar
  3
AcMeServices
 90
     1024
280
     0
281
     0
  0
CLASS
  1
NAMEDAPPL
  2
AcAdNamedAppl
  3
DesignerServices
 90
     1024
280
     0
281
     0
  0
CLASS
  1
ADHNTMPLT
  2
AdHoleNoteTemplateMgr
  3
DesignerServices
 90
    33792
280
     0
281
     0
  0
CLASS
  1
AM_HNTEMPLATE_MGR_NAME
  2
AdHoleNoteTemplateMgrName
  3
DesignerServices
 90
    33792
280
     0
281
     0
  0
CLASS
  1
ACADGREFMODULE
  2
AcAdGrefModule
  3
AdGrefServices
 90
     1024
280
     0
281
     0
  0
CLASS
  1
AM_DRAWING_MGR
  2
AcDmDwgMgr
  3
AcMechDwgViewMgmt
 90
     1024
280
     0
281
     0
  0
CLASS
  1
AM_DWG_DOCUMENT
  2
AcDmDwgDocument
  3
AcMechDwgViewMgmt
 90
     1024
280
     0
281
     0
  0
CLASS
  1
AM_DWG_SHEET
  2
AcDmSheet
  3
AcMechDwgViewMgmt
 90
     1024
280
     0
281
     0
  0
CLASS
  1
AM_VIEWDIMPARMAP
  2
AcDmViewDimParMap
  3
AcMechDwgViewMgmt
 90
     1024
280
     0
281
     0
  0
CLASS
  1
AM_DWGMGR_NAME
  2
AcDmDwgMgrName
  3
AcMechDwgViewMgmt
 90
     1024
280
     0
281
     0
  0
CLASS
  1
ACAMPROJECT
  2
AcAmProject
  3
DesignerAssemblies
 90
     1024
280
     0
281
     0
  0
CLASS
  1
ACAMGRCOMPSET
  2
AcAmGrCompSet
  3
DesignerAssemblies
 90
    32768
280
     0
281
     0
  0
CLASS
  1
ACAMGRCOMPDEFSET
  2
AcAmGrCompDefSet
  3
DesignerAssemblies
 90
     1024
280
     0
281
     0
  0
CLASS
  1
ACAMGRCOMPDEF
  2
AcAmGrCompDef
  3
DesignerAssemblies
 90
     1024
280
     0
281
     0
  0
CLASS
  1
ACCMCONTEXT
  2
AcCmContext
  3
DesignerAssemblies
 90
     1024
280
     0
281
     0
  0
CLASS
  1
ACAMCOMPDEF
  2
AcAmCompDef
  3
DesignerAssemblies
 90
     1024
280
     0
281
     0
  0
CLASS
  1
ACAMCOMPDEFMGR
  2
AcAmCompDefMgr
  3
DesignerAssemblies
 90
     1024
280
     0
281
     0
  0
CLASS
  1
AMCONTEXTMGR
  2
AcAmContextMgr
  3
DesignerAssemblies
 90
     1024
280
     0
281
     0
  0
CLASS
  1
ACAMCONTEXTMODELER
  2
AcAmContextModeler
  3
DesignerAssemblies
 90
     1024
280
     0
281
     0
  0
CLASS
  1
ACDMVIEWGEOM
  2
AcDmViewGeometry
  3
AcMechDwgViewMgmt
 90
    33792
280
     0
281
     1
  0
CLASS
  1
CBROWSERAPPOBJECT
  2
CBrowserAppObject
  3
McadcomServices
 90
     1024
280
     0
281
     0
  0
CLASS
  1
IM_STATIC_MAN
  2
AcImStaticVarManager
  3
AcMeServices
 90
     1024
280
     0
281
     0
  0
CLASS
  1
ASAPP
  2
AcAsAppObject
  3
AutoSurfServices
 90
     1024
280
     0
281
     0
  0
CLASS
  1
ACIMDBLSTATICVAR
  2
AcImDblStaticVar
  3
AcMeServices
 90
     1024
280
     0
281
     0
  0
CLASS
  1
ACIMSTRSTATICVAR
  2
AcImStrStaticVar
  3
AcMeServices
 90
     1024
280
     0
281
     0
  0
CLASS
  1
ACIMINTSTATICVAR
  2
AcImIntStaticVar
  3
AcMeServices
 90
     1024
280
     0
281
     0
  0
CLASS
  1
CATALOGSTATE
  2
AcAmCatalogState
  3
DesignerAssemblies
 90
     1024
280
     0
281
     0
  0
CLASS
  1
DM_PLACEHOLDER
  2
AcDmSelsetPlaceholder
  3
AcMechDwgViewMgmt
 90
     1024
280
     0
281
     0
  0
CLASS
  1
LAYER_INDEX
  2
AcDbLayerIndex
  3
ObjectDBX Classes
 90
        0
280
     0
281
     0
  0
CLASS
  1
IDBUFFER
  2
AcDbIdBuffer
  3
ObjectDBX Classes
 90
        0
280
     0
281
     0
  0
CLASS
  1
ACMSTANDARDJIS
  2
AcmStandardJIS
  3
"Amdt_StdImp|Product Description: AutoCAD Mechanical|Company: Autodesk, Inc."
 90
    33792
280
     0
281
     0
  0
CLASS
  1
ACMSTANDARDANSI
  2
AcmStandardANSI
  3
"Amdt_StdImp|Product Description: AutoCAD Mechanical|Company: Autodesk, Inc."
 90
     1024
280
     0
281
     0
  0
CLASS
  1
ACMSTANDARDBSI
  2
AcmStandardBSI
  3
"Amdt_StdImp|Product Description: AutoCAD Mechanical|Company: Autodesk, Inc."
 90
    33792
280
     0
281
     0
  0
CLASS
  1
ACMSTANDARDDIN
  2
AcmStandardDIN
  3
"Amdt_StdImp|Product Description: AutoCAD Mechanical|Company: Autodesk, Inc."
 90
    33792
280
     0
281
     0
  0
CLASS
  1
ACMSTANDARDISO
  2
AcmStandardISO
  3
"Amdt_StdImp|Product Description: AutoCAD Mechanical|Company: Autodesk, Inc."
 90
     1024
280
     0
281
     0
  0
CLASS
  1
ACDBDICTIONARYWDFLT
  2
AcDbDictionaryWithDefault
  3
ObjectDBX Classes
 90
        0
280
     0
281
     0
  0
CLASS
  1
ACDBPLACEHOLDER
  2
AcDbPlaceHolder
  3
ObjectDBX Classes
 90
        0
280
     0
281
     0
  0
CLASS
  1
LAYOUT
  2
AcDbLayout
  3
ObjectDBX Classes
 90
        0
280
     0
281
     0
  0
CLASS
  1
ACME_DOCUMENT
  2
AcMeDbDoc
  3
AcMeServices
 90
     1024
280
     0
281
     0
  0
CLASS
  1
AMGSETTINGSOBJ
  2
AmgSettingsObj
  3
"AcadM|Product Description: AutoCAD Mechanical|Company: Autodesk, Inc."
 90
     1024
280
     0
281
     0
  0
CLASS
  1
AMGOBJPROPCFG
  2
AmgObjPropCfg
  3
"AmgLay|Product Description: AutoCAD Mechanical|Company: Autodesk, Inc."
 90
     1025
280
     0
281
     0
  0
CLASS
  1
ACDBENTITYCACHE
  2
AcMeEntityCache
  3
AcMeServices
 90
     1024
280
     0
281
     0
  0
CLASS
  1
GSMANAGER
  2
AcMeGSManager
  3
AcMeServices
 90
     1024
280
     0
281
     0
  0
CLASS
  1
AMDTINTERNALREACTOR
  2
AmdtInternalReactor
  3
AcMeServices
 90
     1024
280
     0
281
     0
  0
CLASS
  1
ACME_DATABASE
  2
AcMeDbDatabase
  3
AcMeServices
 90
     1024
280
     0
281
     0
  0
CLASS
  1
ACGREFACADMASTER
  2
AcGrefacadMaster
  3
AcGrefServices
 90
     1024
280
     0
281
     0
  0
CLASS
  1
AMDTMENUSTATEMGR
  2
AmdtMenuStateMgr
  3
McadcomServices
 90
     1024
280
     0
281
     0
  0
CLASS
  1
AMDTMCOMMENUSTATE
  2
AmdtMcomMenuState
  3
McadcomServices
 90
     1024
280
     0
281
     0
  0
CLASS
  1
MAPIADMODULE
  2
MApiAdModule
  3
MApiAdServices
 90
     1024
280
     0
281
     0
  0
CLASS
  1
AMDTDMMENUSTATE
  2
AmdtDmMenuState
  3
AcMechDwgViewMgmt
 90
     1024
280
     0
281
     0
  0
CLASS
  1
AMDTADMENUSTATE
  2
AmdtAdMenuState
  3
DesignerServices
 90
     1024
280
     0
281
     0
  0
CLASS
  1
AMDTAMMENUSTATE
  2
AmdtAmMenuState
  3
DesignerAssemblies
 90
     1024
280
     0
281
     0
  0
CLASS
  1
ACMDATADICTIONARY
  2
AcmDataDictionary
  3
"AcmSymBB|Product Description: AutoCAD Mechanical|Company: Autodesk, Inc."
 90
     1024
280
     0
281
     0
  0
CLASS
  1
ACMDATAENTRYBLOCK
  2
AcmDataEntryBlock
  3
AcmSymBB|Product Description: AutoCAD Mechanical|Company: Autodesk, Inc.
 90
     1024
280
     0
281
     0
  0
CLASS
  1
ACMSURFSTANDARDJIS
  2
AcmSurfTextStdJIS
  3
"Amdt_StdImp|Product Description: AutoCAD Mechanical|Company: Autodesk, Inc."
 90
    33792
280
     0
281
     0
  0
CLASS
  1
ACMFCFSTANDARDJIS
  2
AcmFCFStdJIS
  3
"Amdt_StdImp|Product Description: AutoCAD Mechanical|Company: Autodesk, Inc."
 90
    33792
280
     0
281
     0
  0
CLASS
  1
ACMWELDSTANDARDJIS
  2
AcmWeldingStdJIS
  3
"Amdt_StdImp|Product Description: AutoCAD Mechanical|Company: Autodesk, Inc."
 90
    33792
280
     0
281
     0
  0
CLASS
  1
ACMIDSTANDARDJIS
  2
AcmIdStdJIS
  3
"Amdt_StdImp|Product Description: AutoCAD Mechanical|Company: Autodesk, Inc."
 90
    33792
280
     0
281
     0
  0
CLASS
  1
ACMDATUMSTANDARDJIS
  2
AcmDatumStdJIS
  3
"Amdt_StdImp|Product Description: AutoCAD Mechanical|Company: Autodesk, Inc."
 90
    33792
280
     0
281
     0
  0
CLASS
  1
ACMBOMSTANDARDJIS
  2
AcmBOMStdJIS
  3
"Amdt_StdImp|Product Description: AutoCAD Mechanical|Company: Autodesk, Inc."
 90
    33792
280
     0
281
     0
  0
CLASS
  1
ACMSURFSTANDARDANSI
  2
AcmSurfTextStdANSI
  3
"Amdt_StdImp|Product Description: AutoCAD Mechanical|Company: Autodesk, Inc."
 90
     1024
280
     0
281
     0
  0
CLASS
  1
ACMFCFSTANDARDANSI
  2
AcmFCFStdANSI
  3
"Amdt_StdImp|Product Description: AutoCAD Mechanical|Company: Autodesk, Inc."
 90
     1024
280
     0
281
     0
  0
CLASS
  1
ACMWELDSTANDARDANSI
  2
AcmWeldingStdANSI
  3
"Amdt_StdImp|Product Description: AutoCAD Mechanical|Company: Autodesk, Inc."
 90
     1024
280
     0
281
     0
  0
CLASS
  1
ACMIDSTANDARDANSI
  2
AcmIdStdANSI
  3
"Amdt_StdImp|Product Description: AutoCAD Mechanical|Company: Autodesk, Inc."
 90
     1024
280
     0
281
     0
  0
CLASS
  1
ACMDATUMSTANDARDANSI
  2
AcmDatumStdANSI
  3
"Amdt_StdImp|Product Description: AutoCAD Mechanical|Company: Autodesk, Inc."
 90
     1024
280
     0
281
     0
  0
CLASS
  1
ACMBOMSTANDARDANSI
  2
AcmBOMStdANSI
  3
"Amdt_StdImp|Product Description: AutoCAD Mechanical|Company: Autodesk, Inc."
 90
     1024
280
     0
281
     0
  0
CLASS
  1
ACMSURFSTANDARDBSI
  2
AcmSurfTextStdBSI
  3
"Amdt_StdImp|Product Description: AutoCAD Mechanical|Company: Autodesk, Inc."
 90
    33792
280
     0
281
     0
  0
CLASS
  1
ACMFCFSTANDARDBSI
  2
AcmFCFStdBSI
  3
"Amdt_StdImp|Product Description: AutoCAD Mechanical|Company: Autodesk, Inc."
 90
    33792
280
     0
281
     0
  0
CLASS
  1
ACMWELDSTANDARDBSI
  2
AcmWeldingStdBSI
  3
"Amdt_StdImp|Product Description: AutoCAD Mechanical|Company: Autodesk, Inc."
 90
    33792
280
     0
281
     0
  0
CLASS
  1
ACMIDSTANDARDBSI
  2
AcmIdStdBSI
  3
"Amdt_StdImp|Product Description: AutoCAD Mechanical|Company: Autodesk, Inc."
 90
    33792
280
     0
281
     0
  0
CLASS
  1
ACMDATUMSTANDARDBSI
  2
AcmDatumStdBSI
  3
"Amdt_StdImp|Product Description: AutoCAD Mechanical|Company: Autodesk, Inc."
 90
    33792
280
     0
281
     0
  0
CLASS
  1
ACMBOMSTANDARDBSI
  2
AcmBOMStdBSI
  3
"Amdt_StdImp|Product Description: AutoCAD Mechanical|Company: Autodesk, Inc."
 90
    33792
280
     0
281
     0
  0
CLASS
  1
AMDTEDGESTANDARDDIN
  2
AmdtEdgeStdDIN
  3
"Amdt_StdImp|Product Description: AutoCAD Mechanical|Company: Autodesk, Inc."
 90
    33792
280
     0
281
     0
  0
CLASS
  1
ACMSURFSTANDARDDIN
  2
AcmSurfTextStdDIN
  3
"Amdt_StdImp|Product Description: AutoCAD Mechanical|Company: Autodesk, Inc."
 90
    33792
280
     0
281
     0
  0
CLASS
  1
ACMFCFSTANDARDDIN
  2
AcmFCFStdDIN
  3
"Amdt_StdImp|Product Description: AutoCAD Mechanical|Company: Autodesk, Inc."
 90
    33792
280
     0
281
     0
  0
CLASS
  1
ACMWELDSTANDARDDIN
  2
AcmWeldingStdDIN
  3
"Amdt_StdImp|Product Description: AutoCAD Mechanical|Company: Autodesk, Inc."
 90
    33792
280
     0
281
     0
  0
CLASS
  1
ACMIDSTANDARDDIN
  2
AcmIdStdDIN
  3
"Amdt_StdImp|Product Description: AutoCAD Mechanical|Company: Autodesk, Inc."
 90
    33792
280
     0
281
     0
  0
CLASS
  1
ACMDATUMSTANDARDDIN
  2
AcmDatumStdDIN
  3
"Amdt_StdImp|Product Description: AutoCAD Mechanical|Company: Autodesk, Inc."
 90
    33792
280
     0
281
     0
  0
CLASS
  1
ACMBOMSTANDARDDIN
  2
AcmBOMStdDIN
  3
"Amdt_StdImp|Product Description: AutoCAD Mechanical|Company: Autodesk, Inc."
 90
    33792
280
     0
281
     0
  0
CLASS
  1
ACMSURFSTANDARDISO
  2
AcmSurfTextStdISO
  3
"Amdt_StdImp|Product Description: AutoCAD Mechanical|Company: Autodesk, Inc."
 90
     1024
280
     0
281
     0
  0
CLASS
  1
ACMFCFSTANDARDISO
  2
AcmFCFStdISO
  3
"Amdt_StdImp|Product Description: AutoCAD Mechanical|Company: Autodesk, Inc."
 90
     1024
280
     0
281
     0
  0
CLASS
  1
ACMWELDSTANDARDISO
  2
AcmWeldingStdISO
  3
"Amdt_StdImp|Product Description: AutoCAD Mechanical|Company: Autodesk, Inc."
 90
     1024
280
     0
281
     0
  0
CLASS
  1
ACMIDSTANDARDISO
  2
AcmIdStdISO
  3
"Amdt_StdImp|Product Description: AutoCAD Mechanical|Company: Autodesk, Inc."
 90
     1024
280
     0
281
     0
  0
CLASS
  1
ACMDATUMSTANDARDISO
  2
AcmDatumStdISO
  3
"Amdt_StdImp|Product Description: AutoCAD Mechanical|Company: Autodesk, Inc."
 90
     1024
280
     0
281
     0
  0
CLASS
  1
ACMBOMSTANDARDISO
  2
AcmBOMStdISO
  3
"Amdt_StdImp|Product Description: AutoCAD Mechanical|Company: Autodesk, Inc."
 90
     1024
280
     0
281
     0
  0
CLASS
  1
AMDTBROWSERDBTAB
  2
AmdtBrowserDbTab
  3
McadcomServices
 90
     1024
280
     0
281
     0
  0
CLASS
  1
ACAMGFILTERDAT
  2
AcAmgFilterDat
  3
"AcadM|Product Description: AutoCAD Mechanical|Company: Autodesk, Inc."
 90
     1024
280
     0
281
     0
  0
CLASS
  1
MAPIAMMOUDLE
  2
MApiAmModule
  3
MApiAmServices
 90
     1024
280
     0
281
     0
  0
CLASS
  1
AMDTMAPISURFMOUDULE
  2
AmdtMApiSurfModule
  3
MApiSurfServices
 90
     1024
280
     0
281
     0
  0
CLASS
  1
ACAMGLAYSTD
  2
AcAmgLayStd
  3
"AmgLay|Product Description: AutoCAD Mechanical|Company: Autodesk, Inc."
 90
     1024
280
     0
281
     0
  0
CLASS
  1
ACAMGDIMSTD
  2
AcAmgDimStd
  3
"AmgDim|Product Description: AutoCAD Mechanical|Company: Autodesk, Inc."
 90
     1024
280
     0
281
     0
  0
CLASS
  1
ACAMGTITLESTD
  2
AcAmgTitleStd
  3
"AmgTitle|Product Description: AutoCAD Mechanical|Company: Autodesk, Inc."
 90
     4095
280
     0
281
     0
  0
CLASS
  1
ACMDETAILSTANDARDJIS
  2
AmdtDetailSymStdJIS
  3
"Amdt_StdImp|Product Description: AutoCAD Mechanical|Company: Autodesk, Inc."
 90
    33792
280
     0
281
     0
  0
CLASS
  1
ACMSECTIONSTANDARDJIS
  2
AmdtSectionSymStdJIS
  3
"Amdt_StdImp|Product Description: AutoCAD Mechanical|Company: Autodesk, Inc."
 90
    33792
280
     0
281
     0
  0
CLASS
  1
ACMCENTERLINESTANDARDJIS
  2
AmdtCenterLineStdJIS
  3
"Amdt_StdImp|Product Description: AutoCAD Mechanical|Company: Autodesk, Inc."
 90
    33792
280
     0
281
     0
  0
CLASS
  1
ACMTHREADLINESTANDARDJIS
  2
AmdtThreadLineStdJIS
  3
"Amdt_StdImp|Product Description: AutoCAD Mechanical|Company: Autodesk, Inc."
 90
    33792
280
     0
281
     0
  0
CLASS
  1
ACMDETAILSTANDARDANSI
  2
AmdtDetailSymStdANSI
  3
"Amdt_StdImp|Product Description: AutoCAD Mechanical|Company: Autodesk, Inc."
 90
     1024
280
     0
281
     0
  0
CLASS
  1
ACMSECTIONSTANDARDANSI
  2
AmdtSectionSymStdANSI
  3
"Amdt_StdImp|Product Description: AutoCAD Mechanical|Company: Autodesk, Inc."
 90
     1024
280
     0
281
     0
  0
CLASS
  1
ACMCENTERLINESTANDARDANSI
  2
AmdtCenterLineStdANSI
  3
"Amdt_StdImp|Product Description: AutoCAD Mechanical|Company: Autodesk, Inc."
 90
     1024
280
     0
281
     0
  0
CLASS
  1
ACMTHREADLINESTANDARDANSI
  2
AmdtThreadLineStdANSI
  3
"Amdt_StdImp|Product Description: AutoCAD Mechanical|Company: Autodesk, Inc."
 90
     1024
280
     0
281
     0
  0
CLASS
  1
ACMDETAILSTANDARDBSI
  2
AmdtDetailSymStdBSI
  3
"Amdt_StdImp|Product Description: AutoCAD Mechanical|Company: Autodesk, Inc."
 90
    33792
280
     0
281
     0
  0
CLASS
  1
ACMSECTIONSTANDARDBSI
  2
AmdtSectionSymStdBSI
  3
"Amdt_StdImp|Product Description: AutoCAD Mechanical|Company: Autodesk, Inc."
 90
    33792
280
     0
281
     0
  0
CLASS
  1
ACMCENTERLINESTANDARDBSI
  2
AmdtCenterLineStdBSI
  3
"Amdt_StdImp|Product Description: AutoCAD Mechanical|Company: Autodesk, Inc."
 90
    33792
280
     0
281
     0
  0
CLASS
  1
ACMTHREADLINESTANDARDBSI
  2
AmdtThreadLineStdBSI
  3
"Amdt_StdImp|Product Description: AutoCAD Mechanical|Company: Autodesk, Inc."
 90
    33792
280
     0
281
     0
  0
CLASS
  1
ACMDETAILSTANDARDDIN
  2
AmdtDetailSymStdDIN
  3
"Amdt_StdImp|Product Description: AutoCAD Mechanical|Company: Autodesk, Inc."
 90
    33792
280
     0
281
     0
  0
CLASS
  1
ACMSECTIONSTANDARDDIN
  2
AmdtSectionSymStdDIN
  3
"Amdt_StdImp|Product Description: AutoCAD Mechanical|Company: Autodesk, Inc."
 90
    33792
280
     0
281
     0
  0
CLASS
  1
ACMCENTERLINESTANDARDDIN
  2
AmdtCenterLineStdDIN
  3
"Amdt_StdImp|Product Description: AutoCAD Mechanical|Company: Autodesk, Inc."
 90
    33792
280
     0
281
     0
  0
CLASS
  1
ACMTHREADLINESTANDARDDIN
  2
AmdtThreadLineStdDIN
  3
"Amdt_StdImp|Product Description: AutoCAD Mechanical|Company: Autodesk, Inc."
 90
    33792
280
     0
281
     0
  0
CLASS
  1
AMDTEDGESTANDARDISO
  2
AmdtEdgeStdISO
  3
"Amdt_StdImp|Product Description: AutoCAD Mechanical|Company: Autodesk, Inc."
 90
     1024
280
     0
281
     0
  0
CLASS
  1
ACMDETAILSTANDARDISO
  2
AmdtDetailSymStdISO
  3
"Amdt_StdImp|Product Description: AutoCAD Mechanical|Company: Autodesk, Inc."
 90
     1024
280
     0
281
     0
  0
CLASS
  1
ACMSECTIONSTANDARDISO
  2
AmdtSectionSymStdISO
  3
"Amdt_StdImp|Product Description: AutoCAD Mechanical|Company: Autodesk, Inc."
 90
     1024
280
     0
281
     0
  0
CLASS
  1
ACMCENTERLINESTANDARDISO
  2
AmdtCenterLineStdISO
  3
"Amdt_StdImp|Product Description: AutoCAD Mechanical|Company: Autodesk, Inc."
 90
     1024
280
     0
281
     0
  0
CLASS
  1
ACMTHREADLINESTANDARDISO
  2
AmdtThreadLineStdISO
  3
"Amdt_StdImp|Product Description: AutoCAD Mechanical|Company: Autodesk, Inc."
 90
     1024
280
     0
281
     0
  0
CLASS
  1
ACMNOTESTANDARDISO
  2
AmdtNoteStdISO
  3
"Amdt_StdImp|Product Description: AutoCAD Mechanical|Company: Autodesk, Inc."
 90
     1024
280
     0
281
     0
  0
CLASS
  1
ACAMGHOLECHARTSTDISO
  2
AcAmgHoleChartStdISO
  3
AmgDim|Product Description: AutoCAD Mechanical|Company: Autodesk, Inc.
 90
     1024
280
     0
281
     0
  0
CLASS
  1
ACMNOTESTANDARDANSI
  2
AmdtNoteStdANSI
  3
"Amdt_StdImp|Product Description: AutoCAD Mechanical|Company: Autodesk, Inc."
 90
     1024
280
     0
281
     0
  0
CLASS
  1
AMDTNOTETEMPLATEDB
  2
AmdtNoteTemplateDB
  3
AcmSymBB|Product Description: AutoCAD Mechanical|Company: Autodesk, Inc.
 90
     1024
280
     0
281
     0
  0
CLASS
  1
ACAMGHOLECHARTSTDANSI
  2
AcAmgHoleChartStdANSI
  3
AmgDim|Product Description: AutoCAD Mechanical|Company: Autodesk, Inc.
 90
     1024
280
     0
281
     0
  0
CLASS
  1
TABLESTYLE
  2
AcDbTableStyle
  3
ObjectDBX Classes
 90
     4095
280
     0
281
     0
  0
CLASS
  1
ACAD_TABLE
  2
AcDbTable
  3
ObjectDBX Classes
 90
    33793
280
     0
281
     1
  0
CLASS
  1
MATERIAL
  2
AcDbMaterial
  3
ObjectDBX Classes
 90
     1153
280
     0
281
     0
  0
CLASS
  1
VISUALSTYLE
  2
AcDbVisualStyle
  3
ObjectDBX Classes
 90
     4095
280
     0
281
     0
  0
CLASS
  1
SCALE
  2
AcDbScale
  3
ObjectDBX Classes
 90
     1153
280
     0
281
     0
  0
CLASS
  1
MLEADERSTYLE
  2
AcDbMLeaderStyle
  3
ACDB_MLEADERSTYLE_CLASS
 90
     4095
280
     0
281
     0
  0
CLASS
  1
ACRFATTGENMGR
  2
AcRfAttGeneralMgr
  3
AcAttribServices
 90
     1024
280
     0
281
     0
  0
CLASS
  1
ACRFOBJATTMGR
  2
AcRfObjAttGroupMgr
  3
AcAttribServices
 90
     1024
280
     0
281
     0
  0
CLASS
  1
ACRFMCADAPIATTHOLDER
  2
AcRfMCADAPIAttHolder
  3
AcAttribServices
 90
     1024
280
     0
281
     0
  0
CLASS
  1
AMDTSYSATTR
  2
AmdtSystemAttribute
  3
AcAttribServices
 90
     1024
280
     0
281
     0
  0
CLASS
  1
ACMTAPERSTANDARDISO
  2
AcmTaperStdISO
  3
"Amdt_StdImp|Product Description: AutoCAD Mechanical|Company: Autodesk, Inc."
 90
     1024
280
     0
281
     0
  0
CLASS
  1
ACMANOOTATIONVIEWSTANDARDISO
  2
AmdtAnViewStdISO
  3
"Amdt_StdImp|Product Description: AutoCAD Mechanical|Company: Autodesk, Inc."
 90
     1024
280
     0
281
     0
  0
CLASS
  1
ACMTAPERSTANDARDANSI
  2
AcmTaperStdANSI
  3
"Amdt_StdImp|Product Description: AutoCAD Mechanical|Company: Autodesk, Inc."
 90
     1024
280
     0
281
     0
  0
CLASS
  1
ACMANOOTATIONVIEWSTANDARDANSI
  2
AmdtAnViewStdANSI
  3
"Amdt_StdImp|Product Description: AutoCAD Mechanical|Company: Autodesk, Inc."
 90
     1024
280
     0
281
     0
  0
CLASS
  1
CELLSTYLEMAP
  2
AcDbCellStyleMap
  3
ObjectDBX Classes
 90
     1152
280
     0
281
     0
  0
CLASS
  1
CAMSSTRUCTBTNSTATE
  2
StructBtnState
  3
DesignerAssemblies
 90
    33792
280
     0
281
     0
  0
CLASS
  1
AMDTEDGESTANDARDISO13715
  2
AmdtEdgeStdISO13715
  3
"Amdt_StdImp|Product Description: AutoCAD Mechanical|Company: Autodesk, Inc."
 90
    33792
280
     0
281
     0
  0
CLASS
  1
ACMSURFSTANDARDISO2002
  2
AcmSurfTextStdISO2002
  3
"Amdt_StdImp|Product Description: AutoCAD Mechanical|Company: Autodesk, Inc."
 90
    33792
280
     0
281
     0
  0
CLASS
  1
ACMSECTIONSTANDARDISO2001
  2
AmdtSectionSymStdISO2001
  3
"Amdt_StdImp|Product Description: AutoCAD Mechanical|Company: Autodesk, Inc."
 90
    33792
280
     0
281
     0
  0
CLASS
  1
SORTENTSTABLE
  2
AcDbSortentsTable
  3
ObjectDBX Classes
 90
        0
280
     0
281
     0
  0
CLASS
  1
DIMASSOC
  2
AcDbDimAssoc
  3
"AcDbDimAssoc|Product Desc:     AcDim ARX App For Dimension|Company:          Autodesk, Inc.|WEB Address:      www.autodesk.com"
 90
    32768
280
     0
281
     0
  0
CLASS
  1
AEC_REFEDIT_STATUS_TRACKER
  2
AecDbRefEditStatusTracker
  3
AecArchBase50|Product Desc: Autodesk Architectural Desktop 2007 |Company: Autodesk,Inc. |WEB Address: www.autodesk.com
 90
      129
280
     0
281
     0
  0
CLASS
  1
NPOCOLLECTION
  2
AcDbImpNonPersistentObjectsCollection
  3
ObjectDBX Classes
 90
     1153
280
     0
281
     0
  0
ENDSEC
  0
SECTION
  2
TABLES
  0
TABLE
  2
VPORT
  5
8
330
0
100
AcDbSymbolTable
 70
     1
  0
VPORT
  5
A35
330
8
100
AcDbSymbolTableRecord
100
AcDbViewportTableRecord
  2
*Active
 70
     0
 10
0.0
 20
0.0
 11
1.0
 21
1.0
 12
0.0
 22
0.0
 13
0.0
 23
0.0
 14
2.5
 24
2.5
 15
10.0
 25
10.0
 16
0.0
 26
0.0
 36
1.0
 17
1100.615729607179
 27
758.1428666053128
 37
0.0
 40
286.2091657242348
 41
1.71195652173913
 42
50.0
 43
0.0
 44
0.0
 50
0.0
 51
0.0
 71
     0
 72
   100
 73
     1
 74
     1
 75
     0
 76
     0
 77
     0
 78
     0
281
     0
 65
     0
110
0.0
120
0.0
130
0.0
111
1.0
121
0.0
131
0.0
112
0.0
122
1.0
132
0.0
 79
     0
146
0.0
  0
ENDTAB
  0
TABLE
  2
LTYPE
  5
5
330
0
100
AcDbSymbolTable
 70
    22
  0
LTYPE
  5
14
330
5
100
AcDbSymbolTableRecord
100
AcDbLinetypeTableRecord
  2
BYBLOCK
 70
     0
  3

 72
    65
 73
     0
 40
0.0
  0
LTYPE
  5
15
330
5
100
AcDbSymbolTableRecord
100
AcDbLinetypeTableRecord
  2
BYLAYER
 70
     0
  3

 72
    65
 73
     0
 40
0.0
  0
LTYPE
  5
16
330
5
100
AcDbSymbolTableRecord
100
AcDbLinetypeTableRecord
  2
CONTINUOUS
 70
     0
  3
Solid line
 72
    65
 73
     0
 40
0.0
  0
LTYPE
  5
BD
330
5
100
AcDbSymbolTableRecord
100
AcDbLinetypeTableRecord
  2
HIDDEN
 70
     0
  3
__ __ __ __ __ __ __ __ __ __ __ __ __ __ __ __
 72
    65
 73
     2
 40
0.375
 49
0.25
 74
     0
 49
-0.125
 74
     0
  0
LTYPE
  5
BF
330
5
100
AcDbSymbolTableRecord
100
AcDbLinetypeTableRecord
  2
PHANTOM2
 70
     0
  3
___ _ _ ___ _ _ ___ _ _ ___ _ _ ___ _ _ ___ _ _
 72
    65
 73
     6
 40
1.25
 49
0.625
 74
     0
 49
-0.125
 74
     0
 49
0.125
 74
     0
 49
-0.125
 74
     0
 49
0.125
 74
     0
 49
-0.125
 74
     0
  0
LTYPE
  5
CA
330
5
100
AcDbSymbolTableRecord
100
AcDbLinetypeTableRecord
  2
CENTER
 70
     0
  3
____ _ ____ _ ____ _ ____ _ ____ _ ____ _ ____ 
 72
    65
 73
     4
 40
2.0
 49
1.25
 74
     0
 49
-0.25
 74
     0
 49
0.25
 74
     0
 49
-0.25
 74
     0
  0
LTYPE
  5
15B
330
5
100
AcDbSymbolTableRecord
100
AcDbLinetypeTableRecord
  2
ACISOWELD
 70
     0
  3
_ _ _ _ _
 72
    65
 73
     2
 40
2.0
 49
2.0
 74
     0
 49
-1.0
 74
     0
  0
LTYPE
  5
15C
330
5
100
AcDbSymbolTableRecord
100
AcDbLinetypeTableRecord
  2
ACISOTGB
 70
     0
  3
__ . . __ . .
 72
    65
 73
     6
 40
9.0
 49
4.0
 74
     0
 49
-1.0
 74
     0
 49
1.0
 74
     0
 49
-1.0
 74
     0
 49
1.0
 74
     0
 49
-1.0
 74
     0
  0
LTYPE
  5
15D
330
5
100
AcDbSymbolTableRecord
100
AcDbLinetypeTableRecord
  2
ACISOTGL
 70
     0
  3
_ _ _ _ _
 72
    65
 73
     2
 40
3.0
 49
2.0
 74
     0
 49
-1.0
 74
     0
  0
LTYPE
  5
175
330
5
100
AcDbSymbolTableRecord
100
AcDbLinetypeTableRecord
  2
AM_ISO02W050
 70
     0
  3
__ __ __ __ __ __ __ __ __ __ __ __ __ __ __
 72
    65
 73
     2
 40
7.5
 49
6.0
 74
     0
 49
-1.5
 74
     0
  0
LTYPE
  5
176
330
5
100
AcDbSymbolTableRecord
100
AcDbLinetypeTableRecord
  2
AM_ISO08W050
 70
     0
  3
____ . ____ . ____ . ____ . ____ . ____ . ____
 72
    65
 73
     4
 40
18.0
 49
12.0
 74
     0
 49
-1.5
 74
     0
 49
3.0
 74
     0
 49
-1.5
 74
     0
  0
LTYPE
  5
177
330
5
100
AcDbSymbolTableRecord
100
AcDbLinetypeTableRecord
  2
AM_ISO09W050
 70
     0
  3
_____ . . _____ . . _____ . . ____ .. ____
 72
    65
 73
     6
 40
22.5
 49
12.0
 74
     0
 49
-1.5
 74
     0
 49
3.0
 74
     0
 49
-1.5
 74
     0
 49
3.0
 74
     0
 49
-1.5
 74
     0
  0
LTYPE
  5
178
330
5
100
AcDbSymbolTableRecord
100
AcDbLinetypeTableRecord
  2
AM_ISO02W050x2
 70
     0
  3
 _ _ _ _ _ _ _ _ _ _ _ _
 72
    65
 73
     2
 40
3.75
 49
3.0
 74
     0
 49
-0.75
 74
     0
  0
LTYPE
  5
179
330
5
100
AcDbSymbolTableRecord
100
AcDbLinetypeTableRecord
  2
AM_ISO08W050x2
 70
     0
  3
__ . __ . __ . __ . __ . __
 72
    65
 73
     4
 40
9.0
 49
6.0
 74
     0
 49
-0.75
 74
     0
 49
1.5
 74
     0
 49
-0.75
 74
     0
  0
LTYPE
  5
17C
330
5
100
AcDbSymbolTableRecord
100
AcDbLinetypeTableRecord
  2
Amzigzag
 70
     0
  3
/\/-/\/-/\/-/\/-/\/-/\/
 72
    65
 73
     2
 40
11.0001
 49
0.0001
 74
     4
 75
   135
340
17B
 46
0.04
 50
0.0
 44
0.0
 45
0.0
 49
-11.0
 74
     0
  0
LTYPE
  5
2ED
330
5
100
AcDbSymbolTableRecord
100
AcDbLinetypeTableRecord
  2
Amconstr
 70
     0
  3
_______________________
 72
    65
 73
     2
 40
9999.0
 49
9999.0
 74
     0
 49
0.0
 74
     0
  0
LTYPE
  5
1B6A
330
5
100
AcDbSymbolTableRecord
100
AcDbLinetypeTableRecord
  2
ACANSTGB
 70
     0
  3
__ . . __ . .
 72
    65
 73
     6
 40
0.35433070866
 49
0.15748031496
 74
     0
 49
-0.03937007874
 74
     0
 49
0.03937007874
 74
     0
 49
-0.03937007874
 74
     0
 49
0.03937007874
 74
     0
 49
-0.03937007874
 74
     0
  0
LTYPE
  5
1B6B
330
5
100
AcDbSymbolTableRecord
100
AcDbLinetypeTableRecord
  2
ACANSTGL
 70
     0
  3
_ _ _ _ _
 72
    65
 73
     2
 40
0.11811023622
 49
0.07874015748
 74
     0
 49
-0.03937007874
 74
     0
  0
LTYPE
  5
1B82
330
5
100
AcDbSymbolTableRecord
100
AcDbLinetypeTableRecord
  2
CENTER2
 70
     0
  3
Center (.5x) ___ _ ___ _ ___ _ ___ _ ___ _ ___
 72
    65
 73
     4
 40
1.125
 49
0.75
 74
     0
 49
-0.125
 74
     0
 49
0.125
 74
     0
 49
-0.125
 74
     0
  0
LTYPE
  5
1B83
330
5
100
AcDbSymbolTableRecord
100
AcDbLinetypeTableRecord
  2
HIDDEN2
 70
     0
  3
Hidden (.5x) _ _ _ _ _ _ _ _ _ _ _ _ _ _ _ _ _
 72
    65
 73
     2
 40
0.1875
 49
0.125
 74
     0
 49
-0.0625
 74
     0
  0
LTYPE
  5
1B84
330
5
100
AcDbSymbolTableRecord
100
AcDbLinetypeTableRecord
  2
Amzigzag2
 70
     0
  3
/\/-/\/-/\/-/\/-/\/-/\/
 72
    65
 73
     2
 40
0.4401
 49
0.0001
 74
     4
 75
   135
340
17B
 46
0.0016
 50
0.0
 44
0.0
 45
0.0
 49
-0.4400000000000001
 74
     0
  0
ENDTAB
  0
TABLE
  2
LAYER
  5
2
102
{ACAD_XDICTIONARY
360
592
102
}
330
0
100
AcDbSymbolTable
 70
     6
  0
LAYER
  5
F
102
{ACAD_XDICTIONARY
360
AB7
102
}
330
2
100
AcDbSymbolTableRecord
100
AcDbLayerTableRecord
  2
0
 70
     0
 62
     7
  6
CONTINUOUS
370
    -3
390
166
  0
LAYER
  5
5CF
102
{ACAD_XDICTIONARY
360
AB9
102
}
330
2
100
AcDbSymbolTableRecord
100
AcDbLayerTableRecord
  2
AM_0
 70
     0
 62
     7
  6
CONTINUOUS
370
    50
390
166
  0
LAYER
  5
D2F
102
{ACAD_XDICTIONARY
360
12C3
102
}
330
2
100
AcDbSymbolTableRecord
100
AcDbLayerTableRecord
  2
Sketch Geometry(ISO)
 70
     0
 62
     7
  6
CONTINUOUS
370
    35
390
166
  0
LAYER
  5
D30
102
{ACAD_XDICTIONARY
360
12C5
102
}
330
2
100
AcDbSymbolTableRecord
100
AcDbLayerTableRecord
  2
Visible Edges(ISO)
 70
     0
 62
     7
  6
CONTINUOUS
370
    35
390
166
  0
LAYER
  5
15D4
330
2
100
AcDbSymbolTableRecord
100
AcDbLayerTableRecord
  2
AM_5
 70
     0
 62
     3
  6
CONTINUOUS
370
    25
390
166
1001
AcAecLayerStandard
1000

1000

  0
LAYER
  5
15D7
330
2
100
AcDbSymbolTableRecord
100
AcDbLayerTableRecord
  2
Defpoints
 70
     0
 62
     7
  6
CONTINUOUS
290
     0
370
    -3
390
166
  0
ENDTAB
  0
TABLE
  2
STYLE
  5
3
330
0
100
AcDbSymbolTable
 70
     6
  0
STYLE
  5
10
330
3
100
AcDbSymbolTableRecord
100
AcDbTextStyleTableRecord
  2
STANDARD
 70
     0
 40
0.0
 41
1.0
 50
0.0
 71
     0
 42
3.5
  3
ISOCP.SHX
  4

  0
STYLE
  5
159
330
3
100
AcDbSymbolTableRecord
100
AcDbTextStyleTableRecord
  2
ACISOTS
 70
     0
 40
1.0
 41
1.0
 50
0.0
 71
     0
 42
2.5
  3
isocp.shx
  4

  0
STYLE
  5
15A
330
3
100
AcDbSymbolTableRecord
100
AcDbTextStyleTableRecord
  2
ACISOGDT
 70
     0
 40
0.0
 41
1.0
 50
0.0
 71
     0
 42
2.5
  3
amgdt.shx
  4

  0
STYLE
  5
17B
330
3
100
AcDbSymbolTableRecord
100
AcDbTextStyleTableRecord
  2

 70
     1
 40
0.0
 41
1.0
 50
0.0
 71
     0
 42
3.5
  3
ltypeshp.shx
  4

  0
STYLE
  5
1B63
330
3
100
AcDbSymbolTableRecord
100
AcDbTextStyleTableRecord
  2
ACANSTS
 70
     0
 40
1.0
 41
1.0
 50
0.0
 71
     0
 42
3.5
  3
romans.shx
  4

  0
STYLE
  5
1B66
330
3
100
AcDbSymbolTableRecord
100
AcDbTextStyleTableRecord
  2
ACANSGDT
 70
     0
 40
0.0
 41
1.0
 50
0.0
 71
     0
 42
3.5
  3
amgdt.shx
  4

  0
ENDTAB
  0
TABLE
  2
VIEW
  5
6
330
0
100
AcDbSymbolTable
 70
     3
  0
VIEW
  5
1C8
330
6
100
AcDbSymbolTableRecord
100
AcDbViewTableRecord
  2
AMDTVIEW1
 70
     0
 40
329.0721649484536
 10
210.0
 20
164.5360824742268
 41
420.0
 11
0.0
 21
0.0
 31
1.0
 12
0.0
 22
0.0
 32
0.0
 42
50.0
 43
0.0
 44
0.0
 50
0.0
 71
     0
281
     0
 72
     0
  0
VIEW
  5
1C9
330
6
100
AcDbSymbolTableRecord
100
AcDbViewTableRecord
  2
AMDTVIEW2
 70
     0
 40
329.0721649484536
 10
210.0
 20
164.5360824742268
 41
420.0
 11
0.0
 21
0.0
 31
1.0
 12
0.0
 22
0.0
 32
0.0
 42
50.0
 43
0.0
 44
0.0
 50
0.0
 71
     0
281
     0
 72
     0
  0
VIEW
  5
1CA
330
6
100
AcDbSymbolTableRecord
100
AcDbViewTableRecord
  2
AMDTVIEW3
 70
     0
 40
329.0721649484536
 10
210.0
 20
164.5360824742268
 41
420.0
 11
0.0
 21
0.0
 31
1.0
 12
0.0
 22
0.0
 32
0.0
 42
50.0
 43
0.0
 44
0.0
 50
0.0
 71
     0
281
     0
 72
     0
  0
ENDTAB
  0
TABLE
  2
UCS
  5
7
330
0
100
AcDbSymbolTable
 70
     0
  0
ENDTAB
  0
TABLE
  2
APPID
  5
9
330
0
100
AcDbSymbolTable
 70
    28
  0
APPID
  5
11
330
9
100
AcDbSymbolTableRecord
100
AcDbRegAppTableRecord
  2
ACAD
 70
     0
  0
APPID
  5
CD
330
9
100
AcDbSymbolTableRecord
100
AcDbRegAppTableRecord
  2
AD_DRAW
 70
     0
  0
APPID
  5
E7
330
9
100
AcDbSymbolTableRecord
100
AcDbRegAppTableRecord
  2
DESIGNERASSEMBLIES
 70
     0
  0
APPID
  5
EB
330
9
100
AcDbSymbolTableRecord
100
AcDbRegAppTableRecord
  2
MCAD_NO_VIS
 70
     0
  0
APPID
  5
122
330
9
100
AcDbSymbolTableRecord
100
AcDbRegAppTableRecord
  2
ASURF_PCURVE_APPNAME
 70
     0
  0
APPID
  5
17F
330
9
100
AcDbSymbolTableRecord
100
AcDbRegAppTableRecord
  2
ACAD_TEMP_GRAPHIC
 70
     0
  0
APPID
  5
189
330
9
100
AcDbSymbolTableRecord
100
AcDbRegAppTableRecord
  2
ACATTRIBSERVICES
 70
     0
  0
APPID
  5
1C4
330
9
100
AcDbSymbolTableRecord
100
AcDbRegAppTableRecord
  2
ACADM_DIM_EDIT
 70
     0
  0
APPID
  5
1D5
330
9
100
AcDbSymbolTableRecord
100
AcDbRegAppTableRecord
  2
GENIUS_GENDIM_13
 70
     0
  0
APPID
  5
1D6
330
9
100
AcDbSymbolTableRecord
100
AcDbRegAppTableRecord
  2
GENIUS_GENDTOL_13
 70
     0
  0
APPID
  5
1D7
330
9
100
AcDbSymbolTableRecord
100
AcDbRegAppTableRecord
  2
GENIUS_GE3DTOL_13
 70
     0
  0
APPID
  5
2E9
330
9
100
AcDbSymbolTableRecord
100
AcDbRegAppTableRecord
  2
AMG_3D2D_5.0
 70
     0
  0
APPID
  5
3C0
330
9
100
AcDbSymbolTableRecord
100
AcDbRegAppTableRecord
  2
AMDT_DM_ADJ
 70
     0
  0
APPID
  5
82F
330
9
100
AcDbSymbolTableRecord
100
AcDbRegAppTableRecord
  2
ACAD_PSEXT
 70
     0
  0
APPID
  5
84A
330
9
100
AcDbSymbolTableRecord
100
AcDbRegAppTableRecord
  2
DCO15
 70
     0
  0
APPID
  5
892
330
9
100
AcDbSymbolTableRecord
100
AcDbRegAppTableRecord
  2
ACAD_DSTYLE_DIMTEXT_FILL
 70
     0
  0
APPID
  5
A74
330
9
100
AcDbSymbolTableRecord
100
AcDbRegAppTableRecord
  2
ACAD_MLEADERVER
 70
     0
  0
APPID
  5
AB1
330
9
100
AcDbSymbolTableRecord
100
AcDbRegAppTableRecord
  2
AcAecLayerStandard
 70
     0
  0
APPID
  5
D36
330
9
100
AcDbSymbolTableRecord
100
AcDbRegAppTableRecord
  2
ACAD_DSTYLE_DIMRADIAL_EXTENSION
 70
     0
  0
APPID
  5
13B4
330
9
100
AcDbSymbolTableRecord
100
AcDbRegAppTableRecord
  2
GENIUS_GENSCREG_15
 70
     0
  0
APPID
  5
13B5
330
9
100
AcDbSymbolTableRecord
100
AcDbRegAppTableRecord
  2
GENIUS_GENODEF_13
 70
     0
  0
APPID
  5
13B6
330
9
100
AcDbSymbolTableRecord
100
AcDbRegAppTableRecord
  2
GENIUS_GENOBJ-N-SDF_13
 70
     0
  0
APPID
  5
15E8
330
9
100
AcDbSymbolTableRecord
100
AcDbRegAppTableRecord
  2
ACAD_DSTYLE_DIMINSPECT
 70
     0
  0
APPID
  5
1631
330
9
100
AcDbSymbolTableRecord
100
AcDbRegAppTableRecord
  2
ACAD_EXEMPT_FROM_CAD_STANDARDS
 70
     0
  0
APPID
  5
1AD1
330
9
100
AcDbSymbolTableRecord
100
AcDbRegAppTableRecord
  2
ACAD_DSTYLE_DIMARC_LENGTH_SYMBOL
 70
     0
  0
APPID
  5
1AD2
330
9
100
AcDbSymbolTableRecord
100
AcDbRegAppTableRecord
  2
ACAD_DSTYLE_DIM_LINETYPE
 70
     0
  0
APPID
  5
1AD3
330
9
100
AcDbSymbolTableRecord
100
AcDbRegAppTableRecord
  2
ACAD_DSTYLE_DIM_EXT1_LINETYPE
 70
     0
  0
APPID
  5
1AD4
330
9
100
AcDbSymbolTableRecord
100
AcDbRegAppTableRecord
  2
ACAD_DSTYLE_DIM_EXT2_LINETYPE
 70
     0
  0
ENDTAB
  0
TABLE
  2
DIMSTYLE
  5
A
330
0
100
AcDbSymbolTable
 70
    13
100
AcDbDimStyleTable
 71
     1
340
344
  0
DIMSTYLE
105
344
330
A
100
AcDbSymbolTableRecord
100
AcDbDimStyleTableRecord
  2
AM_ISO
 70
     0
  4
"
 41
2.5
 42
1.0
 43
10.0
 44
1.0
 47
0.1
 48
0.1
 73
     0
 74
     0
 77
     1
 78
     8
 79
     2
140
3.5
141
0.0
143
0.0393701
146
0.71
147
1.5
171
     3
172
     1
176
   256
177
   256
178
     2
271
     2
272
     2
274
     3
283
     0
284
     8
340
10
371
    -1
372
    -1
  0
DIMSTYLE
105
345
330
A
100
AcDbSymbolTableRecord
100
AcDbDimStyleTableRecord
  2
AM_ISO$3
 70
     0
  4
"
 41
2.5
 42
1.0
 43
10.0
 44
1.0
 47
0.1
 48
0.1
 73
     0
 77
     1
 78
     8
 79
     2
140
3.5
141
0.0
143
0.0393701
146
0.71
147
1.5
176
   256
177
   256
178
     2
271
     2
272
     3
274
     4
283
     0
284
     8
288
     1
289
     0
340
10
371
    -1
372
    -1
  0
DIMSTYLE
105
346
330
A
100
AcDbSymbolTableRecord
100
AcDbDimStyleTableRecord
  2
AM_ISO$4
 70
     0
  4
"
 41
2.5
 42
1.0
 43
10.0
 44
1.0
 47
0.1
 48
0.1
 73
     0
 77
     1
 78
     8
 79
     2
140
3.5
141
0.0
143
0.0393701
146
0.71
147
1.5
176
   256
177
   256
178
     2
271
     2
272
     3
274
     4
283
     0
284
     8
288
     1
289
     0
340
10
371
    -1
372
    -1
  0
DIMSTYLE
105
347
330
A
100
AcDbSymbolTableRecord
100
AcDbDimStyleTableRecord
  2
AM_ISO$6
 70
     0
  4
"
 41
2.5
 42
1.0
 43
10.0
 44
1.0
 47
0.1
 48
0.1
 73
     0
 74
     0
 78
     8
 79
     2
140
3.5
141
0.0
143
0.0393701
146
0.71
147
1.5
172
     1
176
   256
177
   256
178
     2
271
     2
272
     3
274
     4
283
     0
284
     8
340
10
371
    -1
372
    -1
  0
DIMSTYLE
105
348
330
A
100
AcDbSymbolTableRecord
100
AcDbDimStyleTableRecord
  2
AM_ISO$7
 70
     0
  4
"
 41
2.5
 42
1.0
 43
10.0
 44
1.0
 47
0.1
 48
0.1
 73
     0
 74
     0
 77
     1
 78
     8
 79
     2
140
5.0
141
0.0
143
0.0393701
146
0.71
147
1.5
172
     1
176
   256
177
   256
178
     2
271
     2
272
     3
274
     4
283
     0
284
     8
340
10
371
    -1
372
    -1
  0
DIMSTYLE
105
349
330
A
100
AcDbSymbolTableRecord
100
AcDbDimStyleTableRecord
  2
AM_ISO$SF
 70
     0
  4
"
 41
2.5
 42
1.0
 43
10.0
 44
1.0
 47
0.1
 48
0.1
 73
     0
 74
     0
 75
     1
 76
     1
 77
     1
 78
     8
 79
     2
140
3.5
141
0.0
143
0.0393701
146
0.71
147
1.5
172
     1
176
   256
177
   256
178
     2
271
     2
272
     3
274
     4
283
     0
284
     8
340
10
371
    -1
372
    -1
  0
DIMSTYLE
105
34A
330
A
100
AcDbSymbolTableRecord
100
AcDbDimStyleTableRecord
  2
AM_ISO$SH
 70
     0
  4
"
 41
2.5
 42
1.0
 43
10.0
 44
1.0
 47
0.1
 48
0.1
 73
     0
 74
     0
 75
     1
 76
     1
 77
     1
 78
     8
 79
     2
140
3.5
141
0.0
143
0.0393701
144
2.0
146
0.71
147
1.5
172
     1
173
     1
176
   256
177
   256
178
     2
271
     2
272
     3
274
     4
283
     0
284
     8
340
10
343
2F4
371
    -1
372
    -1
  0
DIMSTYLE
105
15A0
330
A
100
AcDbSymbolTableRecord
100
AcDbDimStyleTableRecord
  2
AM_ANSI
 70
     0
  4
mm
 41
0.1
 42
0.05
 43
0.5
 44
0.1
 47
0.1
 48
0.1
 78
     7
 79
     2
140
0.12
141
0.0
146
0.71
147
0.06
176
   256
177
   256
178
     2
274
     4
284
     7
340
10
371
    -1
372
    -1
  0
DIMSTYLE
105
1B87
330
A
100
AcDbSymbolTableRecord
100
AcDbDimStyleTableRecord
  2
AM_ANSI$3
 70
     0
  4
mm
 41
0.1
 42
0.05
 43
0.5
 44
0.1
 47
0.1
 48
0.1
 78
     7
 79
     2
140
0.12
141
0.0
146
0.71
147
0.06
176
   256
177
   256
178
     2
274
     4
284
     7
288
     1
289
     0
340
10
371
    -1
372
    -1
  0
DIMSTYLE
105
1B88
330
A
100
AcDbSymbolTableRecord
100
AcDbDimStyleTableRecord
  2
AM_ANSI$4
 70
     0
  4
mm
 41
0.1
 42
0.05
 43
0.5
 44
0.1
 47
0.1
 48
0.1
 78
     7
 79
     2
140
0.12
141
0.0
146
0.71
147
0.06
176
   256
177
   256
178
     2
274
     4
284
     7
288
     1
289
     0
340
10
371
    -1
372
    -1
  0
DIMSTYLE
105
1B89
330
A
100
AcDbSymbolTableRecord
100
AcDbDimStyleTableRecord
  2
AM_ANSI$7
 70
     0
  4
mm
 41
0.1
 42
0.05
 43
0.5
 44
0.1
 47
0.1
 48
0.1
 78
     7
 79
     2
140
0.24
141
0.0
146
0.71
147
0.06
176
   256
177
   256
178
     2
274
     4
284
     7
340
10
371
    -1
372
    -1
  0
DIMSTYLE
105
1B8A
330
A
100
AcDbSymbolTableRecord
100
AcDbDimStyleTableRecord
  2
AM_ANSI$SF
 70
     0
  4
mm
 41
0.1
 42
0.05
 43
0.5
 44
0.1
 47
0.1
 48
0.1
 75
     1
 76
     1
 78
     7
 79
     2
140
0.12
141
0.0
146
0.71
147
0.06
176
   256
177
   256
178
     2
274
     4
284
     7
340
10
371
    -1
372
    -1
  0
DIMSTYLE
105
1B8B
330
A
100
AcDbSymbolTableRecord
100
AcDbDimStyleTableRecord
  2
AM_ANSI$SH
 70
     0
  4
mm
 41
0.1
 42
0.05
 43
0.5
 44
0.1
 47
0.1
 48
0.1
 75
     1
 76
     1
 78
     7
 79
     2
140
0.12
141
0.0
146
0.71
147
0.06
173
     1
176
   256
177
   256
178
     2
274
     4
284
     7
340
10
343
2F4
371
    -1
372
    -1
  0
ENDTAB
  0
TABLE
  2
BLOCK_RECORD
  5
1
330
0
100
AcDbSymbolTable
 70
     4
  0
BLOCK_RECORD
  5
1A
102
{ACAD_XDICTIONARY
360
12A
102
}
330
1
100
AcDbSymbolTableRecord
100
AcDbBlockTableRecord
  2
*MODEL_SPACE
340
169
  0
BLOCK_RECORD
  5
17
330
1
100
AcDbSymbolTableRecord
100
AcDbBlockTableRecord
  2
*PAPER_SPACE
340
16A
  0
BLOCK_RECORD
  5
2F4
330
1
100
AcDbSymbolTableRecord
100
AcDbBlockTableRecord
  2
GENAXEH
340
0
  0
BLOCK_RECORD
  5
20AD
330
1
100
AcDbSymbolTableRecord
100
AcDbBlockTableRecord
  2
Sleev-IT_FC200
340
0
310
2800000020000000200000000100080000000000000400000000000000000000000000000000000000000000000080000080000000808000800000008000800080800000C0C0C000C0DCC000F0CAA6000020400000206000002080000020A0000020C0000020E00000400000004020000040400000406000004080000040A0
310
000040C0000040E00000600000006020000060400000606000006080000060A0000060C0000060E00000800000008020000080400000806000008080000080A0000080C0000080E00000A0000000A0200000A0400000A0600000A0800000A0A00000A0C00000A0E00000C0000000C0200000C0400000C0600000C0800000C0
310
A00000C0C00000C0E00000E0000000E0200000E0400000E0600000E0800000E0A00000E0C00000E0E00040000000400020004000400040006000400080004000A0004000C0004000E00040200000402020004020400040206000402080004020A0004020C0004020E000404000004040200040404000404060004040800040
310
40A0004040C0004040E00040600000406020004060400040606000406080004060A0004060C0004060E00040800000408020004080400040806000408080004080A0004080C0004080E00040A0000040A0200040A0400040A0600040A0800040A0A00040A0C00040A0E00040C0000040C0200040C0400040C0600040C08000
310
40C0A00040C0C00040C0E00040E0000040E0200040E0400040E0600040E0800040E0A00040E0C00040E0E00080000000800020008000400080006000800080008000A0008000C0008000E00080200000802020008020400080206000802080008020A0008020C0008020E00080400000804020008040400080406000804080
310
008040A0008040C0008040E00080600000806020008060400080606000806080008060A0008060C0008060E00080800000808020008080400080806000808080008080A0008080C0008080E00080A0000080A0200080A0400080A0600080A0800080A0A00080A0C00080A0E00080C0000080C0200080C0400080C0600080C0
310
800080C0A00080C0C00080C0E00080E0000080E0200080E0400080E0600080E0800080E0A00080E0C00080E0E000C0000000C0002000C0004000C0006000C0008000C000A000C000C000C000E000C0200000C0202000C0204000C0206000C0208000C020A000C020C000C020E000C0400000C0402000C0404000C0406000C0
310
408000C040A000C040C000C040E000C0600000C0602000C0604000C0606000C0608000C060A000C060C000C060E000C0800000C0802000C0804000C0806000C0808000C080A000C080C000C080E000C0A00000C0A02000C0A04000C0A06000C0A08000C0A0A000C0A0C000C0A0E000C0C00000C0C02000C0C04000C0C06000
310
C0C08000C0C0A000F0FBFF00A4A0A000808080000000FF0000FF000000FFFF00FF000000FF00FF00FFFF0000FFFFFF0000000000000000000000000000000000000000000000000000000000000000000000000000000000000000000000000000000000000000000000000000000000000000000000000000000000FFFF00
310
000000FFFF000000000000000000000000000000000000000000FFFFFF00FF00000000FF00FFFFFF00000000000000000000000000000000FFFF0000000000FF0000FF0000000000FFFF00000000000000000000000000FF00000000000000FF0000FF00000000000000FF0000000000000000000000FF0000000000000000
310
00FFFF000000000000000000FF000000000000000000FF0000000000000000FFFFFFFFFFFF0000000000000000FF00000000000000FF00000000000000FFFFFFFFFFFFFFFFFFFF00000000000000FF000000000000FF000000000000FFFFFFFFFFFFFFFFFFFFFFFF000000000000FF0000000000FF0000000000FFFFFFFFFF
310
FF00000000FFFFFFFFFFFF0000000000FF00000000FF0000000000FFFFFFFF0000000000000000FFFFFFFF0000000000FF00000000FF0000000000FFFFFF00000000000000000000FFFFFF0000000000FF00000000FF00000000FFFFFFFF0000000000000000000000FFFFFF00000000FF00000000FF00000000FFFFFF0000
310
00000000000000000000FFFFFF00000000FF00000000FF00000000FFFFFAFAFAFAFAFAFAFAFAFAFAFAFAFAFFFF0000000000FF0000FF0000000000FFFFFF000000FBFBFBFBFBFB000000FFFFFF0000000000FF0000FF0000000000FFFFFFFF0000000000000000000000FFFFFF0000000000FF0000FF0000000000FFFFFFFF
310
0000000000000000000000FFFFFF0000000000FF000000FF00000000FFFFFFFFFF000000000000000000FFFFFFFF00000000FF00000000FF0000000000FFFFFFFF0000000000000000FFFFFFFF0000000000FF0000000000FF0000000000FFFFFFFFFFFF0000FFFFFFFFFFFF0000000000FF000000000000FF0000000000FF
310
FFFFFFFFFFFFFFFFFFFFFFFFFF0000000000FF00000000000000FF000000000000FFFF00FFFFFFFFFFFFFFFF0000000000FF000000000000000000FF00000000000000FFFFFFFFFFFFFFFFFF00000000FF00000000000000000000FF0000000000000000FFFFFFFFFFFFFF00FFFFFF00FF0000000000000000000000FF0000
310
0000000000FFFFFFFFFF00FFFF000000FF00000000000000000000000000FFFF000000000000FFFFFFFFFF000000FAFF00000000000000000000000000000000FFFF00000000FFFF00000000FFFFFAFAFB0000000000000000000000000000000000FFFFFFFFFFFFFFFFFFFF00FBFBFBFBFBFBFB0000000000000000000000
310
0000000000000000000000000000000000000000000000000000000000000000000000000000000000000000000000000000000000000000
102
{BLKREFS
331
2279
102
}
1001
ACAD
1000
DesignCenter Data
1002
{
1070
     1
1070
     4
1002
}
  0
ENDTAB
  0
ENDSEC
  0
SECTION
  2
BLOCKS
  0
BLOCK
  5
1B
330
1A
100
AcDbEntity
  8
0
100
AcDbBlockBegin
  2
*MODEL_SPACE
 70
     0
 10
0.0
 20
0.0
 30
0.0
  3
*MODEL_SPACE
  1

  0
ENDBLK
  5
1C
330
1A
100
AcDbEntity
  8
0
100
AcDbBlockEnd
  0
BLOCK
  5
18
330
17
100
AcDbEntity
 67
     1
  8
0
100
AcDbBlockBegin
  2
*PAPER_SPACE
 70
     0
 10
0.0
 20
0.0
 30
0.0
  3
*PAPER_SPACE
  1

  0
ENDBLK
  5
19
330
17
100
AcDbEntity
 67
     1
  8
0
100
AcDbBlockEnd
  0
BLOCK
  5
1E81
330
2F4
100
AcDbEntity
  8
0
100
AcDbBlockBegin
  2
GENAXEH
 70
     0
 10
0.0
 20
0.0
 30
0.0
  3
GENAXEH
  1

  0
LINE
  5
1E82
330
2F4
100
AcDbEntity
  8
0
100
AcDbLine
 10
-1.0
 20
0.0
 30
0.0
 11
1.0
 21
0.0
 31
0.0
  0
ENDBLK
  5
1E83
330
2F4
100
AcDbEntity
  8
0
100
AcDbBlockEnd
  0
BLOCK
  5
20AE
330
20AD
100
AcDbEntity
  8
0
100
AcDbBlockBegin
  2
Sleev-IT_FC200
 70
     0
 10
0.0
 20
0.0
 30
0.0
  3
Sleev-IT_FC200
  1

  0
LINE
  5
20B0
330
20AD
100
AcDbEntity
  8
Visible Edges(ISO)
100
AcDbLine
 10
0.1516100114308756
 20
31.14445399110832
 30
0.0
 11
1.152174488800028
 21
40.98380770434983
 31
0.0
  0
LINE
  5
20B1
330
20AD
100
AcDbEntity
  8
Visible Edges(ISO)
100
AcDbLine
 10
7.121390429151006
 20
40.37679777242544
 30
0.0
 11
6.12082595178299
 21
30.53744405918371
 31
0.0
  0
LINE
  5
20B2
330
20AD
100
AcDbEntity
  8
Visible Edges(ISO)
100
AcDbLine
 10
6.12082595178299
 20
30.53744405918371
 30
0.0
 11
0.1516100114308756
 21
31.14445399110832
 31
0.0
  0
ARC
  5
20B3
330
20AD
100
AcDbEntity
  8
Visible Edges(ISO)
100
AcDbCircle
 10
-0.0000000000029559
 20
-0.0000000000050022
 30
0.0
 40
41.00000000000235
100
AcDbArc
 50
79.99742427012474
 51
88.38967250407916
  0
LINE
  5
20B4
330
20AD
100
AcDbEntity
  8
Visible Edges(ISO)
100
AcDbLine
 10
6.417839042971081
 20
30.47640631731895
 30
0.0
 11
9.378569247810901
 21
39.91293573346536
 31
0.0
  0
LINE
  5
20B5
330
20AD
100
AcDbEntity
  8
Visible Edges(ISO)
100
AcDbLine
 10
15.10340478621106
 20
38.11675699562523
 30
0.0
 11
12.14267458137101
 21
28.68022757947881
 31
0.0
  0
LINE
  5
20B6
330
20AD
100
AcDbEntity
  8
Visible Edges(ISO)
100
AcDbLine
 10
12.14267458137101
 20
28.68022757947881
 30
0.0
 11
6.417839042971081
 21
30.47640631731895
 31
0.0
  0
ARC
  5
20B7
330
20AD
100
AcDbEntity
  8
Visible Edges(ISO)
100
AcDbCircle
 10
-0.0000000000029559
 20
-0.0000000000020464
 30
0.0
 40
40.99999999999932
100
AcDbArc
 50
68.38452104431199
 51
76.77676927826436
  0
LINE
  5
20B8
330
20AD
100
AcDbEntity
  8
Visible Edges(ISO)
100
AcDbLine
 10
12.42132099002697
 20
28.56065098807255
 30
0.0
 11
17.22100427988198
 21
37.20802348408188
 31
0.0
  0
LINE
  5
20B9
330
20AD
100
AcDbEntity
  8
Visible Edges(ISO)
100
AcDbLine
 10
22.46708397674888
 20
34.2962117088955
 30
0.0
 11
17.6674006868941
 21
25.64883921288606
 31
0.0
  0
LINE
  5
20BA
330
20AD
100
AcDbEntity
  8
Visible Edges(ISO)
100
AcDbLine
 10
17.6674006868941
 20
25.64883921288606
 30
0.0
 11
12.42132099002697
 21
28.56065098807255
 31
0.0
  0
ARC
  5
20BB
330
20AD
100
AcDbEntity
  8
Visible Edges(ISO)
100
AcDbCircle
 10
-0.0000000000040927
 20
-0.0000000000037517
 30
0.0
 40
41.00000000000109
100
AcDbArc
 50
56.77161781850394
 51
65.1638660524568
  0
LINE
  5
20BC
330
20AD
100
AcDbEntity
  8
Visible Edges(ISO)
100
AcDbLine
 10
17.91627259630695
 20
25.47561925164052
 30
0.0
 11
24.35840937335206
 21
32.9798103815026
 31
0.0
  0
LINE
  5
20BD
330
20AD
100
AcDbEntity
  8
Visible Edges(ISO)
100
AcDbLine
 10
28.9109581095081
 20
29.07157548516943
 30
0.0
 11
22.46882133246391
 21
21.56738435530724
 31
0.0
  0
LINE
  5
20BE
330
20AD
100
AcDbEntity
  8
Visible Edges(ISO)
100
AcDbLine
 10
22.46882133246391
 20
21.56738435530724
 30
0.0
 11
17.91627259630695
 21
25.47561925164052
 31
0.0
  0
ARC
  5
20BF
330
20AD
100
AcDbEntity
  8
Visible Edges(ISO)
100
AcDbCircle
 10
-0.0000000000050022
 20
-0.0000000000040927
 30
0.0
 40
41.00000000000187
100
AcDbArc
 50
45.15871459269923
 51
53.5509628266615
  0
LINE
  5
20C0
330
20AD
100
AcDbEntity
  8
Visible Edges(ISO)
100
AcDbLine
 10
22.67772989742207
 20
21.34761266978796
 30
0.0
 11
30.49857832508497
 21
27.40139996694154
 31
0.0
  0
LINE
  5
20C1
330
20AD
100
AcDbEntity
  8
Visible Edges(ISO)
100
AcDbLine
 10
34.17121422037098
 20
22.6567455453154
 30
0.0
 11
26.35036579270786
 21
16.60295824816182
 31
0.0
  0
LINE
  5
20C2
330
20AD
100
AcDbEntity
  8
Visible Edges(ISO)
100
AcDbLine
 10
26.35036579270786
 20
16.60295824816182
 30
0.0
 11
22.67772989742207
 21
21.34761266978796
 31
0.0
  0
ARC
  5
20C3
330
20AD
100
AcDbEntity
  8
Visible Edges(ISO)
100
AcDbCircle
 10
-0.0000000000029559
 20
-0.0000000000025011
 30
0.0
 40
40.9999999999995
100
AcDbArc
 50
33.54581136689417
 51
41.93805960085831
  0
LINE
  5
20C4
330
20AD
100
AcDbEntity
  8
Visible Edges(ISO)
100
AcDbLine
 10
26.51075827201703
 20
16.34563231699621
 30
0.0
 11
35.3901318967578
 21
20.70117301820608
 31
0.0
  0
LINE
  5
20C5
330
20AD
100
AcDbEntity
  8
Visible Edges(ISO)
100
AcDbLine
 10
38.03249680610384
 20
15.31434578078142
 30
0.0
 11
29.15312318136307
 21
10.95880507957179
 31
0.0
  0
LINE
  5
20C6
330
20AD
100
AcDbEntity
  8
Visible Edges(ISO)
100
AcDbLine
 10
29.15312318136307
 20
10.95880507957179
 30
0.0
 11
26.51075827201703
 21
16.34563231699621
 31
0.0
  0
ARC
  5
20C7
330
20AD
100
AcDbEntity
  8
Visible Edges(ISO)
100
AcDbCircle
 10
-0.0000000000040927
 20
-0.0000000000029559
 30
0.0
 40
41.00000000000028
100
AcDbArc
 50
21.93290814108733
 51
30.3251563750376
  0
LINE
  5
20C8
330
20AD
100
AcDbEntity
  8
Visible Edges(ISO)
100
AcDbLine
 10
29.25843308807293
 20
10.67445985661629
 30
0.0
 11
38.83280931041395
 21
13.15343761382041
 31
0.0
  0
LINE
  5
20C9
330
20AD
100
AcDbEntity
  8
Visible Edges(ISO)
100
AcDbLine
 10
40.33672450396693
 20
7.344974900623014
 30
0.0
 11
30.76234828162501
 21
4.865997143419122
 31
0.0
  0
LINE
  5
20CA
330
20AD
100
AcDbEntity
  8
Visible Edges(ISO)
100
AcDbLine
 10
30.76234828162501
 20
4.865997143419122
 30
0.0
 11
29.25843308807293
 21
10.67445985661629
 31
0.0
  0
ARC
  5
20CB
330
20AD
100
AcDbEntity
  8
Visible Edges(ISO)
100
AcDbCircle
 10
-0.0000000000059117
 20
-0.0000000000034106
 30
0.0
 40
41.0000000000027
100
AcDbArc
 50
10.32000491528323
 51
18.71225314923426
  0
LINE
  5
20CC
330
20AD
100
AcDbEntity
  8
Visible Edges(ISO)
100
AcDbLine
 10
30.80826421578308
 20
4.566273755510451
 30
0.0
 11
40.68566694824108
 21
5.067198928061543
 31
0.0
  0
LINE
  5
20CD
330
20AD
100
AcDbEntity
  8
Visible Edges(ISO)
100
AcDbLine
 10
40.98956196127301
 20
-0.9251001149648345
 30
0.0
 11
31.11215922881593
 21
-1.426025287515699
 31
0.0
  0
LINE
  5
20CE
330
20AD
100
AcDbEntity
  8
Visible Edges(ISO)
100
AcDbLine
 10
31.11215922881593
 20
-1.426025287515699
 30
0.0
 11
30.80826421578308
 21
4.566273755510451
 31
0.0
  0
ARC
  5
20CF
330
20AD
100
AcDbEntity
  8
Visible Edges(ISO)
100
AcDbCircle
 10
-0.0000000000059117
 20
-0.0000000000027285
 30
0.0
 40
41.00000000000227
100
AcDbArc
 50
358.7071016894753
 51
7.099349923427495
  0
LINE
  5
20D0
330
20AD
100
AcDbEntity
  8
Visible Edges(ISO)
100
AcDbLine
 10
31.09680138668182
 20
-1.728856129660243
 30
0.0
 11
40.87284860084287
 21
-3.226491477182889
 31
0.0
  0
LINE
  5
20D1
330
20AD
100
AcDbEntity
  8
Visible Edges(ISO)
100
AcDbLine
 10
39.96428193581483
 20
-9.157301423151466
 30
0.0
 11
30.188234721654
 21
-7.659666075628933
 31
0.0
  0
LINE
  5
20D2
330
20AD
100
AcDbEntity
  8
Visible Edges(ISO)
100
AcDbLine
 10
30.188234721654
 20
-7.659666075628933
 30
0.0
 11
31.09680138668182
 21
-1.728856129660243
 31
0.0
  0
ARC
  5
20D3
330
20AD
100
AcDbEntity
  8
Visible Edges(ISO)
100
AcDbCircle
 10
-0.0000000000040927
 20
-0.0000000000025011
 30
0.0
 40
41.00000000000028
100
AcDbArc
 50
347.094198463667
 51
355.4864466976239
  0
LINE
  5
20D4
330
20AD
100
AcDbEntity
  8
Visible Edges(ISO)
100
AcDbLine
 10
30.11223185509107
 20
-7.953206441750921
 30
0.0
 11
39.38669102937092
 21
-11.38808894225474
 31
0.0
  0
LINE
  5
20D5
330
20AD
100
AcDbEntity
  8
Visible Edges(ISO)
100
AcDbLine
 10
37.30285951230212
 20
-17.01460173513737
 30
0.0
 11
28.02840033802204
 21
-13.57971923463344
 31
0.0
  0
LINE
  5
20D6
330
20AD
100
AcDbEntity
  8
Visible Edges(ISO)
100
AcDbLine
 10
28.02840033802204
 20
-13.57971923463344
 30
0.0
 11
30.11223185509107
 21
-7.953206441750921
 31
0.0
  0
ARC
  5
20D7
330
20AD
100
AcDbEntity
  8
Visible Edges(ISO)
100
AcDbCircle
 10
-0.0000000000050022
 20
-0.0000000000022737
 30
0.0
 40
41.00000000000131
100
AcDbArc
 50
335.4812952378602
 51
343.873543471814
  0
LINE
  5
20D8
330
20AD
100
AcDbEntity
  8
Visible Edges(ISO)
100
AcDbLine
 10
27.89486401331487
 20
-13.85195154765438
 30
0.0
 11
36.28803769941601
 21
-19.08345670798735
 31
0.0
  0
LINE
  5
20D9
330
20AD
100
AcDbEntity
  8
Visible Edges(ISO)
100
AcDbLine
 10
33.11425363745411
 20
-24.17532225295588
 30
0.0
 11
24.72107995135298
 21
-18.94381709262279
 31
0.0
  0
LINE
  5
20DA
330
20AD
100
AcDbEntity
  8
Visible Edges(ISO)
100
AcDbLine
 10
24.72107995135298
 20
-18.94381709262279
 30
0.0
 11
27.89486401331487
 21
-13.85195154765438
 31
0.0
  0
ARC
  5
20DB
330
20AD
100
AcDbEntity
  8
Visible Edges(ISO)
100
AcDbCircle
 10
-0.0000000000029559
 20
-0.0000000000029559
 30
0.0
 40
40.9999999999996
100
AcDbArc
 50
323.8683920120504
 51
332.2606402460089
  0
LINE
  5
20DC
330
20AD
100
AcDbEntity
  8
Visible Edges(ISO)
100
AcDbLine
 10
24.53547716132585
 20
-19.18359612966162
 30
0.0
 11
31.70374784238402
 21
-25.99754551388389
 31
0.0
  0
LINE
  5
20DD
330
20AD
100
AcDbEntity
  8
Visible Edges(ISO)
100
AcDbLine
 10
27.56994632792999
 20
-30.34630223725867
 30
0.0
 11
20.40167564687203
 21
-23.53235285303629
 31
0.0
  0
LINE
  5
20DE
330
20AD
100
AcDbEntity
  8
Visible Edges(ISO)
100
AcDbLine
 10
20.40167564687203
 20
-23.53235285303629
 30
0.0
 11
24.53547716132585
 21
-19.18359612966162
 31
0.0
  0
ARC
  5
20DF
330
20AD
100
AcDbEntity
  8
Visible Edges(ISO)
100
AcDbCircle
 10
-0.0000000000040927
 20
-0.0000000000019327
 30
0.0
 40
41.00000000000108
100
AcDbArc
 50
312.2554887862473
 51
320.6477370202039
  0
LINE
  5
20E0
330
20AD
100
AcDbEntity
  8
Visible Edges(ISO)
100
AcDbLine
 10
20.17160499155693
 20
-23.72986203214384
 30
0.0
 11
25.82150282365205
 21
-31.84729175186044
 31
0.0
  0
LINE
  5
20E1
330
20AD
100
AcDbEntity
  8
Visible Edges(ISO)
100
AcDbLine
 10
20.896922176408
 20
-35.27490104242929
 30
0.0
 11
15.24702434431288
 21
-27.1574713227127
 31
0.0
  0
LINE
  5
20E2
330
20AD
100
AcDbEntity
  8
Visible Edges(ISO)
100
AcDbLine
 10
15.24702434431288
 20
-27.1574713227127
 30
0.0
 11
20.17160499155693
 21
-23.72986203214384
 31
0.0
  0
ARC
  5
20E3
330
20AD
100
AcDbEntity
  8
Visible Edges(ISO)
100
AcDbCircle
 10
-0.0000000000040927
 20
-0.0000000000014779
 30
0.0
 40
41.00000000000154
100
AcDbArc
 50
300.6425855604415
 51
309.0348337943972
  0
LINE
  5
20E4
330
20AD
100
AcDbEntity
  8
Visible Edges(ISO)
100
AcDbLine
 10
14.98190494336995
 20
-27.3046245948899
 30
0.0
 11
18.88212244542205
 21
-36.39320612361792
 31
0.0
  0
LINE
  5
20E5
330
20AD
100
AcDbEntity
  8
Visible Edges(ISO)
100
AcDbLine
 10
13.36837557570106
 20
-38.75934125429808
 30
0.0
 11
9.468158073648965
 21
-29.67075972556973
 31
0.0
  0
LINE
  5
20E6
330
20AD
100
AcDbEntity
  8
Visible Edges(ISO)
100
AcDbLine
 10
9.468158073648965
 20
-29.67075972556973
 30
0.0
 11
14.98190494336995
 21
-27.3046245948899
 31
0.0
  0
ARC
  5
20E7
330
20AD
100
AcDbEntity
  8
Visible Edges(ISO)
100
AcDbCircle
 10
-0.0000000000040927
 20
-0.0000000000020464
 30
0.0
 40
41.00000000000075
100
AcDbArc
 50
289.0296823346369
 51
297.4219305685953
  0
LINE
  5
20E8
330
20AD
100
AcDbEntity
  8
Visible Edges(ISO)
100
AcDbLine
 10
9.178843946502865
 20
-29.76153261856405
 30
0.0
 11
11.16970575572191
 21
-39.44917836065452
 31
0.0
  0
LINE
  5
20E9
330
20AD
100
AcDbEntity
  8
Visible Edges(ISO)
100
AcDbLine
 10
5.292526108207084
 20
-40.65696948118659
 30
0.0
 11
3.301664298988043
 21
-30.96932373909601
 31
0.0
  0
LINE
  5
20EA
330
20AD
100
AcDbEntity
  8
Visible Edges(ISO)
100
AcDbLine
 10
3.301664298988043
 20
-30.96932373909601
 30
0.0
 11
9.178843946502865
 21
-29.76153261856405
 31
0.0
  0
ARC
  5
20EB
330
20AD
100
AcDbEntity
  8
Visible Edges(ISO)
100
AcDbCircle
 10
-0.0000000000040927
 20
-0.0000000000011369
 30
0.0
 40
41.00000000000152
100
AcDbArc
 50
277.416779108828
 51
285.8090273427953
  0
LINE
  5
20EC
330
20AD
100
AcDbEntity
  8
Visible Edges(ISO)
100
AcDbLine
 10
2.999999999997044
 20
-31.00000000000273
 30
0.0
 11
2.999999999997044
 21
-40.89009660052454
 31
0.0
  0
LINE
  5
20ED
330
20AD
100
AcDbEntity
  8
Visible Edges(ISO)
100
AcDbLine
 10
-3.000000000002955
 20
-40.89009660052454
 30
0.0
 11
-3.000000000002955
 21
-31.00000000000273
 31
0.0
  0
LINE
  5
20EE
330
20AD
100
AcDbEntity
  8
Visible Edges(ISO)
100
AcDbLine
 10
-3.000000000002955
 20
-31.00000000000273
 30
0.0
 11
2.999999999997044
 21
-31.00000000000273
 31
0.0
  0
ARC
  5
20EF
330
20AD
100
AcDbEntity
  8
Visible Edges(ISO)
100
AcDbCircle
 10
-0.0000000000029559
 20
-0.0000000000011369
 30
0.0
 40
41.00000000000149
100
AcDbArc
 50
265.8038758830117
 51
274.1961241169883
  0
LINE
  5
20F0
330
20AD
100
AcDbEntity
  8
Visible Edges(ISO)
100
AcDbLine
 10
-3.301664298993955
 20
-30.96932373909601
 30
0.0
 11
-5.292526108212996
 21
-40.65696948118648
 31
0.0
  0
LINE
  5
20F1
330
20AD
100
AcDbEntity
  8
Visible Edges(ISO)
100
AcDbLine
 10
-11.16970575572804
 20
-39.44917836065452
 30
0.0
 11
-9.178843946509005
 21
-29.76153261856405
 31
0.0
  0
LINE
  5
20F2
330
20AD
100
AcDbEntity
  8
Visible Edges(ISO)
100
AcDbLine
 10
-9.178843946509005
 20
-29.76153261856405
 30
0.0
 11
-3.301664298993955
 21
-30.96932373909601
 31
0.0
  0
ARC
  5
20F3
330
20AD
100
AcDbEntity
  8
Visible Edges(ISO)
100
AcDbCircle
 10
-0.0000000000029559
 20
-0.0000000000019327
 30
0.0
 40
41.00000000000076
100
AcDbArc
 50
254.1909726572047
 51
262.5832208911719
  0
LINE
  5
20F4
330
20AD
100
AcDbEntity
  8
Visible Edges(ISO)
100
AcDbLine
 10
-9.468158073656013
 20
-29.67075972556984
 30
0.0
 11
-13.36837557570811
 21
-38.75934125429808
 31
0.0
  0
LINE
  5
20F5
330
20AD
100
AcDbEntity
  8
Visible Edges(ISO)
100
AcDbLine
 10
-18.8821224454291
 20
-36.39320612361792
 30
0.0
 11
-14.981904943377
 21
-27.3046245948899
 31
0.0
  0
LINE
  5
20F6
330
20AD
100
AcDbEntity
  8
Visible Edges(ISO)
100
AcDbLine
 10
-14.981904943377
 20
-27.3046245948899
 30
0.0
 11
-9.468158073656013
 21
-29.67075972556984
 31
0.0
  0
ARC
  5
20F7
330
20AD
100
AcDbEntity
  8
Visible Edges(ISO)
100
AcDbCircle
 10
-0.0000000000029559
 20
-0.0000000000019327
 30
0.0
 40
41.00000000000096
100
AcDbArc
 50
242.5780694314048
 51
250.9703176653632
  0
LINE
  5
20F8
330
20AD
100
AcDbEntity
  8
Visible Edges(ISO)
100
AcDbLine
 10
-15.24702434431992
 20
-27.1574713227127
 30
0.0
 11
-20.89692217641505
 21
-35.27490104242929
 31
0.0
  0
LINE
  5
20F9
330
20AD
100
AcDbEntity
  8
Visible Edges(ISO)
100
AcDbLine
 10
-25.82150282365887
 20
-31.84729175186044
 30
0.0
 11
-20.17160499156398
 21
-23.72986203214384
 31
0.0
  0
LINE
  5
20FA
330
20AD
100
AcDbEntity
  8
Visible Edges(ISO)
100
AcDbLine
 10
-20.17160499156398
 20
-23.72986203214384
 30
0.0
 11
-15.24702434431992
 21
-27.1574713227127
 31
0.0
  0
ARC
  5
20FB
330
20AD
100
AcDbEntity
  8
Visible Edges(ISO)
100
AcDbCircle
 10
-0.0000000000029559
 20
-0.0000000000025011
 30
0.0
 40
41.0000000000002
100
AcDbArc
 50
230.9651662056028
 51
239.3574144395584
  0
LINE
  5
20FC
330
20AD
100
AcDbEntity
  8
Visible Edges(ISO)
100
AcDbLine
 10
-20.40167564687909
 20
-23.5323528530364
 30
0.0
 11
-27.5699463279359
 21
-30.34630223725867
 31
0.0
  0
LINE
  5
20FD
330
20AD
100
AcDbEntity
  8
Visible Edges(ISO)
100
AcDbLine
 10
-31.70374784239016
 20
-25.99754551388389
 30
0.0
 11
-24.53547716133312
 21
-19.18359612966162
 31
0.0
  0
LINE
  5
20FE
330
20AD
100
AcDbEntity
  8
Visible Edges(ISO)
100
AcDbLine
 10
-24.53547716133312
 20
-19.18359612966162
 30
0.0
 11
-20.40167564687909
 21
-23.5323528530364
 31
0.0
  0
ARC
  5
20FF
330
20AD
100
AcDbEntity
  8
Visible Edges(ISO)
100
AcDbCircle
 10
-0.0000000000029559
 20
-0.0000000000029559
 30
0.0
 40
40.99999999999981
100
AcDbArc
 50
219.3522629797961
 51
227.7445112137527
  0
LINE
  5
2100
330
20AD
100
AcDbEntity
  8
Visible Edges(ISO)
100
AcDbLine
 10
-24.72107995136003
 20
-18.94381709262279
 30
0.0
 11
-33.11425363746093
 21
-24.17532225295588
 31
0.0
  0
LINE
  5
2101
330
20AD
100
AcDbEntity
  8
Visible Edges(ISO)
100
AcDbLine
 10
-36.28803769942306
 20
-19.08345670798746
 30
0.0
 11
-27.89486401332101
 21
-13.85195154765438
 31
0.0
  0
LINE
  5
2102
330
20AD
100
AcDbEntity
  8
Visible Edges(ISO)
100
AcDbLine
 10
-27.89486401332101
 20
-13.85195154765438
 30
0.0
 11
-24.72107995136003
 21
-18.94381709262279
 31
0.0
  0
ARC
  5
2103
330
20AD
100
AcDbEntity
  8
Visible Edges(ISO)
100
AcDbCircle
 10
-0.0000000000029559
 20
-0.0000000000025011
 30
0.0
 40
41.00000000000028
100
AcDbArc
 50
207.7393597539912
 51
216.1316079879496
  0
LINE
  5
2104
330
20AD
100
AcDbEntity
  8
Visible Edges(ISO)
100
AcDbLine
 10
-28.02840033802795
 20
-13.57971923463344
 30
0.0
 11
-37.30285951230803
 21
-17.01460173513737
 31
0.0
  0
LINE
  5
2105
330
20AD
100
AcDbEntity
  8
Visible Edges(ISO)
100
AcDbLine
 10
-39.38669102937706
 20
-11.38808894225485
 30
0.0
 11
-30.11223185509698
 21
-7.953206441750921
 31
0.0
  0
LINE
  5
2106
330
20AD
100
AcDbEntity
  8
Visible Edges(ISO)
100
AcDbLine
 10
-30.11223185509698
 20
-7.953206441750921
 30
0.0
 11
-28.02840033802795
 21
-13.57971923463344
 31
0.0
  0
ARC
  5
2107
330
20AD
100
AcDbEntity
  8
Visible Edges(ISO)
100
AcDbCircle
 10
-0.0000000000020464
 20
-0.0000000000019327
 30
0.0
 40
41.00000000000195
100
AcDbArc
 50
196.126456528186
 51
204.5187047621398
  0
LINE
  5
2108
330
20AD
100
AcDbEntity
  8
Visible Edges(ISO)
100
AcDbLine
 10
-30.18823472166105
 20
-7.659666075628933
 30
0.0
 11
-39.9642819358221
 21
-9.157301423151466
 31
0.0
  0
LINE
  5
2109
330
20AD
100
AcDbEntity
  8
Visible Edges(ISO)
100
AcDbLine
 10
-40.87284860084901
 20
-3.226491477183003
 30
0.0
 11
-31.09680138668796
 21
-1.728856129660243
 31
0.0
  0
LINE
  5
210A
330
20AD
100
AcDbEntity
  8
Visible Edges(ISO)
100
AcDbLine
 10
-31.09680138668796
 20
-1.728856129660243
 30
0.0
 11
-30.18823472166105
 21
-7.659666075628933
 31
0.0
  0
ARC
  5
210B
330
20AD
100
AcDbEntity
  8
Visible Edges(ISO)
100
AcDbCircle
 10
-0.0000000000009095
 20
-0.0000000000022737
 30
0.0
 40
41.00000000000258
100
AcDbArc
 50
184.5135533023761
 51
192.905801536333
  0
LINE
  5
210C
330
20AD
100
AcDbEntity
  8
Visible Edges(ISO)
100
AcDbLine
 10
-31.11215922882207
 20
-1.426025287515926
 30
0.0
 11
-40.98956196127915
 21
-0.9251001149650619
 31
0.0
  0
LINE
  5
210D
330
20AD
100
AcDbEntity
  8
Visible Edges(ISO)
100
AcDbLine
 10
-40.68566694824698
 20
5.067198928061543
 30
0.0
 11
-30.8082642157899
 21
4.566273755510451
 31
0.0
  0
LINE
  5
210E
330
20AD
100
AcDbEntity
  8
Visible Edges(ISO)
100
AcDbLine
 10
-30.8082642157899
 20
4.566273755510451
 30
0.0
 11
-31.11215922882207
 21
-1.426025287515926
 31
0.0
  0
ARC
  5
210F
330
20AD
100
AcDbEntity
  8
Visible Edges(ISO)
100
AcDbCircle
 10
-0.0000000000040927
 20
-0.0000000000025011
 30
0.0
 40
40.99999999999901
100
AcDbArc
 50
172.9006500765725
 51
181.2928983105246
  0
LINE
  5
2110
330
20AD
100
AcDbEntity
  8
Visible Edges(ISO)
100
AcDbLine
 10
-30.76234828163206
 20
4.865997143419122
 30
0.0
 11
-40.33672450397307
 21
7.344974900623014
 31
0.0
  0
LINE
  5
2111
330
20AD
100
AcDbEntity
  8
Visible Edges(ISO)
100
AcDbLine
 10
-38.832809310421
 20
13.15343761382041
 30
0.0
 11
-29.25843308807908
 21
10.67445985661629
 31
0.0
  0
LINE
  5
2112
330
20AD
100
AcDbEntity
  8
Visible Edges(ISO)
100
AcDbLine
 10
-29.25843308807908
 20
10.67445985661629
 30
0.0
 11
-30.76234828163206
 21
4.865997143419122
 31
0.0
  0
ARC
  5
2113
330
20AD
100
AcDbEntity
  8
Visible Edges(ISO)
100
AcDbCircle
 10
-0.0000000000009095
 20
-0.0000000000032969
 30
0.0
 40
41.0000000000024
100
AcDbArc
 50
161.2877468507657
 51
169.6799950847232
  0
LINE
  5
2114
330
20AD
100
AcDbEntity
  8
Visible Edges(ISO)
100
AcDbLine
 10
-29.15312318136898
 20
10.95880507957179
 30
0.0
 11
-38.03249680611111
 21
15.31434578078142
 31
0.0
  0
LINE
  5
2115
330
20AD
100
AcDbEntity
  8
Visible Edges(ISO)
100
AcDbLine
 10
-35.39013189676507
 20
20.70117301820608
 30
0.0
 11
-26.51075827202317
 21
16.34563231699621
 31
0.0
  0
LINE
  5
2116
330
20AD
100
AcDbEntity
  8
Visible Edges(ISO)
100
AcDbLine
 10
-26.51075827202317
 20
16.34563231699621
 30
0.0
 11
-29.15312318136898
 21
10.95880507957179
 31
0.0
  0
ARC
  5
2117
330
20AD
100
AcDbEntity
  8
Visible Edges(ISO)
100
AcDbCircle
 10
-0.0000000000020464
 20
-0.0000000000029559
 30
0.0
 40
41.00000000000091
100
AcDbArc
 50
149.6748436249624
 51
158.0670918589127
  0
LINE
  5
2118
330
20AD
100
AcDbEntity
  8
Visible Edges(ISO)
100
AcDbLine
 10
-26.35036579271514
 20
16.60295824816171
 30
0.0
 11
-34.17121422037804
 21
22.6567455453154
 31
0.0
  0
LINE
  5
2119
330
20AD
100
AcDbEntity
  8
Visible Edges(ISO)
100
AcDbLine
 10
-30.4985783250911
 20
27.40139996694154
 30
0.0
 11
-22.67772989742912
 21
21.34761266978796
 31
0.0
  0
LINE
  5
211A
330
20AD
100
AcDbEntity
  8
Visible Edges(ISO)
100
AcDbLine
 10
-22.67772989742912
 20
21.34761266978796
 30
0.0
 11
-26.35036579271514
 21
16.60295824816171
 31
0.0
  0
ARC
  5
211B
330
20AD
100
AcDbEntity
  8
Visible Edges(ISO)
100
AcDbCircle
 10
-0.0000000000020464
 20
-0.0000000000038654
 30
0.0
 40
41.00000000000179
100
AcDbArc
 50
138.0619403991552
 51
146.4541886331058
  0
LINE
  5
211C
330
20AD
100
AcDbEntity
  8
Visible Edges(ISO)
100
AcDbLine
 10
-22.46882133247004
 20
21.56738435530701
 30
0.0
 11
-28.91095810951492
 21
29.07157548516943
 31
0.0
  0
LINE
  5
211D
330
20AD
100
AcDbEntity
  8
Visible Edges(ISO)
100
AcDbLine
 10
-24.35840937335797
 20
32.9798103815026
 30
0.0
 11
-17.916272596314
 21
25.47561925164052
 31
0.0
  0
LINE
  5
211E
330
20AD
100
AcDbEntity
  8
Visible Edges(ISO)
100
AcDbLine
 10
-17.916272596314
 20
25.47561925164052
 30
0.0
 11
-22.46882133247004
 21
21.56738435530701
 31
0.0
  0
ARC
  5
211F
330
20AD
100
AcDbEntity
  8
Visible Edges(ISO)
100
AcDbCircle
 10
-0.0000000000029559
 20
-0.0000000000034106
 30
0.0
 40
41.00000000000085
100
AcDbArc
 50
126.4490371733385
 51
134.8412854073008
  0
LINE
  5
2120
330
20AD
100
AcDbEntity
  8
Visible Edges(ISO)
100
AcDbLine
 10
-17.66740068690092
 20
25.64883921288595
 30
0.0
 11
-22.46708397675616
 21
34.2962117088955
 31
0.0
  0
LINE
  5
2121
330
20AD
100
AcDbEntity
  8
Visible Edges(ISO)
100
AcDbLine
 10
-17.22100427988812
 20
37.20802348408188
 30
0.0
 11
-12.42132099003311
 21
28.56065098807255
 31
0.0
  0
LINE
  5
2122
330
20AD
100
AcDbEntity
  8
Visible Edges(ISO)
100
AcDbLine
 10
-12.42132099003311
 20
28.56065098807255
 30
0.0
 11
-17.66740068690092
 21
25.64883921288595
 31
0.0
  0
ARC
  5
2123
330
20AD
100
AcDbEntity
  8
Visible Edges(ISO)
100
AcDbCircle
 10
-0.0000000000029559
 20
-0.0000000000029559
 30
0.0
 40
41.00000000000013
100
AcDbArc
 50
114.8361339475432
 51
123.228382181496
  0
LINE
  5
2124
330
20AD
100
AcDbEntity
  8
Visible Edges(ISO)
100
AcDbLine
 10
-12.14267458137806
 20
28.6802275794787
 30
0.0
 11
-15.10340478621811
 21
38.11675699562523
 31
0.0
  0
LINE
  5
2125
330
20AD
100
AcDbEntity
  8
Visible Edges(ISO)
100
AcDbLine
 10
-9.378569247817949
 20
39.91293573346536
 30
0.0
 11
-6.417839042976993
 21
30.47640631731895
 31
0.0
  0
LINE
  5
2126
330
20AD
100
AcDbEntity
  8
Visible Edges(ISO)
100
AcDbLine
 10
-6.417839042976993
 20
30.47640631731895
 30
0.0
 11
-12.14267458137806
 21
28.6802275794787
 31
0.0
  0
ARC
  5
2127
330
20AD
100
AcDbEntity
  8
Visible Edges(ISO)
100
AcDbCircle
 10
-0.0000000000029559
 20
-0.0000000000032969
 30
0.0
 40
41.00000000000057
100
AcDbArc
 50
103.2232307217356
 51
111.615478955688
  0
ARC
  5
2128
330
20AD
100
AcDbEntity
  8
Visible Edges(ISO)
100
AcDbCircle
 10
-0.0000000000040927
 20
0.0000000000026148
 30
0.0
 40
39.99999999999455
100
AcDbArc
 50
100.1076739175709
 51
103.1181325340471
  0
ARC
  5
2129
330
20AD
100
AcDbEntity
  8
Visible Edges(ISO)
100
AcDbCircle
 10
-0.0000000000050022
 20
0.0000000000068212
 30
0.0
 40
40.99999999999034
100
AcDbArc
 50
100.0025757298752
 51
103.2232307217356
  0
ARC
  5
212A
330
20AD
100
AcDbEntity
  8
Visible Edges(ISO)
100
AcDbCircle
 10
-0.0000000000029559
 20
-0.0000000000027285
 30
0.0
 40
40.00000000000015
100
AcDbArc
 50
111.7205771433804
 51
114.7310357598425
  0
ARC
  5
212B
330
20AD
100
AcDbEntity
  8
Visible Edges(ISO)
100
AcDbCircle
 10
-0.0000000000040927
 20
-0.0000000000011369
 30
0.0
 40
40.99999999999832
100
AcDbArc
 50
111.615478955688
 51
114.8361339475432
  0
ARC
  5
212C
330
20AD
100
AcDbEntity
  8
Visible Edges(ISO)
100
AcDbCircle
 10
-0.0000000000029559
 20
-0.0000000000032969
 30
0.0
 40
40.0000000000007
100
AcDbArc
 50
123.3334803691897
 51
126.3439389856534
  0
ARC
  5
212D
330
20AD
100
AcDbEntity
  8
Visible Edges(ISO)
100
AcDbCircle
 10
-0.0000000000070486
 20
0.0000000000029559
 30
0.0
 40
40.99999999999312
100
AcDbArc
 50
123.228382181496
 51
126.4490371733385
  0
ARC
  5
212E
330
20AD
100
AcDbEntity
  8
Visible Edges(ISO)
100
AcDbCircle
 10
0.0000000000009095
 20
-0.0000000000069349
 30
0.0
 40
40.00000000000599
100
AcDbArc
 50
134.9463835949903
 51
137.9568422114627
  0
ARC
  5
212F
330
20AD
100
AcDbEntity
  8
Visible Edges(ISO)
100
AcDbCircle
 10
-0.0000000000029559
 20
-0.0000000000029559
 30
0.0
 40
41.00000000000052
100
AcDbArc
 50
134.8412854073008
 51
138.0619403991552
  0
ARC
  5
2130
330
20AD
100
AcDbEntity
  8
Visible Edges(ISO)
100
AcDbCircle
 10
-0.0000000000088676
 20
0.0000000000010232
 30
0.0
 40
39.99999999999287
100
AcDbArc
 50
146.559286820798
 51
149.569745437268
  0
ARC
  5
2131
330
20AD
100
AcDbEntity
  8
Visible Edges(ISO)
100
AcDbCircle
 10
-0.0000000000020464
 20
-0.0000000000038654
 30
0.0
 40
41.00000000000206
100
AcDbArc
 50
146.4541886331058
 51
149.6748436249502
  0
ARC
  5
2132
330
20AD
100
AcDbEntity
  8
Visible Edges(ISO)
100
AcDbCircle
 10
-0.0000000000020464
 20
-0.0000000000029559
 30
0.0
 40
40.00000000000087
100
AcDbArc
 50
158.1721900466086
 51
161.1826486630714
  0
ARC
  5
2133
330
20AD
100
AcDbEntity
  8
Visible Edges(ISO)
100
AcDbCircle
 10
-0.0000000000050022
 20
-0.0000000000020464
 30
0.0
 40
40.9999999999979
100
AcDbArc
 50
158.0670918589127
 51
161.2877468507657
  0
ARC
  5
2134
330
20AD
100
AcDbEntity
  8
Visible Edges(ISO)
100
AcDbCircle
 10
-0.0000000000120508
 20
-0.0000000000014779
 30
0.0
 40
39.99999999999112
100
AcDbArc
 50
169.7850932724082
 51
172.7955518888776
  0
ARC
  5
2135
330
20AD
100
AcDbEntity
  8
Visible Edges(ISO)
100
AcDbCircle
 10
0.0000000000009095
 20
-0.0000000000034106
 30
0.0
 40
41.00000000000418
100
AcDbArc
 50
169.6799950847232
 51
172.9006500765725
  0
ARC
  5
2136
330
20AD
100
AcDbEntity
  8
Visible Edges(ISO)
100
AcDbCircle
 10
-0.0000000000120508
 20
-0.0000000000032969
 30
0.0
 40
39.99999999999128
100
AcDbArc
 50
181.3979964982201
 51
184.4084551146844
  0
ARC
  5
2137
330
20AD
100
AcDbEntity
  8
Visible Edges(ISO)
100
AcDbCircle
 10
0.0000000000061391
 20
-0.0000000000020464
 30
0.0
 40
41.00000000000895
100
AcDbArc
 50
181.2928983105246
 51
184.5135533023761
  0
ARC
  5
2138
330
20AD
100
AcDbEntity
  8
Visible Edges(ISO)
100
AcDbCircle
 10
-0.0000000000050022
 20
-0.0000000000029559
 30
0.0
 40
39.99999999999829
100
AcDbArc
 50
193.010899724023
 51
196.0213583404943
  0
ARC
  5
2139
330
20AD
100
AcDbEntity
  8
Visible Edges(ISO)
100
AcDbCircle
 10
-0.0000000000070486
 20
-0.0000000000034106
 30
0.0
 40
40.99999999999631
100
AcDbArc
 50
192.905801536333
 51
196.126456528186
  0
ARC
  5
213A
330
20AD
100
AcDbEntity
  8
Visible Edges(ISO)
100
AcDbCircle
 10
-0.0000000000009095
 20
-0.0000000000013642
 30
0.0
 40
40.00000000000308
100
AcDbArc
 50
204.6238029498276
 51
207.6342615662978
  0
ARC
  5
213B
330
20AD
100
AcDbEntity
  8
Visible Edges(ISO)
100
AcDbCircle
 10
-0.0000000000161435
 20
-0.0000000000086402
 30
0.0
 40
40.99999999998646
100
AcDbArc
 50
204.5187047621398
 51
207.7393597539912
  0
ARC
  5
213C
330
20AD
100
AcDbEntity
  8
Visible Edges(ISO)
100
AcDbCircle
 10
0.0000000000029559
 20
0.0000000000023874
 30
0.0
 40
40.0000000000083
100
AcDbArc
 50
216.2367061756404
 51
219.2471647921038
  0
ARC
  5
213D
330
20AD
100
AcDbEntity
  8
Visible Edges(ISO)
100
AcDbCircle
 10
0.0
 20
0.0
 30
0.0
 40
41.00000000000431
100
AcDbArc
 50
216.1316079879496
 51
219.3522629797911
  0
ARC
  5
213E
330
20AD
100
AcDbEntity
  8
Visible Edges(ISO)
100
AcDbCircle
 10
-0.0000000000059117
 20
-0.0000000000053433
 30
0.0
 40
39.99999999999662
100
AcDbArc
 50
227.8496094014442
 51
230.8600680179093
  0
ARC
  5
213F
330
20AD
100
AcDbEntity
  8
Visible Edges(ISO)
100
AcDbCircle
 10
0.0000000000009095
 20
0.0000000000026148
 30
0.0
 40
41.00000000000714
100
AcDbArc
 50
227.7445112137527
 51
230.9651662056028
  0
ARC
  5
2140
330
20AD
100
AcDbEntity
  8
Visible Edges(ISO)
100
AcDbCircle
 10
-0.0000000000020464
 20
-0.0000000000010232
 30
0.0
 40
40.0000000000019
100
AcDbArc
 50
239.4625126272564
 51
242.4729712437175
  0
ARC
  5
2141
330
20AD
100
AcDbEntity
  8
Visible Edges(ISO)
100
AcDbCircle
 10
-0.0000000000020464
 20
-0.0000000000011369
 30
0.0
 40
41.00000000000171
100
AcDbArc
 50
239.3574144395584
 51
242.5780694314048
  0
ARC
  5
2142
330
20AD
100
AcDbEntity
  8
Visible Edges(ISO)
100
AcDbCircle
 10
-0.0000000000009095
 20
0.0000000000062528
 30
0.0
 40
40.00000000000935
100
AcDbArc
 50
251.0754158530544
 51
254.0858744695246
  0
ARC
  5
2143
330
20AD
100
AcDbEntity
  8
Visible Edges(ISO)
100
AcDbCircle
 10
0.0
 20
0.0000000000075033
 30
0.0
 40
41.00000000001067
100
AcDbArc
 50
250.9703176653632
 51
254.1909726572047
  0
ARC
  5
2144
330
20AD
100
AcDbEntity
  8
Visible Edges(ISO)
100
AcDbCircle
 10
-0.0000000000020464
 20
0.0000000000069349
 30
0.0
 40
40.00000000000963
100
AcDbArc
 50
262.6883190788637
 51
265.6987776953271
  0
ARC
  5
2145
330
20AD
100
AcDbEntity
  8
Visible Edges(ISO)
100
AcDbCircle
 10
-0.0000000000050022
 20
-0.0000000000234195
 30
0.0
 40
40.99999999997918
100
AcDbArc
 50
262.5832208911719
 51
265.8038758830246
  0
ARC
  5
2146
330
20AD
100
AcDbEntity
  8
Visible Edges(ISO)
100
AcDbCircle
 10
-0.0000000000020464
 20
-0.000000000014893
 30
0.0
 40
39.99999999998781
100
AcDbArc
 50
274.3012223046729
 51
277.3116809211363
  0
ARC
  5
2147
330
20AD
100
AcDbEntity
  8
Visible Edges(ISO)
100
AcDbCircle
 10
-0.0000000000059117
 20
0.0000000000209184
 30
0.0
 40
41.00000000002387
100
AcDbArc
 50
274.1961241169883
 51
277.416779108828
  0
ARC
  5
2148
330
20AD
100
AcDbEntity
  8
Visible Edges(ISO)
100
AcDbCircle
 10
-0.0000000000020464
 20
-0.0000000000067075
 30
0.0
 40
39.99999999999575
100
AcDbArc
 50
285.9141255304754
 51
288.9245841469456
  0
ARC
  5
2149
330
20AD
100
AcDbEntity
  8
Visible Edges(ISO)
100
AcDbCircle
 10
-0.0000000000050022
 20
0.0000000000023874
 30
0.0
 40
41.00000000000533
100
AcDbArc
 50
285.8090273427953
 51
289.0296823346369
  0
ARC
  5
214A
330
20AD
100
AcDbEntity
  8
Visible Edges(ISO)
100
AcDbCircle
 10
-0.0000000000079581
 20
0.0000000000055707
 30
0.0
 40
40.00000000000951
100
AcDbArc
 50
297.5270287562826
 51
300.5374873727436
  0
ARC
  5
214B
330
20AD
100
AcDbEntity
  8
Visible Edges(ISO)
100
AcDbCircle
 10
-0.0000000000020464
 20
-0.0000000000042064
 30
0.0
 40
40.99999999999821
100
AcDbArc
 50
297.4219305685953
 51
300.6425855604415
  0
ARC
  5
214C
330
20AD
100
AcDbEntity
  8
Visible Edges(ISO)
100
AcDbCircle
 10
-0.0000000000070486
 20
0.0000000000010232
 30
0.0
 40
40.00000000000496
100
AcDbArc
 50
309.1399319820907
 51
312.1503905985558
  0
ARC
  5
214D
330
20AD
100
AcDbEntity
  8
Visible Edges(ISO)
100
AcDbCircle
 10
-0.0000000000040927
 20
-0.0000000000020464
 30
0.0
 40
41.00000000000082
100
AcDbArc
 50
309.0348337943972
 51
312.2554887862473
  0
ARC
  5
214E
330
20AD
100
AcDbEntity
  8
Visible Edges(ISO)
100
AcDbCircle
 10
-0.0000000000050022
 20
-0.0000000000014779
 30
0.0
 40
40.00000000000222
100
AcDbArc
 50
320.7528352078963
 51
323.7632938243596
  0
ARC
  5
214F
330
20AD
100
AcDbEntity
  8
Visible Edges(ISO)
100
AcDbCircle
 10
-0.0000000000050022
 20
-0.0000000000015916
 30
0.0
 40
41.00000000000178
100
AcDbArc
 50
320.6477370202089
 51
323.8683920120504
  0
ARC
  5
2150
330
20AD
100
AcDbEntity
  8
Visible Edges(ISO)
100
AcDbCircle
 10
0.0000000000009095
 20
-0.0000000000047748
 30
0.0
 40
39.99999999999502
100
AcDbArc
 50
332.3657384337022
 51
335.3761970501724
  0
ARC
  5
2151
330
20AD
100
AcDbEntity
  8
Visible Edges(ISO)
100
AcDbCircle
 10
-0.0000000000088676
 20
0.0000000000003411
 30
0.0
 40
41.00000000000677
100
AcDbArc
 50
332.2606402460089
 51
335.4812952378602
  0
ARC
  5
2152
330
20AD
100
AcDbEntity
  8
Visible Edges(ISO)
100
AcDbCircle
 10
0.0
 20
-0.0000000000037517
 30
0.0
 40
39.99999999999608
100
AcDbArc
 50
343.9786416595056
 51
346.989100275977
  0
ARC
  5
2153
330
20AD
100
AcDbEntity
  8
Visible Edges(ISO)
100
AcDbCircle
 10
-0.0000000000079581
 20
-0.0000000000015916
 30
0.0
 40
41.00000000000479
100
AcDbArc
 50
343.873543471814
 51
347.094198463667
  0
ARC
  5
2154
330
20AD
100
AcDbEntity
  8
Visible Edges(ISO)
100
AcDbCircle
 10
-0.0000000000070486
 20
-0.0000000000025011
 30
0.0
 40
40.00000000000389
100
AcDbArc
 50
355.5915448853155
 51
358.6020035017798
  0
ARC
  5
2155
330
20AD
100
AcDbEntity
  8
Visible Edges(ISO)
100
AcDbCircle
 10
0.000000000001819
 20
-0.0000000000029559
 30
0.0
 40
40.99999999999417
100
AcDbArc
 50
355.4864466976239
 51
358.7071016894753
  0
ARC
  5
2156
330
20AD
100
AcDbEntity
  8
Visible Edges(ISO)
100
AcDbCircle
 10
-0.0000000000050022
 20
-0.0000000000029559
 30
0.0
 40
40.00000000000135
100
AcDbArc
 50
7.204448111122388
 51
10.21490672758534
  0
ARC
  5
2157
330
20AD
100
AcDbEntity
  8
Visible Edges(ISO)
100
AcDbCircle
 10
0.0000000000038654
 20
-0.0000000000015916
 30
0.0
 40
40.9999999999924
100
AcDbArc
 50
7.099349923427495
 51
10.32000491528323
  0
ARC
  5
2158
330
20AD
100
AcDbEntity
  8
Visible Edges(ISO)
100
AcDbCircle
 10
-0.0000000000129603
 20
-0.0000000000063665
 30
0.0
 40
40.00000000001084
100
AcDbArc
 50
18.81735133692856
 51
21.82780995339136
  0
ARC
  5
2159
330
20AD
100
AcDbEntity
  8
Visible Edges(ISO)
100
AcDbCircle
 10
0.0000000000061391
 20
0.0000000000010232
 30
0.0
 40
40.99999999998988
100
AcDbArc
 50
18.71225314923426
 51
21.93290814108733
  0
ARC
  5
215A
330
20AD
100
AcDbEntity
  8
Visible Edges(ISO)
100
AcDbCircle
 10
-0.0000000000059117
 20
-0.0000000000040927
 30
0.0
 40
40.00000000000254
100
AcDbArc
 50
30.43025456273193
 51
33.44071317920197
  0
ARC
  5
215B
330
20AD
100
AcDbEntity
  8
Visible Edges(ISO)
100
AcDbCircle
 10
-0.0000000000040927
 20
-0.0000000000029559
 30
0.0
 40
41.00000000000057
100
AcDbArc
 50
30.3251563750498
 51
33.54581136689417
  0
ARC
  5
215C
330
20AD
100
AcDbEntity
  8
Visible Edges(ISO)
100
AcDbCircle
 10
-0.0000000000088676
 20
-0.0000000000081855
 30
0.0
 40
40.00000000000802
100
AcDbArc
 50
42.04315778853731
 51
45.05361640500971
  0
ARC
  5
215D
330
20AD
100
AcDbEntity
  8
Visible Edges(ISO)
100
AcDbCircle
 10
-0.0000000000050022
 20
-0.0000000000038654
 30
0.0
 40
41.00000000000163
100
AcDbArc
 50
41.93805960085831
 51
45.15871459269923
  0
ARC
  5
215E
330
20AD
100
AcDbEntity
  8
Visible Edges(ISO)
100
AcDbCircle
 10
0.000000000001819
 20
0.0000000000088676
 30
0.0
 40
39.99999999998747
100
AcDbArc
 50
65.26896424015752
 51
68.27942285661956
  0
ARC
  5
215F
330
20AD
100
AcDbEntity
  8
Visible Edges(ISO)
100
AcDbCircle
 10
-0.0000000000040927
 20
-0.0000000000037517
 30
0.0
 40
41.0000000000011
100
AcDbArc
 50
65.1638660524568
 51
68.38452104431199
  0
ARC
  5
2160
330
20AD
100
AcDbEntity
  8
Visible Edges(ISO)
100
AcDbCircle
 10
-0.0000000000050022
 20
-0.000000000005457
 30
0.0
 40
40.00000000000318
100
AcDbArc
 50
53.65606101434654
 51
56.66651963081023
  0
ARC
  5
2161
330
20AD
100
AcDbEntity
  8
Visible Edges(ISO)
100
AcDbCircle
 10
-0.0000000000088676
 20
-0.0000000000111413
 30
0.0
 40
41.00000000001021
100
AcDbArc
 50
53.5509628266615
 51
56.77161781850394
  0
ARC
  5
2162
330
20AD
100
AcDbEntity
  8
Visible Edges(ISO)
100
AcDbCircle
 10
-0.0000000000020464
 20
0.0000000000541149
 30
0.0
 40
40.99999999994309
100
AcDbArc
 50
88.38967250407916
 51
89.86025405775507
  0
LINE
  5
2163
330
20AD
100
AcDbEntity
  8
Visible Edges(ISO)
100
AcDbLine
 10
0.3693769595749927
 20
33.28593120552568
 30
0.0
 11
0.0999999999969532
 21
40.99987804859643
 31
0.0
  0
LINE
  5
2164
330
20AD
100
AcDbEntity
  8
Visible Edges(ISO)
100
AcDbLine
 10
-0.1000000000028649
 20
40.99987804859643
 30
0.0
 11
-0.3693769595820413
 21
33.28593120552523
 31
0.0
  0
ARC
  5
2165
330
20AD
100
AcDbEntity
  8
Visible Edges(ISO)
100
AcDbCircle
 10
-0.0000000000020464
 20
-0.0000000000633236
 30
0.0
 40
41.00000000006047
100
AcDbArc
 50
90.13974594224492
 51
91.61032749592083
  0
ARC
  5
2166
330
20AD
100
AcDbEntity
  8
Visible Edges(ISO)
100
AcDbCircle
 10
-0.0000000000029559
 20
-0.0000000000022737
 30
0.0
 40
39.99999999999956
100
AcDbArc
 50
76.88186746595285
 51
79.89232608242904
  0
ARC
  5
2167
330
20AD
100
AcDbEntity
  8
Visible Edges(ISO)
100
AcDbCircle
 10
-0.0000000000040927
 20
-0.0000000000067075
 30
0.0
 40
41.00000000000417
100
AcDbArc
 50
76.77676927826436
 51
79.99742427012474
  0
LINE
  5
2168
330
20AD
100
AcDbEntity
  8
Visible Edges(ISO)
100
AcDbLine
 10
-6.120825951788901
 20
30.53744405918371
 30
0.0
 11
-7.121390429158054
 21
40.37679777242544
 31
0.0
  0
LINE
  5
2169
330
20AD
100
AcDbEntity
  8
Visible Edges(ISO)
100
AcDbLine
 10
-1.152174488806167
 20
40.98380770434983
 30
0.0
 11
-0.1516100114381516
 21
31.14445399110832
 31
0.0
  0
LINE
  5
216A
330
20AD
100
AcDbEntity
  8
Visible Edges(ISO)
100
AcDbLine
 10
-0.1516100114381516
 20
31.14445399110832
 30
0.0
 11
-6.120825951788901
 21
30.53744405918371
 31
0.0
  0
ARC
  5
216B
330
20AD
100
AcDbEntity
  8
Visible Edges(ISO)
100
AcDbCircle
 10
-0.0000000000029559
 20
-0.0000000000032969
 30
0.0
 40
41.00000000000066
100
AcDbArc
 50
91.61032749592083
 51
100.0025757298752
  0
LINE
  5
216C
330
20AD
100
AcDbEntity
  8
Visible Edges(ISO)
100
AcDbLine
 10
13.76522238654115
 20
-64.54857591496
 30
0.0
 11
1.999999999997044
 21
-40.95119045888941
 31
0.0
  0
LINE
  5
216D
330
20AD
100
AcDbEntity
  8
Visible Edges(ISO)
100
AcDbLine
 10
0.9999999999970441
 20
40.98780306383583
 30
0.0
 11
0.9999999999970441
 21
42.88164102565099
 31
0.0
  0
LINE
  5
216E
330
20AD
100
AcDbEntity
  8
Visible Edges(ISO)
100
AcDbLine
 10
0.9999999999970441
 20
46.08165585967117
 30
0.0
 11
0.9999999999970441
 21
65.9924238075829
 31
0.0
  0
ARC
  5
216F
330
20AD
100
AcDbEntity
  8
Visible Edges(ISO)
100
AcDbCircle
 10
-0.0000000000029559
 20
-0.0000000000027285
 30
0.0
 40
66.00000000000007
100
AcDbArc
 50
282.0382108122093
 51
89.13184890975191
  0
LINE
  5
2170
330
20AD
100
AcDbEntity
  8
Visible Edges(ISO)
100
AcDbLine
 10
-13.76522238654797
 20
-64.54857591495977
 30
0.0
 11
-2.000000000002955
 21
-40.9511904588893
 31
0.0
  0
LINE
  5
2171
330
20AD
100
AcDbEntity
  8
Visible Edges(ISO)
100
AcDbLine
 10
-1.000000000002955
 20
40.98780306383548
 30
0.0
 11
-1.000000000002955
 21
42.88773078235453
 31
0.0
  0
LINE
  5
2172
330
20AD
100
AcDbEntity
  8
Visible Edges(ISO)
100
AcDbLine
 10
-1.000000000002955
 20
46.08774561637483
 30
0.0
 11
-1.000000000002955
 21
65.9924238075829
 31
0.0
  0
ARC
  5
2173
330
20AD
100
AcDbEntity
  8
Visible Edges(ISO)
100
AcDbCircle
 10
-0.0000000000029559
 20
-0.0000000000027285
 30
0.0
 40
65.99999999999988
100
AcDbArc
 50
90.8681510902481
 51
257.9617891877908
  0
LINE
  5
2174
330
20AD
100
AcDbEntity
  8
Visible Edges(ISO)
100
AcDbLine
 10
-3.000000000002955
 20
41.16506407136739
 30
0.0
 11
-12.33245328880207
 21
39.38874326351868
 31
0.0
  0
LINE
  5
2175
330
20AD
100
AcDbEntity
  8
Visible Edges(ISO)
100
AcDbLine
 10
-3.299169820272027
 20
42.73684567790167
 30
0.0
 11
-12.63162310907091
 21
40.96052487005318
 31
0.0
  0
LINE
  5
2176
330
20AD
100
AcDbEntity
  8
Visible Edges(ISO)
100
AcDbLine
 10
-12.63162310907091
 20
40.96052487005318
 30
0.0
 11
-12.33245328880207
 21
39.38874326351868
 31
0.0
  0
LINE
  5
2177
330
20AD
100
AcDbEntity
  8
Visible Edges(ISO)
100
AcDbLine
 10
-3.299169820272027
 20
42.73684567790167
 30
0.0
 11
-3.000000000002955
 21
41.16506407136739
 31
0.0
  0
ARC
  5
2178
330
20AD
100
AcDbEntity
  8
Visible Edges(ISO)
100
AcDbCircle
 10
-6.842369588541032
 20
44.50552750404836
 30
0.0
 40
4.000000000000004
100
AcDbArc
 50
23.40372033866367
 51
100.7766590086726
  0
ARC
  5
2179
330
20AD
100
AcDbEntity
  8
Visible Edges(ISO)
100
AcDbCircle
 10
-6.842369588542169
 20
44.50552750404869
 30
0.0
 40
4.000000000000662
100
AcDbArc
 50
332.7291515550547
 51
336.2473633822528
  0
ARC
  5
217A
330
20AD
100
AcDbEntity
  8
Visible Edges(ISO)
100
AcDbCircle
 10
-6.842369588541032
 20
44.50552750404836
 30
0.0
 40
2.400000000000003
100
AcDbArc
 50
280.7766590086727
 51
318.01522696468
  0
ARC
  5
217B
330
20AD
100
AcDbEntity
  8
Visible Edges(ISO)
100
AcDbCircle
 10
-6.842369588541032
 20
44.50552750404836
 30
0.0
 40
2.400000000000006
100
AcDbArc
 50
41.63585675624004
 51
100.7766590086726
  0
LINE
  5
217C
330
20AD
100
AcDbEntity
  8
Visible Edges(ISO)
100
AcDbLine
 10
-9.260312096156894
 20
48.11711358634852
 30
0.0
 11
-7.590294139214165
 21
48.43498152038455
 31
0.0
  0
LINE
  5
217D
330
20AD
100
AcDbEntity
  8
Visible Edges(ISO)
100
AcDbLine
 10
-8.96114227588805
 20
46.54533197981424
 30
0.0
 11
-9.260312096156894
 21
48.11711358634852
 31
0.0
  0
LINE
  5
217E
330
20AD
100
AcDbEntity
  8
Visible Edges(ISO)
100
AcDbLine
 10
-7.291124318945094
 20
46.86319991385016
 30
0.0
 11
-8.96114227588805
 21
46.54533197981424
 31
0.0
  0
ARC
  5
217F
330
20AD
100
AcDbEntity
  8
Visible Edges(ISO)
100
AcDbCircle
 10
-6.842369588540123
 20
44.50552750404836
 30
0.0
 40
1.600000000000003
100
AcDbArc
 50
89.82554186044737
 51
269.8255418604474
  0
LINE
  5
2180
330
20AD
100
AcDbEntity
  8
Visible Edges(ISO)
100
AcDbLine
 10
-6.847241371319114
 20
42.90553492102424
 30
0.0
 11
-3.647256205269968
 21
42.89579135546591
 31
0.0
  0
LINE
  5
2181
330
20AD
100
AcDbEntity
  8
Visible Edges(ISO)
100
AcDbLine
 10
-3.637512639711985
 20
46.09577652151438
 30
0.0
 11
-6.837497805761131
 21
46.1055200870727
 31
0.0
  0
LINE
  5
2182
330
20AD
100
AcDbEntity
  8
Visible Edges(ISO)
100
AcDbLine
 10
12.15267055209392
 20
42.8476825005215
 30
0.0
 11
-3.647256205269968
 21
42.89579135546591
 31
0.0
  0
LINE
  5
2183
330
20AD
100
AcDbEntity
  8
Visible Edges(ISO)
100
AcDbLine
 10
12.1624141176519
 20
46.04766766657007
 30
0.0
 11
-3.637512639711985
 21
46.09577652151438
 31
0.0
  0
LINE
  5
2184
330
20AD
100
AcDbEntity
  8
Visible Edges(ISO)
100
AcDbLine
 10
12.15267055209392
 20
42.8476825005215
 30
0.0
 11
15.33345759285203
 21
42.83799739091944
 31
0.0
  0
LINE
  5
2185
330
20AD
100
AcDbEntity
  8
Visible Edges(ISO)
100
AcDbLine
 10
15.34320115841001
 20
46.03798255696779
 30
0.0
 11
12.1624141176519
 21
46.04766766657007
 31
0.0
  0
ARC
  5
2186
330
20AD
100
AcDbEntity
  8
Visible Edges(ISO)
100
AcDbCircle
 10
8.62992120175113
 20
47.95777717985004
 30
0.0
 40
2.050000000000026
100
AcDbArc
 50
291.928438627848
 51
247.7226450930696
  0
LINE
  5
2187
330
20AD
100
AcDbEntity
  8
Visible Edges(ISO)
100
AcDbLine
 10
36.91775753577394
 20
46.23262678241724
 30
0.0
 11
13.7964414808539
 21
52.28987461858981
 31
0.0
  0
LINE
  5
2188
330
20AD
100
AcDbEntity
  8
Visible Edges(ISO)
100
AcDbLine
 10
36.91775753577394
 20
46.23262678241724
 30
0.0
 11
37.69011361766002
 21
46.03028742622746
 31
0.0
  0
LINE
  5
2189
330
20AD
100
AcDbEntity
  8
Visible Edges(ISO)
100
AcDbLine
 10
36.51227820355007
 20
44.68485854681512
 30
0.0
 11
37.28463428543705
 21
44.48251919062522
 31
0.0
  0
LINE
  5
218A
330
20AD
100
AcDbEntity
  8
Visible Edges(ISO)
100
AcDbLine
 10
36.72830013139196
 20
45.50944281421687
 30
0.0
 11
36.91775753619709
 21
46.23262678403193
 31
0.0
  0
LINE
  5
218B
330
20AD
100
AcDbEntity
  8
Visible Edges(ISO)
100
AcDbLine
 10
36.51227820403301
 20
44.68485854866014
 30
0.0
 11
36.72830013139196
 21
45.50944281421687
 31
0.0
  0
LINE
  5
218C
330
20AD
100
AcDbEntity
  8
Visible Edges(ISO)
100
AcDbLine
 10
13.79644148151806
 20
52.28987462112707
 30
0.0
 11
13.31493477353501
 21
50.45189983765908
 31
0.0
  0
SPLINE
  5
218D
330
20AD
100
AcDbEntity
  8
Visible Edges(ISO)
100
AcDbSpline
210
0.0
220
0.0
230
1.0
 70
     8
 71
     3
 72
    14
 73
    10
 74
     0
 42
0.0000000001
 43
0.0000000001
 40
-0.2286651747759609
 40
-0.2286651747759609
 40
-0.2286651747759609
 40
-0.2286651747759609
 40
-0.2096556653767674
 40
-0.2096556653767674
 40
-0.1906461559775739
 40
-0.1906461559775739
 40
-0.1718063443396231
 40
-0.1718063443396231
 40
-0.1529665327016723
 40
-0.1529665327016723
 40
-0.1529665327016723
 40
-0.1529665327016723
 10
13.31493477353501
 20
50.45189983765908
 30
0.0
 10
13.29922886906297
 20
50.39194832318788
 30
0.0
 10
13.2704588968279
 20
50.33050733455207
 30
0.0
 10
13.19000890448296
 20
50.2239977773288
 30
0.0
 10
13.13831680295902
 20
50.17895973185443
 30
0.0
 10
13.02951057406994
 20
50.11532819332069
 30
0.0
 10
12.96537980287098
 20
50.09234399929494
 30
0.0
 10
12.83327110837695
 20
50.0741901707662
 30
0.0
 10
12.7652942044599
 20
50.07901965068197
 30
0.0
 10
12.70454490858992
 20
50.09493455535334
 30
0.0
  0
ELLIPSE
  5
218E
330
20AD
100
AcDbEntity
  8
Visible Edges(ISO)
100
AcDbEllipse
 10
35.40707764490003
 20
44.15703423742241
 30
0.0
 11
1.276410919919219
 21
1.934473692341813
 31
0.0
210
0.0
220
0.0
230
1.0
 40
0.0066029868388586
 41
1.525382940362588
 42
1.57728319731281
  0
SPLINE
  5
218F
330
20AD
100
AcDbEntity
  8
Visible Edges(ISO)
100
AcDbSpline
210
0.0
220
0.0
230
1.0
 70
     8
 71
     3
 72
    17
 73
    13
 74
     0
 42
0.0000000001
 43
0.0000000001
 40
0.0
 40
0.0
 40
0.0
 40
0.0
 40
0.25
 40
0.25
 40
0.25
 40
0.5
 40
0.5
 40
0.5
 40
0.75
 40
0.75
 40
0.75
 40
1.0
 40
1.0
 40
1.0
 40
1.0
 10
35.45226372972593
 20
44.2532744799247
 30
0.0
 10
35.64320550742787
 20
44.57918697128957
 30
0.0
 10
35.82274185053484
 20
44.88699297184211
 30
0.0
 10
35.984059364411
 20
45.15068485317942
 30
0.0
 10
36.14537687828693
 20
45.41437673451651
 30
0.0
 10
36.28853271040498
 20
45.6341726361037
 30
0.0
 10
36.4113696221541
 20
45.80183809286814
 30
0.0
 10
36.53420653390299
 20
45.96950354963212
 30
0.0
 10
36.63682862228597
 20
46.08543591360251
 30
0.0
 10
36.72046427525902
 20
46.1543241040606
 30
0.0
 10
36.80409992823184
 20
46.22321229451881
 30
0.0
 10
36.86884954391985
 20
46.24543954438297
 30
0.0
 10
36.91775753674119
 20
46.23262678610752
 30
0.0
  0
SPLINE
  5
2190
330
20AD
100
AcDbEntity
  8
Visible Edges(ISO)
100
AcDbSpline
210
0.0
220
0.0
230
1.0
 70
     8
 71
     3
 72
    18
 73
    14
 74
     0
 42
0.0000000001
 43
0.0000000001
 40
-0.1525407850974777
 40
-0.1525407850974777
 40
-0.1525407850974777
 40
-0.1525407850974777
 40
-0.1181950956146801
 40
-0.1181950956146801
 40
-0.0865338679253085
 40
-0.0865338679253085
 40
-0.0669010067910081
 40
-0.0669010067910081
 40
-0.0484579910555542
 40
-0.0484579910555542
 40
-0.0229355347966384
 40
-0.0229355347966384
 40
0.0
 40
0.0
 40
0.0
 40
0.0
 10
35.43302522122099
 20
44.17983854867145
 30
0.0
 10
35.52670216150796
 20
44.24594375353126
 30
0.0
 10
35.61917900659114
 20
44.31169331539751
 30
0.0
 10
35.79379324611409
 20
44.43042975256003
 30
0.0
 10
35.87550868691597
 20
44.48331415399309
 30
0.0
 10
36.00366813292408
 20
44.5577282121859
 30
0.0
 10
36.05144733301609
 20
44.58339538439964
 30
0.0
 10
36.14168768782884
 20
44.62641791280702
 30
0.0
 10
36.18412972470105
 20
44.64410431440557
 30
0.0
 10
36.28186084900903
 20
44.67763022870883
 30
0.0
 10
36.33554462186385
 20
44.69002132495973
 30
0.0
 10
36.43113360628195
 20
44.69793123338035
 30
0.0
 10
36.47337937975204
 20
44.695049139204
 30
0.0
 10
36.51227820451595
 20
44.68485855050539
 30
0.0
  0
ELLIPSE
  5
2191
330
20AD
100
AcDbEntity
  8
Visible Edges(ISO)
100
AcDbEllipse
 10
35.39456787214295
 20
44.10928278218705
 30
0.0
 11
-1.746094981367764
 21
-1.001275660584273
 31
0.0
210
0.0
220
0.0
230
1.0
 40
0.0209161467731797
 41
4.678370489106811
 42
4.705287827320871
  0
LINE
  5
2192
330
20AD
100
AcDbEntity
  8
Visible Edges(ISO)
100
AcDbLine
 10
35.43302522122099
 20
44.17983854867111
 30
0.0
 11
35.45226372972593
 21
44.2532744799247
 31
0.0
  0
LINE
  5
2193
330
20AD
100
AcDbEntity
  8
Visible Edges(ISO)
100
AcDbLine
 10
12.70454490858992
 20
50.09493455535334
 30
0.0
 11
8.641653290133945
 21
51.15931780244148
 31
0.0
  0
ARC
  5
2194
330
20AD
100
AcDbEntity
  8
Visible Edges(ISO)
100
AcDbCircle
 10
8.03343429179813
 20
48.83766544903813
 30
0.0
 40
2.400000000000023
100
AcDbArc
 50
75.3197456902806
 51
165.3197456902789
  0
LINE
  5
2195
330
20AD
100
AcDbEntity
  8
Visible Edges(ISO)
100
AcDbLine
 10
5.002193107002085
 20
46.73729003507037
 30
0.0
 11
5.711781938393869
 21
49.44588444737428
 31
0.0
  0
ARC
  5
2196
330
20AD
100
AcDbEntity
  8
Visible Edges(ISO)
100
AcDbCircle
 10
8.097729578207008
 20
45.92633137062228
 30
0.0
 40
3.199999999999877
100
AcDbArc
 50
165.3197456902789
 51
177.4307378691111
  0
ARC
  5
2197
330
20AD
100
AcDbEntity
  8
Visible Edges(ISO)
100
AcDbCircle
 10
8.097729578207008
 20
45.92633137062398
 30
0.0
 40
3.200000000001836
100
AcDbArc
 50
253.2039718979792
 51
255.3197456902806
  0
LINE
  5
2198
330
20AD
100
AcDbEntity
  8
Visible Edges(ISO)
100
AcDbLine
 10
22.66935745781984
 20
38.80091447139751
 30
0.0
 11
7.286770913759028
 21
42.83079489941781
 31
0.0
  0
ARC
  5
2199
330
20AD
100
AcDbEntity
  8
Visible Edges(ISO)
100
AcDbCircle
 10
32.89141295421405
 20
31.26436476820698
 30
0.0
 40
12.70000000000014
100
AcDbArc
 50
82.54991629590639
 51
143.5992722168695
  0
ARC
  5
219A
330
20AD
100
AcDbEntity
  8
Visible Edges(ISO)
100
AcDbCircle
 10
34.66778772940302
 20
44.84871210836582
 30
0.0
 40
1.000000000000007
100
AcDbArc
 50
262.5499162959064
 51
315.9091171760239
  0
CIRCLE
  5
219B
330
20AD
100
AcDbEntity
  8
Visible Edges(ISO)
100
AcDbCircle
 10
21.26766253581786
 20
43.71661059821121
 30
0.0
 40
1.400000000000015
  0
LINE
  5
219C
330
20AD
100
AcDbEntity
  8
Visible Edges(ISO)
100
AcDbLine
 10
37.69011361766002
 20
46.03028742622746
 30
0.0
 11
37.28463428543705
 21
44.48251919062522
 31
0.0
  0
LINE
  5
219D
330
20AD
100
AcDbEntity
  8
Visible Edges(ISO)
100
AcDbLine
 10
12.75986414344902
 20
50.700690101968
 30
0.0
 11
6.472055686314888
 21
52.34794988912847
 31
0.0
  0
LINE
  5
219E
330
20AD
100
AcDbEntity
  8
Visible Edges(ISO)
100
AcDbLine
 10
6.472055686314888
 20
52.34794988912847
 30
0.0
 11
5.939864062770993
 21
50.3165040799006
 31
0.0
  0
LINE
  5
219F
330
20AD
100
AcDbEntity
  8
Visible Edges(ISO)
100
AcDbLine
 10
12.60780939386382
 20
50.1202770136174
 30
0.0
 11
12.75986414344902
 21
50.700690101968
 31
0.0
  0
LINE
  5
21A0
330
20AD
100
AcDbEntity
  8
Visible Edges(ISO)
100
AcDbLine
 10
4.827379127395033
 20
46.07000195582202
 30
0.0
 11
5.002193107002085
 21
46.73729003507037
 31
0.0
  0
LINE
  5
21A1
330
20AD
100
AcDbEntity
  8
Visible Edges(ISO)
100
AcDbLine
 10
5.711781938395006
 20
49.44588444737428
 30
0.0
 11
5.939864062770993
 21
50.3165040799006
 31
0.0
  0
LINE
  5
21A2
330
20AD
100
AcDbEntity
  8
Visible Edges(ISO)
100
AcDbLine
 10
10.47904289968801
 20
41.99449377670567
 30
0.0
 11
10.40301552489609
 21
41.70428723253031
 31
0.0
  0
LINE
  5
21A3
330
20AD
100
AcDbEntity
  8
Visible Edges(ISO)
100
AcDbLine
 10
3.596686216608986
 20
41.37228435663508
 30
0.0
 11
3.989717750241879
 21
42.8725376987951
 31
0.0
  0
SPLINE
  5
21A4
330
20AD
100
AcDbEntity
  8
Visible Edges(ISO)
100
AcDbSpline
210
0.0
220
0.0
230
1.0
 70
     8
 71
     3
 72
     8
 73
     4
 74
     0
 42
0.0000000001
 43
0.0000000001
 40
-0.2386057459238637
 40
-0.2386057459238637
 40
-0.2386057459238637
 40
-0.2386057459238637
 40
-0.2284121227312375
 40
-0.2284121227312375
 40
-0.2284121227312375
 40
-0.2284121227312375
 10
4.013426259080915
 20
42.87258381756316
 30
0.0
 10
4.015748855166975
 20
42.86444064226418
 30
0.0
 10
4.019599091539021
 20
42.85972083787896
 30
0.0
 10
4.024780666004971
 20
42.85836338570606
 30
0.0
  0
LINE
  5
21A5
330
20AD
100
AcDbEntity
  8
Visible Edges(ISO)
100
AcDbLine
 10
23.625804265645
 20
37.72335041847191
 30
0.0
 11
23.75251655696502
 21
38.20702799209767
 31
0.0
  0
LINE
  5
21A6
330
20AD
100
AcDbEntity
  8
Visible Edges(ISO)
100
AcDbLine
 10
16.46769983498393
 20
39.59992777921275
 30
0.0
 11
16.59408846730503
 21
40.08236990363388
 31
0.0
  0
LINE
  5
21A7
330
20AD
100
AcDbEntity
  8
Visible Edges(ISO)
100
AcDbLine
 10
16.46769983498393
 20
39.59992777921275
 30
0.0
 11
10.2766268925759
 21
41.22184510810905
 31
0.0
  0
LINE
  5
21A8
330
20AD
100
AcDbEntity
  8
Visible Edges(ISO)
100
AcDbLine
 10
10.40301552489609
 20
41.70428723253031
 30
0.0
 11
10.2766268925759
 21
41.22184510810905
 31
0.0
  0
SPLINE
  5
21A9
330
20AD
100
AcDbEntity
  8
Visible Edges(ISO)
100
AcDbSpline
210
0.0
220
0.0
230
1.0
 70
     8
 71
     3
 72
     8
 73
     4
 74
     0
 42
0.0000000001
 43
0.0000000001
 40
-0.3229320565119527
 40
-0.3229320565119527
 40
-0.3229320565119527
 40
-0.3229320565119527
 40
-0.2761446812655437
 40
-0.2761446812655437
 40
-0.2761446812655437
 40
-0.2761446812655437
 10
3.619301333779958
 20
41.31059515010394
 30
0.0
 10
3.595518595855082
 20
41.31682567510813
 30
0.0
 10
3.58830242971203
 20
41.33743564731696
 30
0.0
 10
3.596686216608986
 20
41.37228435663508
 30
0.0
  0
LINE
  5
21AA
330
20AD
100
AcDbEntity
  8
Visible Edges(ISO)
100
AcDbLine
 10
3.619301333779958
 20
41.31059515010394
 30
0.0
 11
4.619669177512832
 21
41.0485220076755
 31
0.0
  0
LINE
  5
21AB
330
20AD
100
AcDbEntity
  8
Visible Edges(ISO)
100
AcDbLine
 10
5.025148509736936
 20
42.59629024327762
 30
0.0
 11
4.024780666004971
 21
42.85836338570606
 31
0.0
  0
LINE
  5
21AC
330
20AD
100
AcDbEntity
  8
Visible Edges(ISO)
100
AcDbLine
 10
16.09457634002888
 20
39.69635722909311
 30
0.0
 11
5.025148509736936
 21
42.59629024327762
 31
0.0
  0
LINE
  5
21AD
330
20AD
100
AcDbEntity
  8
Visible Edges(ISO)
100
AcDbLine
 10
16.09457634002888
 20
39.69635722909311
 30
0.0
 11
18.4107793675621
 21
39.08956582757923
 31
0.0
  0
LINE
  5
21AE
330
20AD
100
AcDbEntity
  8
Visible Edges(ISO)
100
AcDbLine
 10
19.74769077956603
 20
38.73932608618111
 30
0.0
 11
18.4107793675621
 21
39.08956582757923
 31
0.0
  0
LINE
  5
21AF
330
20AD
100
AcDbEntity
  8
Visible Edges(ISO)
100
AcDbLine
 10
23.625804265645
 20
37.72335041847203
 30
0.0
 11
19.74769077956603
 21
38.73932608618111
 31
0.0
  0
LINE
  5
21B0
330
20AD
100
AcDbEntity
  8
Visible Edges(ISO)
100
AcDbLine
 10
16.59408846730503
 20
40.08236990363411
 30
0.0
 11
16.67011584209695
 21
40.37257644780936
 31
0.0
  0
LINE
  5
21B1
330
20AD
100
AcDbEntity
  8
Visible Edges(ISO)
100
AcDbLine
 10
23.75251655696502
 20
38.20702799209767
 30
0.0
 11
24.41015289604889
 21
40.71731287056024
 31
0.0
  0
ARC
  5
21B2
330
20AD
100
AcDbEntity
  8
Visible Edges(ISO)
100
AcDbCircle
 10
21.24232007755404
 20
43.61987508348625
 30
0.0
 40
1.400000000000019
100
AcDbArc
 50
347.3664587879645
 51
163.273032592623
  0
LINE
  5
21B3
330
20AD
100
AcDbEntity
  8
Visible Edges(ISO)
100
AcDbLine
 10
15.689097007805
 20
38.14858899349065
 30
0.0
 11
13.40167018880493
 21
38.74784169666998
 31
0.0
  0
LINE
  5
21B4
330
20AD
100
AcDbEntity
  8
Visible Edges(ISO)
100
AcDbLine
 10
7.317936852667116
 20
40.3416385415876
 30
0.0
 11
4.619669177512832
 21
41.0485220076755
 31
0.0
  0
LINE
  5
21B5
330
20AD
100
AcDbEntity
  8
Visible Edges(ISO)
100
AcDbLine
 10
23.2203249334209
 20
36.17558218286979
 30
0.0
 11
19.34221144734192
 21
37.19155785057865
 31
0.0
  0
LINE
  5
21B6
330
20AD
100
AcDbEntity
  8
Visible Edges(ISO)
100
AcDbLine
 10
19.34221144734192
 20
37.19155785057865
 30
0.0
 11
18.00530003533799
 21
37.541797591977
 31
0.0
  0
LINE
  5
21B7
330
20AD
100
AcDbEntity
  8
Visible Edges(ISO)
100
AcDbLine
 10
15.689097007805
 20
38.14858899349065
 30
0.0
 11
18.00530003533799
 21
37.541797591977
 31
0.0
  0
LINE
  5
21B8
330
20AD
100
AcDbEntity
  8
Visible Edges(ISO)
100
AcDbLine
 10
19.74769077956603
 20
38.73932608618111
 30
0.0
 11
19.34221144734192
 21
37.19155785057865
 31
0.0
  0
LINE
  5
21B9
330
20AD
100
AcDbEntity
  8
Visible Edges(ISO)
100
AcDbLine
 10
18.00530003533799
 20
37.541797591977
 30
0.0
 11
18.4107793675621
 21
39.08956582757923
 31
0.0
  0
LINE
  5
21BA
330
20AD
100
AcDbEntity
  8
Visible Edges(ISO)
100
AcDbLine
 10
23.625804265645
 20
37.72335041847191
 30
0.0
 11
23.2203249334209
 21
36.17558218286968
 31
0.0
  0
ARC
  5
21BB
330
20AD
100
AcDbEntity
  8
Visible Edges(ISO)
100
AcDbCircle
 10
-0.0000000000009095
 20
-0.0000000000156888
 30
0.0
 40
38.45000000001327
100
AcDbArc
 50
100.2814117277795
 51
102.944394723844
  0
ARC
  5
21BC
330
20AD
100
AcDbEntity
  8
Visible Edges(ISO)
100
AcDbCircle
 10
-0.0000000000040927
 20
-0.0000000000013642
 30
0.0
 40
38.44999999999847
100
AcDbArc
 50
111.8943149535783
 51
114.5572979496505
  0
ARC
  5
21BD
330
20AD
100
AcDbEntity
  8
Visible Edges(ISO)
100
AcDbCircle
 10
-0.0000000000100044
 20
0.0000000000060254
 30
0.0
 40
38.44999999998928
100
AcDbArc
 50
123.5072181793938
 51
126.1702011754546
  0
ARC
  5
21BE
330
20AD
100
AcDbEntity
  8
Visible Edges(ISO)
100
AcDbCircle
 10
-0.0000000000020464
 20
-0.0000000000037517
 30
0.0
 40
38.45000000000153
100
AcDbArc
 50
135.1201214052018
 51
137.7831044012623
  0
ARC
  5
21BF
330
20AD
100
AcDbEntity
  8
Visible Edges(ISO)
100
AcDbCircle
 10
-0.0000000000129603
 20
0.0000000000032969
 30
0.0
 40
38.44999999998876
100
AcDbArc
 50
146.7330246309993
 51
149.3960076270678
  0
ARC
  5
21C0
330
20AD
100
AcDbEntity
  8
Visible Edges(ISO)
100
AcDbCircle
 10
-0.0000000000029559
 20
-0.0000000000025011
 30
0.0
 40
38.44999999999983
100
AcDbArc
 50
158.3459278568054
 51
161.0089108528749
  0
ARC
  5
21C1
330
20AD
100
AcDbEntity
  8
Visible Edges(ISO)
100
AcDbCircle
 10
-0.0000000000079581
 20
-0.0000000000019327
 30
0.0
 40
38.44999999999532
100
AcDbArc
 50
169.9588310826108
 51
172.6218140786815
  0
ARC
  5
21C2
330
20AD
100
AcDbEntity
  8
Visible Edges(ISO)
100
AcDbCircle
 10
0.0000000000138698
 20
-0.0000000000019327
 30
0.0
 40
38.45000000001697
100
AcDbArc
 50
181.571734308421
 51
184.2347173044822
  0
ARC
  5
21C3
330
20AD
100
AcDbEntity
  8
Visible Edges(ISO)
100
AcDbCircle
 10
-0.0000000000070486
 20
-0.0000000000037517
 30
0.0
 40
38.44999999999642
100
AcDbArc
 50
193.1846375342258
 51
195.847620530291
  0
ARC
  5
21C4
330
20AD
100
AcDbEntity
  8
Visible Edges(ISO)
100
AcDbCircle
 10
-0.0000000000029559
 20
-0.0000000000025011
 30
0.0
 40
38.4500000000005
100
AcDbArc
 50
204.7975407600365
 51
207.4605237561015
  0
ARC
  5
21C5
330
20AD
100
AcDbEntity
  8
Visible Edges(ISO)
100
AcDbCircle
 10
-0.0000000000088676
 20
-0.0000000000071623
 30
0.0
 40
38.44999999999259
100
AcDbArc
 50
216.4104439858393
 51
219.0734269819018
  0
ARC
  5
21C6
330
20AD
100
AcDbEntity
  8
Visible Edges(ISO)
100
AcDbCircle
 10
-0.0000000000079581
 20
-0.0000000000085265
 30
0.0
 40
38.44999999999231
100
AcDbArc
 50
228.0233472116409
 51
230.6863302077119
  0
ARC
  5
21C7
330
20AD
100
AcDbEntity
  8
Visible Edges(ISO)
100
AcDbCircle
 10
0.0
 20
0.0000000000038654
 30
0.0
 40
38.45000000000732
100
AcDbArc
 50
239.6362504374549
 51
242.2992334335265
  0
ARC
  5
21C8
330
20AD
100
AcDbEntity
  8
Visible Edges(ISO)
100
AcDbCircle
 10
-0.0000000000059117
 20
-0.0000000000108002
 30
0.0
 40
38.44999999999149
100
AcDbArc
 50
251.249153663261
 51
253.9121366593212
  0
ARC
  5
21C9
330
20AD
100
AcDbEntity
  8
Visible Edges(ISO)
100
AcDbCircle
 10
-0.0000000000040927
 20
-0.0000000000060254
 30
0.0
 40
38.44999999999675
100
AcDbArc
 50
262.8620568890577
 51
265.52503988513
  0
ARC
  5
21CA
330
20AD
100
AcDbEntity
  8
Visible Edges(ISO)
100
AcDbCircle
 10
-0.0000000000029559
 20
-0.0000000000045475
 30
0.0
 40
38.44999999999826
100
AcDbArc
 50
274.47496011487
 51
277.1379431109422
  0
ARC
  5
21CB
330
20AD
100
AcDbEntity
  8
Visible Edges(ISO)
100
AcDbCircle
 10
0.0000000000009095
 20
-0.0000000000154614
 30
0.0
 40
38.44999999998665
100
AcDbArc
 50
286.0878633406788
 51
288.7508463367391
  0
ARC
  5
21CC
330
20AD
100
AcDbEntity
  8
Visible Edges(ISO)
100
AcDbCircle
 10
-0.0000000000040927
 20
-0.000000000001819
 30
0.0
 40
38.45000000000111
100
AcDbArc
 50
297.7007665664736
 51
300.3637495625451
  0
ARC
  5
21CD
330
20AD
100
AcDbEntity
  8
Visible Edges(ISO)
100
AcDbCircle
 10
0.0000000000079581
 20
-0.0000000000158025
 30
0.0
 40
38.44999999998267
100
AcDbArc
 50
309.3136697922881
 51
311.9766527883591
  0
ARC
  5
21CE
330
20AD
100
AcDbEntity
  8
Visible Edges(ISO)
100
AcDbCircle
 10
-0.0000000000129603
 20
0.0000000000051159
 30
0.0
 40
38.45000000001244
100
AcDbArc
 50
320.9265730180982
 51
323.5895560141607
  0
ARC
  5
21CF
330
20AD
100
AcDbEntity
  8
Visible Edges(ISO)
100
AcDbCircle
 10
-0.0000000000040927
 20
-0.0000000000025011
 30
0.0
 40
38.45000000000048
100
AcDbArc
 50
332.5394762438985
 51
335.2024592399635
  0
ARC
  5
21D0
330
20AD
100
AcDbEntity
  8
Visible Edges(ISO)
100
AcDbCircle
 10
0.0000000000129603
 20
-0.0000000000069349
 30
0.0
 40
38.4499999999832
100
AcDbArc
 50
344.152379469709
 51
346.8153624657742
  0
ARC
  5
21D1
330
20AD
100
AcDbEntity
  8
Visible Edges(ISO)
100
AcDbCircle
 10
0.0000000000009095
 20
-0.0000000000029559
 30
0.0
 40
38.44999999999526
100
AcDbArc
 50
355.7652826955178
 51
358.4282656915791
  0
ARC
  5
21D2
330
20AD
100
AcDbEntity
  8
Visible Edges(ISO)
100
AcDbCircle
 10
-0.0000000000190994
 20
-0.0000000000051159
 30
0.0
 40
38.45000000001557
100
AcDbArc
 50
7.378185921324949
 51
10.04116891738916
  0
ARC
  5
21D3
330
20AD
100
AcDbEntity
  8
Visible Edges(ISO)
100
AcDbCircle
 10
-0.0000000000088676
 20
-0.0000000000046612
 30
0.0
 40
38.45000000000583
100
AcDbArc
 50
18.99108914713122
 51
21.6540721431946
  0
ARC
  5
21D4
330
20AD
100
AcDbEntity
  8
Visible Edges(ISO)
100
AcDbCircle
 10
-0.0000000000200089
 20
-0.0000000000129603
 30
0.0
 40
38.45000000001952
100
AcDbArc
 50
30.60399237293219
 51
33.26697536900072
  0
ARC
  5
21D5
330
20AD
100
AcDbEntity
  8
Visible Edges(ISO)
100
AcDbCircle
 10
0.0000000000009095
 20
0.0000000000017053
 30
0.0
 40
38.44999999999347
100
AcDbArc
 50
42.2168955987377
 51
44.87987859481193
  0
ARC
  5
21D6
330
20AD
100
AcDbEntity
  8
Visible Edges(ISO)
100
AcDbCircle
 10
0.0000000000050022
 20
0.0000000000088676
 30
0.0
 40
38.44999999998578
100
AcDbArc
 50
53.82979882454536
 51
56.49278182060614
  0
ARC
  5
21D7
330
20AD
100
AcDbEntity
  8
Visible Edges(ISO)
100
AcDbCircle
 10
-0.0000000000088676
 20
-0.0000000000164846
 30
0.0
 40
38.45000000001486
100
AcDbArc
 50
65.44270205034944
 51
68.10568504642167
  0
ARC
  5
21D8
330
20AD
100
AcDbEntity
  8
Visible Edges(ISO)
100
AcDbCircle
 10
0.000000000001819
 20
0.0000000000217142
 30
0.0
 40
38.44999999997492
100
AcDbArc
 50
77.05560527615594
 51
79.71858827222051
  0
ARC
  5
21D9
330
20AD
100
AcDbEntity
  8
Visible Edges(ISO)
100
AcDbCircle
 10
-0.0000000000040927
 20
-0.0000000000046612
 30
0.0
 40
40.95000000000202
100
AcDbArc
 50
76.78190194749098
 51
79.99229160090443
  0
ARC
  5
21DA
330
20AD
100
AcDbEntity
  8
Visible Edges(ISO)
100
AcDbCircle
 10
-0.0000000000029559
 20
-0.0000000000019327
 30
0.0
 40
40.94999999999914
100
AcDbArc
 50
65.16899872168727
 51
68.37938837509231
  0
ARC
  5
21DB
330
20AD
100
AcDbEntity
  8
Visible Edges(ISO)
100
AcDbCircle
 10
0.0000000000029559
 20
0.0000000000064801
 30
0.0
 40
40.94999999998878
100
AcDbArc
 50
53.55609549587879
 51
56.76648514927755
  0
ARC
  5
21DC
330
20AD
100
AcDbEntity
  8
Visible Edges(ISO)
100
AcDbCircle
 10
-0.0000000000009095
 20
-0.0000000000010232
 30
0.0
 40
40.94999999999742
100
AcDbArc
 50
41.94319227006695
 51
45.1535819234825
  0
ARC
  5
21DD
330
20AD
100
AcDbEntity
  8
Visible Edges(ISO)
100
AcDbCircle
 10
-0.0000000000040927
 20
-0.0000000000032969
 30
0.0
 40
40.95000000000104
100
AcDbArc
 50
30.33028904426711
 51
33.54067869767428
  0
ARC
  5
21DE
330
20AD
100
AcDbEntity
  8
Visible Edges(ISO)
100
AcDbCircle
 10
-0.0000000000100044
 20
-0.0000000000050022
 30
0.0
 40
40.95000000000658
100
AcDbArc
 50
18.71738581846102
 51
21.92777547186688
  0
ARC
  5
21DF
330
20AD
100
AcDbEntity
  8
Visible Edges(ISO)
100
AcDbCircle
 10
0.0000000000029559
 20
-0.0000000000014779
 30
0.0
 40
40.9499999999934
100
AcDbArc
 50
7.104482592650018
 51
10.31487224605755
  0
ARC
  5
21E0
330
20AD
100
AcDbEntity
  8
Visible Edges(ISO)
100
AcDbCircle
 10
0.0000000000038654
 20
-0.0000000000032969
 30
0.0
 40
40.9499999999929
100
AcDbArc
 50
355.491579366845
 51
358.7019690202512
  0
ARC
  5
21E1
330
20AD
100
AcDbEntity
  8
Visible Edges(ISO)
100
AcDbCircle
 10
-0.0000000000020464
 20
-0.0000000000029559
 30
0.0
 40
40.94999999999902
100
AcDbArc
 50
343.8786761410406
 51
347.0890657944468
  0
ARC
  5
21E2
330
20AD
100
AcDbEntity
  8
Visible Edges(ISO)
100
AcDbCircle
 10
0.0000000000061391
 20
-0.0000000000071623
 30
0.0
 40
40.94999999998973
100
AcDbArc
 50
332.265772915228
 51
335.4761625686383
  0
ARC
  5
21E3
330
20AD
100
AcDbEntity
  8
Visible Edges(ISO)
100
AcDbCircle
 10
-0.0000000000120508
 20
0.0000000000042064
 30
0.0
 40
40.95000000001132
100
AcDbArc
 50
320.6528696894184
 51
323.8632593428369
  0
ARC
  5
21E4
330
20AD
100
AcDbEntity
  8
Visible Edges(ISO)
100
AcDbCircle
 10
-0.0000000000070486
 20
0.0000000000015916
 30
0.0
 40
40.95000000000534
100
AcDbArc
 50
309.0399664636147
 51
312.2503561170262
  0
ARC
  5
21E5
330
20AD
100
AcDbEntity
  8
Visible Edges(ISO)
100
AcDbCircle
 10
-0.0000000000070486
 20
0.000000000003979
 30
0.0
 40
40.95000000000765
100
AcDbArc
 50
297.4270632378161
 51
300.637452891213
  0
ARC
  5
21E6
330
20AD
100
AcDbEntity
  8
Visible Edges(ISO)
100
AcDbCircle
 10
-0.0000000000009095
 20
-0.0000000000100044
 30
0.0
 40
40.94999999999243
100
AcDbArc
 50
285.8141600120052
 51
289.0245496654238
  0
ARC
  5
21E7
330
20AD
100
AcDbEntity
  8
Visible Edges(ISO)
100
AcDbCircle
 10
-0.0000000000050022
 20
0.0000000000153477
 30
0.0
 40
40.95000000001802
100
AcDbArc
 50
274.2012567861894
 51
277.4116464396099
  0
ARC
  5
21E8
330
20AD
100
AcDbEntity
  8
Visible Edges(ISO)
100
AcDbCircle
 10
-0.0000000000040927
 20
-0.000000000005798
 30
0.0
 40
40.94999999999695
100
AcDbArc
 50
262.5883535603902
 51
265.7987432138106
  0
ARC
  5
21E9
330
20AD
100
AcDbEntity
  8
Visible Edges(ISO)
100
AcDbCircle
 10
-0.0000000000029559
 20
-0.0000000000019327
 30
0.0
 40
40.95000000000071
100
AcDbArc
 50
250.9754503345762
 51
254.1858399879948
  0
ARC
  5
21EA
330
20AD
100
AcDbEntity
  8
Visible Edges(ISO)
100
AcDbCircle
 10
-0.0000000000070486
 20
-0.000000000009436
 30
0.0
 40
40.94999999999243
100
AcDbArc
 50
239.362547108787
 51
242.5729367621839
  0
ARC
  5
21EB
330
20AD
100
AcDbEntity
  8
Visible Edges(ISO)
100
AcDbCircle
 10
-0.0000000000040927
 20
-0.0000000000034106
 30
0.0
 40
40.94999999999894
100
AcDbArc
 50
227.7496438829738
 51
230.9600335363853
  0
ARC
  5
21EC
330
20AD
100
AcDbEntity
  8
Visible Edges(ISO)
100
AcDbCircle
 10
-0.0000000000120508
 20
-0.000000000009436
 30
0.0
 40
40.94999999998868
100
AcDbArc
 50
216.1367406571632
 51
219.3471303105816
  0
ARC
  5
21ED
330
20AD
100
AcDbEntity
  8
Visible Edges(ISO)
100
AcDbCircle
 10
-0.0000000000029559
 20
-0.0000000000022737
 30
0.0
 40
40.95000000000065
100
AcDbArc
 50
204.5238374313617
 51
207.734227084772
  0
ARC
  5
21EE
330
20AD
100
AcDbEntity
  8
Visible Edges(ISO)
100
AcDbCircle
 10
-0.0000000000209184
 20
-0.0000000000073896
 30
0.0
 40
40.94999999998207
100
AcDbArc
 50
192.9109342055532
 51
196.1213238589594
  0
ARC
  5
21EF
330
20AD
100
AcDbEntity
  8
Visible Edges(ISO)
100
AcDbCircle
 10
0.0000000000088676
 20
-0.0000000000020464
 30
0.0
 40
40.95000000001257
100
AcDbArc
 50
181.2980309797488
 51
184.5084206331549
  0
ARC
  5
21F0
330
20AD
100
AcDbEntity
  8
Visible Edges(ISO)
100
AcDbCircle
 10
0.0000000000190994
 20
-0.0000000000062528
 30
0.0
 40
40.95000000002264
100
AcDbArc
 50
169.6851277539424
 51
172.89551740735
  0
ARC
  5
21F1
330
20AD
100
AcDbEntity
  8
Visible Edges(ISO)
100
AcDbCircle
 10
-0.0000000000120508
 20
0.0000000000004547
 30
0.0
 40
40.94999999999067
100
AcDbArc
 50
158.0722245281331
 51
161.2826141815451
  0
ARC
  5
21F2
330
20AD
100
AcDbEntity
  8
Visible Edges(ISO)
100
AcDbCircle
 10
-0.0000000000020464
 20
-0.0000000000032969
 30
0.0
 40
40.95000000000108
100
AcDbArc
 50
146.4593213023257
 51
149.6697109557329
  0
ARC
  5
21F3
330
20AD
100
AcDbEntity
  8
Visible Edges(ISO)
100
AcDbCircle
 10
0.0000000000070486
 20
-0.0000000000120508
 30
0.0
 40
40.95000000001359
100
AcDbArc
 50
134.8464180765175
 51
138.056807729933
  0
ARC
  5
21F4
330
20AD
100
AcDbEntity
  8
Visible Edges(ISO)
100
AcDbCircle
 10
0.0000000000029559
 20
-0.0000000000118234
 30
0.0
 40
40.95000000001122
100
AcDbArc
 50
123.2335148507224
 51
126.4439045041212
  0
ARC
  5
21F5
330
20AD
100
AcDbEntity
  8
Visible Edges(ISO)
100
AcDbCircle
 10
-0.0000000000088676
 20
0.0000000000095497
 30
0.0
 40
40.94999999998669
100
AcDbArc
 50
111.6206116249077
 51
114.8310012783127
  0
ARC
  5
21F6
330
20AD
100
AcDbEntity
  8
Visible Edges(ISO)
100
AcDbCircle
 10
-0.0000000000029559
 20
-0.0000000000053433
 30
0.0
 40
40.9500000000026
100
AcDbArc
 50
100.0077083990956
 51
103.218098052509
  0
ARC
  5
21F7
330
20AD
100
AcDbEntity
  8
Visible Edges(ISO)
100
AcDbCircle
 10
-0.0000000000009095
 20
0.0000000000079581
 30
0.0
 40
38.4499999999889
100
AcDbArc
 50
77.05560527615594
 51
79.71858827222051
  0
ARC
  5
21F8
330
20AD
100
AcDbEntity
  8
Visible Edges(ISO)
100
AcDbCircle
 10
-0.0000000000020464
 20
0.0000000000006821
 30
0.0
 40
38.44999999999645
100
AcDbArc
 50
65.44270205034944
 51
68.10568504642167
  0
ARC
  5
21F9
330
20AD
100
AcDbEntity
  8
Visible Edges(ISO)
100
AcDbCircle
 10
0.0000000000079581
 20
0.0000000000128466
 30
0.0
 40
38.44999999998093
100
AcDbArc
 50
53.82979882454536
 51
56.49278182060614
  0
ARC
  5
21FA
330
20AD
100
AcDbEntity
  8
Visible Edges(ISO)
100
AcDbCircle
 10
0.0000000000061391
 20
0.0000000000062528
 30
0.0
 40
38.44999999998708
100
AcDbArc
 50
42.2168955987377
 51
44.87987859481193
  0
ARC
  5
21FB
330
20AD
100
AcDbEntity
  8
Visible Edges(ISO)
100
AcDbCircle
 10
-0.0000000000079581
 20
-0.0000000000059117
 30
0.0
 40
38.45000000000587
100
AcDbArc
 50
30.60399237293219
 51
33.26697536900072
  0
ARC
  5
21FC
330
20AD
100
AcDbEntity
  8
Visible Edges(ISO)
100
AcDbCircle
 10
-0.0000000000161435
 20
-0.0000000000073896
 30
0.0
 40
38.45000000001375
100
AcDbArc
 50
18.99108914713122
 51
21.6540721431946
  0
ARC
  5
21FD
330
20AD
100
AcDbEntity
  8
Visible Edges(ISO)
100
AcDbCircle
 10
-0.0000000000190994
 20
-0.0000000000051159
 30
0.0
 40
38.45000000001551
100
AcDbArc
 50
7.378185921324949
 51
10.04116891738916
  0
ARC
  5
21FE
330
20AD
100
AcDbEntity
  8
Visible Edges(ISO)
100
AcDbCircle
 10
0.0000000000029559
 20
-0.0000000000029559
 30
0.0
 40
38.44999999999352
100
AcDbArc
 50
355.7652826955178
 51
358.4282656915791
  0
ARC
  5
21FF
330
20AD
100
AcDbEntity
  8
Visible Edges(ISO)
100
AcDbCircle
 10
0.0
 20
-0.0000000000037517
 30
0.0
 40
38.44999999999629
100
AcDbArc
 50
344.152379469709
 51
346.8153624657742
  0
ARC
  5
2200
330
20AD
100
AcDbEntity
  8
Visible Edges(ISO)
100
AcDbCircle
 10
-0.0000000000029559
 20
-0.0000000000029559
 30
0.0
 40
38.44999999999937
100
AcDbArc
 50
332.5394762439043
 51
335.2024592399635
  0
ARC
  5
2201
330
20AD
100
AcDbEntity
  8
Visible Edges(ISO)
100
AcDbCircle
 10
-0.0000000000020464
 20
-0.0000000000034106
 30
0.0
 40
38.44999999999897
100
AcDbArc
 50
320.9265730180982
 51
323.5895560141659
  0
ARC
  5
2202
330
20AD
100
AcDbEntity
  8
Visible Edges(ISO)
100
AcDbCircle
 10
0.0000000000109139
 20
-0.0000000000192131
 30
0.0
 40
38.44999999997839
100
AcDbArc
 50
309.3136697922881
 51
311.9766527883591
  0
ARC
  5
2203
330
20AD
100
AcDbEntity
  8
Visible Edges(ISO)
100
AcDbCircle
 10
-0.0000000000009095
 20
-0.0000000000062528
 30
0.0
 40
38.449999999996
100
AcDbArc
 50
297.7007665664736
 51
300.3637495625451
  0
ARC
  5
2204
330
20AD
100
AcDbEntity
  8
Visible Edges(ISO)
100
AcDbCircle
 10
-0.0000000000020464
 20
-0.0000000000053433
 30
0.0
 40
38.44999999999725
100
AcDbArc
 50
286.0878633406788
 51
288.7508463367391
  0
ARC
  5
2205
330
20AD
100
AcDbEntity
  8
Visible Edges(ISO)
100
AcDbCircle
 10
-0.0000000000020464
 20
-0.0000000000085265
 30
0.0
 40
38.44999999999423
100
AcDbArc
 50
274.47496011487
 51
277.1379431109422
  0
ARC
  5
2206
330
20AD
100
AcDbEntity
  8
Visible Edges(ISO)
100
AcDbCircle
 10
-0.0000000000050022
 20
-0.0000000000183036
 30
0.0
 40
38.44999999998434
100
AcDbArc
 50
262.8620568890577
 51
265.52503988513
  0
ARC
  5
2207
330
20AD
100
AcDbEntity
  8
Visible Edges(ISO)
100
AcDbCircle
 10
-0.0000000000040927
 20
-0.0000000000034106
 30
0.0
 40
38.44999999999919
100
AcDbArc
 50
251.249153663261
 51
253.9121366593212
  0
ARC
  5
2208
330
20AD
100
AcDbEntity
  8
Visible Edges(ISO)
100
AcDbCircle
 10
-0.0000000000009095
 20
0.0000000000010232
 30
0.0
 40
38.45000000000418
100
AcDbArc
 50
239.6362504374549
 51
242.2992334335265
  0
ARC
  5
2209
330
20AD
100
AcDbEntity
  8
Visible Edges(ISO)
100
AcDbCircle
 10
0.0000000000029559
 20
0.0000000000051159
 30
0.0
 40
38.45000000001012
100
AcDbArc
 50
228.0233472116409
 51
230.6863302077119
  0
ARC
  5
220A
330
20AD
100
AcDbEntity
  8
Visible Edges(ISO)
100
AcDbCircle
 10
-0.0000000000088676
 20
-0.0000000000069349
 30
0.0
 40
38.44999999999334
100
AcDbArc
 50
216.4104439858393
 51
219.0734269819018
  0
ARC
  5
220B
330
20AD
100
AcDbEntity
  8
Visible Edges(ISO)
100
AcDbCircle
 10
0.000000000001819
 20
0.0000000000002274
 30
0.0
 40
38.45000000000656
100
AcDbArc
 50
204.7975407600365
 51
207.4605237561015
  0
ARC
  5
220C
330
20AD
100
AcDbEntity
  8
Visible Edges(ISO)
100
AcDbCircle
 10
-0.0000000000079581
 20
-0.0000000000037517
 30
0.0
 40
38.4499999999955
100
AcDbArc
 50
193.1846375342258
 51
195.847620530291
  0
ARC
  5
220D
330
20AD
100
AcDbEntity
  8
Visible Edges(ISO)
100
AcDbCircle
 10
0.0000000000100044
 20
-0.0000000000019327
 30
0.0
 40
38.45000000001356
100
AcDbArc
 50
181.571734308421
 51
184.2347173044822
  0
ARC
  5
220E
330
20AD
100
AcDbEntity
  8
Visible Edges(ISO)
100
AcDbCircle
 10
-0.0000000000100044
 20
-0.000000000001819
 30
0.0
 40
38.44999999999338
100
AcDbArc
 50
169.9588310826108
 51
172.6218140786815
  0
ARC
  5
220F
330
20AD
100
AcDbEntity
  8
Visible Edges(ISO)
100
AcDbCircle
 10
-0.0000000000209184
 20
0.0000000000035243
 30
0.0
 40
38.44999999998159
100
AcDbArc
 50
158.3459278568054
 51
161.0089108528749
  0
ARC
  5
2210
330
20AD
100
AcDbEntity
  8
Visible Edges(ISO)
100
AcDbCircle
 10
-0.0000000000050022
 20
-0.000000000001819
 30
0.0
 40
38.44999999999828
100
AcDbArc
 50
146.7330246309993
 51
149.3960076270678
  0
ARC
  5
2211
330
20AD
100
AcDbEntity
  8
Visible Edges(ISO)
100
AcDbCircle
 10
-0.0000000000088676
 20
0.0000000000025011
 30
0.0
 40
38.4499999999924
100
AcDbArc
 50
135.1201214051881
 51
137.7831044012623
  0
ARC
  5
2212
330
20AD
100
AcDbEntity
  8
Visible Edges(ISO)
100
AcDbCircle
 10
-0.0000000000111413
 20
0.0000000000075033
 30
0.0
 40
38.44999999998741
100
AcDbArc
 50
123.5072181793938
 51
126.1702011754546
  0
ARC
  5
2213
330
20AD
100
AcDbEntity
  8
Visible Edges(ISO)
100
AcDbCircle
 10
-0.0000000000059117
 20
0.0000000000029559
 30
0.0
 40
38.44999999999387
100
AcDbArc
 50
111.8943149535783
 51
114.5572979496505
  0
ARC
  5
2214
330
20AD
100
AcDbEntity
  8
Visible Edges(ISO)
100
AcDbCircle
 10
0.0
 20
-0.0000000000169393
 30
0.0
 40
38.45000000001446
100
AcDbArc
 50
100.2814117277795
 51
102.944394723844
  0
ARC
  5
2215
330
20AD
100
AcDbEntity
  8
Visible Edges(ISO)
100
AcDbCircle
 10
0.0000000000029559
 20
-0.0000000000328555
 30
0.0
 40
35.95000000003091
100
AcDbArc
 50
100.5933073503546
 51
102.6324991012526
  0
ARC
  5
2216
330
20AD
100
AcDbEntity
  8
Visible Edges(ISO)
100
AcDbCircle
 10
-0.0000000000029559
 20
-0.0000000000029559
 30
0.0
 40
35.95000000000048
100
AcDbArc
 50
112.206210576164
 51
114.2454023270655
  0
ARC
  5
2217
330
20AD
100
AcDbEntity
  8
Visible Edges(ISO)
100
AcDbCircle
 10
-0.0000000000241016
 20
0.000000000026489
 30
0.0
 40
35.94999999996435
100
AcDbArc
 50
123.8191138019613
 51
125.8583055528711
  0
ARC
  5
2218
330
20AD
100
AcDbEntity
  8
Visible Edges(ISO)
100
AcDbCircle
 10
-0.000000000027967
 20
0.000000000020691
 30
0.0
 40
35.94999999996614
100
AcDbArc
 50
135.4320170277747
 51
137.4712087786718
  0
ARC
  5
2219
330
20AD
100
AcDbEntity
  8
Visible Edges(ISO)
100
AcDbCircle
 10
-0.0000000000079581
 20
0.0000000000002274
 30
0.0
 40
35.9499999999944
100
AcDbArc
 50
147.0449202535843
 51
149.0841120044865
  0
ARC
  5
221A
330
20AD
100
AcDbEntity
  8
Visible Edges(ISO)
100
AcDbCircle
 10
0.0000000000050022
 20
-0.0000000000059117
 30
0.0
 40
35.950000000009
100
AcDbArc
 50
158.6578234793894
 51
160.6970152302841
  0
ARC
  5
221B
330
20AD
100
AcDbEntity
  8
Visible Edges(ISO)
100
AcDbCircle
 10
0.0000000000120508
 20
-0.0000000000050022
 30
0.0
 40
35.9500000000159
100
AcDbArc
 50
170.2707267051941
 51
172.3099184560921
  0
ARC
  5
221C
330
20AD
100
AcDbEntity
  8
Visible Edges(ISO)
100
AcDbCircle
 10
0.0000000000218279
 20
-0.0000000000015916
 30
0.0
 40
35.9500000000249
100
AcDbArc
 50
181.8836299310016
 51
183.9228216818972
  0
ARC
  5
221D
330
20AD
100
AcDbEntity
  8
Visible Edges(ISO)
100
AcDbCircle
 10
0.0000000000061391
 20
-0.0000000000004547
 30
0.0
 40
35.95000000000914
100
AcDbArc
 50
193.4965331568126
 51
195.5357249077041
  0
ARC
  5
221E
330
20AD
100
AcDbEntity
  8
Visible Edges(ISO)
100
AcDbCircle
 10
-0.0000000000209184
 20
-0.0000000000115961
 30
0.0
 40
35.94999999998016
100
AcDbArc
 50
205.109436382615
 51
207.148628133516
  0
ARC
  5
221F
330
20AD
100
AcDbEntity
  8
Visible Edges(ISO)
100
AcDbCircle
 10
-0.0000000000100044
 20
-0.0000000000080718
 30
0.0
 40
35.94999999999115
100
AcDbArc
 50
216.7223396084229
 51
218.7615313593256
  0
ARC
  5
2220
330
20AD
100
AcDbEntity
  8
Visible Edges(ISO)
100
AcDbCircle
 10
-0.0000000000079581
 20
-0.0000000000082991
 30
0.0
 40
35.94999999999262
100
AcDbArc
 50
228.3352428342297
 51
230.374434585128
  0
ARC
  5
2221
330
20AD
100
AcDbEntity
  8
Visible Edges(ISO)
100
AcDbCircle
 10
-0.0000000000100044
 20
-0.000000000014893
 30
0.0
 40
35.94999999998612
100
AcDbArc
 50
239.9481460600339
 51
241.9873378109366
  0
ARC
  5
2222
330
20AD
100
AcDbEntity
  8
Visible Edges(ISO)
100
AcDbCircle
 10
0.0
 20
0.0000000000079581
 30
0.0
 40
35.95000000001125
100
AcDbArc
 50
251.5610492858364
 51
253.6002410367397
  0
ARC
  5
2223
330
20AD
100
AcDbEntity
  8
Visible Edges(ISO)
100
AcDbCircle
 10
-0.0000000000009095
 20
0.00000000002251
 30
0.0
 40
35.95000000002547
100
AcDbArc
 50
263.1739525116554
 51
265.213144262547
  0
ARC
  5
2224
330
20AD
100
AcDbEntity
  8
Visible Edges(ISO)
100
AcDbCircle
 10
-0.0000000000029559
 20
-0.0000000000051159
 30
0.0
 40
35.94999999999757
100
AcDbArc
 50
274.786855737453
 51
276.8260474883446
  0
ARC
  5
2225
330
20AD
100
AcDbEntity
  8
Visible Edges(ISO)
100
AcDbCircle
 10
-0.0000000000029559
 20
-0.0000000000038654
 30
0.0
 40
35.94999999999879
100
AcDbArc
 50
286.3997589632603
 51
288.4389507141636
  0
ARC
  5
2226
330
20AD
100
AcDbEntity
  8
Visible Edges(ISO)
100
AcDbCircle
 10
0.0000000000050022
 20
-0.0000000000180762
 30
0.0
 40
35.94999999998235
100
AcDbArc
 50
298.0126621890633
 51
300.0518539399661
  0
ARC
  5
2227
330
20AD
100
AcDbEntity
  8
Visible Edges(ISO)
100
AcDbCircle
 10
0.0000000000079581
 20
-0.0000000000156888
 30
0.0
 40
35.94999999998285
100
AcDbArc
 50
309.6255654148719
 51
311.6647571657703
  0
ARC
  5
2228
330
20AD
100
AcDbEntity
  8
Visible Edges(ISO)
100
AcDbCircle
 10
-0.0000000000059117
 20
-0.0000000000010232
 30
0.0
 40
35.95000000000285
100
AcDbArc
 50
321.2384686406744
 51
323.2776603915771
  0
ARC
  5
2229
330
20AD
100
AcDbEntity
  8
Visible Edges(ISO)
100
AcDbCircle
 10
-0.0000000000190994
 20
0.0000000000051159
 30
0.0
 40
35.95000000001734
100
AcDbArc
 50
332.851371866484
 51
334.8905636173851
  0
ARC
  5
222A
330
20AD
100
AcDbEntity
  8
Visible Edges(ISO)
100
AcDbCircle
 10
-0.0000000000209184
 20
0.0000000000019327
 30
0.0
 40
35.95000000001798
100
AcDbArc
 50
344.4642750922959
 51
346.5034668431874
  0
ARC
  5
222B
330
20AD
100
AcDbEntity
  8
Visible Edges(ISO)
100
AcDbCircle
 10
0.000000000001819
 20
-0.0000000000029559
 30
0.0
 40
35.94999999999446
100
AcDbArc
 50
356.0771783181027
 51
358.1163700689984
  0
ARC
  5
222C
330
20AD
100
AcDbEntity
  8
Visible Edges(ISO)
100
AcDbCircle
 10
-0.0000000000059117
 20
-0.0000000000032969
 30
0.0
 40
35.95000000000316
100
AcDbArc
 50
7.690081543907909
 51
9.729273294805826
  0
ARC
  5
222D
330
20AD
100
AcDbEntity
  8
Visible Edges(ISO)
100
AcDbCircle
 10
-0.0000000000059117
 20
-0.0000000000037517
 30
0.0
 40
35.95000000000299
100
AcDbArc
 50
19.30298476971582
 51
21.34217652061062
  0
ARC
  5
222E
330
20AD
100
AcDbEntity
  8
Visible Edges(ISO)
100
AcDbCircle
 10
-0.0000000000029559
 20
-0.0000000000022737
 30
0.0
 40
35.94999999999922
100
AcDbArc
 50
30.91588799551352
 51
32.95507974641569
  0
ARC
  5
222F
330
20AD
100
AcDbEntity
  8
Visible Edges(ISO)
100
AcDbCircle
 10
-0.0000000000388809
 20
-0.0000000000366072
 30
0.0
 40
35.95000000004934
100
AcDbArc
 50
42.52879122132818
 51
44.56798297222524
  0
ARC
  5
2230
330
20AD
100
AcDbEntity
  8
Visible Edges(ISO)
100
AcDbCircle
 10
-0.0000000000079581
 20
-0.0000000000101181
 30
0.0
 40
35.95000000000908
100
AcDbArc
 50
54.14169444712888
 51
56.1808861980387
  0
ARC
  5
2231
330
20AD
100
AcDbEntity
  8
Visible Edges(ISO)
100
AcDbCircle
 10
-0.0000000000120508
 20
-0.0000000000241016
 30
0.0
 40
35.95000000002339
100
AcDbArc
 50
65.75459767293441
 51
67.793789423836
  0
ARC
  5
2232
330
20AD
100
AcDbEntity
  8
Visible Edges(ISO)
100
AcDbCircle
 10
-0.0000000000029559
 20
-0.0000000000020464
 30
0.0
 40
35.94999999999944
100
AcDbArc
 50
77.36750089874739
 51
79.40669264964542
  0
ARC
  5
2233
330
20AD
100
AcDbEntity
  8
Visible Edges(ISO)
100
AcDbCircle
 10
-0.0000000000129603
 20
0.0000000000470664
 30
0.0
 40
33.44999999994916
100
AcDbArc
 50
100.9520004526902
 51
102.2738059989323
  0
ARC
  5
2234
330
20AD
100
AcDbEntity
  8
Visible Edges(ISO)
100
AcDbCircle
 10
0.0000000000241016
 20
-0.0000000000646878
 30
0.0
 40
33.45000000006741
100
AcDbArc
 50
112.5649036784831
 51
113.8867092247288
  0
ARC
  5
2235
330
20AD
100
AcDbEntity
  8
Visible Edges(ISO)
100
AcDbCircle
 10
-0.000000000017053
 20
0.0000000000168257
 30
0.0
 40
33.44999999997603
100
AcDbArc
 50
124.1778069042933
 51
125.4996124505501
  0
ARC
  5
2236
330
20AD
100
AcDbEntity
  8
Visible Edges(ISO)
100
AcDbCircle
 10
0.0000000000120508
 20
-0.0000000000183036
 30
0.0
 40
33.45000000002213
100
AcDbArc
 50
135.7907101301019
 51
137.1125156763548
  0
ARC
  5
2237
330
20AD
100
AcDbEntity
  8
Visible Edges(ISO)
100
AcDbCircle
 10
-0.0000000000161435
 20
0.0000000000052296
 30
0.0
 40
33.44999999998505
100
AcDbArc
 50
147.4036133559046
 51
148.7254189021615
  0
ARC
  5
2238
330
20AD
100
AcDbEntity
  8
Visible Edges(ISO)
100
AcDbCircle
 10
-0.0000000000329692
 20
0.0000000000084128
 30
0.0
 40
33.44999999996857
100
AcDbArc
 50
159.0165165817112
 51
160.3383221279619
  0
ARC
  5
2239
330
20AD
100
AcDbEntity
  8
Visible Edges(ISO)
100
AcDbCircle
 10
0.0000000000650289
 20
-0.000000000013074
 30
0.0
 40
33.45000000006943
100
AcDbArc
 50
170.6294198075253
 51
171.9512253537706
  0
ARC
  5
223A
330
20AD
100
AcDbEntity
  8
Visible Edges(ISO)
100
AcDbCircle
 10
0.0000000000150067
 20
-0.0000000000019327
 30
0.0
 40
33.45000000001864
100
AcDbArc
 50
182.2423230333244
 51
183.5641285795735
  0
ARC
  5
223B
330
20AD
100
AcDbEntity
  8
Visible Edges(ISO)
100
AcDbCircle
 10
0.0
 20
-0.0000000000019327
 30
0.0
 40
33.4500000000031
100
AcDbArc
 50
193.8552262591306
 51
195.1770318053851
  0
ARC
  5
223C
330
20AD
100
AcDbEntity
  8
Visible Edges(ISO)
100
AcDbCircle
 10
0.0000000000650289
 20
0.0000000000305818
 30
0.0
 40
33.45000000007568
100
AcDbArc
 50
205.4681294849372
 51
206.7899350311871
  0
ARC
  5
223D
330
20AD
100
AcDbEntity
  8
Visible Edges(ISO)
100
AcDbCircle
 10
0.00000000004502
 20
0.0000000000342197
 30
0.0
 40
33.45000000006046
100
AcDbArc
 50
217.0810327107504
 51
218.4028382569886
  0
ARC
  5
223E
330
20AD
100
AcDbEntity
  8
Visible Edges(ISO)
100
AcDbCircle
 10
-0.0000000000370619
 20
-0.0000000000419504
 30
0.0
 40
33.44999999994853
100
AcDbArc
 50
228.6939359365493
 51
230.0157414828092
  0
ARC
  5
223F
330
20AD
100
AcDbEntity
  8
Visible Edges(ISO)
100
AcDbCircle
 10
0.0000000000179625
 20
0.0000000000354703
 30
0.0
 40
33.45000000004365
100
AcDbArc
 50
240.3068391623655
 51
241.6286447086113
  0
ARC
  5
2240
330
20AD
100
AcDbEntity
  8
Visible Edges(ISO)
100
AcDbCircle
 10
-0.0000000000088676
 20
-0.0000000000198952
 30
0.0
 40
33.44999999998178
100
AcDbArc
 50
251.9197423881644
 51
253.2415479344161
  0
ARC
  5
2241
330
20AD
100
AcDbEntity
  8
Visible Edges(ISO)
100
AcDbCircle
 10
-0.0000000000079581
 20
-0.0000000000488853
 30
0.0
 40
33.4499999999535
100
AcDbArc
 50
263.5326456139738
 51
264.8544511602194
  0
ARC
  5
2242
330
20AD
100
AcDbEntity
  8
Visible Edges(ISO)
100
AcDbCircle
 10
-0.0000000000020464
 20
-0.0000000000139835
 30
0.0
 40
33.4499999999887
100
AcDbArc
 50
275.1455488397806
 51
276.4673543860261
  0
ARC
  5
2243
330
20AD
100
AcDbEntity
  8
Visible Edges(ISO)
100
AcDbCircle
 10
-0.0000000000100044
 20
0.0000000000202363
 30
0.0
 40
33.45000000002402
100
AcDbArc
 50
286.758452065584
 51
288.0802576118356
  0
ARC
  5
2244
330
20AD
100
AcDbEntity
  8
Visible Edges(ISO)
100
AcDbCircle
 10
-0.0000000000020464
 20
-0.0000000000060254
 30
0.0
 40
33.44999999999629
100
AcDbArc
 50
298.3713552913887
 51
299.6931608376345
  0
ARC
  5
2245
330
20AD
100
AcDbEntity
  8
Visible Edges(ISO)
100
AcDbCircle
 10
0.0000000000079581
 20
-0.0000000000154614
 30
0.0
 40
33.44999999998294
100
AcDbArc
 50
309.9842585171908
 51
311.3060640634507
  0
ARC
  5
2246
330
20AD
100
AcDbEntity
  8
Visible Edges(ISO)
100
AcDbCircle
 10
0.0000000000061391
 20
-0.0000000000101181
 30
0.0
 40
33.4499999999879
100
AcDbArc
 50
321.5971617430113
 51
322.9189672892549
  0
ARC
  5
2247
330
20AD
100
AcDbEntity
  8
Visible Edges(ISO)
100
AcDbCircle
 10
0.0000000000190994
 20
-0.0000000000138698
 30
0.0
 40
33.44999999997522
100
AcDbArc
 50
333.2100649688129
 51
334.5318705150628
  0
ARC
  5
2248
330
20AD
100
AcDbEntity
  8
Visible Edges(ISO)
100
AcDbCircle
 10
0.0000000000409273
 20
-0.0000000000143245
 30
0.0
 40
33.44999999995407
100
AcDbArc
 50
344.8229681946149
 51
346.1447737408694
  0
ARC
  5
2249
330
20AD
100
AcDbEntity
  8
Visible Edges(ISO)
100
AcDbCircle
 10
-0.0000000000341061
 20
-0.0000000000011369
 30
0.0
 40
33.45000000003063
100
AcDbArc
 50
356.4358714204264
 51
357.7576769666691
  0
ARC
  5
224A
330
20AD
100
AcDbEntity
  8
Visible Edges(ISO)
100
AcDbCircle
 10
0.0000000000320597
 20
0.0000000000023874
 30
0.0
 40
33.44999999996487
100
AcDbArc
 50
8.048774646229391
 51
9.370580192481021
  0
ARC
  5
224B
330
20AD
100
AcDbEntity
  8
Visible Edges(ISO)
100
AcDbCircle
 10
-0.0000000000541149
 20
-0.0000000000212594
 30
0.0
 40
33.45000000005418
100
AcDbArc
 50
19.66167787203804
 51
20.9834834182888
  0
ARC
  5
224C
330
20AD
100
AcDbEntity
  8
Visible Edges(ISO)
100
AcDbCircle
 10
-0.0000000000409273
 20
-0.000000000026489
 30
0.0
 40
33.45000000004467
100
AcDbArc
 50
31.27458109784405
 51
32.59638664408985
  0
ARC
  5
224D
330
20AD
100
AcDbEntity
  8
Visible Edges(ISO)
100
AcDbCircle
 10
0.0000000000309228
 20
0.0000000000302407
 30
0.0
 40
33.44999999995244
100
AcDbArc
 50
42.88748432364513
 51
44.20928986989809
  0
ARC
  5
224E
330
20AD
100
AcDbEntity
  8
Visible Edges(ISO)
100
AcDbCircle
 10
-0.0000000000400178
 20
-0.000000000056275
 30
0.0
 40
33.45000000006507
100
AcDbArc
 50
54.50038754944992
 51
55.82219309570302
  0
ARC
  5
224F
330
20AD
100
AcDbEntity
  8
Visible Edges(ISO)
100
AcDbCircle
 10
-0.0000000000009095
 20
0.0000000000029559
 30
0.0
 40
33.44999999999398
100
AcDbArc
 50
66.11329077527118
 51
67.43509632151682
  0
ARC
  5
2250
330
20AD
100
AcDbEntity
  8
Visible Edges(ISO)
100
AcDbCircle
 10
-0.0000000000129603
 20
-0.0000000000509317
 30
0.0
 40
33.45000000004915
100
AcDbArc
 50
77.72619400106771
 51
79.04799954730977
  0
ARC
  5
2251
330
20AD
100
AcDbEntity
  8
Visible Edges(ISO)
100
AcDbCircle
 10
-0.0000000000059117
 20
-0.0000000000140972
 30
0.0
 40
35.95000000001172
100
AcDbArc
 50
77.36750089874739
 51
79.40669264964542
  0
ARC
  5
2252
330
20AD
100
AcDbEntity
  8
Visible Edges(ISO)
100
AcDbCircle
 10
0.000000000001819
 20
0.0000000000092086
 30
0.0
 40
35.9499999999871
100
AcDbArc
 50
65.75459767293441
 51
67.793789423836
  0
ARC
  5
2253
330
20AD
100
AcDbEntity
  8
Visible Edges(ISO)
100
AcDbCircle
 10
0.0000000000061391
 20
0.0000000000111413
 30
0.0
 40
35.94999999998311
100
AcDbArc
 50
54.14169444712888
 51
56.1808861980387
  0
ARC
  5
2254
330
20AD
100
AcDbEntity
  8
Visible Edges(ISO)
100
AcDbCircle
 10
-0.0000000000129603
 20
-0.0000000000118234
 30
0.0
 40
35.95000000001314
100
AcDbArc
 50
42.52879122132818
 51
44.56798297222524
  0
ARC
  5
2255
330
20AD
100
AcDbEntity
  8
Visible Edges(ISO)
100
AcDbCircle
 10
0.000000000017053
 20
0.0000000000100044
 30
0.0
 40
35.94999999997597
100
AcDbArc
 50
30.91588799551352
 51
32.95507974641569
  0
ARC
  5
2256
330
20AD
100
AcDbEntity
  8
Visible Edges(ISO)
100
AcDbCircle
 10
-0.0000000000241016
 20
-0.0000000000101181
 30
0.0
 40
35.95000000002168
100
AcDbArc
 50
19.30298476971582
 51
21.34217652061062
  0
ARC
  5
2257
330
20AD
100
AcDbEntity
  8
Visible Edges(ISO)
100
AcDbCircle
 10
-0.0000000000241016
 20
-0.0000000000060254
 30
0.0
 40
35.95000000002097
100
AcDbArc
 50
7.690081543907909
 51
9.729273294805826
  0
ARC
  5
2258
330
20AD
100
AcDbEntity
  8
Visible Edges(ISO)
100
AcDbCircle
 10
0.0000000000061391
 20
-0.0000000000032969
 30
0.0
 40
35.9499999999906
100
AcDbArc
 50
356.0771783181027
 51
358.1163700689984
  0
ARC
  5
2259
330
20AD
100
AcDbEntity
  8
Visible Edges(ISO)
100
AcDbCircle
 10
-0.000000000027967
 20
0.0000000000038654
 30
0.0
 40
35.95000000002575
100
AcDbArc
 50
344.4642750922959
 51
346.5034668431874
  0
ARC
  5
225A
330
20AD
100
AcDbEntity
  8
Visible Edges(ISO)
100
AcDbCircle
 10
-0.0000000000020464
 20
-0.0000000000034106
 30
0.0
 40
35.9499999999983
100
AcDbArc
 50
332.851371866484
 51
334.8905636173851
  0
ARC
  5
225B
330
20AD
100
AcDbEntity
  8
Visible Edges(ISO)
100
AcDbCircle
 10
-0.0000000000161435
 20
0.0000000000068212
 30
0.0
 40
35.95000000001558
100
AcDbArc
 50
321.2384686406744
 51
323.2776603915771
  0
ARC
  5
225C
330
20AD
100
AcDbEntity
  8
Visible Edges(ISO)
100
AcDbCircle
 10
0.0000000000120508
 20
-0.0000000000211458
 30
0.0
 40
35.94999999997563
100
AcDbArc
 50
309.6255654148719
 51
311.6647571657703
  0
ARC
  5
225D
330
20AD
100
AcDbEntity
  8
Visible Edges(ISO)
100
AcDbCircle
 10
-0.0000000000111413
 20
0.0000000000105729
 30
0.0
 40
35.95000000001504
100
AcDbArc
 50
298.0126621890633
 51
300.0518539399661
  0
ARC
  5
225E
330
20AD
100
AcDbEntity
  8
Visible Edges(ISO)
100
AcDbCircle
 10
-0.0000000000050022
 20
0.00000000000216
 30
0.0
 40
35.95000000000508
100
AcDbArc
 50
286.3997589632603
 51
288.4389507141636
  0
ARC
  5
225F
330
20AD
100
AcDbEntity
  8
Visible Edges(ISO)
100
AcDbCircle
 10
-0.0000000000020464
 20
-0.0000000000169393
 30
0.0
 40
35.94999999998578
100
AcDbArc
 50
274.786855737453
 51
276.8260474883446
  0
ARC
  5
2260
330
20AD
100
AcDbEntity
  8
Visible Edges(ISO)
100
AcDbCircle
 10
-0.0000000000020464
 20
0.0000000000086402
 30
0.0
 40
35.95000000001141
100
AcDbArc
 50
263.1739525116554
 51
265.213144262547
  0
ARC
  5
2261
330
20AD
100
AcDbEntity
  8
Visible Edges(ISO)
100
AcDbCircle
 10
0.000000000001819
 20
0.0000000000154614
 30
0.0
 40
35.95000000001911
100
AcDbArc
 50
251.5610492858364
 51
253.6002410367397
  0
ARC
  5
2262
330
20AD
100
AcDbEntity
  8
Visible Edges(ISO)
100
AcDbCircle
 10
0.0000000000100044
 20
0.0000000000208047
 30
0.0
 40
35.95000000002679
100
AcDbArc
 50
239.9481460600339
 51
241.9873378109366
  0
ARC
  5
2263
330
20AD
100
AcDbEntity
  8
Visible Edges(ISO)
100
AcDbCircle
 10
-0.0000000000270575
 20
-0.0000000000305818
 30
0.0
 40
35.94999999996328
100
AcDbArc
 50
228.3352428342297
 51
230.374434585128
  0
ARC
  5
2264
330
20AD
100
AcDbEntity
  8
Visible Edges(ISO)
100
AcDbCircle
 10
0.0000000000009095
 20
0.0000000000002274
 30
0.0
 40
35.95000000000496
100
AcDbArc
 50
216.7223396084229
 51
218.7615313593256
  0
ARC
  5
2265
330
20AD
100
AcDbEntity
  8
Visible Edges(ISO)
100
AcDbCircle
 10
0.0000000000009095
 20
-0.0000000000004547
 30
0.0
 40
35.95000000000503
100
AcDbArc
 50
205.109436382615
 51
207.148628133516
  0
ARC
  5
2266
330
20AD
100
AcDbEntity
  8
Visible Edges(ISO)
100
AcDbCircle
 10
0.0000000000159162
 20
0.00000000000216
 30
0.0
 40
35.95000000001964
100
AcDbArc
 50
193.4965331568126
 51
195.5357249077041
  0
ARC
  5
2267
330
20AD
100
AcDbEntity
  8
Visible Edges(ISO)
100
AcDbCircle
 10
0.0000000000100044
 20
-0.0000000000022737
 30
0.0
 40
35.95000000001301
100
AcDbArc
 50
181.8836299310016
 51
183.9228216818972
  0
ARC
  5
2268
330
20AD
100
AcDbEntity
  8
Visible Edges(ISO)
100
AcDbCircle
 10
-0.0000000000040927
 20
-0.0000000000025011
 30
0.0
 40
35.94999999999914
100
AcDbArc
 50
170.2707267051941
 51
172.3099184560921
  0
ARC
  5
2269
330
20AD
100
AcDbEntity
  8
Visible Edges(ISO)
100
AcDbCircle
 10
-0.0000000000040927
 20
-0.0000000000022737
 30
0.0
 40
35.94999999999899
100
AcDbArc
 50
158.6578234793894
 51
160.6970152302841
  0
ARC
  5
226A
330
20AD
100
AcDbEntity
  8
Visible Edges(ISO)
100
AcDbCircle
 10
0.0000000000038654
 20
-0.0000000000069349
 30
0.0
 40
35.95000000000843
100
AcDbArc
 50
147.0449202535843
 51
149.0841120044865
  0
ARC
  5
226B
330
20AD
100
AcDbEntity
  8
Visible Edges(ISO)
100
AcDbCircle
 10
0.0000000000050022
 20
-0.0000000000101181
 30
0.0
 40
35.95000000001097
100
AcDbArc
 50
135.4320170277747
 51
137.4712087786718
  0
ARC
  5
226C
330
20AD
100
AcDbEntity
  8
Visible Edges(ISO)
100
AcDbCircle
 10
0.0000000000029559
 20
-0.0000000000120508
 30
0.0
 40
35.95000000001127
100
AcDbArc
 50
123.8191138019613
 51
125.8583055528711
  0
ARC
  5
226D
330
20AD
100
AcDbEntity
  8
Visible Edges(ISO)
100
AcDbCircle
 10
-0.0000000000150067
 20
0.0000000000247837
 30
0.0
 40
35.94999999997011
100
AcDbArc
 50
112.206210576164
 51
114.2454023270655
  0
ARC
  5
226E
330
20AD
100
AcDbEntity
  8
Visible Edges(ISO)
100
AcDbCircle
 10
0.0000000000009095
 20
-0.0000000000260343
 30
0.0
 40
35.95000000002396
100
AcDbArc
 50
100.5933073503546
 51
102.6324991012526
  0
CIRCLE
  5
226F
330
20AD
100
AcDbEntity
  8
Sketch Geometry(ISO)
100
AcDbCircle
 10
-0.0000000000020464
 20
-0.0000000000037517
 30
0.0
 40
30.15000000000001
  0
CIRCLE
  5
2270
330
20AD
100
AcDbEntity
  8
Sketch Geometry(ISO)
100
AcDbCircle
 10
-0.0000000000020464
 20
-0.0000000000037517
 30
0.0
 40
31.0
  0
LINE
  5
2271
330
20AD
100
AcDbEntity
  8
AM_5
100
AcDbLine
 10
36.39692667903091
 20
58.03028285576965
 30
0.0
 11
37.72528166731695
 21
60.14817639065211
 31
0.0
  0
LINE
  5
2272
330
20AD
100
AcDbEntity
  8
AM_5
100
AcDbLine
 10
37.72528166731695
 20
60.14817639065211
 30
0.0
 11
46.04890371456099
 21
60.14817639065211
 31
0.0
  0
SOLID
  5
2273
330
20AD
100
AcDbEntity
  8
AM_5
100
AcDbTrace
 10
36.043944423217
 20
58.25167535381729
 30
0.0
 11
36.74990893484483
 21
57.80889035772202
 31
0.0
 12
35.0685716907451
 22
55.91238932088765
 32
0.0
 13
35.0685716907451
 23
55.91238932088765
 33
0.0
  0
MTEXT
  5
2274
330
20AD
100
AcDbEntity
  8
AM_5
 62
     2
100
AcDbMText
 10
42.63709269093896
 20
63.39817639065211
 30
0.0
 40
3.5
 41
0.0
 71
     5
 72
     1
  1
%%C290 [11,417"]
 73
     1
 44
1.0
1001
ACAD
1000
MTEXTBEGIN
1070
    73
1070
     1
1070
    44
1040
1.0
1070
    74
1070
     0
1000
MTEXTEND
  0
LINE
  5
2275
330
20AD
100
AcDbEntity
  8
AM_5
100
AcDbLine
 10
-27.65000000000305
 20
-0.0000000000037517
 30
0.0
 11
27.64999999999805
 21
-0.0000000000037517
 31
0.0
  0
SOLID
  5
2276
330
20AD
100
AcDbEntity
  8
AM_5
100
AcDbTrace
 10
-27.65000000000305
 20
0.4166666666629908
 30
0.0
 11
-27.65000000000305
 21
-0.4166666666703805
 31
0.0
 12
-30.15000000000305
 22
-0.0000000000037517
 32
0.0
 13
-30.15000000000305
 23
-0.0000000000037517
 33
0.0
  0
SOLID
  5
2277
330
20AD
100
AcDbEntity
  8
AM_5
100
AcDbTrace
 10
27.64999999999805
 20
0.4166666666629908
 30
0.0
 11
27.64999999999805
 21
-0.4166666666703805
 31
0.0
 12
30.14999999999805
 22
-0.0000000000037517
 32
0.0
 13
30.14999999999805
 23
-0.0000000000037517
 33
0.0
  0
MTEXT
  5
2278
330
20AD
100
AcDbEntity
  8
AM_5
 62
     2
100
AcDbMText
 10
-0.0000000000020464
 20
3.250344488185305
 30
0.0
 40
3.5
 41
0.0
 71
     5
 72
     1
  1
%%C200 [7,87"]
 73
     1
 44
1.0
1001
ACAD
1000
MTEXTBEGIN
1070
    73
1070
     1
1070
    44
1040
1.0
1070
    74
1070
     0
1000
MTEXTEND
  0
ENDBLK
  5
20AF
330
20AD
100
AcDbEntity
  8
0
100
AcDbBlockEnd
  0
ENDSEC
  0
SECTION
  2
ENTITIES
  0
INSERT
  5
2279
330
1A
100
AcDbEntity
  8
AM_0
100
AcDbBlockReference
  2
Sleev-IT_FC200
 10
1096.268261857439
 20
734.9804472456652
 30
0.0
  0
VIEWPORT
  5
22
102
{ACAD_XDICTIONARY
360
2283
102
}
330
17
100
AcDbEntity
 67
     1
  8
0
100
AcDbViewport
 10
7.900096624318575
 20
6.635154955787665
 30
0.0
 40
18.8944864125024
 41
11.87498859712033
 68
     1
 69
     1
 12
7.900096624318575
 22
6.635154955787665
 13
0.0
 23
0.0
 14
1.0
 24
1.0
 15
10.0
 25
10.0
 16
0.0
 26
0.0
 36
1.0
 17
0.0
 27
0.0
 37
0.0
 42
50.0
 43
0.0
 44
0.0
 45
11.87498859712033
 50
0.0
 51
0.0
 72
   100
 90
    32800
  1

281
     0
 71
     1
 74
     0
110
0.0
120
0.0
130
0.0
111
1.0
121
0.0
131
0.0
112
0.0
122
1.0
132
0.0
 79
     0
146
0.0
1001
GENIUS_GENODEF_13
1002
{
1000
HIER
1070
     0
1002
}
1002
{
1000
MANEDIT
1070
     0
1002
}
1002
{
1000
NOSEL
1070
     0
1002
}
1002
{
1000
BEHIND
1070
     0
1002
}
1002
{
1000
OTHER
1070
     0
1002
}
1002
{
1000
REACTOR
1002
}
1001
GENIUS_GENOBJ-N-SDF_13
1002
{
1000
OWNER
1000
GEN
1002
}
1001
GENIUS_GENSCREG_15
1000
PF
1040
1.0
1000
DF
1040
1.0
1000
MIN
1011
-1.547146581932626
1021
0.6976606572275
1031
0.0
1000
MAX
1011
17.34733983056977
1021
12.57264925434783
1031
0.0
1000
FLAGS
1070
     4
  0
ENDSEC
  0
SECTION
  2
OBJECTS
  0
DICTIONARY
  5
C
330
0
100
AcDbDictionary
281
     1
  3
ACAD_2007HEADERVARS_RT
350
227E
  3
ACAD_COLOR
350
3CA
  3
ACAD_GROUP
350
D
  3
ACAD_LAYOUT
350
167
  3
ACAD_MATERIAL
350
3C9
  3
ACAD_MLEADERSTYLE
350
A72
  3
ACAD_MLINESTYLE
350
E
  3
ACAD_PLOTSETTINGS
350
168
  3
ACAD_PLOTSTYLENAME
350
165
  3
ACAD_SCALELIST
350
A60
  3
ACAD_TABLESTYLE
350
650
  3
ACAD_VISUALSTYLE
350
A4F
  3
ACDB_RECOMPOSE_DATA
350
AF1
  3
ACDBVARIABLEDICTIONARY
350
5D
  3
ACMDICTIONARY
350
142
  3
AMG
350
171
  3
AMGSNAPSETTINGS
350
1F2
  3
ASE_INDEX_DICTIONARY
350
849
  3
DWGPROPS
350
227D
  3
MAPISURF_MODULE
350
1E53
  0
DICTIONARY
  5
592
330
2
100
AcDbDictionary
280
     1
281
     1
  3
ACAD_LAYERFILTERS
360
C7C
  3
ACAD_LAYERSTATES
360
822
  3
ACLYDICTIONARY
360
C7B
  3
AMLAYER_GROUPCOLORS
360
593
  0
DICTIONARY
  5
AB7
330
F
100
AcDbDictionary
280
     1
281
     1
  3
ADSK_XREC_LAYER_RECONCILED
360
12C1
  0
DICTIONARY
  5
AB9
330
5CF
100
AcDbDictionary
280
     1
281
     1
  3
ADSK_XREC_LAYER_RECONCILED
360
12C2
  0
DICTIONARY
  5
12C3
330
D2F
100
AcDbDictionary
280
     1
281
     1
  3
ADSK_XREC_LAYER_RECONCILED
360
12C4
  0
DICTIONARY
  5
12C5
330
D30
100
AcDbDictionary
280
     1
281
     1
  3
ADSK_XREC_LAYER_RECONCILED
360
12C6
  0
DICTIONARY
  5
12A
330
1A
100
AcDbDictionary
280
     1
281
     1
  3
ACAD_INDEX
360
12B
  3
ACAD_SORTENTS
360
1578
  0
DICTIONARY
  5
2283
330
22
100
AcDbDictionary
280
     1
281
     1
  3
ACAD_XREC_ROUNDTRIP
360
2284
  0
DICTIONARY
  5
227E
102
{ACAD_REACTORS
330
C
102
}
330
C
100
AcDbDictionary
281
     1
  3
DIMARCSYM
350
227F
  3
DIMLTEX1
350
2281
  3
DIMLTEX2
350
2282
  3
DIMLTYPE
350
2280
  0
DICTIONARY
  5
3CA
102
{ACAD_REACTORS
330
C
102
}
330
C
100
AcDbDictionary
281
     1
  0
DICTIONARY
  5
D
102
{ACAD_REACTORS
330
C
102
}
330
C
100
AcDbDictionary
281
     1
  0
DICTIONARY
  5
167
102
{ACAD_REACTORS
330
C
102
}
330
C
100
AcDbDictionary
281
     1
  3
Layout1
350
16A
  3
Model
350
169
  0
DICTIONARY
  5
3C9
102
{ACAD_REACTORS
330
C
102
}
330
C
100
AcDbDictionary
281
     1
  3
ByBlock
350
A3F
  3
ByLayer
350
A37
  3
Global
350
A47
  0
DICTIONARY
  5
A72
102
{ACAD_REACTORS
330
C
102
}
330
C
100
AcDbDictionary
281
     1
  3
Standard
350
A73
  0
DICTIONARY
  5
E
102
{ACAD_REACTORS
330
C
102
}
330
C
100
AcDbDictionary
281
     1
  3
STANDARD
350
13
  0
DICTIONARY
  5
168
102
{ACAD_REACTORS
330
C
102
}
330
C
100
AcDbDictionary
281
     1
  0
ACDBDICTIONARYWDFLT
  5
165
102
{ACAD_REACTORS
330
C
102
}
330
C
100
AcDbDictionary
281
     1
  3
Normal
350
166
100
AcDbDictionaryWithDefault
340
166
  0
DICTIONARY
  5
A60
102
{ACAD_REACTORS
330
C
102
}
330
C
100
AcDbDictionary
281
     1
  3
A0
350
A61
  3
A1
350
A62
  3
A2
350
A63
  3
A3
350
A64
  3
A4
350
A65
  3
A5
350
A66
  3
A6
350
A67
  3
A7
350
A68
  3
A8
350
A69
  3
A9
350
A6A
  3
B0
350
A6B
  3
B1
350
A6C
  3
B2
350
A6D
  3
B3
350
A6E
  3
B4
350
A6F
  3
B5
350
A70
  3
B6
350
A71
  0
DICTIONARY
  5
650
102
{ACAD_REACTORS
330
C
102
}
330
C
100
AcDbDictionary
281
     1
  3
Standard
350
651
  0
DICTIONARY
  5
A4F
102
{ACAD_REACTORS
330
C
102
}
330
C
100
AcDbDictionary
281
     1
  3
2dWireframe
350
A55
  3
3D Hidden
350
A57
  3
3dWireframe
350
A56
  3
Basic
350
A54
  3
Brighten
350
A5B
  3
ColorChange
350
A5F
  3
Conceptual
350
A58
  3
Dim
350
A5A
  3
Facepattern
350
A5E
  3
Flat
350
A50
  3
FlatWithEdges
350
A51
  3
Gouraud
350
A52
  3
GouraudWithEdges
350
A53
  3
Linepattern
350
A5D
  3
Realistic
350
A59
  3
Thicken
350
A5C
  0
XRECORD
  5
AF1
102
{ACAD_REACTORS
330
C
102
}
330
C
100
AcDbXrecord
280
     1
 90
        1
330
651
  0
DICTIONARY
  5
5D
102
{ACAD_REACTORS
330
C
102
}
330
C
100
AcDbDictionary
281
     1
  3
CANNOSCALE
350
AF4
  3
CMLEADERSTYLE
350
AF2
  3
CTABLESTYLE
350
66F
  3
DIMADEC
350
5E
  3
DIMASSOC
350
3C7
  3
INDEXCTL
350
128
  3
LAYEREVAL
350
AF6
  3
LAYERNOTIFY
350
AF7
  3
LIGHTINGUNITS
350
AF5
  3
MSLTSCALE
350
AF3
  3
SORTENTS
350
12C7
  0
DICTIONARY
  5
142
102
{ACAD_REACTORS
330
C
102
}
330
C
100
AcDbDictionary
281
     1
  3
ACMSTDDICTIONARY
350
143
  3
AMDTSECTSYM_ARROWCOLOR
350
47D
  0
DICTIONARY
  5
171
102
{ACAD_REACTORS
330
C
102
}
330
C
100
AcDbDictionary
281
     1
  3
AcMgSettings
350
172
  0
DICTIONARY
  5
1F2
102
{ACAD_REACTORS
330
C
102
}
330
C
100
AcDbDictionary
281
     1
  3
DIMENSION
350
15CD
  3
FEA
350
15CE
  3
HATCH
350
15CF
  3
SYMBOLS
350
15D0
  0
DICTIONARY
  5
849
102
{ACAD_REACTORS
330
C
102
}
330
C
100
AcDbDictionary
281
     1
  3
ASEBlockHierarchyIndexRecord
350
84B
1001
DCO15
1040
1524370329.156
  0
XRECORD
  5
227D
102
{ACAD_REACTORS
330
C
102
}
330
C
100
AcDbXrecord
280
     1
  1
DWGPROPS COOKIE
  2

  3

  4

  6

  7

  8
se-jenboh
  9

300
AmdtFileType=84
301
=
302
=
303
=
304
=
305
=
306
=
307
=
308
=
309
=
 40
0.0129565740740741
 41
2456346.581612859
 42
2456359.637406539
  1

 90
        1
  0
DICTIONARY
  5
C7C
102
{ACAD_REACTORS
330
592
102
}
330
592
100
AcDbDictionary
281
     1
  0
DICTIONARY
  5
822
102
{ACAD_REACTORS
330
592
102
}
330
592
100
AcDbDictionary
281
     1
  0
DICTIONARY
  5
C7B
102
{ACAD_REACTORS
330
592
102
}
330
592
100
AcDbDictionary
281
     1
1001
ACAD
1000
<All
  0
DICTIONARY
  5
593
102
{ACAD_REACTORS
330
592
102
}
330
592
100
AcDbDictionary
280
     1
281
     1
  0
XRECORD
  5
12C1
102
{ACAD_REACTORS
330
AB7
102
}
330
AB7
100
AcDbXrecord
280
     1
290
     1
  0
XRECORD
  5
12C2
102
{ACAD_REACTORS
330
AB9
102
}
330
AB9
100
AcDbXrecord
280
     1
290
     1
  0
XRECORD
  5
12C4
102
{ACAD_REACTORS
330
12C3
102
}
330
12C3
100
AcDbXrecord
280
     1
290
     1
  0
XRECORD
  5
12C6
102
{ACAD_REACTORS
330
12C5
102
}
330
12C5
100
AcDbXrecord
280
     1
290
     1
  0
DICTIONARY
  5
12B
102
{ACAD_REACTORS
330
12A
102
}
330
12A
100
AcDbDictionary
281
     1
  3
*A1
350
12C
  0
SORTENTSTABLE
  5
1578
102
{ACAD_REACTORS
330
12A
102
}
330
12A
100
AcDbSortentsTable
330
1A
  0
XRECORD
  5
2284
102
{ACAD_REACTORS
330
2283
102
}
330
2283
100
AcDbXrecord
280
     1
102
SHADEPLOT
 70
     0
  0
XRECORD
  5
227F
102
{ACAD_REACTORS
330
227E
102
}
330
227E
100
AcDbXrecord
280
     1
 70
     1
  0
XRECORD
  5
2281
102
{ACAD_REACTORS
330
227E
102
}
330
227E
100
AcDbXrecord
280
     1
340
14
  0
XRECORD
  5
2282
102
{ACAD_REACTORS
330
227E
102
}
330
227E
100
AcDbXrecord
280
     1
340
14
  0
XRECORD
  5
2280
102
{ACAD_REACTORS
330
227E
102
}
330
227E
100
AcDbXrecord
280
     1
340
14
  0
LAYOUT
  5
16A
102
{ACAD_XDICTIONARY
360
824
102
}
102
{ACAD_REACTORS
330
167
102
}
330
167
100
AcDbPlotSettings
  1

  2
none_device
  4
Letter_(8.50_x_11.00_Inches)
  6

 40
6.349999904632567
 41
6.349999904632567
 42
6.350006103515625
 43
6.350006103515625
 44
215.8999938964844
 45
279.3999938964844
 46
0.0
 47
7.25904629660107
 48
0.0
 49
0.0
140
0.0
141
0.0
142
1.0
143
1.0
 70
   688
 72
     0
 73
     1
 74
     5
  7
@Layout.ctb
 75
     0
147
1.0
148
-74.57150970956639
149
-30.33168042120906
100
AcDbLayout
  1
Layout1
 70
     1
 71
     1
 10
-0.2500002402958907
 20
-0.2499999962453767
 11
10.74999951940821
 21
8.249999763458731
 12
0.0
 22
0.0
 32
0.0
 14
1.000000000000000E+20
 24
1.000000000000000E+20
 34
1.000000000000000E+20
 15
-1.000000000000000E+20
 25
-1.000000000000000E+20
 35
-1.000000000000000E+20
146
0.0
 13
0.0
 23
0.0
 33
0.0
 16
1.0
 26
0.0
 36
0.0
 17
0.0
 27
1.0
 37
0.0
 76
     0
330
17
331
22
1001
ACAD_PSEXT
1000
None
1000
None
1000
Not applicable
1000
The layout will not be plotted unless a new plotter configuration name is selected.
1070
     0
  0
LAYOUT
  5
169
102
{ACAD_XDICTIONARY
360
2285
102
}
102
{ACAD_REACTORS
330
167
102
}
330
167
100
AcDbPlotSettings
  1

  2
none_device
  4
Letter_(8.50_x_11.00_Inches)
  6

 40
6.349999904632567
 41
6.349999904632567
 42
6.350006103515625
 43
6.350006103515625
 44
215.8999938964844
 45
279.3999938964844
 46
38.1308720290886
 47
0.0
 48
0.0
 49
0.0
140
0.0
141
0.0
142
1.0
143
24.24127445441686
 70
 11956
 72
     0
 73
     1
 74
     0
  7
@Layout.ctb
 75
     0
147
0.0412519565289521
148
8019.824937415057
149
-189.2331007602539
100
AcDbLayout
  1
Model
 70
     1
 71
     0
 10
0.0
 20
0.0
 11
12.0
 21
9.0
 12
0.0
 22
0.0
 32
0.0
 14
0.0
 24
0.0
 34
0.0
 15
0.0
 25
0.0
 35
0.0
146
0.0
 13
0.0
 23
0.0
 33
0.0
 16
1.0
 26
0.0
 36
0.0
 17
0.0
 27
1.0
 37
0.0
 76
     0
330
1A
331
A35
1001
ACAD_PSEXT
1000
None
1000
None
1000
Not applicable
1000
The layout will not be plotted unless a new plotter configuration name is selected.
1070
     0
  0
MATERIAL
  5
A3F
102
{ACAD_XDICTIONARY
360
A40
102
}
102
{ACAD_REACTORS
330
3C9
102
}
330
3C9
100
AcDbMaterial
  1
ByBlock
 72
     0
 43
0.0008202099737533
 43
0.0
 43
0.0
 43
0.0
 43
0.0
 43
0.0008202099737533
 43
0.0
 43
0.0
 43
0.0
 43
0.0
 43
1.0
 43
0.0
 43
0.0
 43
0.0
 43
0.0
 43
1.0
 77
     0
 47
0.0008202099737533
 47
0.0
 47
0.0
 47
0.0
 47
0.0
 47
0.0008202099737533
 47
0.0
 47
0.0
 47
0.0
 47
0.0
 47
1.0
 47
0.0
 47
0.0
 47
0.0
 47
0.0
 47
1.0
171
     0
 49
0.0008202099737533
 49
0.0
 49
0.0
 49
0.0
 49
0.0
 49
0.0008202099737533
 49
0.0
 49
0.0
 49
0.0
 49
0.0
 49
1.0
 49
0.0
 49
0.0
 49
0.0
 49
0.0
 49
1.0
175
     0
142
0.0008202099737533
142
0.0
142
0.0
142
0.0
142
0.0
142
0.0008202099737533
142
0.0
142
0.0
142
0.0
142
0.0
142
1.0
142
0.0
142
0.0
142
0.0
142
0.0
142
1.0
179
     0
144
0.0008202099737533
144
0.0
144
0.0
144
0.0
144
0.0
144
0.0008202099737533
144
0.0
144
0.0
144
0.0
144
0.0
144
1.0
144
0.0
144
0.0
144
0.0
144
0.0
144
1.0
147
0.0008202099737533
147
0.0
147
0.0
147
0.0
147
0.0
147
0.0008202099737533
147
0.0
147
0.0
147
0.0
147
0.0
147
1.0
147
0.0
147
0.0
147
0.0
147
0.0
147
1.0
  0
MATERIAL
  5
A37
102
{ACAD_XDICTIONARY
360
A38
102
}
102
{ACAD_REACTORS
330
3C9
102
}
330
3C9
100
AcDbMaterial
  1
ByLayer
 72
     0
 43
0.0008202099737533
 43
0.0
 43
0.0
 43
0.0
 43
0.0
 43
0.0008202099737533
 43
0.0
 43
0.0
 43
0.0
 43
0.0
 43
1.0
 43
0.0
 43
0.0
 43
0.0
 43
0.0
 43
1.0
 77
     0
 47
0.0008202099737533
 47
0.0
 47
0.0
 47
0.0
 47
0.0
 47
0.0008202099737533
 47
0.0
 47
0.0
 47
0.0
 47
0.0
 47
1.0
 47
0.0
 47
0.0
 47
0.0
 47
0.0
 47
1.0
171
     0
 49
0.0008202099737533
 49
0.0
 49
0.0
 49
0.0
 49
0.0
 49
0.0008202099737533
 49
0.0
 49
0.0
 49
0.0
 49
0.0
 49
1.0
 49
0.0
 49
0.0
 49
0.0
 49
0.0
 49
1.0
175
     0
142
0.0008202099737533
142
0.0
142
0.0
142
0.0
142
0.0
142
0.0008202099737533
142
0.0
142
0.0
142
0.0
142
0.0
142
1.0
142
0.0
142
0.0
142
0.0
142
0.0
142
1.0
179
     0
144
0.0008202099737533
144
0.0
144
0.0
144
0.0
144
0.0
144
0.0008202099737533
144
0.0
144
0.0
144
0.0
144
0.0
144
1.0
144
0.0
144
0.0
144
0.0
144
0.0
144
1.0
147
0.0008202099737533
147
0.0
147
0.0
147
0.0
147
0.0
147
0.0008202099737533
147
0.0
147
0.0
147
0.0
147
0.0
147
1.0
147
0.0
147
0.0
147
0.0
147
0.0
147
1.0
  0
MATERIAL
  5
A47
102
{ACAD_XDICTIONARY
360
A48
102
}
102
{ACAD_REACTORS
330
3C9
102
}
330
3C9
100
AcDbMaterial
  1
Global
 72
     0
 43
0.0008202099737533
 43
0.0
 43
0.0
 43
0.0
 43
0.0
 43
0.0008202099737533
 43
0.0
 43
0.0
 43
0.0
 43
0.0
 43
1.0
 43
0.0
 43
0.0
 43
0.0
 43
0.0
 43
1.0
 77
     0
 47
0.0008202099737533
 47
0.0
 47
0.0
 47
0.0
 47
0.0
 47
0.0008202099737533
 47
0.0
 47
0.0
 47
0.0
 47
0.0
 47
1.0
 47
0.0
 47
0.0
 47
0.0
 47
0.0
 47
1.0
171
     0
 49
0.0008202099737533
 49
0.0
 49
0.0
 49
0.0
 49
0.0
 49
0.0008202099737533
 49
0.0
 49
0.0
 49
0.0
 49
0.0
 49
1.0
 49
0.0
 49
0.0
 49
0.0
 49
0.0
 49
1.0
175
     0
142
0.0008202099737533
142
0.0
142
0.0
142
0.0
142
0.0
142
0.0008202099737533
142
0.0
142
0.0
142
0.0
142
0.0
142
1.0
142
0.0
142
0.0
142
0.0
142
0.0
142
1.0
179
     0
144
0.0008202099737533
144
0.0
144
0.0
144
0.0
144
0.0
144
0.0008202099737533
144
0.0
144
0.0
144
0.0
144
0.0
144
1.0
144
0.0
144
0.0
144
0.0
144
0.0
144
1.0
147
0.0008202099737533
147
0.0
147
0.0
147
0.0
147
0.0
147
0.0008202099737533
147
0.0
147
0.0
147
0.0
147
0.0
147
1.0
147
0.0
147
0.0
147
0.0
147
0.0
147
1.0
  0
MLEADERSTYLE
  5
A73
102
{ACAD_REACTORS
330
A72
102
}
330
A72
100
AcDbMLeaderStyle
170
     2
171
     1
172
     0
 90
        2
 40
0.0
 41
0.0
173
     1
 91
-1056964608
340
14
 92
       -2
290
     1
 42
2.0
291
     1
 43
0.36
  3
Standard
 44
4.0
300

342
10
174
     1
178
     6
175
     1
176
     0
 93
-1056964608
 45
4.0
292
     0
297
     0
 46
4.0
 94
-1056964608
 47
1.0
 49
1.0
140
1.0
293
     1
141
0.0
294
     1
177
     0
142
1.0
295
     0
296
     0
143
0.125
1001
ACAD_MLEADERVER
1070
     2
  0
MLINESTYLE
  5
13
102
{ACAD_REACTORS
330
E
102
}
330
E
100
AcDbMlineStyle
  2
STANDARD
 70
     0
  3

 62
     0
 51
90.0
 52
90.0
 71
     2
 49
0.5
 62
   256
  6
BYLAYER
 49
-0.5
 62
   256
  6
BYLAYER
  0
ACDBPLACEHOLDER
  5
166
102
{ACAD_REACTORS
330
165
102
}
330
165
  0
SCALE
  5
A61
102
{ACAD_REACTORS
330
A60
102
}
330
A60
100
AcDbScale
 70
     0
300
1:1
140
1.0
141
1.0
290
     1
  0
SCALE
  5
A62
102
{ACAD_REACTORS
330
A60
102
}
330
A60
100
AcDbScale
 70
     0
300
1:2
140
1.0
141
2.0
290
     0
  0
SCALE
  5
A63
102
{ACAD_REACTORS
330
A60
102
}
330
A60
100
AcDbScale
 70
     0
300
1:4
140
1.0
141
4.0
290
     0
  0
SCALE
  5
A64
102
{ACAD_REACTORS
330
A60
102
}
330
A60
100
AcDbScale
 70
     0
300
1:5
140
1.0
141
5.0
290
     0
  0
SCALE
  5
A65
102
{ACAD_REACTORS
330
A60
102
}
330
A60
100
AcDbScale
 70
     0
300
1:8
140
1.0
141
8.0
290
     0
  0
SCALE
  5
A66
102
{ACAD_REACTORS
330
A60
102
}
330
A60
100
AcDbScale
 70
     0
300
1:10
140
1.0
141
10.0
290
     0
  0
SCALE
  5
A67
102
{ACAD_REACTORS
330
A60
102
}
330
A60
100
AcDbScale
 70
     0
300
1:16
140
1.0
141
16.0
290
     0
  0
SCALE
  5
A68
102
{ACAD_REACTORS
330
A60
102
}
330
A60
100
AcDbScale
 70
     0
300
1:20
140
1.0
141
20.0
290
     0
  0
SCALE
  5
A69
102
{ACAD_REACTORS
330
A60
102
}
330
A60
100
AcDbScale
 70
     0
300
1:30
140
1.0
141
30.0
290
     0
  0
SCALE
  5
A6A
102
{ACAD_REACTORS
330
A60
102
}
330
A60
100
AcDbScale
 70
     0
300
1:40
140
1.0
141
40.0
290
     0
  0
SCALE
  5
A6B
102
{ACAD_REACTORS
330
A60
102
}
330
A60
100
AcDbScale
 70
     0
300
1:50
140
1.0
141
50.0
290
     0
  0
SCALE
  5
A6C
102
{ACAD_REACTORS
330
A60
102
}
330
A60
100
AcDbScale
 70
     0
300
1:100
140
1.0
141
100.0
290
     0
  0
SCALE
  5
A6D
102
{ACAD_REACTORS
330
A60
102
}
330
A60
100
AcDbScale
 70
     0
300
2:1
140
2.0
141
1.0
290
     0
  0
SCALE
  5
A6E
102
{ACAD_REACTORS
330
A60
102
}
330
A60
100
AcDbScale
 70
     0
300
4:1
140
4.0
141
1.0
290
     0
  0
SCALE
  5
A6F
102
{ACAD_REACTORS
330
A60
102
}
330
A60
100
AcDbScale
 70
     0
300
8:1
140
8.0
141
1.0
290
     0
  0
SCALE
  5
A70
102
{ACAD_REACTORS
330
A60
102
}
330
A60
100
AcDbScale
 70
     0
300
10:1
140
10.0
141
1.0
290
     0
  0
SCALE
  5
A71
102
{ACAD_REACTORS
330
A60
102
}
330
A60
100
AcDbScale
 70
     0
300
100:1
140
100.0
141
1.0
290
     0
  0
TABLESTYLE
  5
651
102
{ACAD_XDICTIONARY
360
AED
102
}
102
{ACAD_REACTORS
330
650
102
}
330
650
100
AcDbTableStyle
  3
Standard
 70
     0
 71
     0
 40
1.5
 41
1.5
280
     0
281
     0
  7
STANDARD
140
4.5
170
     2
 62
     0
 63
     7
283
     0
274
    -2
284
     1
 64
     0
275
    -2
285
     1
 65
     0
276
    -2
286
     1
 66
     0
277
    -2
287
     1
 67
     0
278
    -2
288
     1
 68
     0
279
    -2
289
     1
 69
     0
  7
STANDARD
140
6.0
170
     5
 62
     0
 63
     7
283
     0
274
    -2
284
     1
 64
     0
275
    -2
285
     1
 65
     0
276
    -2
286
     1
 66
     0
277
    -2
287
     1
 67
     0
278
    -2
288
     1
 68
     0
279
    -2
289
     1
 69
     0
  7
STANDARD
140
4.5
170
     5
 62
     0
 63
     7
283
     0
274
    -2
284
     1
 64
     0
275
    -2
285
     1
 65
     0
276
    -2
286
     1
 66
     0
277
    -2
287
     1
 67
     0
278
    -2
288
     1
 68
     0
279
    -2
289
     1
 69
     0
  0
VISUALSTYLE
  5
A55
102
{ACAD_REACTORS
330
A4F
102
}
330
A4F
100
AcDbVisualStyle
  2
2dWireframe
 70
     4
 71
     0
 72
     2
 73
     0
 90
        0
 40
-0.6
 41
-30.0
 62
     5
 63
     7
 74
     1
 91
        4
 64
     7
 65
   257
 75
     1
175
     1
 42
1.0
 92
        0
 66
   257
 43
1.0
 76
     1
 77
     6
 78
     2
 67
     7
 79
     5
170
     0
171
     0
290
     0
174
     0
 93
        1
 44
0.0
173
     0
291
     0
 45
0.0
1001
ACAD
1000
AcDbSavedByObjectVersion
1070
     0
1000
AcDbSavedByObjectVersion
1070
     0
1000
AcDbSavedByObjectVersion
1070
     0
1000
AcDbSavedByObjectVersion
1070
     0
1000
AcDbSavedByObjectVersion
1070
     0
  0
VISUALSTYLE
  5
A57
102
{ACAD_REACTORS
330
A4F
102
}
330
A4F
100
AcDbVisualStyle
  2
3D Hidden
 70
     6
 71
     1
 72
     2
 73
     2
 90
        0
 40
-0.6
 41
-30.0
 62
     5
 63
     7
 74
     2
 91
        2
 64
     7
 65
   257
 75
     2
175
     1
 42
40.0
 92
        0
 66
   257
 43
1.0
 76
     1
 77
     6
 78
     2
 67
     7
 79
     3
170
     0
171
     0
290
     0
174
     0
 93
        1
 44
0.0
173
     0
291
     0
 45
0.0
1001
ACAD
1000
AcDbSavedByObjectVersion
1070
     0
1000
AcDbSavedByObjectVersion
1070
     0
1000
AcDbSavedByObjectVersion
1070
     0
1000
AcDbSavedByObjectVersion
1070
     0
1000
AcDbSavedByObjectVersion
1070
     0
  0
VISUALSTYLE
  5
A56
102
{ACAD_REACTORS
330
A4F
102
}
330
A4F
100
AcDbVisualStyle
  2
3dWireframe
 70
     5
 71
     0
 72
     2
 73
     0
 90
        0
 40
-0.6
 41
-30.0
 62
     5
 63
     7
 74
     1
 91
        4
 64
     7
 65
   257
 75
     1
175
     1
 42
1.0
 92
        0
 66
   257
 43
1.0
 76
     1
 77
     6
 78
     2
 67
     7
 79
     5
170
     0
171
     0
290
     0
174
     0
 93
        1
 44
0.0
173
     0
291
     0
 45
0.0
1001
ACAD
1000
AcDbSavedByObjectVersion
1070
     0
1000
AcDbSavedByObjectVersion
1070
     0
1000
AcDbSavedByObjectVersion
1070
     0
1000
AcDbSavedByObjectVersion
1070
     0
1000
AcDbSavedByObjectVersion
1070
     0
  0
VISUALSTYLE
  5
A54
102
{ACAD_REACTORS
330
A4F
102
}
330
A4F
100
AcDbVisualStyle
  2
Basic
 70
     7
 71
     1
 72
     0
 73
     1
 90
        0
 40
-0.6
 41
-30.0
 62
     5
 63
     7
 74
     0
 91
        4
 64
     7
 65
   257
 75
     1
175
     1
 42
1.0
 92
        8
 66
     7
 43
1.0
 76
     1
 77
     6
 78
     2
 67
     7
 79
     5
170
     0
171
     0
290
     0
174
     0
 93
        1
 44
0.0
173
     0
291
     1
 45
0.0
1001
ACAD
1000
AcDbSavedByObjectVersion
1070
     0
1000
AcDbSavedByObjectVersion
1070
     0
1000
AcDbSavedByObjectVersion
1070
     0
1000
AcDbSavedByObjectVersion
1070
     0
1000
AcDbSavedByObjectVersion
1070
     0
  0
VISUALSTYLE
  5
A5B
102
{ACAD_REACTORS
330
A4F
102
}
330
A4F
100
AcDbVisualStyle
  2
Brighten
 70
    12
 71
     2
 72
     2
 73
     0
 90
        0
 40
-0.6
 41
-30.0
 62
     5
 63
     7
 74
     1
 91
        4
 64
     7
 65
   257
 75
     1
175
     1
 42
1.0
 92
        8
 66
     7
 43
1.0
 76
     1
 77
     6
 78
     2
 67
     7
 79
     5
170
     0
171
     0
290
     0
174
     0
 93
        1
 44
50.0
173
     0
291
     1
 45
0.0
1001
ACAD
1000
AcDbSavedByObjectVersion
1070
     0
1000
AcDbSavedByObjectVersion
1070
     0
1000
AcDbSavedByObjectVersion
1070
     0
1000
AcDbSavedByObjectVersion
1070
     0
1000
AcDbSavedByObjectVersion
1070
     0
  0
VISUALSTYLE
  5
A5F
102
{ACAD_REACTORS
330
A4F
102
}
330
A4F
100
AcDbVisualStyle
  2
ColorChange
 70
    16
 71
     2
 72
     2
 73
     3
 90
        0
 40
-0.6
 41
-30.0
 62
     5
 63
     8
 74
     1
 91
        4
 64
     7
 65
   257
 75
     1
175
     1
 42
1.0
 92
        8
 66
     8
 43
1.0
 76
     1
 77
     6
 78
     2
 67
     7
 79
     5
170
     0
171
     0
290
     0
174
     0
 93
        1
 44
0.0
173
     0
291
     1
 45
0.0
1001
ACAD
1000
AcDbSavedByObjectVersion
1070
     0
1000
AcDbSavedByObjectVersion
1070
     0
1000
AcDbSavedByObjectVersion
1070
     0
1000
AcDbSavedByObjectVersion
1070
     0
1000
AcDbSavedByObjectVersion
1070
     0
  0
VISUALSTYLE
  5
A58
102
{ACAD_REACTORS
330
A4F
102
}
330
A4F
100
AcDbVisualStyle
  2
Conceptual
 70
     9
 71
     3
 72
     2
 73
     0
 90
        0
 40
-0.6
 41
-30.0
 62
     5
 63
     7
 74
     2
 91
        2
 64
     7
 65
   257
 75
     1
175
     1
 42
40.0
 92
        8
 66
     7
 43
1.0
 76
     1
 77
     6
 78
     2
 67
     7
 79
     3
170
     0
171
     0
290
     0
174
     0
 93
        1
 44
0.0
173
     0
291
     0
 45
0.0
1001
ACAD
1000
AcDbSavedByObjectVersion
1070
     0
1000
AcDbSavedByObjectVersion
1070
     0
1000
AcDbSavedByObjectVersion
1070
     0
1000
AcDbSavedByObjectVersion
1070
     0
1000
AcDbSavedByObjectVersion
1070
     0
  0
VISUALSTYLE
  5
A5A
102
{ACAD_REACTORS
330
A4F
102
}
330
A4F
100
AcDbVisualStyle
  2
Dim
 70
    11
 71
     2
 72
     2
 73
     0
 90
        0
 40
-0.6
 41
-30.0
 62
     5
 63
     7
 74
     1
 91
        4
 64
     7
 65
   257
 75
     1
175
     1
 42
1.0
 92
        8
 66
     7
 43
1.0
 76
     1
 77
     6
 78
     2
 67
     7
 79
     5
170
     0
171
     0
290
     0
174
     0
 93
        1
 44
-50.0
173
     0
291
     1
 45
0.0
1001
ACAD
1000
AcDbSavedByObjectVersion
1070
     0
1000
AcDbSavedByObjectVersion
1070
     0
1000
AcDbSavedByObjectVersion
1070
     0
1000
AcDbSavedByObjectVersion
1070
     0
1000
AcDbSavedByObjectVersion
1070
     0
  0
VISUALSTYLE
  5
A5E
102
{ACAD_REACTORS
330
A4F
102
}
330
A4F
100
AcDbVisualStyle
  2
Facepattern
 70
    15
 71
     2
 72
     2
 73
     0
 90
        0
 40
-0.6
 41
-30.0
 62
     5
 63
     7
 74
     1
 91
        4
 64
     7
 65
   257
 75
     1
175
     1
 42
1.0
 92
        8
 66
     7
 43
1.0
 76
     1
 77
     6
 78
     2
 67
     7
 79
     5
170
     0
171
     0
290
     0
174
     0
 93
        1
 44
0.0
173
     0
291
     1
 45
0.0
1001
ACAD
1000
AcDbSavedByObjectVersion
1070
     0
1000
AcDbSavedByObjectVersion
1070
     0
1000
AcDbSavedByObjectVersion
1070
     0
1000
AcDbSavedByObjectVersion
1070
     0
1000
AcDbSavedByObjectVersion
1070
     0
  0
VISUALSTYLE
  5
A50
102
{ACAD_REACTORS
330
A4F
102
}
330
A4F
100
AcDbVisualStyle
  2
Flat
 70
     0
 71
     2
 72
     1
 73
     1
 90
        2
 40
-0.6
 41
30.0
 62
     5
 63
     7
 74
     0
 91
        4
 64
     7
 65
   257
 75
     1
175
     1
 42
1.0
 92
        8
 66
     7
 43
1.0
 76
     1
 77
     6
 78
     2
 67
     7
 79
     5
170
     0
171
     0
290
     0
174
     0
 93
       13
 44
0.0
173
     0
291
     1
 45
0.0
1001
ACAD
1000
AcDbSavedByObjectVersion
1070
     0
1000
AcDbSavedByObjectVersion
1070
     0
1000
AcDbSavedByObjectVersion
1070
     0
1000
AcDbSavedByObjectVersion
1070
     0
1000
AcDbSavedByObjectVersion
1070
     0
  0
VISUALSTYLE
  5
A51
102
{ACAD_REACTORS
330
A4F
102
}
330
A4F
100
AcDbVisualStyle
  2
FlatWithEdges
 70
     1
 71
     2
 72
     1
 73
     1
 90
        2
 40
-0.6
 41
30.0
 62
     5
 63
     7
 74
     1
 91
        4
 64
     7
 65
   257
 75
     1
175
     1
 42
1.0
 92
        0
 66
   257
 43
1.0
 76
     1
 77
     6
 78
     2
 67
     7
 79
     5
170
     0
171
     0
290
     0
174
     0
 93
       13
 44
0.0
173
     0
291
     1
 45
0.0
1001
ACAD
1000
AcDbSavedByObjectVersion
1070
     0
1000
AcDbSavedByObjectVersion
1070
     0
1000
AcDbSavedByObjectVersion
1070
     0
1000
AcDbSavedByObjectVersion
1070
     0
1000
AcDbSavedByObjectVersion
1070
     0
  0
VISUALSTYLE
  5
A52
102
{ACAD_REACTORS
330
A4F
102
}
330
A4F
100
AcDbVisualStyle
  2
Gouraud
 70
     2
 71
     2
 72
     2
 73
     1
 90
        2
 40
-0.6
 41
30.0
 62
     5
 63
     7
 74
     0
 91
        4
 64
     7
 65
   257
 75
     1
175
     1
 42
1.0
 92
        0
 66
     7
 43
1.0
 76
     1
 77
     6
 78
     2
 67
     7
 79
     5
170
     0
171
     0
290
     0
174
     0
 93
       13
 44
0.0
173
     0
291
     1
 45
0.0
1001
ACAD
1000
AcDbSavedByObjectVersion
1070
     0
1000
AcDbSavedByObjectVersion
1070
     0
1000
AcDbSavedByObjectVersion
1070
     0
1000
AcDbSavedByObjectVersion
1070
     0
1000
AcDbSavedByObjectVersion
1070
     0
  0
VISUALSTYLE
  5
A53
102
{ACAD_REACTORS
330
A4F
102
}
330
A4F
100
AcDbVisualStyle
  2
GouraudWithEdges
 70
     3
 71
     2
 72
     2
 73
     1
 90
        2
 40
-0.6
 41
30.0
 62
     5
 63
     7
 74
     1
 91
        4
 64
     7
 65
   257
 75
     1
175
     1
 42
1.0
 92
        0
 66
   257
 43
1.0
 76
     1
 77
     6
 78
     2
 67
     7
 79
     5
170
     0
171
     0
290
     0
174
     0
 93
       13
 44
0.0
173
     0
291
     1
 45
0.0
1001
ACAD
1000
AcDbSavedByObjectVersion
1070
     0
1000
AcDbSavedByObjectVersion
1070
     0
1000
AcDbSavedByObjectVersion
1070
     0
1000
AcDbSavedByObjectVersion
1070
     0
1000
AcDbSavedByObjectVersion
1070
     0
  0
VISUALSTYLE
  5
A5D
102
{ACAD_REACTORS
330
A4F
102
}
330
A4F
100
AcDbVisualStyle
  2
Linepattern
 70
    14
 71
     2
 72
     2
 73
     0
 90
        0
 40
-0.6
 41
-30.0
 62
     5
 63
     7
 74
     1
 91
        4
 64
     7
 65
   257
 75
     7
175
     7
 42
1.0
 92
        8
 66
     7
 43
1.0
 76
     1
 77
     6
 78
     2
 67
     7
 79
     5
170
     0
171
     0
290
     0
174
     0
 93
        1
 44
0.0
173
     0
291
     1
 45
0.0
1001
ACAD
1000
AcDbSavedByObjectVersion
1070
     0
1000
AcDbSavedByObjectVersion
1070
     0
1000
AcDbSavedByObjectVersion
1070
     0
1000
AcDbSavedByObjectVersion
1070
     0
1000
AcDbSavedByObjectVersion
1070
     0
  0
VISUALSTYLE
  5
A59
102
{ACAD_REACTORS
330
A4F
102
}
330
A4F
100
AcDbVisualStyle
  2
Realistic
 70
     8
 71
     2
 72
     2
 73
     0
 90
        0
 40
-0.6
 41
-30.0
 62
     5
 63
     7
 74
     1
 91
        0
 64
     7
 65
   257
 75
     1
175
     1
 42
1.0
 92
        8
 66
     8
 43
1.0
 76
     1
 77
     6
 78
     2
 67
     7
 79
     5
170
     0
171
     0
290
     0
174
     0
 93
       13
 44
0.0
173
     0
291
     0
 45
0.0
1001
ACAD
1000
AcDbSavedByObjectVersion
1070
     0
1000
AcDbSavedByObjectVersion
1070
     0
1000
AcDbSavedByObjectVersion
1070
     0
1000
AcDbSavedByObjectVersion
1070
     0
1000
AcDbSavedByObjectVersion
1070
     0
  0
VISUALSTYLE
  5
A5C
102
{ACAD_REACTORS
330
A4F
102
}
330
A4F
100
AcDbVisualStyle
  2
Thicken
 70
    13
 71
     2
 72
     2
 73
     0
 90
        0
 40
-0.6
 41
-30.0
 62
     5
 63
     7
 74
     1
 91
        4
 64
     7
 65
   257
 75
     1
175
     1
 42
1.0
 92
       12
 66
     7
 43
1.0
 76
     1
 77
     6
 78
     2
 67
     7
 79
     5
170
     0
171
     0
290
     0
174
     0
 93
        1
 44
0.0
173
     0
291
     1
 45
0.0
1001
ACAD
1000
AcDbSavedByObjectVersion
1070
     0
1000
AcDbSavedByObjectVersion
1070
     0
1000
AcDbSavedByObjectVersion
1070
     0
1000
AcDbSavedByObjectVersion
1070
     0
1000
AcDbSavedByObjectVersion
1070
     0
  0
DICTIONARYVAR
  5
AF4
102
{ACAD_REACTORS
330
5D
102
}
330
5D
100
DictionaryVariables
280
     0
  1
1:1
  0
DICTIONARYVAR
  5
AF2
102
{ACAD_REACTORS
330
5D
102
}
330
5D
100
DictionaryVariables
280
     0
  1
STANDARD
  0
DICTIONARYVAR
  5
66F
102
{ACAD_REACTORS
330
5D
102
}
330
5D
100
DictionaryVariables
280
     0
  1
STANDARD
  0
DICTIONARYVAR
  5
5E
102
{ACAD_REACTORS
330
5D
102
}
330
5D
100
DictionaryVariables
280
     0
  1
0
  0
DICTIONARYVAR
  5
3C7
102
{ACAD_REACTORS
330
5D
102
}
330
5D
100
DictionaryVariables
280
     0
  1
2
  0
DICTIONARYVAR
  5
128
102
{ACAD_REACTORS
330
5D
102
}
330
5D
100
DictionaryVariables
280
     0
  1
1
  0
DICTIONARYVAR
  5
AF6
102
{ACAD_REACTORS
330
5D
102
}
330
5D
100
DictionaryVariables
280
     0
  1
1
  0
DICTIONARYVAR
  5
AF7
102
{ACAD_REACTORS
330
5D
102
}
330
5D
100
DictionaryVariables
280
     0
  1
15
  0
DICTIONARYVAR
  5
AF5
102
{ACAD_REACTORS
330
5D
102
}
330
5D
100
DictionaryVariables
280
     0
  1
0
  0
DICTIONARYVAR
  5
AF3
102
{ACAD_REACTORS
330
5D
102
}
330
5D
100
DictionaryVariables
280
     0
  1
0
  0
DICTIONARYVAR
  5
12C7
102
{ACAD_REACTORS
330
5D
102
}
330
5D
100
DictionaryVariables
280
     0
  1
127
  0
DICTIONARY
  5
143
102
{ACAD_REACTORS
330
142
102
}
330
142
100
AcDbDictionary
281
     1
  0
XRECORD
  5
47D
102
{ACAD_REACTORS
330
142
102
}
330
142
100
AcDbXrecord
280
     1
 90
-1056964608
  0
DICTIONARY
  5
172
102
{ACAD_REACTORS
330
171
102
}
330
171
100
AcDbDictionary
281
     1
  3
DWGSETTINGS
350
1DD3
  3
TRANSSETTINGS
350
1DD7
  0
ACAMGFILTERDAT
  5
15CD
102
{ACAD_REACTORS
330
1F2
102
}
330
1F2
100
AcAmgFilterDat
 70
    15
  1
DIMENSION,AMDT_*_DIM
  2
*
  3
*
  4
*
  5
*
290
     1
  0
ACAMGFILTERDAT
  5
15CE
102
{ACAD_REACTORS
330
1F2
102
}
330
1F2
100
AcAmgFilterDat
 70
    15
  1
*
  2
AM_FEA-AM_*
  3
*
  4
*
  5
*
290
     1
  0
ACAMGFILTERDAT
  5
15CF
102
{ACAD_REACTORS
330
1F2
102
}
330
1F2
100
AcAmgFilterDat
 70
    15
  1
HATCH
  2
*
  3
*
  4
*
  5
*
290
     1
  0
ACAMGFILTERDAT
  5
15D0
102
{ACAD_REACTORS
330
1F2
102
}
330
1F2
100
AcAmgFilterDat
 70
    15
  1
ACMFCFRAME,ACMDATUMTARGET,ACMDATUMID,ACMWELDSYM,ACMSURFSYM,ACMFEATID,ACMPARTREF,ACMBALLOON
  2
*
  3
*
  4
*
  5
*
290
     1
  0
XRECORD
  5
84B
102
{ACAD_REACTORS
330
849
102
}
330
849
100
AcDbXrecord
280
     1
  0
LAYER_INDEX
  5
12C
102
{ACAD_REACTORS
330
12B
102
}
330
12B
100
AcDbIndex
 40
2456359.637406539
100
AcDbLayerIndex
  8
0
360
12D
 90
        0
  8
AM_0
360
59B
 90
        1
  8
Sketch Geometry(ISO)
360
8F9
 90
        0
  8
Visible Edges(ISO)
360
AD1
 90
        0
  8
AM_5
360
AD4
 90
        0
  8
Defpoints
360
1800
 90
        0
  0
DICTIONARY
  5
824
330
16A
100
AcDbDictionary
280
     1
281
     1
  3
ACAD_XREC_ROUNDTRIP
360
2287
  3
ADSK_XREC_LAYOUTTHUMBNAIL
360
825
  0
DICTIONARY
  5
2285
330
169
100
AcDbDictionary
280
     1
281
     1
  3
ACAD_XREC_ROUNDTRIP
360
2286
  0
DICTIONARY
  5
A40
330
A3F
100
AcDbDictionary
280
     1
281
     1
  3
ACAD_XREC_ROUNDTRIP
360
12D1
  3
BUMPTILE
360
A42
  3
DIFFUSETILE
360
A41
  3
OPACITYTILE
360
A45
  3
REFLECTIONTILE
360
A44
  3
REFRACTIONTILE
360
A46
  3
SPECULARTILE
360
A43
  0
DICTIONARY
  5
A38
330
A37
100
AcDbDictionary
280
     1
281
     1
  3
ACAD_XREC_ROUNDTRIP
360
12D0
  3
BUMPTILE
360
A3A
  3
DIFFUSETILE
360
A39
  3
OPACITYTILE
360
A3D
  3
REFLECTIONTILE
360
A3C
  3
REFRACTIONTILE
360
A3E
  3
SPECULARTILE
360
A3B
  0
DICTIONARY
  5
A48
330
A47
100
AcDbDictionary
280
     1
281
     1
  3
ACAD_XREC_ROUNDTRIP
360
12D2
  3
BUMPTILE
360
A4A
  3
DIFFUSETILE
360
A49
  3
OPACITYTILE
360
A4D
  3
REFLECTIONTILE
360
A4C
  3
REFRACTIONTILE
360
A4E
  3
SPECULARTILE
360
A4B
  0
DICTIONARY
  5
AED
330
651
100
AcDbDictionary
280
     1
281
     1
  3
ACAD_ROUNDTRIP_2008_TABLESTYLE_CELLSTYLEMAP
360
227C
  3
ACAD_XREC_ROUNDTRIP
360
2288
  0
IDBUFFER
  5
12D
330
0
100
AcDbIdBuffer
  0
IDBUFFER
  5
59B
330
0
100
AcDbIdBuffer
330
2279
  0
IDBUFFER
  5
8F9
330
0
100
AcDbIdBuffer
  0
IDBUFFER
  5
AD1
330
0
100
AcDbIdBuffer
  0
IDBUFFER
  5
AD4
330
0
100
AcDbIdBuffer
  0
IDBUFFER
  5
1800
330
0
100
AcDbIdBuffer
  0
XRECORD
  5
2287
102
{ACAD_REACTORS
330
824
102
}
330
824
100
AcDbXrecord
280
     1
102
SHADEPLOT
 70
     0
102
SHADEPLOTRESLEVEL
 70
     2
102
SHADEPLOTCUSTOMDPI
 70
   300
  0
XRECORD
  5
825
102
{ACAD_REACTORS
330
824
102
}
330
824
100
AcDbXrecord
280
     1
310
28000000B40000008B0000000100080000000000BC610000000000000000000000010000000000000000000000000000FFFFFF000000000000000000000000000000000000000000000000000000000000000000330000006600000099000000CC000000FF00000000330000333300006633000099330000CC330000FF3300
310
0000660000336600006666000099660000CC660000FF66000000990000339900006699000099990000CC990000FF99000000CC000033CC000066CC000099CC0000CCCC0000FFCC000000FF000033FF000066FF000099FF0000CCFF0000FFFF000000003300330033006600330099003300CC003300FF003300003333003333
310
33006633330099333300CC333300FF33330000663300336633006666330099663300CC663300FF66330000993300339933006699330099993300CC993300FF99330000CC330033CC330066CC330099CC3300CCCC3300FFCC330000FF330033FF330066FF330099FF3300CCFF3300FFFF330000006600330066006600660099
310
006600CC006600FF00660000336600333366006633660099336600CC336600FF33660000666600336666006666660099666600CC666600FF66660000996600339966006699660099996600CC996600FF99660000CC660033CC660066CC660099CC6600CCCC6600FFCC660000FF660033FF660066FF660099FF6600CCFF6600
310
FFFF660000009900330099006600990099009900CC009900FF00990000339900333399006633990099339900CC339900FF33990000669900336699006666990099669900CC669900FF66990000999900339999006699990099999900CC999900FF99990000CC990033CC990066CC990099CC9900CCCC9900FFCC990000FF99
310
0033FF990066FF990099FF9900CCFF9900FFFF99000000CC003300CC006600CC009900CC00CC00CC00FF00CC000033CC003333CC006633CC009933CC00CC33CC00FF33CC000066CC003366CC006666CC009966CC00CC66CC00FF66CC000099CC003399CC006699CC009999CC00CC99CC00FF99CC0000CCCC0033CCCC0066CC
310
CC0099CCCC00CCCCCC00FFCCCC0000FFCC0033FFCC0066FFCC0099FFCC00CCFFCC00FFFFCC000000FF003300FF006600FF009900FF00CC00FF00FF00FF000033FF003333FF006633FF009933FF00CC33FF00FF33FF000066FF003366FF006666FF009966FF00CC66FF00FF66FF000099FF003399FF006699FF009999FF00CC
310
99FF00FF99FF0000CCFF0033CCFF0066CCFF0099CCFF00CCCCFF00FFCCFF0000FFFF0033FFFF0066FFFF0099FFFF00CCFFFF00FFFFFF00000000000D0D0D001A1A1A00282828003535350043434300505050005D5D5D006B6B6B00787878008686860093939300A1A1A100AEAEAE00BBBBBB00C9C9C900D6D6D600E4E4E400
310
F1F1F100FFFFFF0000000000000000000000000000000000000000000000000000000000000000000000000000000000E2E2E2E2E2E2E2E2E2E2E2E2E2E2E2E2E2E2E2E2E2E2E2E2E2E2E2E2E2E2E2E2E2E2E2E2E2E2E2E2E2E2E2E2E2E2E2E2E2E2E2E2E2E2E2E2E2E2E2E2E2E2E2E2E2E2E2E2E2E2E2E2E2E2E2E2E2E2E2
310
E2E2E2E2E2E2E2E2E2E2E2E2E2E2E2E2E2E2E2E2E2E2E2E2E2E2E2E2E2E2E2E2E2E2E2E2E2E2E2E2E2E2E2E2E2E2E2E2E2E2E2E2E2E2E2E2E2E2E2E2E2E2E2E2E2E2E2E2E2E2E2E2E2E2E2E2E2E2E2E2E2E2E2E2E2E2E2E2E2E2E2E2E2E2E2E2E2E2E2E2E2E2E2E2E2E2E2E2E2E2E2E2E2E2E2E2E2E2E2E2E2E2E2E2E2E2E2
310
E2E2E2E2E2E2E2E2E2E2E2E2E2E2E2E2E2E2E2E2E2E2E2E2E2E2E2E2E2E2E2E2E2E2E2E2E2E2E2E2E2E2E2E2E2E2E2E2E2E2E2E2E2E2E2E2E2E2E2E2E2E2E2E2E2E2E2E2E2E2E2E2E2E2E2E2E2E2E2E2E2E2E2E2E2E2E2E2E2E2E2E2E2E2E2E2E2E2E2E2E2E2E2E2E2E2E2E2E2E2E2E2E2E2E2E2E2E2E2E2E2E2E2E2E2E2E2
310
E2E2E2E2E2E2E2E2E2E2E2E2E2E2E2E2E2E2E2E2E2E2E2E2E2E2E2E2E2E2E2E2E2E2E2E2E2E2E2E2E2E2E2E2E2E2E2E2E2E2E2E2E2E2E2E2E2E2E2E2E2E2E2E2E2E2E2E2E2E2E2E2E2E2E2E2E2E2E2E2E2E2E2E2E2E2E2E2E2E2E2E2E2E2E2E2E2E2E2E2E2E2E2E2E2E2E2E2E2E2E2E2E2E2E2E2E2E2E2E2E2E2E2E2E2E2E2
310
E2E2E2E2E2E2E2E2E2E2E2E2E2E2E2E2E2E2E2E2E2E2E2E2E2E2E2E2E2E2E2E2E2E2E2E2E2E2E2E2E2E2E2E2E2E2E2E2E2E2E2E2E2E2E2E2E2E2E2E2E2E2E2E2E2E2E2E2E2E2E2E2E2E2E2E2E2E2E2E2E2E2E2E2E2E2E2E2E2E2E2E2E2E2E2E2E2E2E2E2E2E2E2E2E2E2E2E2E2E2E2E2E2E2E2E2E2E2E2E2E2E2E2E2E2E2E2
310
E2E2E2E2E2E2E2E2E2E2E2E2E2E2E2E2E2E2E2E2E2E2E2E2E2E2E2E2E2E2E2E2E2E2E2E2E2E2E2E2E2E2E2E2E2E2E2E2E2E2E2E2E2E2E2E2E2E2E2E2E2E2E2E2E2E2E2E2E2E2E2E2E2E2E2E2E2E2E2E2E2E2E2E2E2E2E2E2E2E2E2E2E2E2E2E2E2E2E2E2E2E2E2E2E2E2E2E2E2E2E2E2E2E2E2E2E2E2E2E2E2E2E2E2E2E2E2
310
E2E2E2E2E2E2E2E2E2E2E2E2E2E2E2E2E2E2E2E2E2E2E2E2E2E2E2E2E2E2E2E2E2E2E2E2E2E2E2E2E2E2E2E2E2E2E2E2E2E2E2E2E2E2E2E2E2E2E2E2E2E2E2E2E2E2E2E2E2E2E2E2E2E2E2E2E2E2E2E2E2E2E2E2E2E2E2E2E2E2E2E2E2E2E2E2E2E2E2E2E2E2E2E2E2E2E2E2E2E2E2E2E2E2E2E2E2E2E2E2E2E2E2E2E2E2E2
310
E2E2E2E2E2E2E2E2E2E2E2E2E2E2E2E2E2E2E2E2E2E2E2E2E2E2E2E2E2E2E2E2E2E2E2E2E2E2E2E2E2E2E2E2E2E2E2E2E2E2E2E2E2E2E2E2E2E2E2E2E2E2E2E2E2E2E2E2E2E2E2E2E2E2E2E2E2E2E2E2E2E2E2E2E2E2E2E2E2E2E2E2E2E2E2E2E2E2E2E2E2E2E2E2E2E2E2E2E2E2E2E2E2E2E2E2E2E2E2E2E2E2E2E2E2E2E2
310
E2E2E2E2E2E2E2E2E2E2E2E2E2E2E2E2E2E2E2E2E2E2E2E2E2E2E2E2E2E2E2E2E2E2E2E2E2E2E2E2E2E2E2E2E2E2E2E2E2E2E2E2E2E2E2E2E2E2E2E2E2E2E2E2E2E2E2E2E2E2E2E2E2E2E2E2E2E2E2E2E2E2E2E2E2E2E2E2E2E2E2E2E2E2E2E2E2E2E2E2E2E2E2E2E2E2E2E2E2E2E2E2E2E2E2E2E2E2E2E2E2E2E2E2E2E2E2
310
E2E2E2E2E2E2E2E2E2E2E2E2E2E2E2E2E2E2E2E2E2E2E2E2E2E2E2E2E2E2E2E2E2E2E2E2E2E2E2E2E2E2E2E2E2E2E2E2E2E2E2E2E2E2E2E2E2E2E2E2E2E2E2E2E2E2E2E2E2E2E2E2E2E2E2E2E2E2E2E2E2E2E2E2E2E2E2E2E2E2E2E2E2E2E2E2E2E2E2E2E2E2E2E2E2E2E2E2E2E2E2E2E2E2E2E2E2E2E2E2E2E2E2E2E2E2E2
310
E2E2E2E2E2E2E2E2E2E2E2E2E2E2E2E2E2E2E2E2E2E2E2E2E2E2E2E2E2E2E2E2E2E2E2E2E2E2E2E2E2E2E2E2E2E2E2E2E2E2E2E2E2E2E2E2E2E2E2E2E2E2E2E2E2E2E2E2E2E2E2E2E2E2E2E2E2E2E2E2E2E2E2E2E2E2E2E2E2E2E2E2E2E2E2E2E2E2E2E2E2E2E2E2E2E2E2E2E2E2E2E2E2E2E2E2E2E2E2E2E2E2E2E2E2E2E2
310
E2E2E2E2E2E2E2E2E2E2E2E2E2E2E2E2E2E2E2E2E2E2E2E2E2E2E2E2E2E2E2E2E2E2E2E2E2E2E2E2E2E2E2E2E2E2E2E2E2E2E2E2E2E2E2E2E2E2E2E2E2E2E2E2E2E2E2E2E2E2E2E2E2E2E2E2E2E2E2E2E2E2E2E2E2E2E2E2E2E2E2E2E2E2E2E2E2E2E2E2E2E2E2E2E2E2E2E2E2E2E2E2E2E2E2E2E2E2E2E2E2E2E2E2E2E2E2
310
E2E2E2E2E2E2E2E2E2E2E2E2E2E2E2E2E2E2E2E2E2E2E2E2E2E2E2E2E2E2E2E2E2E2E2E2E2E2E2E2E2E2E2E2E2E2E2E2E2E2E2E2E2E2E2E2E2E2E2E2E2E2E2E2E2E2E2E2E2E2E2E2E2E2E2E2E2E2E2E2E2E2E2E2E2E2E2E2E2E2E2E2E2E2E2E2E2E2E2E2E2E2E2E2E2E2E2E2E2E2E2E2E2E2E2E2E2E2E2E2E2E2E2E2E2E2E2
310
E2E2E2E2E2E2E2E2E2E2E2E2E2E2E2E2E2E2E2E2E2E2E2E2E2E2E2E2E2E2E2E2E2E2E2E2E2E2E2E2E2E2E2E2E2E2E2E2E2E2E2E2E2E2E2E2E2E2E2E2E2E2E2E2E2E2E2E2E2E2E2E2E2E2E2E2E2E2E2E2E2E2E2E2E2E2E2E2E2E2E2E2E2E2E2E2E2E2E2E2E2E2E2E2E2E2E2E2E2E2E2E2E2E2E2E2E2E2E2E2E2E2E2E2E2E2E2
310
E2E2E2E2E2E2E2E2E2E2E2E2E2E2E2E2E2E2E2E2E2E2E2E2E2E2E2E2E2E2E2E2E2E2E2E2E2E2E2E2E2E2E2E2E2E2E2E2E2E2E2E2E2E2E2E2E2E2E2E2E2E2E2E2E2E2E2E2E2E2E2E2E2E2E2E2E2E2E2E2E2E2E2E2E2E2E2E2E2E2E2E2E2E2E2E2E2E2E2E2E2E2E2E2E2E2E2E2E2E2E2E2E2E2E2E2E2E2E2E2E2E2E2E2E2E2E2
310
E2E2E2E2E2E2E2E2E2E2E2E2E2E2E2E2E2E2E2E2E2E2E2E2E2E2E2E2E2E2E2E2E2E2E2E2E2E2E2E2E2E2E2E2E2E2E2E2E2E2E2E2E2E2E2E2E2E2E2E2E2E2E2E2E2E2E2E2E2E2E2E2E2E2E2E2E2E2E2E2E2E2E2E2E2E2E2E2E2E2E2E2E2E2E2E2E2E2E2E2E2E2E2E2E2E2E2E2E2E2E2E2E2E2E2E2E2E2E2E2E2E2E2E2E2E2E2
310
E2E2E2E2E2E2E2E2E2E2E2E2E2E2E2E2E2E2E2E2E2E2E2E2E2E2E2E2E2E2E2E2E2E2E2E2E2E2E2E2E2E2E2E2E2E2E2E2E2E2E2E2E2E2E2E2E2E2E2E2E2E2E2E2E2E2E2E2E2E2E2E2E2E2E2E2E2E2E2E2E2E2E2E2E2E2E2E2E2E2E2E2E2E2E2E2E2E2E2E2E2E2E2E2E2E2E2E2E2E2E2E2E2E2E2E2E2E2E2E2E2E2E2E2E2E2E2
310
E2E2E2E2E2E2E2E2E2E2E2E2E2E2E2E2E2E2E2E2E2E2E2E2E2E2E2E2E2E2E2E2E2E2E2E2E2E2E2E2E2E2E2E2E2E2E2E2E2E2E2E2E2E2E2E2E2E2E2E2E2E2E2E2E2E2E2E2E2E2E2E2E2E2E2E2E2E2E2E2E2E2E2E2E2E2E2E2E2E2E2E2E2E2E2E2E2E2E2E2E2E2E2E2E2E2E2E2E2E2E2E2E2E2E2E2E2E2E2E2E2E2E2E2E2E2E2
310
E2E2E2E2E2E2E2E2E2E2E2E2E2E2E2E2E2E2E2E2E2E2E2E2E2E2E2E2E2E2E2E2E2E2E2E2E2E2E2E2E2E2E2E2E2E2E2E2E2E2E2E2E2E2E2E2E2E2E2E2E2E2E2E2E2E2E2E2E2E2E2E2E2E2E2E2E2E2E2E2E2E2E2E2E2E2E2E2E2E2E2E2E2E2E2E2E2E2E2E2E2E2E2E2E2E2E2E2E2E2E2E2E2E2E2E2E2E2E2E2E2E2E2E2E2E2E2
310
E2E2E2E2E2E2E2E2E2E2E2E2E2E2E2E2E2E2E2E2E2E2E2E2E2E2E2E2E2E2E2E2E2E2E2E2E2E2E2E2E2E2E2E2E2E2E2E2E2E2E2E2E2E2E2E2E2E2E2E2E2E2E2E2E2E2E2E2E2E2E2E2E2E2E2E2E2E2E2E2E2E2E2E2E2E2E2E2E2E2E2E2E2E2E2E2E2E2E2E2E2E2E2E2E2E2E2E2E2E2E2E2E2E2E2E2E2E2E2E2E2E2E2E2E2E2E2
310
E2E2E2E2E2E2E2E2E2E2E2E2E2E2E2E2E2E2E2E2E2E2E2E2E2E2E2E2E2E2E2E2E2E2E2E2E2E2E2E2E2E2E2E2E2E2E2E2E2E2E2E2E2E2E2E2E2E2E2E2E2E2E2E2E2E2E2E2E2E2E2E2E2E2E2E2E2E2E2E2E2E2E2E2E2E2E2E2E2E2E2E2E2E2E2E2E2E2E2E2E2E2E2E2E2E2E2E2E2E2E2E2E2E2E2E2E2E2E2E2E2E2E2E2E2E2E2
310
E2E2E2E2E2E2E2E2E2E2E2E2E2E2E2E2E2E2E2E2E2E2E2E2E2E2E2E2E2E2E2E2E2E2E2E2E2E2E2E2E2E2E2E2E2E2E2E2E2E2E2E2E2E2E2E2E2E2E2E2E2E2E2E2E2E2E2E2E2E2E2E2E2E2E2E2E2E2E2E2E2E2E2E2E2E2E2E2E2E2E2E2E2E2E2E2E2E2E2E2E2E2E2E2E2E2E2E2E2E2E2E2E2E2E2E2E2E2E2E2E2E2E2E2E2E2E2
310
E2E2E2E2E2E2E2E2E2E2E2E2E2E2E2E2E2E2E2E2E2E2E2E2E2E2E2E2E2E2E2E2E2E2E2E2E2E2E2E2E2E2E2E2E2E2E2E2E2E2E2E2E2E2E2E2E2E2E2E2E2E2E2E2E2E2E2E2E2E2E2E2E2E2E2E2E2E2E2E2E2E2E2E2E2E2E2E2E2E2E2E2E2E2E2E2E2E2E2E2E2E2E2E2E2E2E2E2E2E2E2E2E2E2E2E2E2E2E2E2E2E2E2E2E2E2E2
310
E2E2E2E2E2E2E2E2E2E2E2E2E2E2E2E2E2E2E2E2E2E2E2E2E2E2E2E2E2E2E2E2E2E2E2E2E2E2E2E2E2E2E2E2E2E2E2E2E2E2E2E2E2E2E2E2E2E2E2E2E2E2E2E2E2E2E2E2E2E2E2E2E2E2E2E2E2E2E2E2E2E2E2E2E2E2E2E2E2E2E2E2E2E2E2E2E2E2E2E2E2E2E2E2E2E2E2E2E2E2E2E2E2E2E2E2E2E2E2E2E2E2E2E2E2E2E2
310
E2E2E2E2E2E2E2E2E2E2E2E2E2E2E2E2E2E2E2E2E2E2E2E2E2E2E2E2E2E2E2E2E2E2E2E2E2E2E2E2E2E2E2E2E2E2E2E2E2E2E2E2E2E2E2E2E2E2E2E2E2E2E2E2E2E2E2E2E2E2E2E2E2E2E2E2E2E2E2E2E2E2E2E2E2E2E2E2E2E2E2E2E2E2E2E2E2E2E2E2E2E2E2E2E2E2E2E2E2E2E2E2E2E2E2E2E2E2E2E2E2E2E2E2E2E2E2
310
E2E2E2E2E2E2E2E2E2E2E2E2E2E2E2E2E2E2E2E2E2E2E2E2E2E2E2E2E2E2E2E2E2E2E2E2E2E2E2E2E2E2E2E2E2E2E2E2E2E2E2E2E2E2E2E2E2E2E2E2E2E2E2E2E2E2E2E2E2E2E2E2E2E2E2E2E2E2E2E2E2E2E2E2E2E2E2E2E2E2E2E2E2E2E2E2E2E2E2E2E2E2E2E2E2E2E2E2E2E2E2E2E2E2E2E2E2E2E2E2E2E2E2E2E2E2E2
310
E2E2E2E2E2E2E2E2E2E2E2E2E2E2E2E2E2E2E2E2E2E2E2E2E2E2E2E2E2E2E2E2E2E2E2E2E2E2E2E2E2E2E2E2E2E2E2E2E2E2E2E2E2E2E2E2E2E2E2E2E2E2E2E2E2E2E2E2E2E2E2E2E2E2E2E2E2E2E2E2E2E2E2E2E2E2E2E2E2E2E2E2E2E2E2E2E2E2E2E2E2E2E2E2E2E2E2E2E2E2E2E2E2E2E2E2E2E2E2E2E2E2E2E2E2E2E2
310
E2E2E2E2E2E2E2E2E2E2E2E2E2E2E2E2E2E2E2E2E2E2E2E2E2E2E2E2E2E2E2E2E2E2E2E2E2E2E2E2E2E2E2E2E2E2E2E2E2E2E2E2E2E2E2E2E2E2E2E2E2E2E2E2E2E2E2E2E2E2E2E2E2E2E2E2E2E2E2E2E2E2E2E2E2E2E2E2E2E2E2E2E2E2E2E2E2E2E2E2E2E2E2E2E2E2E2E2E2E2E2E2E2E2E2E2E2E2E2E2E2E2E2E2E2E2E2
310
E2E2E2E2E2E2E2E2E2E2E2E2E2E2E2E2E2E2E2E2E2E2E2E2E2E2E2E2E2E2E2E2E2E2E2E2E2E2E2E2E2E2E2E2E2E2E2E2E2E2E2E2E2E2E2E2E2E2E2E2E2E2E2E2E2E2E2E2E2E2E2E2E2E2E2E2E2E2E2E2E2E2E2E2E2E2E2E2E2E2E2E2E2E2E2E2E2E2E2E2E2E2E2E2E2E2E2E2E2E2E2E2E2E2E2E2E2E2E2E2E2E2E2E2E2E2E2
310
E2E2E2E2E2E2E2E2E2E2E2E2E2E2E2E2E2E2E2E2E2E2E2E2E2E2E2E2E2E2E2E2E2E2E2E2E2E2E2E2E2E2E2E2E2E2E2E2E2E2E2E2E2E2E2E2E2E2E2E2E2E2E2E2E2E2E2E2E2E2E2E2E2E2E2E2E2E2E2E2E2E2E2E2E2E2E2E2E2E2E2E2E2E2E2E2E2E2E2E2E2E2E2E2E2E2E2E2E2E2E2E2E2E2E2E2E2E2E2E2E2E2E2E2E2E2E2
310
E2E2E2E2E2E2E2E2E2E2E2E2E2E2E2E2E2E2E2E2E2E2E2E2E2E2E2E2E2E2E2E2E2E2E2E2E2E2E2E2E2E2E2E2E2E2E2E2E2E2E2E2E2E2E2E2E2E2E2E2E2E2E2E2E2E2E2E2E2E2E2E2E2E2E2E2E2E2E2E2E2E2E2E2E2E2E2E2E2E2E2E2E2E2E2E2E2E2E2E2E2E2E2E2E2E2E2E2E2E2E2E2E2E2E2E2E2E2E2E2E2E2E2E2E2E2E2
310
E2E2E2E2E2E2E2E2E2E2E2E2E2E2E2E2E2E2E2E2E2E2E2E2E2E2E2E2E2E2E2E2E2E2E2E2E2E2E2E2E2E2E2E2E2E2E2E2E2E2E2E2E2E2E2E2E2E2E2E2E2E2E2E2E2E2E2E2E2E2E2E2E2E2E2E2E2E2E2E2E2E2E2E2E2E2E2E2E2E2E2E2E2E2E2E2E2E2E2E2E2E2E2E2E2E2E2E2E2E2E2E2E2E2E2E2E2E2E2E2E2E2E2E2E2E2E2
310
E2E2E2E2E2E2E2E2E2E2E2E2E2E2E2E2E2E2E2E2E2E2E2E2E2E2E2E2E2E2E2E2E2E2E2E2E2E2E2E2E2E2E2E2E2E2E2E2E2E2E2E2E2E2E2E2E2E2E2E2E2E2E2E2E2E2E2E2E2E2E2E2E2E2E2E2E2E2E2E2E2E2E2E2E2E2E2E2E2E2E2E2E2E2E2E2E2E2E2E2E2E2E2E2E2E2E2E2E2E2E2E2E2E2E2E2E2E2E2E2E2E2E2E2E2E2E2
310
E2E2E2E2E2E2E2E2E2E2E2E2E2E2E2E2E2E2E2E2E2E2E2E2E2E2E2E2E2E2E2E2E2E2E2E2E2E2E2E2E2E2E2E2E2E2E2E2E2E2E2E2E2E2E2E2E2E2E2E2E2E2E2E2E2E2E2E2E2E2E2E2E2E2E2E2E2E2E2E2E2E2E2E2E2E2E2E2E2E2E2E2E2E2E2E2E2E2E2E2E2E2E2E2E2E2E2E2E2E2E2E2E2E2E2E2E2E2E2E2E2E2E2E2E2E2E2
310
E2E2E2E2E2E2E2E2E2E2E2E2E2E2E2E2E2E2E2E2E2E2E2E2E2E2E2E2E2E2E2E2E2E2E2E2E2E2E2E2E2E2E2E2E2E2E2E2E2E2E2E2E2E2E2E2E2E2E2E2E2E2E2E2E2E2E2E2E2E2E2E2E2E2E2E2E2E2E2E2E2E2E2E2E2E2E2E2E2E2E2E2E2E2E2E2E2E2E2E2E2E2E2E2E2E2E2E2E2E2E2E2E2E2E2E2E2E2E2E2E2E2E2E2E2E2E2
310
E2E2E2E2E2E2E2E2E2E2E2E2E2E2E2E2E2E2E2E2E2E2E2E2E2E2E2E2E2E2E2E2E2E2E2E2E2E2E2E2E2E2E2E2E2E2E2E2E2E2E2E2E2E2E2E2E2E2E2E2E2E2E2E2E2E2E2E2E2E2E2E2E2E2E2E2E2E2E2E2E2E2E2E2E2E2E2E2E2E2E2E2E2E2E2E2E2E2E2E2E2E2E2E2E2E2E2E2E2E2E2E2E2E2E2E2E2E2E2E2E2E2E2E2E2E2E2
310
E2E2E2E2E2E2E2E2E2E2E2E2E2E2E2E2E2E2E2E2E2E2E2E2E2E2E2E2E2E2E2E2E2E2E2E2E2E2E2E2E2E2E2E2E2E2E2E2E2E2E2E2E2E2E2E2E2E2E2E2E2E2E2E2E2E2E2E2E2E2E2E2E2E2E2E2E2E2E2E2E2E2E2E2E2E2E2E2E2E2E2E2E2E2E2E2E2E2E2E2E2E2E2E2E2E2E2E2E2E2E2E2E2E2E2E2E2E2E2E2E2E2E2E2E2E2E2
310
E2E2E2E2E2E2E2E2E2E2E2E2E2E2E2E2E2E2E2E2E2E2E2E2E2E2E2E2E2E2E2E2E2E2E2E2E2E2E2E2E2E2E2E2E2E2E2E2E2E2E2E2E2E2E2E2E2E2E2E2E2E2E2E2E2E2E2E2E2E2E2E2E2E2E2E2E2E2E2E2E2E2E2E2E2E2E2E2E2E2E2E2E2E2E2E2E2E2E2E2E2E2E2E2E2E2E2E2E2E2E2E2E2E2E2E2E2E2E2E2E2E2E2E2E2E2E2
310
E2E2E2E2E2E2E2E2E2E2E2E2E2E2E2E2E2E2E2E2E2E2E2E2E2E2E2E2E2E2E2E2E2E2E2E2E2E2E2E2E2E2E2E2E2E2E2E2E2E2E2E2E2E2E2E2E2E2E2E2E2E2E2E2E2E2E2E2E2E2E2E2E2E2E2E2E2E2E2E2E2E2E2E2E2E2E2E2E2E2E2E2E2E2E2E2E2E2E2E2E2E2E2E2E2E2E2E2E2E2E2E2E2E2E2E2E2E2E2E2E2E2E2E2E2E2E2
310
E2E2E2E2E2E2E2E2E2E2E2E2E2E2E2E2E2E2E2E2E2E2E2E2E2E2E2E2E2E2E2E2E2E2E2E2E2E2E2E2E2E2E2E2E2E2E2E2E2E2E2E2E2E2E2E2E2E2E2E2E2E2E2E2E2E2E2E2E2E2E2E2E2E2E2E2E2E2E2E2E2E2E2E2E2E2E2E2E2E2E2E2E2E2E2E2E2E2E2E2E2E2E2E2E2E2E2E2E2E2E2E2E2E2E2E2E2E2E2E2E2E2E2E2E2E2E2
310
E2E2E2E2E2E2E2E2E2E2E2E2E2E2E2E2E2E2E2E2E2E2E2E2E2E2E2E2E2E2E2E2E2E2E2E2E2E2E2E2E2E2E2E2E2E2E2E2E2E2E2E2E2E2E2E2E2E2E2E2E2E2E2E2E2E2E2E2E2E2E2E2E2E2E2E2E2E2E2E2E2E2E2E2E2E2E2E2E2E2E2E2E2E2E2E2E2E2E2E2E2E2E2E2E2E2E2E2E2E2E2E2E2E2E2E2E2E2E2E2E2E2E2E2E2E2E2
310
E2E2E2E2E2E2E2E2E2E2E2E2E2E2E2E2E2E2E2E2E2E2E2E2E2E2E2E2E2E2E2E2E2E2E2E2E2E2E2E2E2E2E2E2E2E2E2E2E2E2E2E2E2E2E2E2E2E2E2E2E2E2E2E2E2E2E2E2E2E2E2E2E2E2E2E2E2E2E2E2E2E2E2E2E2E2E2E2E2E2E2E2E2E2E2E2E2E2E2E2E2E2E2E2E2E2E2E2E2E2E2E2E2E2E2E2E2E2E2E2E2E2E2E2E2E2E2
310
E2E2E2E2E2E2E2E2E2E2E2E2E2E2E2E2E2E2E2E2E2E2E2E2E2E2E2E2E2E2E2E2E2E2E2E2E2E2E2E2E2E2E2E2E2E2E2E2E2E2E2E2E2E2E2E2E2E2E2E2E2E2E2E2E2E2E2E2E2E2E2E2E2E2E2E2E2E2E2E2E2E2E2E2E2E2E2E2E2E2E2E2E2E2E2E2E2E2E2E2E2E2E2E2E2E2E2E2E2E2E2E2E2E2E2E2E2E2E2E2E2E2E2E2E2E2E2
310
E2E2E2E2E2E2E2E2E2E2E2E2E2E2E2E2E2E2E2E2E2E2E2E2E2E2E2E2E2E2E2E2E2E2E2E2E2E2E2E2E2E2E2E2E2E2E2E2E2E2E2E2E2E2E2E2E2E2E2E2E2E2E2E2E2E2E2E2E2E2E2E2E2E2E2E2E2E2E2E2E2E2E2E2E2E2E2E2E2E2E2E2E2E2E2E2E2E2E2E2E2E2E2E2E2E2E2E2E2E2E2E2E2E2E2E2E2E2E2E2E2E2E2E2E2E2E2
310
E2E2E2E2E2E2E2E2E2E2E2E2E2E2E2E2E2E2E2E2E2E2E2E2E2E2E2E2E2E2E2E2E2E2E2E2E2E2E2E2E2E2E2E2E2E2E2E2E2E2E2E2E2E2E2E2E2E2E2E2E2E2E2E2E2E2E2E2E2E2E2E2E2E2E2E2E2E2E2E2E2E2E2E2E2E2E2E2E2E2E2E2E2E2E2E2E2E2E2E2E2E2E2E2E2E2E2E2E2E2E2E2E2E2E2E2E2E2E2E2E2E2E2E2E2E2E2
310
E2E2E2E2E2E2E2E2E2E2E2E2E2E2E2E2E2E2E2E2E2E2E2E2E2E2E2E2E2E2E2E2E2E2E2E2E2E2E2E2E2E2E2E2E2E2E2E2E2E2E2E2E2E2E2E2E2E2E2E2E2E2E2E2E2E2E2E2E2E2E2E2E2E2E2E2E2E2E2E2E2E2E2E2E2E2E2E2E2E2E2E2E2E2E2E2E2E2E2E2E2E2E2E2E2E2E2E2E2E2E2E2E2E2E2E2E2E2E2E2E2E2E2E2E2E2E2
310
E2E2E2E2E2E2E2E2E2E2E2E2E2E2E2E2E2E2E2E2E2E2E2E2E2E2E2E2E2E2E2E2E2E2E2E2E2E2E2E2E2E2E2E2E2E2E2E2E2E2E2E2E2E2E2E2E2E2E2E2E2E2E2E2E2E2E2E2E2E2E2E2E2E2E2E2E2E2E2E2E2E2E2E2E2E2E2E2E2E2E2E2E2E2E2E2E2E2E2E2E2E2E2E2E2E2E2E2E2E2E2E2E2E2E2E2E2E2E2E2E2E2E2E2E2E2E2
310
E2E2E2E2E2E2E2E2E2E2E2E2E2E2E2E2E2E2E2E2E2E2E2E2E2E2E2E2E2E2E2E2E2E2E2E2E2E2E2E2E2E2E2E2E2E2E2E2E2E2E2E2E2E2E2E2E2E2E2E2E2E2E2E2E2E2E2E2E2E2E2E2E2E2E2E2E2E2E2E2E2E2E2E2E2E2E2E2E2E2E2E2E2E2E2E2E2E2E2E2E2E2E2E2E2E2E2E2E2E2E2E2E2E2E2E2E2E2E2E2E2E2E2E2E2E2E2
310
E2E2E2E2E2E2E2E2E2E2E2E2E2E2E2E2E2E2E2E2E2E2E2E2E2E2E2E2E2E2E2E2E2E2E2E2E2E2E2E2E2E2E2E2E2E2E2E2E2E2E2E2E2E2E2E2E2E2E2E2E2E2E2E2E2E2E2E2E2E2E2E2E2E2E2E2E2E2E2E2E2E2E2E2E2E2E2E2E2E2E2E2E2E2E2E2E2E2E2E2E2E2E2E2E2E2E2E2E2E2E2E2E2E2E2E2E2E2E2E2E2E2E2E2E2E2E2
310
E2E2E2E2E2E2E2E2E2E2E2E2E2E2E2E2E2E2E2E2E2E2E2E2E2E2E2E2E2E2E2E2E2E2E2E2E2E2E2E2E2E2E2E2E2E2E2E2E2E2E2E2E2E2E2E2E2E2E2E2E2E2E2E2E2E2E2E2E2E2E2E2E2E2E2E2E2E2E2E2E2E2E2E2E2E2E2E2E2E2E2E2E2E2E2E2E2E2E2E2E2E2E2E2E2E2E2E2E2E2E2E2E2E2E2E2E2E2E2E2E2E2E2E2E2E2E2
310
E2E2E2E2E2E2E2E2E2E2E2E2E2E2E2E2E2E2E2E2E2E2E2E2E2E2E2E2E2E2E2E2E2E2E2E2E2E2E2E2E2E2E2E2E2E2E2E2E2E2E2E2E2E2E2E2E2E2E2E2E2E2E2E2E2E2E2E2E2E2E2E2E2E2E2E2E2E2E2E2E2E2E2E2E2E2E2E2E2E2E2E2E2E2E2E2E2E2E2E2E2E2E2E2E2E2E2E2E2E2E2E2E2E2E2E2E2E2E2E2E2E2E2E2E2E2E2
310
E2E2E2E2E2E2E2E2E2E2E2E2E2E2E2E2E2E2E2E2E2E2E2E2E2E2E2E2E2E2E2E2E2E2E2E2E2E2E2E2E2E2E2E2E2E2E2E2E2E2E2E2E2E2E2E2E2E2E2E2E2E2E2E2E2E2E2E2E2E2E2E2E2E2E2E2E2E2E2E2E2E2E2E2E2E2E2E2E2E2E2E2E2E2E2E2E2E2E2E2E2E2E2E2E2E2E2E2E2E2E2E2E2E2E2E2E2E2E2E2E2E2E2E2E2E2E2
310
E2E2E2E2E2E2E2E2E2E2E2E2E2E2E2E2E2E2E2E2E2E2E2E2E2E2E2E2E2E2E2E2E2E2E2E2E2E2E2E2E2E2E2E2E2E2E2E2E2E2E2E2E2E2E2E2E2E2E2E2E2E2E2E2E2E2E2E2E2E2E2E2E2E2E2E2E2E2E2E2E2E2E2E2E2E2E2E2E2E2E2E2E2E2E2E2E2E2E2E2E2E2E2E2E2E2E2E2E2E2E2E2E2E2E2E2E2E2E2E2E2E2E2E2E2E2E2
310
E2E2E2E2E2E2E2E2E2E2E2E2E2E2E2E2E2E2E2E2E2E2E2E2E2E2E2E2E2E2E2E2E2E2E2E2E2E2E2E2E2E2E2E2E2E2E2E2E2E2E2E2E2E2E2E2E2E2E2E2E2E2E2E2E2E2E2E2E2E2E2E2E2E2E2E2E2E2E2E2E2E2E2E2E2E2E2E2E2E2E2E2E2E2E2E2E2E2E2E2E2E2E2E2E2E2E2E2E2E2E2E2E2E2E2E2E2E2E2E2E2E2E2E2E2E2E2
310
E2E2E2E2E2E2E2E2E2E2E2E2E2E2E2E2E2E2E2E2E2E2E2E2E2E2E2E2E2E2E2E2E2E2E2E2E2E2E2E2E2E2E2E2E2E2E2E2E2E2E2E2E2E2E2E2E2E2E2E2E2E2E2E2E2E2E2E2E2E2E2E2E2E2E2E2E2E2E2E2E2E2E2E2E2E2E2E2E2E2E2E2E2E2E2E2E2E2E2E2E2E2E2E2E2E2E2E2E2E2E2E2E2E2E2E2E2E2E2E2E2E2E2E2E2E2E2
310
E2E2E2E2E2E2E2E2E2E2E2E2E2E2E2E2E2E2E2E2E2E2E2E2E2E2E2E2E2E2E2E2E2E2E2E2E2E2E2E2E2E2E2E2E2E2E2E2E2E2E2E2E2E2E2E2E2E2E2E2E2E2E2E2E2E2E2E2E2E2E2E2E2E2E2E2E2E2E2E2E2E2E2E2E2E2E2E2E2E2E2E2E2E2E2E2E2E2E2E2E2E2E2E2E2E2E2E2E2E2E2E2E2E2E2E2E2E2E2E2E2E2E2E2E2E2E2
310
E2E2E2E2E2E2E2E2E2E2E2E2E2E2E2E2E2E2E2E2E2E2E2E2E2E2E2E2E2E2E2E2E2E2E2E2E2E2E2E2E2E2E2E2E2E2E2E2E2E2E2E2E2E2E2E2E2E2E2E2E2E2E2E2E2E2E2E2E2E2E2E2E2E2E2E2E2E2E2E2E2E2E2E2E2E2E2E2E2E2E2E2E2E2E2E2E2E2E2E2E2E2E2E2E2E2E2E2E2E2E2E2E2E2E2E2E2E2E2E2E2E2E2E2E2E2E2
310
E2E2E2E2E2E2E2E2E2E2E2E2E2E2E2E2E2E2E2E2E2E2E2E2E2E2E2E2E2E2E2E2E2E2E2E2E2E2E2E2E2E2E2E2E2E2E2E2E2E2E2E2E2E2E2E2E2E2E2E2E2E2E2E2E2E2E2E2E2E2E2E2E2E2E2E2E2E2E2E2E2E2E2E2E2E2E2E2E2E2E2E2E2E2E2E2E2E2E2E2E2E2E2E2E2E2E2E2E2E2E2E2E2E2E2E2E2E2E2E2E2E2E2E2E2E2E2
310
E2E2E2E2E2E2E2E2E2E2E2E2E2E2E2E2E2E2E2E2E2E2E2E2E2E2E2E2E2E2E2E2E2E2E2E2E2E2E2E2E2E2E2E2E2E2E2E2E2E2E2E2E2E2E2E2E2E2E2E2E2E2E2E2E2E2E2E2E2E2E2E2E2E2E2E2E2E2E2E2E2E2E2E2E2E2E2E2E2E2E2E2E2E2E2E2E2E2E2E2E2E2E2E2E2E2E2E2E2E2E2E2E2E2E2E2E2E2E2E2E2E2E2E2E2E2E2
310
E2E2E2E2E2E2E2E2E2E2E2E2E2E2E2E2E2E2E2E2E2E2E2E2E2E2E2E2E2E2E2E2E2E2E2E2E2E2E2E2E2E2E2E2E2E2E2E2E2E2E2E2E2E2E2E2E2E2E2E2E2E2E2E2E2E2E2E2E2E2E2E2E2E2E2E2E2E2E2E2E2E2E2E2E2E2E2E2E2E2E2E2E2E2E2E2E2E2E2E2E2E2E2E2E2E2E2E2E2E2E2E2E2E2E2E2E2E2E2E2E2E2E2E2E2E2E2
310
E2E2E2E2E2E2E2E2E2E2E2E2E2E2E2E2E2E2E2E2E2E2E2E2E2E2E2E2E2E2E2E2E2E2E2E2E2E2E2E2E2E2E2E2E2E2E2E2E2E2E2E2E2E2E2E2E2E2E2E2E2E2E2E2E2E2E2E2E2E2E2E2E2E2E2E2E2E2E2E2E2E2E2E2E2E2E2E2E2E2E2E2E2E2E2E2E2E2E2E2E2E2E2E2E2E2E2E2E2E2E2E2E2E2E2E2E2E2E2E2E2E2E2E2E2E2E2
310
E2E2E2E2E2E2E2E2E2E2E2E2E2E2E2E2E2E2E2E2E2E2E2E2E2E2E2E2E2E2E2E2E2E2E2E2E2E2E2E2E2E2E2E2E2E2E2E2E2E2E2E2E2E2E2E2E2E2E2E2E2E2E2E2E2E2E2E2E2E2E2E2E2E2E2E2E2E2E2E2E2E2E2E2E2E2E2E2E2E2E2E2E2E2E2E2E2E2E2E2E2E2E2E2E2E2E2E2E2E2E2E2E2E2E2E2E2E2E2E2E2E2E2E2E2E2E2
310
E2E2E2E2E2E2E2E2E2E2E2E2E2E2E2E2E2E2E2E2E2E2E2E2E2E2E2E2E2E2E2E2E2E2E2E2E2E2E2E2E2E2E2E2E2E2E2E2E2E2E2E2E2E2E2E2E2E2E2E2E2E2E2E2E2E2E2E2E2E2E2E2E2E2E2E2E2E2E2E2E2E2E2E2E2E2E2E2E2E2E2E2E2E2E2E2E2E2E2E2E2E2E2E2E2E2E2E2E2E2E2E2E2E2E2E2E2E2E2E2E2E2E2E2E2E2E2
310
E2E2E2E2E2E2E2E2E2E2E2E2E2E2E2E2E2E2E2E2E2E2E2E2E2E2E2E2E2E2E2E2E2E2E2E2E2E2E2E2E2E2E2E2E2E2E2E2E2E2E2E2E2E2E2E2E2E2E2E2E2E2E2E2E2E2E2E2E2E2E2E2E2E2E2E2E2E2E2E2E2E2E2E2E2E2E2E2E2E2E2E2E2E2E2E2E2E2E2E2E2E2E2E2E2E2E2E2E2E2E2E2E2E2E2E2E2E2E2E2E2E2E2E2E2E2E2
310
E2E2E2E2E2E2E2E2E2E2E2E2E2E2E2E2E2E2E2E2E2E2E2E2E2E2E2E2E2E2E2E2E2E2E2E2E2E2E2E2E2E2E2E2E2E2E2E2E2E2E2E2E2E2E2E2E2E2E2E2E2E2E2E2E2E2E2E2E2E2E2E2E2E2E2E2E2E2E2E2E2E2E2E2E2E2E2E2E2E2E2E2E2E2E2E2E2E2E2E2E2E2E2E2E2E2E2E2E2E2E2E2E2E2E2E2E2E2E2E2E2E2E2E2E2E2E2
310
E2E2E2E2E2E2E2E2E2E2E2E2E2E2E2E2E2E2E2E2E2E2E2E2E2E2E2E2E2E2E2E2E2E2E2E2E2E2E2E2E2E2E2E2E2E2E2E2E2E2E2E2E2E2E2E2E2E2E2E2E2E2E2E2E2E2E2E2E2E2E2E2E2E2E2E2E2E2E2E2E2E2E2E2E2E2E2E2E2E2E2E2E2E2E2E2E2E2E2E2E2E2E2E2E2E2E2E2E2E2E2E2E2E2E2E2E2E2E2E2E2E2E2E2E2E2E2
310
E2E2E2E2E2E2E2E2E2E2E2E2E2E2E2E2E2E2E2E2E2E2E2E2E2E2E2E2E2E2E2E2E2E2E2E2E2E2E2E2E2E2E2E2E2E2E2E2E2E2E2E2E2E2E2E2E2E2E2E2E2E2E2E2E2E2E2E2E2E2E2E2E2E2E2E2E2E2E2E2E2E2E2E2E2E2E2E2E2E2E2E2E2E2E2E2E2E2E2E2E2E2E2E2E2E2E2E2E2E2E2E2E2E2E2E2E2E2E2E2E2E2E2E2E2E2E2
310
E2E2E2E2E2E2E2E2E2E2E2E2E2E2E2E2E2E2E2E2E2E2E2E2E2E2E2E2E2E2E2E2E2E2E2E2E2E2E2E2E2E2E2E2E2E2E2E2E2E2E2E2E2E2E2E2E2E2E2E2E2E2E2E2E2E2E2E2E2E2E2E2E2E2E2E2E2E2E2E2E2E2E2E2E2E2E2E2E2E2E2E2E2E2E2E2E2E2E2E2E2E2E2E2E2E2E2E2E2E2E2E2E2E2E2E2E2E2E2E2E2E2E2E2E2E2E2
310
E2E2E2E2E2E2E2E2E2E2E2E2E2E2E2E2E2E2E2E2E2E2E2E2E2E2E2E2E2E2E2E2E2E2E2E2E2E2E2E2E2E2E2E2E2E2E2E2E2E2E2E2E2E2E2E2E2E2E2E2E2E2E2E2E2E2E2E2E2E2E2E2E2E2E2E2E2E2E2E2E2E2E2E2E2E2E2E2E2E2E2E2E2E2E2E2E2E2E2E2E2E2E2E2E2E2E2E2E2E2E2E2E2E2E2E2E2E2E2E2E2E2E2E2E2E2E2
310
E2E2E2E2E2E2E2E2E2E2E2E2E2E2E2E2E2E2E2E2E2E2E2E2E2E2E2E2E2E2E2E2E2E2E2E2E2E2E2E2E2E2E2E2E2E2E2E2E2E2E2E2E2E2E2E2E2E2E2E2E2E2E2E2E2E2E2E2E2E2E2E2E2E2E2E2E2E2E2E2E2E2E2E2E2E2E2E2E2E2E2E2E2E2E2E2E2E2E2E2E2E2E2E2E2E2E2E2E2E2E2E2E2E2E2E2E2E2E2E2E2E2E2E2E2E2E2
310
E2E2E2E2E2E2E2E2E2E2E2E2E2E2E2E2E2E2E2E2E2E2E2E2E2E2E2E2E2E2E2E2E2E2E2E2E2E2E2E2E2E2E2E2E2E2E2E2E2E2E2E2E2E2E2E2E2E2E2E2E2E2E2E2E2E2E2E2E2E2E2E2E2E2E2E2E2E2E2E2E2E2E2E2E2E2E2E2E2E2E2E2E2E2E2E2E2E2E2E2E2E2E2E2E2E2E2E2E2E2E2E2E2E2E2E2E2E2E2E2E2E2E2E2E2E2E2
310
E2E2E2E2E2E2E2E2E2E2E2E2E2E2E2E2E2E2E2E2E2E2E2E2E2E2E2E2E2E2E2E2E2E2E2E2E2E2E2E2E2E2E2E2E2E2E2E2E2E2E2E2E2E2E2E2E2E2E2E2E2E2E2E2E2E2E2E2E2E2E2E2E2E2E2E2E2E2E2E2E2E2E2E2E2E2E2E2E2E2E2E2E2E2E2E2E2E2E2E2E2E2E2E2E2E2E2E2E2E2E2E2E2E2E2E2E2E2E2E2E2E2E2E2E2E2E2
310
E2E2E2E2E2E2E2E2E2E2E2E2E2E2E2E2E2E2E2E2E2E2E2E2E2E2E2E2E2E2E2E2E2E2E2E2E2E2E2E2E2E2E2E2E2E2E2E2E2E2E2E2E2E2E2E2E2E2E2E2E2E2E2E2E2E2E2E2E2E2E2E2E2E2E2E2E2E2E2E2E2E2E2E2E2E2E2E2E2E2E2E2E2E2E2E2E2E2E2E2E2E2E2E2E2E2E2E2E2E2E2E2E2E2E2E2E2E2E2E2E2E2E2E2E2E2E2
310
E2E2E2E2E2E2E2E2E2E2E2E2E2E2E2E2E2E2E2E2E2E2E2E2E2E2E2E2E2E2E2E2E2E2E2E2E2E2E2E2E2E2E2E2E2E2E2E2E2E2E2E2E2E2E2E2E2E2E2E2E2E2E2E2E2E2E2E2E2E2E2E2E2E2E2E2E2E2E2E2E2E2E2E2E2E2E2E2E2E2E2E2E2E2E2E2E2E2E2E2E2E2E2E2E2E2E2E2E2E2E2E2E2E2E2E2E2E2E2E2E2E2E2E2E2E2E2
310
E2E2E2E2E2E2E2E2E2E2E2E2E2E2E2E2E2E2E2E2E2E2E2E2E2E2E2E2E2E2E2E2E2E2E2E2E2E2E2E2E2E2E2E2E2E2E2E2E2E2E2E2E2E2E2E2E2E2E2E2E2E2E2E2E2E2E2E2E2E2E2E2E2E2E2E2E2E2E2E2E2E2E2E2E2E2E2E2E2E2E2E2E2E2E2E2E2E2E2E2E2E2E2E2E2E2E2E2E2E2E2E2E2E2E2E2E2E2E2E2E2E2E2E2E2E2E2
310
E2E2E2E2E2E2E2E2E2E2E2E2E2E2E2E2E2E2E2E2E2E2E2E2E2E2E2E2E2E2E2E2E2E2E2E2E2E2E2E2E2E2E2E2E2E2E2E2E2E2E2E2E2E2E2E2E2E2E2E2E2E2E2E2E2E2E2E2E2E2E2E2E2E2E2E2E2E2E2E2E2E2E2E2E2E2E2E2E2E2E2E2E2E2E2E2E2E2E2E2E2E2E2E2E2E2E2E2E2E2E2E2E2E2E2E2E2E2E2E2E2E2E2E2E2E2E2
310
E2E2E2E2E2E2E2E2E2E2E2E2E2E2E2E2E2E2E2E2E2E2E2E2E2E2E2E2E2E2E2E2E2E2E2E2E2E2E2E2E2E2E2E2E2E2E2E2E2E2E2E2E2E2E2E2E2E2E2E2E2E2E2E2E2E2E2E2E2E2E2E2E2E2E2E2E2E2E2E2E2E2E2E2E2E2E2E2E2E2E2E2E2E2E2E2E2E2E2E2E2E2E2E2E2E2E2E2E2E2E2E2E2E2E2E2E2E2E2E2E2E2E2E2E2E2E2
310
E2E2E2E2E2E2E2E2E2E2E2E2E2E2E2E2E2E2E2E2E2E2E2E2E2E2E2E2E2E2E2E2E2E2E2E2E2E2E2E2E2E2E2E2E2E2E2E2E2E2E2E2E2E2E2E2E2E2E2E2E2E2E2E2E2E2E2E2E2E2E2E2E2E2E2E2E2E2E2E2E2E2E2E2E2E2E2E2E2E2E2E2E2E2E2E2E2E2E2E2E2E2E2E2E2E2E2E2E2E2E2E2E2E2E2E2E2E2E2E2E2E2E2E2E2E2E2
310
E2E2E2E2E2E2E2E2E2E2E2E2E2E2E2E2E2E2E2E2E2E2E2E2E2E2E2E2E2E2E2E2E2E2E2E2E2E2E2E2E2E2E2E2E2E2E2E2E2E2E2E2E2E2E2E2E2E2E2E2E2E2E2E2E2E2E2E2E2E2E2E2E2E2E2E2E2E2E2E2E2E2E2E2E2E2E2E2E2E2E2E2E2E2E2E2E2E2E2E2E2E2E2E2E2E2E2E2E2E2E2E2E2E2E2E2E2E2E2E2E2E2E2E2E2E2E2
310
E2E2E2E2E2E2E2E2E2E2E2E2E2E2E2E2E2E2E2E2E2E2E2E2E2E2E2E2E2E2E2E2E2E2E2E2E2E2E2E2E2E2E2E2E2E2E2E2E2E2E2E2E2E2E2E2E2E2E2E2E2E2E2E2E2E2E2E2E2E2E2E2E2E2E2E2E2E2E2E2E2E2E2E2E2E2E2E2E2E2E2E2E2E2E2E2E2E2E2E2E2E2E2E2E2E2E2E2E2E2E2E2E2E2E2E2E2E2E2E2E2E2E2E2E2E2E2
310
E2E2E2E2E2E2E2E2E2E2E2E2E2E2E2E2E2E2E2E2E2E2E2E2E2E2E2E2E2E2E2E2E2E2E2E2E2E2E2E2E2E2E2E2E2E2E2E2E2E2E2E2E2E2E2E2E2E2E2E2E2E2E2E2E2E2E2E2E2E2E2E2E2E2E2E2E2E2E2E2E2E2E2E2E2E2E2E2E2E2E2E2E2E2E2E2E2E2E2E2E2E2E2E2E2E2E2E2E2E2E2E2E2E2E2E2E2E2E2E2E2E2E2E2E2E2E2
310
E2E2E2E2E2E2E2E2E2E2E2E2E2E2E2E2E2E2E2E2E2E2E2E2E2E2E2E2E2E2E2E2E2E2E2E2E2E2E2E2E2E2E2E2E2E2E2E2E2E2E2E2E2E2E2E2E2E2E2E2E2E2E2E2E2E2E2E2E2E2E2E2E2E2E2E2E2E2E2E2E2E2E2E2E2E2E2E2E2E2E2E2E2E2E2E2E2E2E2E2E2E2E2E2E2E2E2E2E2E2E2E2E2E2E2E2E2E2E2E2E2E2E2E2E2E2E2
310
E2E2E2E2E2E2E2E2E2E2E2E2E2E2E2E2E2E2E2E2E2E2E2E2E2E2E2E2E2E2E2E2E2E2E2E2E2E2E2E2E2E2E2E2E2E2E2E2E2E2E2E2E2E2E2E2E2E2E2E2E2E2E2E2E2E2E2E2E2E2E2E2E2E2E2E2E2E2E2E2E2E2E2E2E2E2E2E2E2E2E2E2E2E2E2E2E2E2E2E2E2E2E2E2E2E2E2E2E2E2E2E2E2E2E2E2E2E2E2E2E2E2E2E2E2E2E2
310
E2E2E2E2E2E2E2E2E2E2E2E2E2E2E2E2E2E2E2E2E2E2E2E2E2E2E2E2E2E2E2E2E2E2E2E2E2E2E2E2E2E2E2E2E2E2E2E2E2E2E2E2E2E2E2E2E2E2E2E2E2E2E2E2E2E2E2E2E2E2E2E2E2E2E2E2E2E2E2E2E2E2E2E2E2E2E2E2E2E2E2E2E2E2E2E2E2E2E2E2E2E2E2E2E2E2E2E2E2E2E2E2E2E2E2E2E2E2E2E2E2E2E2E2E2E2E2
310
E2E2E2E2E2E2E2E2E2E2E2E2E2E2E2E2E2E2E2E2E2E2E2E2E2E2E2E2E2E2E2E2E2E2E2E2E2E2E2E2E2E2E2E2E2E2E2E2E2E2E2E2E2E2E2E2E2E2E2E2E2E2E2E2E2E2E2E2E2E2E2E2E2E2E2E2E2E2E2E2E2E2E2E2E2E2E2E2E2E2E2E2E2E2E2E2E2E2E2E2E2E2E2E2E2E2E2E2E2E2E2E2E2E2E2E2E2E2E2E2E2E2E2E2E2E2E2
310
E2E2E2E2E2E2E2E2E2E2E2E2E2E2E2E2E2E2E2E2E2E2E2E2E2E2E2E2E2E2E2E2E2E2E2E2E2E2E2E2E2E2E2E2E2E2E2E2E2E2E2E2E2E2E2E2E2E2E2E2E2E2E2E2E2E2E2E2E2E2E2E2E2E2E2E2E2E2E2E2E2E2E2E2E2E2E2E2E2E2E2E2E2E2E2E2E2E2E2E2E2E2E2E2E2E2E2E2E2E2E2E2E2E2E2E2E2E2E2E2E2E2E2E2E2E2E2
310
E2E2E2E2E2E2E2E2E2E2E2E2E2E2E2E2E2E2E2E2E2E2E2E2E2E2E2E2E2E2E2E2E2E2E2E2E2E2E2E2E2E2E2E2E2E2E2E2E2E2E2E2E2E2E2E2E2E2E2E2E2E2E2E2E2E2E2E2E2E2E2E2E2E2E2E2E2E2E2E2E2E2E2E2E2E2E2E2E2E2E2E2E2E2E2E2E2E2E2E2E2E2E2E2E2E2E2E2E2E2E2E2E2E2E2E2E2E2E2E2E2E2E2E2E2E2E2
310
E2E2E2E2E2E2E2E2E2E2E2E2E2E2E2E2E2E2E2E2E2E2E2E2E2E2E2E2E2E2E2E2E2E2E2E2E2E2E2E2E2E2E2E2E2E2E2E2E2E2E2E2E2E2E2E2E2E2E2E2E2E2E2E2E2E2E2E2E2E2E2E2E2E2E2E2E2E2E2E2E2E2E2E2E2E2E2E2E2E2E2E2E2E2E2E2E2E2E2E2E2E2E2E2E2E2E2E2E2E2E2E2E2E2E2E2E2E2E2E2E2E2E2E2E2E2E2
310
E2E2E2E2E2E2E2E2E2E2E2E2E2E2E2E2E2E2E2E2E2E2E2E2E2E2E2E2E2E2E2E2E2E2E2E2E2E2E2E2E2E2E2E2E2E2E2E2E2E2E2E2E2E2E2E2E2E2E2E2E2E2E2E2E2E2E2E2E2E2E2E2E2E2E2E2E2E2E2E2E2E2E2E2E2E2E2E2E2E2E2E2E2E2E2E2E2E2E2E2E2E2E2E2E2E2E2E2E2E2E2E2E2E2E2E2E2E2E2E2E2E2E2E2E2E2E2
310
E2E2E2E2E2E2E2E2E2E2E2E2E2E2E2E2E2E2E2E2E2E2E2E2E2E2E2E2E2E2E2E2E2E2E2E2E2E2E2E2E2E2E2E2E2E2E2E2E2E2E2E2E2E2E2E2E2E2E2E2E2E2E2E2E2E2E2E2E2E2E2E2E2E2E2E2E2E2E2E2E2E2E2E2E2E2E2E2E2E2E2E2E2E2E2E2E2E2E2E2E2E2E2E2E2E2E2E2E2E2E2E2E2E2E2E2E2E2E2E2E2E2E2E2E2E2E2
310
E2E2E2E2E2E2E2E2E2E2E2E2E2E2E2E2E2E2E2E2E2E2E2E2E2E2E2E2E2E2E2E2E2E2E2E2E2E2E2E2E2E2E2E2E2E2E2E2E2E2E2E2E2E2E2E2E2E2E2E2E2E2E2E2E2E2E2E2E2E2E2E2E2E2E2E2E2E2E2E2E2E2E2E2E2E2E2E2E2E2E2E2E2E2E2E2E2E2E2E2E2E2E2E2E2E2E2E2E2E2E2E2E2E2E2E2E2E2E2E2E2E2E2E2E2E2E2
310
E2E2E2E2E2E2E2E2E2E2E2E2E2E2E2E2E2E2E2E2E2E2E2E2E2E2E2E2E2E2E2E2E2E2E2E2E2E2E2E2E2E2E2E2E2E2E2E2E2E2E2E2E2E2E2E2E2E2E2E2E2E2E2E2E2E2E2E2E2E2E2E2E2E2E2E2E2E2E2E2E2E2E2E2E2E2E2E2E2E2E2E2E2E2E2E2E2E2E2E2E2E2E2E2E2E2E2E2E2E2E2E2E2E2E2E2E2E2E2E2E2E2E2E2E2E2E2
310
E2E2E2E2E2E2E2E2E2E2E2E2E2E2E2E2E2E2E2E2E2E2E2E2E2E2E2E2E2E2E2E2E2E2E2E2E2E2E2E2E2E2E2E2E2E2E2E2E2E2E2E2E2E2E2E2E2E2E2E2E2E2E2E2E2E2E2E2E2E2E2E2E2E2E2E2E2E2E2E2E2E2E2E2E2E2E2E2E2E2E2E2E2E2E2E2E2E2E2E2E2E2E2E2E2E2E2E2E2E2E2E2E2E2E2E2E2E2E2E2E2E2E2E2E2E2E2
310
E2E2E2E2E2E2E2E2E2E2E2E2E2E2E2E2E2E2E2E2E2E2E2E2E2E2E2E2E2E2E2E2E2E2E2E2E2E2E2E2E2E2E2E2E2E2E2E2E2E2E2E2E2E2E2E2E2E2E2E2E2E2E2E2E2E2E2E2E2E2E2E2E2E2E2E2E2E2E2E2E2E2E2E2E2E2E2E2E2E2E2E2E2E2E2E2E2E2E2E2E2E2E2E2E2E2E2E2E2E2E2E2E2E2E2E2E2E2E2E2E2E2E2E2E2E2E2
310
E2E2E2E2E2E2E2E2E2E2E2E2E2E2E2E2E2E2E2E2E2E2E2E2E2E2E2E2E2E2E2E2E2E2E2E2E2E2E2E2E2E2E2E2E2E2E2E2E2E2E2E2E2E2E2E2E2E2E2E2E2E2E2E2E2E2E2E2E2E2E2E2E2E2E2E2E2E2E2E2E2E2E2E2E2E2E2E2E2E2E2E2E2E2E2E2E2E2E2E2E2E2E2E2E2E2E2E2E2E2E2E2E2E2E2E2E2E2E2E2E2E2E2E2E2E2E2
310
E2E2E2E2E2E2E2E2E2E2E2E2E2E2E2E2E2E2E2E2E2E2E2E2E2E2E2E2E2E2E2E2E2E2E2E2E2E2E2E2E2E2E2E2E2E2E2E2E2E2E2E2E2E2E2E2E2E2E2E2E2E2E2E2E2E2E2E2E2E2E2E2E2E2E2E2E2E2E2E2E2E2E2E2E2E2E2E2E2E2E2E2E2E2E2E2E2E2E2E2E2E2E2E2E2E2E2E2E2E2E2E2E2E2E2E2E2E2E2E2E2E2E2E2E2E2E2
310
E2E2E2E2E2E2E2E2E2E2E2E2E2E2E2E2E2E2E2E2E2E2E2E2E2E2E2E2E2E2E2E2E2E2E2E2E2E2E2E2E2E2E2E2E2E2E2E2E2E2E2E2E2E2E2E2E2E2E2E2E2E2E2E2E2E2E2E2E2E2E2E2E2E2E2E2E2E2E2E2E2E2E2E2E2E2E2E2E2E2E2E2E2E2E2E2E2E2E2E2E2E2E2E2E2E2E2E2E2E2E2E2E2E2E2E2E2E2E2E2E2E2E2E2E2E2E2
310
E2E2E2E2E2E2E2E2E2E2E2E2E2E2E2E2E2E2E2E2E2E2E2E2E2E2E2E2E2E2E2E2E2E2E2E2E2E2E2E2E2E2E2E2E2E2E2E2E2E2E2E2E2E2E2E2E2E2E2E2E2E2E2E2E2E2E2E2E2E2E2E2E2E2E2E2E2E2E2E2E2E2E2E2E2E2E2E2E2E2E2E2E2E2E2E2E2E2E2E2E2E2E2E2E2E2E2E2E2E2E2E2E2E2E2E2E2E2E2E2E2E2E2E2E2E2E2
310
E2E2E2E2E2E2E2E2E2E2E2E2E2E2E2E2E2E2E2E2E2E2E2E2E2E2E2E2E2E2E2E2E2E2E2E2E2E2E2E2E2E2E2E2E2E2E2E2E2E2E2E2E2E2E2E2E2E2E2E2E2E2E2E2E2E2E2E2E2E2E2E2E2E2E2E2E2E2E2E2E2E2E2E2E2E2E2E2E2E2E2E2E2E2E2E2E2E2E2E2E2E2E2E2E2E2E2E2E2E2E2E2E2E2E2E2E2E2E2E2E2E2E2E2E2E2E2
310
E2E2E2E2E2E2E2E2E2E2E2E2E2E2E2E2E2E2E2E2E2E2E2E2E2E2E2E2E2E2E2E2E2E2E2E2E2E2E2E2E2E2E2E2E2E2E2E2E2E2E2E2E2E2E2E2E2E2E2E2E2E2E2E2E2E2E2E2E2E2E2E2E2E2E2E2E2E2E2E2E2E2E2E2E2E2E2E2E2E2E2E2E2E2E2E2E2E2E2E2E2E2E2E2E2E2E2E2E2E2E2E2E2E2E2E2E2E2E2E2E2E2E2E2E2E2E2
310
E2E2E2E2E2E2E2E2E2E2E2E2E2E2E2E2E2E2E2E2E2E2E2E2E2E2E2E2E2E2E2E2E2E2E2E2E2E2E2E2E2E2E2E2E2E2E2E2E2E2E2E2E2E2E2E2E2E2E2E2E2E2E2E2E2E2E2E2E2E2E2E2E2E2E2E2E2E2E2E2E2E2E2E2E2E2E2E2E2E2E2E2E2E2E2E2E2E2E2E2E2E2E2E2E2E2E2E2E2E2E2E2E2E2E2E2E2E2E2E2E2E2E2E2E2E2E2
310
E2E2E2E2E2E2E2E2E2E2E2E2E2E2E2E2E2E2E2E2E2E2E2E2E2E2E2E2E2E2E2E2E2E2E2E2E2E2E2E2E2E2E2E2E2E2E2E2E2E2E2E2E2E2E2E2E2E2E2E2E2E2E2E2E2E2E2E2E2E2E2E2E2E2E2E2E2E2E2E2E2E2E2E2E2E2E2E2E2E2E2E2E2E2E2E2E2E2E2E2E2E2E2E2E2E2E2E2E2E2E2E2E2E2E2E2E2E2E2E2E2E2E2E2E2E2E2
310
E2E2E2E2E2E2E2E2E2E2E2E2E2E2E2E2E2E2E2E2E2E2E2E2E2E2E2E2E2E2E2E2E2E2E2E2E2E2E2E2E2E2E2E2E2E2E2E2E2E2E2E2E2E2E2E2E2E2E2E2E2E2E2E2E2E2E2E2E2E2E2E2E2E2E2E2E2E2E2E2E2E2E2E2E2E2E2E2E2E2E2E2E2E2E2E2E2E2E2E2E2E2E2E2E2E2E2E2E2E2E2E2E2E2E2E2E2E2E2E2E2E2E2E2E2E2E2
310
E2E2E2E2E2E2E2E2E2E2E2E2E2E2E2E2E2E2E2E2E2E2E2E2E2E2E2E2E2E2E2E2E2E2E2E2E2E2E2E2E2E2E2E2E2E2E2E2E2E2E2E2E2E2E2E2E2E2E2E2E2E2E2E2E2E2E2E2E2E2E2E2E2E2E2E2E2E2E2E2E2E2E2E2E2E2E2E2E2E2E2E2E2E2E2E2E2E2E2E2E2E2E2E2E2E2E2E2E2E2E2E2E2E2E2E2E2E2E2E2E2E2E2E2E2E2E2
310
E2E2E2E2E2E2E2E2E2E2E2E2E2E2E2E2E2E2E2E2E2E2E2E2E2E2E2E2E2E2E2E2E2E2E2E2E2E2E2E2E2E2E2E2E2E2E2E2E2E2E2E2E2E2E2E2E2E2E2E2E2E2E2E2E2E2E2E2E2E2E2E2E2E2E2E2E2E2E2E2E2E2E2E2E2E2E2E2E2E2E2E2E2E2E2E2E2E2E2E2E2E2E2E2E2E2E2E2E2E2E2E2E2E2E2E2E2E2E2E2E2E2E2E2E2E2E2
310
E2E2E2E2E2E2E2E2E2E2E2E2E2E2E2E2E2E2E2E2E2E2E2E2E2E2E2E2E2E2E2E2E2E2E2E2E2E2E2E2E2E2E2E2E2E2E2E2E2E2E2E2E2E2E2E2E2E2E2E2E2E2E2E2E2E2E2E2E2E2E2E2E2E2E2E2E2E2E2E2E2E2E2E2E2E2E2E2E2E2E2E2E2E2E2E2E2E2E2E2E2E2E2E2E2E2E2E2E2E2E2E2E2E2E2E2E2E2E2E2E2E2E2E2E2E2E2
310
E2E2E2E2E2E2E2E2E2E2E2E2E2E2E2E2E2E2E2E2E2E2E2E2E2E2E2E2E2E2E2E2E2E2E2E2E2E2E2E2E2E2E2E2E2E2E2E2E2E2E2E2E2E2E2E2E2E2E2E2E2E2E2E2E2E2E2E2E2E2E2E2E2E2E2E2E2E2E2E2E2E2E2E2E2E2E2E2E2E2E2E2E2E2E2E2E2E2E2E2E2E2E2E2E2E2E2E2E2E2E2E2E2E2E2E2E2E2E2E2E2E2E2E2E2E2E2
310
E2E2E2E2E2E2E2E2E2E2E2E2E2E2E2E2E2E2E2E2E2E2E2E2E2E2E2E2E2E2E2E2E2E2E2E2E2E2E2E2E2E2E2E2E2E2E2E2E2E2E2E2E2E2E2E2E2E2E2E2E2E2E2E2E2E2E2E2E2E2E2E2E2E2E2E2E2E2E2E2E2E2E2E2E2E2E2E2E2E2E2E2E2E2E2E2E2E2E2E2E2E2E2E2E2E2E2E2E2E2E2E2E2E2E2E2E2E2E2E2E2E2E2E2E2E2E2
310
E2E2E2E2E2E2E2E2E2E2E2E2E2E2E2E2E2E2E2E2E2E2E2E2E2E2E2E2E2E2E2E2E2E2E2E2E2E2E2E2E2E2E2E2E2E2E2E2E2E2E2E2E2E2E2E2E2E2E2E2E2E2E2E2E2E2E2E2E2E2E2E2E2E2E2E2E2E2E2E2E2E2E2E2E2E2E2E2E2E2E2E2E2E2E2E2E2E2E2E2E2E2E2E2E2E2E2E2E2E2E2E2E2E2E2E2E2E2E2E2E2E2E2E2E2E2E2
310
E2E2E2E2E2E2E2E2E2E2E2E2E2E2E2E2E2E2E2E2E2E2E2E2E2E2E2E2E2E2E2E2E2E2E2E2E2E2E2E2E2E2E2E2E2E2E2E2E2E2E2E2E2E2E2E2E2E2E2E2E2E2E2E2E2E2E2E2E2E2E2E2E2E2E2E2E2E2E2E2E2E2E2E2E2E2E2E2E2E2E2E2E2E2E2E2E2E2E2E2E2E2E2E2E2E2E2E2E2E2E2E2E2E2E2E2E2E2E2E2E2E2E2E2E2E2E2
310
E2E2E2E2E2E2E2E2E2E2E2E2E2E2E2E2E2E2E2E2E2E2E2E2E2E2E2E2E2E2E2E2E2E2E2E2E2E2E2E2E2E2E2E2E2E2E2E2E2E2E2E2E2E2E2E2E2E2E2E2E2E2E2E2E2E2E2E2E2E2E2E2E2E2E2E2E2E2E2E2E2E2E2E2E2E2E2E2E2E2E2E2E2E2E2E2E2E2E2E2E2E2E2E2E2E2E2E2E2E2E2E2E2E2E2E2E2E2E2E2E2E2E2E2E2E2E2
310
E2E2E2E2E2E2E2E2E2E2E2E2E2E2E2E2E2E2E2E2E2E2E2E2E2E2E2E2E2E2E2E2E2E2E2E2E2E2E2E2E2E2E2E2E2E2E2E2E2E2E2E2E2E2E2E2E2E2E2E2E2E2E2E2E2E2E2E2E2E2E2E2E2E2E2E2E2E2E2E2E2E2E2E2E2E2E2E2E2E2E2E2E2E2E2E2E2E2E2E2E2E2E2E2E2E2E2E2E2E2E2E2E2E2E2E2E2E2E2E2E2E2E2E2E2E2E2
310
E2E2E2E2E2E2E2E2E2E2E2E2E2E2E2E2E2E2E2E2E2E2E2E2E2E2E2E2E2E2E2E2E2E2E2E2E2E2E2E2E2E2E2E2E2E2E2E2E2E2E2E2E2E2E2E2E2E2E2E2E2E2E2E2E2E2E2E2E2E2E2E2E2E2E2E2E2E2E2E2E2E2E2E2E2E2E2E2E2E2E2E2E2E2E2E2E2E2E2E2E2E2E2E2E2E2E2E2E2E2E2E2E2E2E2E2E2E2E2E2E2E2E2E2E2E2E2
310
E2E2E2E2E2E2E2E2E2E2E2E2E2E2E2E2E2E2E2E2E2E2E2E2E2E2E2E2E2E2E2E2E2E2E2E2E2E2E2E2E2E2E2E2E2E2E2E2E2E2E2E2E2E2E2E2E2E2E2E2E2E2E2E2E2E2E2E2E2E2E2E2E2E2E2E2E2E2E2E2E2E2E2E2E2E2E2E2E2E2E2E2E2E2E2E2E2E2E2E2E2E2E2E2E2E2E2E2E2E2E2E2E2E2E2E2E2E2E2E2E2E2E2E2E2E2E2
310
E2E2E2E2E2E2E2E2E2E2E2E2E2E2E2E2E2E2E2E2E2E2E2E2E2E2E2E2E2E2E2E2E2E2E2E2E2E2E2E2E2E2E2E2E2E2E2E2E2E2E2E2E2E2E2E2E2E2E2E2E2E2E2E2E2E2E2E2E2E2E2E2E2E2E2E2E2E2E2E2E2E2E2E2E2E2E2E2E2E2E2E2E2E2E2E2E2E2E2E2E2E2E2E2E2E2E2E2E2E2E2E2E2E2E2E2E2E2E2E2E2E2E2E2E2E2E2
310
E2E2E2E2E2E2E2E2E2E2E2E2E2E2E2E2E2E2E2E2E2E2E2E2E2E2E2E2E2E2E2E2E2E2E2E2E2E2E2E2E2E2E2E2E2E2E2E2E2E2E2E2E2E2E2E2E2E2E2E2E2E2E2E2E2E2E2E2E2E2E2E2E2E2E2E2E2E2E2E2E2E2E2E2E2E2E2E2E2E2E2E2E2E2E2E2E2E2E2E2E2E2E2E2E2E2E2E2E2E2E2E2E2E2E2E2E2E2E2E2E2E2E2E2E2E2E2
310
E2E2E2E2E2E2E2E2E2E2E2E2E2E2E2E2E2E2E2E2E2E2E2E2E2E2E2E2E2E2E2E2E2E2E2E2E2E2E2E2E2E2E2E2E2E2E2E2E2E2E2E2E2E2E2E2E2E2E2E2E2E2E2E2E2E2E2E2E2E2E2E2E2E2E2E2E2E2E2E2E2E2E2E2E2E2E2E2E2E2E2E2E2E2E2E2E2E2E2E2E2E2E2E2E2E2E2E2E2E2E2E2E2E2E2E2E2E2E2E2E2E2E2E2E2E2E2
310
E2E2E2E2E2E2E2E2E2E2E2E2E2E2E2E2E2E2E2E2E2E2E2E2E2E2E2E2E2E2E2E2E2E2E2E2E2E2E2E2E2E2E2E2E2E2E2E2E2E2E2E2E2E2E2E2E2E2E2E2E2E2E2E2E2E2E2E2E2E2E2E2E2E2E2E2E2E2E2E2E2E2E2E2E2E2E2E2E2E2E2E2E2E2E2E2E2E2E2E2E2E2E2E2E2E2E2E2E2E2E2E2E2E2E2E2E2E2E2E2E2E2E2E2E2E2E2
310
E2E2E2E2E2E2E2E2E2E2E2E2E2E2E2E2E2E2E2E2E2E2E2E2E2E2E2E2E2E2E2E2E2E2E2E2E2E2E2E2E2E2E2E2E2E2E2E2E2E2E2E2E2E2E2E2E2E2E2E2E2E2E2E2E2E2E2E2E2E2E2E2E2E2E2E2E2E2E2E2E2E2E2E2E2E2E2E2E2E2E2E2E2E2E2E2E2E2E2E2E2E2E2E2E2E2E2E2E2E2E2E2E2E2E2E2E2E2E2E2E2E2E2E2E2E2E2
310
E2E2E2E2E2E2E2E2E2E2E2E2E2E2E2E2E2E2E2E2E2E2E2E2E2E2E2E2E2E2E2E2E2E2E2E2E2E2E2E2E2E2E2E2E2E2E2E2E2E2E2E2E2E2E2E2E2E2E2E2E2E2E2E2E2E2E2E2E2E2E2E2E2E2E2E2E2E2E2E2E2E2E2E2E2E2E2E2E2E2E2E2E2E2E2E2E2E2E2E2E2E2E2E2E2E2E2E2E2E2E2E2E2E2E2E2E2E2E2E2E2E2E2E2E2E2E2
310
E2E2E2E2E2E2E2E2E2E2E2E2E2E2E2E2E2E2E2E2E2E2E2E2E2E2E2E2E2E2E2E2E2E2E2E2E2E2E2E2E2E2E2E2E2E2E2E2E2E2E2E2E2E2E2E2E2E2E2E2E2E2E2E2E2E2E2E2E2E2E2E2E2E2E2E2E2E2E2E2E2E2E2E2E2E2E2E2E2E2E2E2E2E2E2E2E2E2E2E2E2E2E2E2E2E2E2E2E2E2E2E2E2E2E2E2E2E2E2E2E2E2E2E2E2E2E2
310
E2E2E2E2E2E2E2E2E2E2E2E2E2E2E2E2E2E2E2E2E2E2E2E2E2E2E2E2E2E2E2E2E2E2E2E2E2E2E2E2E2E2E2E2E2E2E2E2E2E2E2E2E2E2E2E2E2E2E2E2E2E2E2E2E2E2E2E2E2E2E2E2E2E2E2E2E2E2E2E2E2E2E2E2E2E2E2E2E2E2E2E2E2E2E2E2E2E2E2E2E2E2E2E2E2E2E2E2E2E2E2E2E2E2E2E2E2E2E2E2E2E2E2E2E2E2E2
310
E2E2E2E2E2E2E2E2E2E2E2E2E2E2E2E2E2E2E2E2E2E2E2E2E2E2E2E2E2E2E2E2E2E2E2E2E2E2E2E2E2E2E2E2E2E2E2E2E2E2E2E2E2E2E2E2E2E2E2E2E2E2E2E2E2E2E2E2E2E2E2E2E2E2E2E2E2E2E2E2E2E2E2E2E2E2E2E2E2E2E2E2E2E2E2E2E2E2E2E2E2E2E2E2E2E2E2E2E2E2E2E2E2E2E2E2E2E2E2E2E2E2E2E2E2E2E2
310
E2E2E2E2E2E2E2E2E2E2E2E2E2E2E2E2E2E2E2E2E2E2E2E2E2E2E2E2E2E2E2E2E2E2E2E2E2E2E2E2E2E2E2E2E2E2E2E2E2E2E2E2E2E2E2E2E2E2E2E2E2E2E2E2E2E2E2E2E2E2E2E2E2E2E2E2E2E2E2E2E2E2E2E2E2E2E2E2E2E2E2E2E2E2E2E2E2E2E2E2E2E2E2E2E2E2E2E2E2E2E2E2E2E2E2E2E2E2E2E2E2E2E2E2E2E2E2
310
E2E2E2E2E2E2E2E2E2E2E2E2E2E2E2E2E2E2E2E2E2E2E2E2E2E2E2E2E2E2E2E2E2E2E2E2E2E2E2E2E2E2E2E2E2E2E2E2E2E2E2E2E2E2E2E2E2E2E2E2E2E2E2E2E2E2E2E2E2E2E2E2E2E2E2E2E2E2E2E2E2E2E2E2E2E2E2E2E2E2E2E2E2E2E2E2E2E2E2E2E2E2E2E2E2E2E2E2E2E2E2E2E2E2E2E2E2E2E2E2E2E2E2E2E2E2E2
310
E2E2E2E2E2E2E2E2E2E2E2E2E2E2E2E2E2E2E2E2E2E2E2E2E2E2E2E2E2E2E2E2E2E2E2E2E2E2E2E2E2E2E2E2E2E2E2E2E2E2E2E2E2E2E2E2E2E2E2E2E2E2E2E2E2E2E2E2E2E2E2E2E2E2E2E2E2E2E2E2E2E2E2E2E2E2E2E2E2E2E2E2E2E2E2E2E2E2E2E2E2E2E2E2E2E2E2E2E2E2E2E2E2E2E2E2E2E2E2E2E2E2E2E2E2E2E2
310
E2E2E2E2E2E2E2E2E2E2E2E2E2E2E2E2E2E2E2E2E2E2E2E2E2E2E2E2E2E2E2E2E2E2E2E2E2E2E2E2E2E2E2E2E2E2E2E2E2E2E2E2E2E2E2E2E2E2E2E2E2E2E2E2E2E2E2E2E2E2E2E2E2E2E2E2E2E2E2E2E2E2E2E2E2E2E2E2E2E2E2E2E2E2E2E2E2E2E2E2E2E2E2E2E2E2E2E2E2E2E2E2E2E2E2E2E2E2E2E2E2E2E2E2E2E2E2
310
E2E2E2E2E2E2E2E2E2E2E2E2E2E2E2E2E2E2E2E2E2E2E2E2E2E2E2E2E2E2E2E2E2E2E2E2E2E2E2E2E2E2E2E2E2E2E2E2E2E2E2E2E2E2E2E2E2E2E2E2E2E2E2E2E2E2E2E2E2E2E2E2E2E2E2E2E2E2E2E2E2E2E2E2E2E2E2E2E2E2E2E2E2E2E2E2E2E2E2E2E2E2E2E2E2E2E2E2E2E2E2E2E2E2E2E2E2E2E2E2E2E2E2E2E2E2E2
310
E2E2E2E2E2E2E2E2E2E2E2E2E2E2E2E2E2E2E2E2E2E2E2E2E2E2E2E2E2E2E2E2E2E2E2E2E2E2E2E2E2E2E2E2E2E2E2E2E2E2E2E2E2E2E2E2E2E2E2E2E2E2E2E2E2E2E2E2E2E2E2E2E2E2E2E2E2E2E2E2E2E2E2E2E2E2E2E2E2E2E2E2E2E2E2E2E2E2E2E2E2E2E2E2E2E2E2E2E2E2E2E2E2E2E2E2E2E2E2E2E2E2E2E2E2E2E2
310
E2E2E2E2E2E2E2E2E2E2E2E2E2E2E2E2E2E2E2E2E2E2E2E2E2E2E2E2E2E2E2E2E2E2E2E2E2E2E2E2E2E2E2E2E2E2E2E2E2E2E2E2E2E2E2E2E2E2E2E2E2E2E2E2E2E2E2E2E2E2E2E2E2E2E2E2E2E2E2E2E2E2E2E2E2E2E2E2E2E2E2E2E2E2E2E2E2E2E2E2E2E2E2E2E2E2E2E2E2E2E2E2E2E2E2E2E2E2E2E2E2E2E2E2E2E2E2
310
E2E2E2E2E2E2E2E2E2E2E2E2E2E2E2E2E2E2E2E2E2E2E2E2E2E2E2E2E2E2E2E2E2E2E2E2E2E2E2E2E2E2E2E2E2E2E2E2E2E2E2E2E2E2E2E2E2E2E2E2E2E2E2E2E2E2E2E2E2E2E2E2E2E2E2E2E2E2E2E2E2E2E2E2E2E2E2E2E2E2E2E2E2E2E2E2E2E2E2E2E2E2E2E2E2E2E2E2E2E2E2E2E2E2E2E2E2E2E2E2E2E2E2E2E2E2E2
310
E2E2E2E2E2E2E2E2E2E2E2E2E2E2E2E2E2E2E2E2E2E2E2E2E2E2E2E2E2E2E2E2E2E2E2E2E2E2E2E2E2E2E2E2E2E2E2E2E2E2E2E2E2E2E2E2E2E2E2E2E2E2E2E2E2E2E2E2E2E2E2E2E2E2E2E2E2E2E2E2E2E2E2E2E2E2E2E2E2E2E2E2E2E2E2E2E2E2E2E2E2E2E2E2E2E2E2E2E2E2E2E2E2E2E2E2E2E2E2E2E2E2E2E2E2E2E2
310
E2E2E2E2E2E2E2E2E2E2E2E2E2E2E2E2E2E2E2E2E2E2E2E2E2E2E2E2E2E2E2E2E2E2E2E2E2E2E2E2E2E2E2E2E2E2E2E2E2E2E2E2E2E2E2E2E2E2E2E2E2E2E2E2E2E2E2E2E2E2E2E2E2E2E2E2E2E2E2E2E2E2E2E2E2E2E2E2E2E2E2E2E2E2E2E2E2E2E2E2E2E2E2E2E2E2E2E2E2E2E2E2E2E2E2E2E2E2E2E2E2E2E2E2E2E2E2
310
E2E2E2E2E2E2E2E2E2E2E2E2E2E2E2E2E2E2E2E2E2E2E2E2E2E2E2E2E2E2E2E2E2E2E2E2E2E2E2E2E2E2E2E2E2E2E2E2E2E2E2E2E2E2E2E2E2E2E2E2E2E2E2E2E2E2E2E2E2E2E2E2E2E2E2E2E2E2E2E2E2E2E2E2E2E2E2E2E2E2E2E2E2E2E2E2E2E2E2E2E2E2E2E2E2E2E2E2E2E2E2E2E2E2E2E2E2E2E2E2E2E2E2E2E2E2E2
310
E2E2E2E2E2E2E2E2E2E2E2E2E2E2E2E2E2E2E2E2E2E2E2E2E2E2E2E2E2E2E2E2E2E2E2E2E2E2E2E2E2E2E2E2E2E2E2E2E2E2E2E2E2E2E2E2E2E2E2E2E2E2E2E2E2E2E2E2E2E2E2E2E2E2E2E2E2E2E2E2E2E2E2E2E2E2E2E2E2E2E2E2E2E2E2E2E2E2E2E2E2E2E2E2E2E2E2E2E2E2E2E2E2E2E2E2E2E2E2E2E2E2E2E2E2E2E2
310
E2E2E2E2E2E2E2E2E2E2E2E2E2E2E2E2E2E2E2E2E2E2E2E2E2E2E2E2E2E2E2E2E2E2E2E2E2E2E2E2E2E2E2E2E2E2E2E2E2E2E2E2E2E2E2E2E2E2E2E2E2E2E2E2E2E2E2E2E2E2E2E2E2E2E2E2E2E2E2E2E2E2E2E2E2E2E2E2E2E2E2E2E2E2E2E2E2E2E2E2E2E2E2E2E2E2E2E2E2E2E2E2E2E2E2E2E2E2E2E2E2E2E2E2E2E2E2
310
E2E2E2E2E2E2E2E2E2E2E2E2E2E2E2E2E2E2E2E2E2E2E2E2E2E2E2E2E2E2E2E2E2E2E2E2E2E2E2E2E2E2E2E2E2E2E2E2E2E2E2E2E2E2E2E2E2E2E2E2E2E2E2E2E2E2E2E2E2E2E2E2E2E2E2E2E2E2E2E2E2E2E2E2E2E2E2E2E2E2E2E2E2E2E2E2E2E2E2E2E2E2E2E2E2E2E2E2E2E2E2E2E2E2E2E2E2E2E2E2E2E2E2E2E2E2E2
310
E2E2E2E2E2E2E2E2E2E2E2E2E2E2E2E2E2E2E2E2E2E2E2E2E2E2E2E2E2E2E2E2E2E2E2E2E2E2E2E2E2E2E2E2E2E2E2E2E2E2E2E2E2E2E2E2E2E2E2E2E2E2E2E2E2E2E2E2E2E2E2E2E2E2E2E2E2E2E2E2E2E2E2E2E2E2E2E2E2E2E2E2E2E2E2E2E2E2E2E2E2E2E2E2E2E2E2E2E2E2E2E2E2E2E2E2E2E2E2E2E2E2E2E2E2E2E2
310
E2E2E2E2E2E2E2E2E2E2E2E2E2E2E2E2E2E2E2E2E2E2E2E2E2E2E2E2E2E2E2E2E2E2E2E2E2E2E2E2E2E2E2E2E2E2E2E2E2E2E2E2E2E2E2E2E2E2E2E2E2E2E2E2E2E2E2E2E2E2E2E2E2E2E2E2E2E2E2E2E2E2E2E2E2E2E2E2E2E2E2E2E2E2E2E2E2E2E2E2E2E2E2E2E2E2E2E2E2E2E2E2E2E2E2E2E2E2E2E2E2E2E2E2E2E2E2
310
E2E2E2E2E2E2E2E2E2E2E2E2E2E2E2E2E2E2E2E2E2E2E2E2E2E2E2E2E2E2E2E2E2E2E2E2E2E2E2E2E2E2E2E2E2E2E2E2E2E2E2E2E2E2E2E2E2E2E2E2E2E2E2E2E2E2E2E2E2E2E2E2E2E2E2E2E2E2E2E2E2E2E2E2E2E2E2E2E2E2E2E2E2E2E2E2E2E2E2E2E2E2E2E2E2E2E2E2E2E2E2E2E2E2E2E2E2E2E2E2E2E2E2E2E2E2E2
310
E2E2E2E2E2E2E2E2E2E2E2E2E2E2E2E2E2E2E2E2E2E2E2E2E2E2E2E2E2E2E2E2E2E2E2E2E2E2E2E2E2E2E2E2E2E2E2E2E2E2E2E2E2E2E2E2E2E2E2E2E2E2E2E2E2E2E2E2E2E2E2E2E2E2E2E2E2E2E2E2E2E2E2E2E2E2E2E2E2E2E2E2E2E2E2E2E2E2E2E2E2E2E2E2E2E2E2E2E2E2E2E2E2E2E2E2E2E2E2E2E2E2E2E2E2E2E2
310
E2E2E2E2E2E2E2E2E2E2E2E2E2E2E2E2E2E2E2E2E2E2E2E2E2E2E2E2E2E2E2E2E2E2E2E2E2E2E2E2E2E2E2E2E2E2E2E2E2E2E2E2E2E2E2E2E2E2E2E2E2E2E2E2E2E2E2E2E2E2E2E2E2E2E2E2E2E2E2E2E2E2E2E2E2E2E2E2E2E2E2E2E2E2E2E2E2E2E2E2E2E2E2E2E2E2E2E2E2E2E2E2E2E2E2E2E2E2E2E2E2E2E2E2E2E2E2
310
E2E2E2E2E2E2E2E2E2E2E2E2E2E2E2E2E2E2E2E2E2E2E2E2E2E2E2E2E2E2E2E2E2E2E2E2E2E2E2E2E2E2E2E2E2E2E2E2E2E2E2E2E2E2E2E2E2E2E2E2E2E2E2E2E2E2E2E2E2E2E2E2E2E2E2E2E2E2E2E2E2E2E2E2E2E2E2E2E2E2E2E2E2E2E2E2E2E2E2E2E2E2E2E2E2E2E2E2E2E2E2E2E2E2E2E2E2E2E2E2E2E2E2E2E2E2E2
310
E2E2E2E2E2E2E2E2E2E2E2E2E2E2E2E2E2E2E2E2E2E2E2E2E2E2E2E2E2E2E2E2E2E2E2E2E2E2E2E2E2E2E2E2E2E2E2E2E2E2E2E2E2E2E2E2E2E2E2E2E2E2E2E2E2E2E2E2E2E2E2E2E2E2E2E2E2E2E2E2E2E2E2E2E2E2E2E2E2E2E2E2E2E2E2E2E2E2E2E2E2E2E2E2E2E2E2E2E2E2E2E2E2E2E2E2E2E2E2E2E2E2E2E2E2E2E2
310
E2E2E2E2E2E2E2E2E2E2E2E2E2E2E2E2E2E2E2E2E2E2E2E2E2E2E2E2E2E2E2E2E2E2E2E2E2E2E2E2E2E2E2E2E2E2E2E2E2E2E2E2E2E2E2E2E2E2E2E2E2E2E2E2E2E2E2E2E2E2E2E2E2E2E2E2E2E2E2E2E2E2E2E2E2E2E2E2E2E2E2E2E2E2E2E2E2E2E2E2E2E2E2E2E2E2E2E2E2E2E2E2E2E2E2E2E2E2E2E2E2E2E2E2E2E2E2
310
E2E2E2E2E2E2E2E2E2E2E2E2E2E2E2E2E2E2E2E2E2E2E2E2E2E2E2E2E2E2E2E2E2E2E2E2E2E2E2E2E2E2E2E2E2E2E2E2E2E2E2E2E2E2E2E2E2E2E2E2E2E2E2E2E2E2E2E2E2E2E2E2E2E2E2E2E2E2E2E2E2E2E2E2E2E2E2E2E2E2E2E2E2E2E2E2E2E2E2E2E2E2E2E2E2E2E2E2E2E2E2E2E2E2E2E2E2E2E2E2E2E2E2E2E2E2E2
310
E2E2E2E2E2E2E2E2E2E2E2E2E2E2E2E2E2E2E2E2E2E2E2E2E2E2E2E2E2E2E2E2E2E2E2E2E2E2E2E2E2E2E2E2E2E2E2E2E2E2E2E2E2E2E2E2E2E2E2E2E2E2E2E2E2E2E2E2E2E2E2E2E2E2E2E2E2E2E2E2E2E2E2E2E2E2E2E2E2E2E2E2E2E2E2E2E2E2E2E2E2E2E2E2E2E2E2E2E2E2E2E2E2E2E2E2E2E2E2E2E2E2E2E2E2E2E2
310
E2E2E2E2E2E2E2E2E2E2E2E2E2E2E2E2E2E2E2E2E2E2E2E2E2E2E2E2E2E2E2E2E2E2E2E2E2E2E2E2E2E2E2E2E2E2E2E2E2E2E2E2E2E2E2E2E2E2E2E2E2E2E2E2E2E2E2E2E2E2E2E2E2E2E2E2E2E2E2E2E2E2E2E2E2E2E2E2E2E2E2E2E2E2E2E2E2E2E2E2E2E2E2E2E2E2E2E2E2E2E2E2E2E2E2E2E2E2E2E2E2E2E2E2E2E2E2
310
E2E2E2E2E2E2E2E2E2E2E2E2E2E2E2E2E2E2E2E2E2E2E2E2E2E2E2E2E2E2E2E2E2E2E2E2E2E2E2E2E2E2E2E2E2E2E2E2E2E2E2E2E2E2E2E2E2E2E2E2E2E2E2E2E2E2E2E2E2E2E2E2E2E2E2E2E2E2E2E2E2E2E2E2E2E2E2E2E2E2E2E2E2E2E2E2E2E2E2E2E2E2E2E2E2E2E2E2E2E2E2E2E2E2E2E2E2E2E2E2E2E2E2E2E2E2E2
310
E2E2E2E2E2E2E2E2E2E2E2E2E2E2E2E2E2E2E2E2E2E2E2E2E2E2E2E2E2E2E2E2E2E2E2E2E2E2E2E2E2E2E2E2E2E2E2E2E2E2E2E2E2E2E2E2E2E2E2E2E2E2E2E2E2E2E2E2E2E2E2E2E2E2E2E2E2E2E2E2E2E2E2E2E2E2E2E2E2E2E2E2E2E2E2E2E2E2E2E2E2E2E2E2E2E2E2E2E2E2E2E2E2E2E2E2E2E2E2E2E2E2E2E2E2E2E2
310
E2E2E2E2E2E2E2E2E2E2E2E2E2E2E2E2E2E2E2E2E2E2E2E2E2E2E2E2E2E2E2E2E2E2E2E2E2E2E2E2E2E2E2E2E2E2E2E2E2E2E2E2E2E2E2E2E2E2E2E2E2E2E2E2E2E2E2E2E2E2E2E2E2E2E2E2E2E2E2E2E2E2E2E2E2E2E2E2E2E2E2E2E2E2E2E2E2E2E2E2E2E2E2E2E2E2E2E2E2E2E2E2E2E2E2E2E2E2E2E2E2E2E2E2E2E2E2
310
E2E2E2E2E2E2E2E2E2E2E2E2E2E2E2E2E2E2E2E2E2E2E2E2E2E2E2E2E2E2E2E2E2E2E2E2E2E2E2E2E2E2E2E2E2E2E2E2E2E2E2E2E2E2E2E2E2E2E2E2E2E2E2E2E2E2E2E2E2E2E2E2E2E2E2E2E2E2E2E2E2E2E2E2E2E2E2E2E2E2E2E2E2E2E2E2E2E2E2E2E2E2E2E2E2E2E2E2E2E2E2E2E2E2E2E2E2E2E2E2E2E2E2E2E2E2E2
310
E2E2E2E2E2E2E2E2E2E2E2E2E2E2E2E2E2E2E2E2E2E2E2E2E2E2E2E2E2E2E2E2E2E2E2E2E2E2E2E2E2E2E2E2E2E2E2E2E2E2E2E2E2E2E2E2E2E2E2E2E2E2E2E2E2E2E2E2E2E2E2E2E2E2E2E2E2E2E2E2E2E2E2E2E2E2E2E2E2E2E2E2E2E2E2E2E2E2E2E2E2E2E2E2E2E2E2E2E2E2E2E2E2E2E2E2E2E2E2E2E2E2E2E2E2E2E2
310
E2E2E2E2E2E2E2E2E2E2E2E2E2E2E2E2E2E2E2E2E2E2E2E2E2E2E2E2E2E2E2E2E2E2E2E2E2E2E2E2E2E2E2E2E2E2E2E2E2E2E2E2E2E2E2E2E2E2E2E2E2E2E2E2E2E2E2E2E2E2E2E2E2E2E2E2E2E2E2E2E2E2E2E2E2E2E2E2E2E2E2E2E2E2E2E2E2E2E2E2E2E2E2E2E2E2E2E2E2E2E2E2E2E2E2E2E2E2E2E2E2E2E2E2E2E2E2
310
E2E2E2E2E2E2E2E2E2E2E2E2E2E2E2E2E2E2E2E2E2E2E2E2E2E2E2E2E2E2E2E2E2E2E2E2E2E2E2E2E2E2E2E2E2E2E2E2E2E2E2E2E2E2E2E2E2E2E2E2E2E2E2E2E2E2E2E2E2E2E2E2E2E2E2E2E2E2E2E2E2E2E2E2E2E2E2E2E2E2E2E2E2E2E2E2E2E2E2E2E2E2E2E2E2E2E2E2E2E2E2E2E2E2E2E2E2E2E2E2E2E2E2E2E2E2E2
310
E2E2E2E2E2E2E2E2E2E2E2E2E2E2E2E2E2E2E2E2E2E2E2E2E2E2E2E2E2E2E2E2E2E2E2E2E2E2E2E2E2E2E2E2E2E2E2E2E2E2E2E2E2E2E2E2E2E2E2E2E2E2E2E2E2E2E2E2E2E2E2E2E2E2E2E2E2E2E2E2E2E2E2E2E2E2E2E2E2E2E2E2E2E2E2E2E2E2E2E2E2E2E2E2E2E2E2E2E2E2E2E2E2E2E2E2E2E2E2E2E2E2E2E2E2E2E2
310
E2E2E2E2E2E2E2E2E2E2E2E2E2E2E2E2E2E2E2E2E2E2E2E2E2E2E2E2E2E2E2E2E2E2E2E2E2E2E2E2E2E2E2E2E2E2E2E2E2E2E2E2E2E2E2E2E2E2E2E2E2E2E2E2E2E2E2E2E2E2E2E2E2E2E2E2E2E2E2E2E2E2E2E2E2E2E2E2E2E2E2E2E2E2E2E2E2E2E2E2E2E2E2E2E2E2E2E2E2E2E2E2E2E2E2E2E2E2E2E2E2E2E2E2E2E2E2
310
E2E2E2E2E2E2E2E2E2E2E2E2E2E2E2E2E2E2E2E2E2E2E2E2E2E2E2E2E2E2E2E2E2E2E2E2E2E2E2E2E2E2E2E2E2E2E2E2E2E2E2E2E2E2E2E2E2E2E2E2E2E2E2E2E2E2E2E2E2E2E2E2E2E2E2E2E2E2E2E2E2E2E2E2E2E2E2E2E2E2E2E2E2E2E2E2E2E2E2E2E2E2E2E2E2E2E2E2E2E2E2E2E2E2E2E2E2E2E2E2E2E2E2E2E2E2E2
310
E2E2E2E2E2E2E2E2E2E2E2E2E2E2E2E2E2E2E2E2E2E2E2E2E2E2E2E2E2E2E2E2E2E2E2E2E2E2E2E2E2E2E2E2E2E2E2E2E2E2E2E2E2E2E2E2E2E2E2E2E2E2E2E2E2E2E2E2E2E2E2E2E2E2E2E2E2E2E2E2E2E2E2E2E2E2E2E2E2E2E2E2E2E2E2E2E2E2E2E2E2E2E2E2E2E2E2E2E2E2E2E2E2E2E2E2E2E2E2E2E2E2E2E2E2E2E2
310
E2E2E2E2E2E2E2E2E2E2E2E2E2E2E2E2E2E2E2E2E2E2E2E2E2E2E2E2E2E2E2E2E2E2E2E2E2E2E2E2E2E2E2E2E2E2E2E2E2E2E2E2E2E2E2E2E2E2E2E2E2E2E2E2E2E2E2E2E2E2E2E2E2E2E2E2E2E2E2E2E2E2E2E2E2E2E2E2E2E2E2E2E2E2E2E2E2E2E2E2E2E2E2E2E2E2E2E2E2E2E2E2E2E2E2E2E2E2E2E2E2E2E2E2E2E2E2
310
E2E2E2E2E2E2E2E2E2E2E2E2E2E2E2E2E2E2E2E2E2E2E2E2E2E2E2E2E2E2E2E2E2E2E2E2E2E2E2E2E2E2E2E2E2E2E2E2E2E2E2E2E2E2E2E2E2E2E2E2E2E2E2E2E2E2E2E2E2E2E2E2E2E2E2E2E2E2E2E2E2E2E2E2E2E2E2E2E2E2E2E2E2E2E2E2E2E2E2E2E2E2E2E2E2E2E2E2E2E2E2E2E2E2E2E2E2E2E2E2E2E2E2E2E2E2E2
310
E2E2E2E2E2E2E2E2E2E2E2E2E2E2E2E2E2E2E2E2E2E2E2E2E2E2E2E2E2E2E2E2E2E2E2E2E2E2E2E2E2E2E2E2E2E2E2E2E2E2E2E2E2E2E2E2E2E2E2E2E2E2E2E2E2E2E2E2E2E2E2E2E2E2E2E2E2E2E2E2E2E2E2E2E2E2E2E2E2E2E2E2E2E2E2E2E2E2E2E2E2E2E2E2E2E2E2E2E2E2E2E2E2E2E2E2E2E2E2E2E2E2E2E2E2E2E2
310
E2E2E2E2E2E2E2E2E2E2E2E2E2E2E2E2E2E2E2E2E2E2E2E2E2E2E2E2E2E2E2E2E2E2E2E2E2E2E2E2E2E2E2E2E2E2E2E2E2E2E2E2E2E2E2E2E2E2E2E2E2E2E2E2E2E2E2E2E2E2E2E2E2E2E2E2E2E2E2E2E2E2E2E2E2E2E2E2E2E2E2E2E2E2E2E2E2E2E2E2E2E2E2E2E2E2E2E2E2E2E2E2E2E2E2E2E2E2E2E2E2E2E2E2E2E2E2
310
E2E2E2E2E2E2E2E2E2E2E2E2E2E2E2E2E2E2E2E2E2E2E2E2E2E2E2E2E2E2E2E2E2E2E2E2E2E2E2E2E2E2E2E2E2E2E2E2E2E2E2E2E2E2E2E2E2E2E2E2E2E2E2E2E2E2E2E2E2E2E2E2E2E2E2E2E2E2E2E2E2E2E2E2E2E2E2E2E2E2E2E2E2E2E2E2E2E2E2E2E2E2E2E2E2E2E2E2E2E2E2E2E2E2E2E2E2E2E2E2E2E2E2E2E2E2E2
310
E2E2E2E2E2E2E2E2E2E2E2E2E2E2E2E2E2E2E2E2E2E2E2E2E2E2E2E2E2E2E2E2E2E2E2E2E2E2E2E2E2E2E2E2E2E2E2E2E2E2E2E2E2E2E2E2E2E2E2E2E2E2E2E2E2E2E2E2E2E2E2E2E2E2E2E2E2E2E2E2E2E2E2E2E2E2E2E2E2E2E2E2E2E2E2E2E2E2E2E2E2E2E2E2E2E2E2E2E2E2E2E2E2E2E2E2E2E2E2E2E2E2E2E2E2E2E2
310
E2E2E2E2E2E2E2E2E2E2E2E2E2E2E2E2E2E2E2E2E2E2E2E2E2E2E2E2E2E2E2E2E2E2E2E2E2E2E2E2E2E2E2E2E2E2E2E2E2E2E2E2E2E2E2E2E2E2E2E2E2E2E2E2E2E2E2E2E2E2E2E2E2E2E2E2E2E2E2E2E2E2E2E2E2E2E2E2E2E2E2E2E2E2E2E2E2E2E2E2E2E2E2E2E2E2E2E2E2E2E2E2E2E2E2E2E2E2E2E2E2E2E2E2E2E2E2
310
E2E2E2E2E2E2E2E2E2E2E2E2E2E2E2E2E2E2E2E2E2E2E2E2E2E2E2E2E2E2E2E2E2E2E2E2E2E2E2E2E2E2E2E2E2E2E2E2E2E2E2E2E2E2E2E2E2E2E2E2E2E2E2E2E2E2E2E2E2E2E2E2E2E2E2E2E2E2E2E2E2E2E2E2E2E2E2E2E2E2E2E2E2E2E2E2E2E2E2E2E2E2E2E2E2E2E2E2E2E2E2E2E2E2E2E2E2E2E2E2E2E2E2E2E2E2E2
310
E2E2E2E2E2E2E2E2E2E2E2E2E2E2E2E2E2E2E2E2E2E2E2E2E2E2E2E2E2E2E2E2E2E2E2E2E2E2E2E2E2E2E2E2E2E2E2E2E2E2E2E2E2E2E2E2E2E2E2E2E2E2E2E2E2E2E2E2E2E2E2E2E2E2E2E2E2E2E2E2E2E2E2E2E2E2E2E2E2E2E2E2E2E2E2E2E2E2E2E2E2E2E2E2E2E2E2E2E2E2E2E2E2E2E2E2E2E2E2E2E2E2E2E2E2E2E2
310
E2E2E2E2E2E2E2E2E2E2E2E2E2E2E2E2E2E2E2E2E2E2E2E2E2E2E2E2E2E2E2E2E2E2E2E2E2E2E2E2E2E2E2E2E2E2E2E2E2E2E2E2E2E2E2E2E2E2E2E2E2E2E2E2E2E2E2E2E2E2E2E2E2E2E2E2E2E2E2E2E2E2E2E2E2E2E2E2E2E2E2E2E2E2E2E2E2E2E2E2E2E2E2E2E2E2E2E2E2E2E2E2E2E2E2E2E2E2E2E2E2E2E2E2E2E2E2
310
E2E2E2E2E2E2E2E2E2E2E2E2E2E2E2E2E2E2E2E2E2E2E2E2E2E2E2E2E2E2E2E2E2E2E2E2E2E2E2E2E2E2E2E2E2E2E2E2E2E2E2E2E2E2E2E2E2E2E2E2E2E2E2E2E2E2E2E2E2E2E2E2E2E2E2E2E2E2E2E2E2E2E2E2E2E2E2E2E2E2E2E2E2E2E2E2E2E2E2E2E2E2E2E2E2E2E2E2E2E2E2E2E2E2E2E2E2E2E2E2E2E2E2E2E2E2E2
310
E2E2E2E2E2E2E2E2E2E2E2E2E2E2E2E2E2E2E2E2E2E2E2E2E2E2E2E2E2E2E2E2E2E2E2E2E2E2E2E2E2E2E2E2E2E2E2E2E2E2E2E2E2E2E2E2E2E2E2E2E2E2E2E2E2E2E2E2E2E2E2E2E2E2E2E2E2E2E2E2E2E2E2E2E2E2E2E2E2E2E2E2E2E2E2E2E2E2E2E2E2E2E2E2E2E2E2E2E2E2E2E2E2E2E2E2E2E2E2E2E2E2E2E2E2E2E2
310
E2E2E2E2E2E2E2E2E2E2E2E2E2E2E2E2E2E2E2E2E2E2E2E2E2E2E2E2E2E2E2E2E2E2E2E2E2E2E2E2E2E2E2E2E2E2E2E2E2E2E2E2E2E2E2E2E2E2E2E2E2E2E2E2E2E2E2E2E2E2E2E2E2E2E2E2E2E2E2E2E2E2E2E2E2E2E2E2E2E2E2E2E2E2E2E2E2E2E2E2E2E2E2E2E2E2E2E2E2E2E2E2E2E2E2E2E2E2E2E2E2E2E2E2E2E2E2
310
E2E2E2E2E2E2E2E2E2E2E2E2E2E2E2E2E2E2E2E2E2E2E2E2E2E2E2E2E2E2E2E2E2E2E2E2E2E2E2E2E2E2E2E2E2E2E2E2E2E2E2E2E2E2E2E2E2E2E2E2E2E2E2E2E2E2E2E2E2E2E2E2E2E2E2E2E2E2E2E2E2E2E2E2E2E2E2E2E2E2E2E2E2E2E2E2E2E2E2E2E2E2E2E2E2E2E2E2E2E2E2E2E2E2E2E2E2E2E2E2E2E2E2E2E2E2E2
310
E2E2E2E2E2E2E2E2E2E2E2E2E2E2E2E2E2E2E2E2E2E2E2E2E2E2E2E2E2E2E2E2E2E2E2E2E2E2E2E2E2E2E2E2E2E2E2E2E2E2E2E2E2E2E2E2E2E2E2E2E2E2E2E2E2E2E2E2E2E2E2E2E2E2E2E2E2E2E2E2E2E2E2E2E2E2E2E2E2E2E2E2E2E2E2E2E2E2E2E2E2E2E2E2E2E2E2E2E2E2E2E2E2E2E2E2E2E2E2E2E2E2E2E2E2E2E2
310
E2E2E2E2E2E2E2E2E2E2E2E2E2E2E2E2E2E2E2E2E2E2E2E2E2E2E2E2E2E2E2E2E2E2E2E2E2E2E2E2E2E2E2E2E2E2E2E2E2E2E2E2E2E2E2E2E2E2E2E2E2E2E2E2E2E2E2E2E2E2E2E2E2E2E2E2E2E2E2E2E2E2E2E2E2E2E2E2E2E2E2E2E2E2E2E2E2E2E2E2E2E2E2E2E2E2E2E2E2E2E2E2E2E2E2E2E2E2E2E2E2E2E2E2E2E2E2
310
E2E2E2E2E2E2E2E2E2E2E2E2E2E2E2E2E2E2E2E2E2E2E2E2E2E2E2E2E2E2E2E2E2E2E2E2E2E2E2E2E2E2E2E2E2E2E2E2E2E2E2E2E2E2E2E2E2E2E2E2E2E2E2E2E2E2E2E2E2E2E2E2E2E2E2E2E2E2E2E2E2E2E2E2E2E2E2E2E2E2E2E2E2E2E2E2E2E2E2E2E2E2E2E2E2E2E2E2E2E2E2E2E2E2E2E2E2E2E2E2E2E2E2E2E2E2E2
310
E2E2E2E2E2E2E2E2E2E2E2E2E2E2E2E2E2E2E2E2E2E2E2E2E2E2E2E2E2E2E2E2E2E2E2E2E2E2E2E2E2E2E2E2E2E2E2E2E2E2E2E2E2E2E2E2E2E2E2E2E2E2E2E2E2E2E2E2E2E2E2E2E2E2E2E2E2E2E2E2E2E2E2E2E2E2E2E2E2E2E2E2E2E2E2E2E2E2E2E2E2E2E2E2E2E2E2E2E2E2E2E2E2E2E2E2E2E2E2E2E2E2E2E2E2E2E2
310
E2E2E2E2E2E2E2E2E2E2E2E2E2E2E2E2E2E2E2E2E2E2E2E2E2E2E2E2E2E2E2E2E2E2E2E2E2E2E2E2E2E2E2E2E2E2E2E2E2E2E2E2E2E2E2E2E2E2E2E2E2E2E2E2E2E2E2E2E2E2E2E2E2E2E2E2E2E2E2E2E2E2E2E2E2E2E2E2E2E2E2E2E2E2E2E2E2E2E2E2E2E2E2E2E2E2E2E2E2E2E2E2E2E2E2E2E2E2E2E2E2E2E2E2E2E2E2
310
E2E2E2E2E2E2E2E2E2E2E2E2E2E2E2E2E2E2E2E2E2E2E2E2E2E2E2E2E2E2E2E2E2E2E2E2E2E2E2E2E2E2E2E2E2E2E2E2E2E2E2E2E2E2E2E2E2E2E2E2E2E2E2E2E2E2E2E2E2E2E2E2E2E2E2E2E2E2E2E2E2E2E2E2E2E2E2E2E2E2E2E2E2E2E2E2E2E2E2E2E2E2E2E2E2E2E2E2E2E2E2E2E2E2E2E2E2E2E2E2E2E2E2E2E2E2E2
310
E2E2E2E2E2E2E2E2E2E2E2E2E2E2E2E2E2E2E2E2E2E2E2E2E2E2E2E2E2E2E2E2E2E2E2E2E2E2E2E2E2E2E2E2E2E2E2E2E2E2E2E2E2E2E2E2E2E2E2E2E2E2E2E2E2E2E2E2E2E2E2E2E2E2E2E2E2E2E2E2E2E2E2E2E2E2E2E2E2E2E2E2E2E2E2E2E2E2E2E2E2E2E2E2E2E2E2E2E2E2E2E2E2E2E2E2E2E2E2E2E2E2E2E2E2E2E2
310
E2E2E2E2E2E2E2E2E2E2E2E2E2E2E2E2E2E2E2E2E2E2E2E2E2E2E2E2E2E2E2E2E2E2E2E2E2E2E2E2E2E2E2E2E2E2E2E2E2E2E2E2E2E2E2E2E2E2E2E2E2E2E2E2E2E2E2E2E2E2E2E2E2E2E2E2E2E2E2E2E2E2E2E2E2E2E2E2E2E2E2E2E2E2E2E2E2E2E2E2E2E2E2E2E2E2E2E2E2E2E2E2E2E2E2E2E2E2E2E2E2E2E2E2E2E2E2
310
E2E2E2E2E2E2E2E2E2E2E2E2E2E2E2E2E2E2E2E2E2E2E2E2E2E2E2E2E2E2E2E2E2E2E2E2E2E2E2E2E2E2E2E2E2E2E2E2E2E2E2E2E2E2E2E2E2E2E2E2E2E2E2E2E2E2E2E2E2E2E2E2E2E2E2E2E2E2E2E2E2E2E2E2E2E2E2E2E2E2E2E2E2E2E2E2E2E2E2E2E2E2E2E2E2E2E2E2E2E2E2E2E2E2E2E2E2E2E2E2E2E2E2E2E2E2E2
310
E2E2E2E2E2E2E2E2E2E2E2E2E2E2E2E2E2E2E2E2E2E2E2E2E2E2E2E2E2E2E2E2E2E2E2E2E2E2E2E2E2E2E2E2E2E2E2E2E2E2E2E2E2E2E2E2E2E2E2E2E2E2E2E2E2E2E2E2E2E2E2E2E2E2E2E2E2E2E2E2E2E2E2E2E2E2E2E2E2E2E2E2E2E2E2E2E2E2E2E2E2E2E2E2E2E2E2E2E2E2E2E2E2E2E2E2E2E2E2E2E2E2E2E2E2E2E2
310
E2E2E2E2E2E2E2E2E2E2E2E2E2E2E2E2E2E2E2E2E2E2E2E2E2E2E2E2E2E2E2E2E2E2E2E2E2E2E2E2E2E2E2E2E2E2E2E2E2E2E2E2E2E2E2E2E2E2E2E2E2E2E2E2E2E2E2E2E2E2E2E2E2E2E2E2E2E2E2E2E2E2E2E2E2E2E2E2E2E2E2E2E2E2E2E2E2E2E2E2E2E2E2E2E2E2E2E2E2E2E2E2E2E2E2E2E2E2E2E2E2E2E2E2E2E2E2
310
E2E2E2E2E2E2E2E2E2E2E2E2E2E2E2E2E2E2E2E2E2E2E2E2E2E2E2E2E2E2E2E2E2E2E2E2E2E2E2E2E2E2E2E2E2E2E2E2E2E2E2E2E2E2E2E2E2E2E2E2E2E2E2E2E2E2E2E2E2E2E2E2E2E2E2E2E2E2E2E2E2E2E2E2E2E2E2E2E2E2E2E2E2E2E2E2E2E2E2E2E2E2E2E2E2E2E2E2E2E2E2E2E2E2E2E2E2E2E2E2E2E2E2E2E2E2E2
310
E2E2E2E2E2E2E2E2E2E2E2E2E2E2E2E2E2E2E2E2E2E2E2E2E2E2E2E2E2E2E2E2E2E2E2E2E2E2E2E2E2E2E2E2E2E2E2E2E2E2E2E2E2E2E2E2E2E2E2E2E2E2E2E2E2E2E2E2E2E2E2E2E2E2E2E2E2E2E2E2E2E2E2E2E2E2E2E2E2E2E2E2E2E2E2E2E2E2E2E2E2E2E2E2E2E2E2E2E2E2E2E2E2E2E2E2E2E2E2E2E2E2E2E2E2E2E2
310
E2E2E2E2E2E2E2E2E2E2E2E2E2E2E2E2E2E2E2E2E2E2E2E2E2E2E2E2E2E2E2E2E2E2E2E2E2E2E2E2E2E2E2E2E2E2E2E2E2E2E2E2E2E2E2E2E2E2E2E2E2E2E2E2E2E2E2E2E2E2E2E2E2E2E2E2E2E2E2E2E2E2E2E2E2E2E2E2E2E2E2E2E2E2E2E2E2E2E2E2E2E2E2E2E2E2E2E2E2E2E2E2E2E2E2E2E2E2E2E2E2E2E2E2E2E2E2
310
E2E2E2E2E2E2E2E2E2E2E2E2E2E2E2E2E2E2E2E2E2E2E2E2E2E2E2E2E2E2E2E2E2E2E2E2E2E2E2E2E2E2E2E2E2E2E2E2E2E2E2E2E2E2E2E2E2E2E2E2E2E2E2E2E2E2E2E2E2E2E2E2E2E2E2E2E2E2E2E2E2E2E2E2E2E2E2E2E2E2E2E2E2E2E2E2E2E2E2E2E2E2E2E2E2E2E2E2E2E2E2E2E2E2E2E2E2E2E2E2E2E2E2E2E2E2E2
310
E2E2E2E2E2E2E2E2E2E2E2E2E2E2E2E2E2E2E2E2E2E2E2E2E2E2E2E2E2E2E2E2E2E2E2E2E2E2E2E2E2E2E2E2E2E2E2E2E2E2E2E2E2E2E2E2E2E2E2E2E2E2E2E2E2E2E2E2E2E2E2E2E2E2E2E2E2E2E2E2E2E2E2E2E2E2E2E2E2E2E2E2E2E2E2E2E2E2E2E2E2E2E2E2E2E2E2E2E2E2E2E2E2E2E2E2E2E2E2E2E2E2E2E2E2E2E2
310
E2E2E2E2E2E2E2E2E2E2E2E2E2E2E2E2E2E2E2E2E2E2E2E2E2E2E2E2E2E2E2E2E2E2E2E2E2E2E2E2E2E2E2E2E2E2E2E2E2E2E2E2E2E2E2E2E2E2E2E2E2E2E2E2E2E2E2E2E2E2E2E2E2E2E2E2E2E2E2E2E2E2E2E2E2E2E2E2E2E2E2E2E2E2E2E2E2E2E2E2E2E2E2E2E2E2E2E2E2E2E2E2E2E2E2E2E2E2E2E2E2E2E2E2E2E2E2
310
E2E2E2E2E2E2E2E2E2E2E2E2E2E2E2E2E2E2E2E2E2E2E2E2E2E2E2E2E2E2E2E2E2E2E2E2E2E2E2E2E2E2E2E2E2E2E2E2E2E2E2E2E2E2E2E2E2E2E2E2E2E2E2E2E2E2E2E2E2E2E2E2E2E2E2E2E2E2E2E2E2E2E2E2E2E2E2E2E2E2E2E2E2E2E2E2E2E2E2E2E2E2E2E2E2E2E2E2E2E2E2E2E2E2E2E2E2E2E2E2E2E2E2E2E2E2E2
310
E2E2E2E2E2E2E2E2E2E2E2E2E2E2E2E2E2E2E2E2E2E2E2E2E2E2E2E2E2E2E2E2E2E2E2E2E2E2E2E2E2E2E2E2E2E2E2E2E2E2E2E2E2E2E2E2E2E2E2E2E2E2E2E2E2E2E2E2E2E2E2E2E2E2E2E2E2E2E2E2E2E2E2E2E2E2E2E2E2E2E2E2E2E2E2E2E2E2E2E2E2E2E2E2E2E2E2E2E2E2E2E2E2E2E2E2E2E2E2E2E2E2E2E2E2E2E2
310
E2E2E2E2E2E2E2E2E2E2E2E2E2E2E2E2E2E2E2E2E2E2E2E2E2E2E2E2E2E2E2E2E2E2E2E2E2E2E2E2E2E2E2E2E2E2E2E2E2E2E2E2E2E2E2E2E2E2E2E2E2E2E2E2E2E2E2E2E2E2E2E2E2E2E2E2E2E2E2E2E2E2E2E2E2E2E2E2E2E2E2E2E2E2E2E2E2E2E2E2E2E2E2E2E2E2E2E2E2E2E2E2E2E2E2E2E2E2E2E2E2E2E2E2E2E2E2
310
E2E2E2E2E2E2E2E2E2E2E2E2E2E2E2E2E2E2E2E2E2E2E2E2E2E2E2E2E2E2E2E2E2E2E2E2E2E2E2E2E2E2E2E2E2E2E2E2E2E2E2E2E2E2E2E2E2E2E2E2E2E2E2E2E2E2E2E2E2E2E2E2E2E2E2E2E2E2E2E2E2E2E2E2E2E2E2E2E2E2E2E2E2E2E2E2E2E2E2E2E2E2E2E2E2E2E2E2E2E2E2E2E2E2E2E2E2E2E2E2E2E2E2E2E2E2E2
310
E2E2E2E2E2E2E2E2E2E2E2E2E2E2E2E2E2E2E2E2E2E2E2E2E2E2E2E2E2E2E2E2E2E2E2E2E2E2E2E2E2E2E2E2E2E2E2E2E2E2E2E2E2E2E2E2E2E2E2E2E2E2E2E2E2E2E2E2E2E2E2E2E2E2E2E2E2E2E2E2E2E2E2E2E2E2E2E2E2E2E2E2E2E2E2E2E2E2E2E2E2E2E2E2E2E2E2E2E2E2E2E2E2E2E2E2E2E2E2E2E2E2E2E2E2E2E2
310
E2E2E2E2E2E2E2E2E2E2E2E2E2E2E2E2E2E2E2E2E2E2E2E2E2E2E2E2E2E2E2E2E2E2E2E2E2E2E2E2E2E2E2E2E2E2E2E2E2E2E2E2E2E2E2E2E2E2E2E2E2E2E2E2E2E2E2E2E2E2E2E2E2E2E2E2E2E2E2E2E2E2E2E2E2E2E2E2E2E2E2E2E2E2E2E2E2E2E2E2E2E2E2E2E2E2E2E2E2E2E2E2E2E2E2E2E2E2E2E2E2E2E2E2E2E2E2
310
E2E2E2E2E2E2E2E2E2E2E2E2E2E2E2E2E2E2E2E2E2E2E2E2E2E2E2E2E2E2E2E2E2E2E2E2E2E2E2E2E2E2E2E2E2E2E2E2E2E2E2E2E2E2E2E2E2E2E2E2E2E2E2E2E2E2E2E2E2E2E2E2E2E2E2E2E2E2E2E2E2E2E2E2E2E2E2E2E2E2E2E2E2E2E2E2E2E2E2E2E2E2E2E2E2E2E2E2E2E2E2E2E2E2E2E2E2E2E2E2E2E2E2E2E2E2E2
310
E2E2E2E2E2E2E2E2E2E2E2E2E2E2E2E2E2E2E2E2E2E2E2E2E2E2E2E2E2E2E2E2E2E2E2E2E2E2E2E2E2E2E2E2E2E2E2E2E2
  0
XRECORD
  5
2286
102
{ACAD_REACTORS
330
2285
102
}
330
2285
100
AcDbXrecord
280
     1
102
SHADEPLOT
 70
     0
102
SHADEPLOTRESLEVEL
 70
     2
102
SHADEPLOTCUSTOMDPI
 70
   300
  0
XRECORD
  5
12D1
102
{ACAD_REACTORS
330
A40
102
}
330
A40
100
AcDbXrecord
280
     1
102
MATERIAL
148
0.0
149
0.0
149
0.0
 93
        0
 94
      127
282
     0
 72
     0
 77
     0
171
     0
175
     0
179
     0
273
     0
  0
XRECORD
  5
A42
102
{ACAD_REACTORS
330
A40
102
}
330
A40
100
AcDbXrecord
280
     1
270
     1
271
     1
  0
XRECORD
  5
A41
102
{ACAD_REACTORS
330
A40
102
}
330
A40
100
AcDbXrecord
280
     1
270
     1
271
     1
  0
XRECORD
  5
A45
102
{ACAD_REACTORS
330
A40
102
}
330
A40
100
AcDbXrecord
280
     1
270
     1
271
     1
  0
XRECORD
  5
A44
102
{ACAD_REACTORS
330
A40
102
}
330
A40
100
AcDbXrecord
280
     1
270
     1
271
     1
  0
XRECORD
  5
A46
102
{ACAD_REACTORS
330
A40
102
}
330
A40
100
AcDbXrecord
280
     1
270
     1
271
     1
  0
XRECORD
  5
A43
102
{ACAD_REACTORS
330
A40
102
}
330
A40
100
AcDbXrecord
280
     1
270
     1
271
     1
  0
XRECORD
  5
12D0
102
{ACAD_REACTORS
330
A38
102
}
330
A38
100
AcDbXrecord
280
     1
102
MATERIAL
148
0.0
149
0.0
149
0.0
 93
        0
 94
      127
282
     0
 72
     0
 77
     0
171
     0
175
     0
179
     0
273
     0
  0
XRECORD
  5
A3A
102
{ACAD_REACTORS
330
A38
102
}
330
A38
100
AcDbXrecord
280
     1
270
     1
271
     1
  0
XRECORD
  5
A39
102
{ACAD_REACTORS
330
A38
102
}
330
A38
100
AcDbXrecord
280
     1
270
     1
271
     1
  0
XRECORD
  5
A3D
102
{ACAD_REACTORS
330
A38
102
}
330
A38
100
AcDbXrecord
280
     1
270
     1
271
     1
  0
XRECORD
  5
A3C
102
{ACAD_REACTORS
330
A38
102
}
330
A38
100
AcDbXrecord
280
     1
270
     1
271
     1
  0
XRECORD
  5
A3E
102
{ACAD_REACTORS
330
A38
102
}
330
A38
100
AcDbXrecord
280
     1
270
     1
271
     1
  0
XRECORD
  5
A3B
102
{ACAD_REACTORS
330
A38
102
}
330
A38
100
AcDbXrecord
280
     1
270
     1
271
     1
  0
XRECORD
  5
12D2
102
{ACAD_REACTORS
330
A48
102
}
330
A48
100
AcDbXrecord
280
     1
102
MATERIAL
148
0.0
149
0.0
149
0.0
 93
        0
 94
      127
282
     0
 72
     0
 77
     0
171
     0
175
     0
179
     0
273
     0
  0
XRECORD
  5
A4A
102
{ACAD_REACTORS
330
A48
102
}
330
A48
100
AcDbXrecord
280
     1
270
     1
271
     1
  0
XRECORD
  5
A49
102
{ACAD_REACTORS
330
A48
102
}
330
A48
100
AcDbXrecord
280
     1
270
     1
271
     1
  0
XRECORD
  5
A4D
102
{ACAD_REACTORS
330
A48
102
}
330
A48
100
AcDbXrecord
280
     1
270
     1
271
     1
  0
XRECORD
  5
A4C
102
{ACAD_REACTORS
330
A48
102
}
330
A48
100
AcDbXrecord
280
     1
270
     1
271
     1
  0
XRECORD
  5
A4E
102
{ACAD_REACTORS
330
A48
102
}
330
A48
100
AcDbXrecord
280
     1
270
     1
271
     1
  0
XRECORD
  5
A4B
102
{ACAD_REACTORS
330
A48
102
}
330
A48
100
AcDbXrecord
280
     1
270
     1
271
     1
  0
CELLSTYLEMAP
  5
227C
102
{ACAD_REACTORS
330
AED
102
}
330
AED
100
AcDbCellStyleMap
 90
        3
300
CELLSTYLE
  1
TABLEFORMAT_BEGIN
 90
        5
170
     1
 91
        0
 92
    32768
 62
   257
 93
        1
300
CONTENTFORMAT
  1
CONTENTFORMAT_BEGIN
 90
        0
 91
        0
 92
        4
 93
        0
300

 40
0.0
140
1.0
 94
        5
 62
     0
340
10
144
6.0
309
CONTENTFORMAT_END
171
     1
301
MARGIN
  1
CELLMARGIN_BEGIN
 40
1.5
 40
1.5
 40
1.5
 40
1.5
 40
0.18
 40
0.18
309
CELLMARGIN_END
 94
        6
 95
        1
302
GRIDFORMAT
  1
GRIDFORMAT_BEGIN
 90
        0
 91
        1
 62
     0
 92
       -2
340
0
 93
        0
 40
0.045
309
GRIDFORMAT_END
 95
        2
302
GRIDFORMAT
  1
GRIDFORMAT_BEGIN
 90
        0
 91
        1
 62
     0
 92
       -2
340
0
 93
        0
 40
0.045
309
GRIDFORMAT_END
 95
        4
302
GRIDFORMAT
  1
GRIDFORMAT_BEGIN
 90
        0
 91
        1
 62
     0
 92
       -2
340
0
 93
        0
 40
0.045
309
GRIDFORMAT_END
 95
        8
302
GRIDFORMAT
  1
GRIDFORMAT_BEGIN
 90
        0
 91
        1
 62
     0
 92
       -2
340
0
 93
        0
 40
0.045
309
GRIDFORMAT_END
 95
       16
302
GRIDFORMAT
  1
GRIDFORMAT_BEGIN
 90
        0
 91
        1
 62
     0
 92
       -2
340
0
 93
        0
 40
0.045
309
GRIDFORMAT_END
 95
       32
302
GRIDFORMAT
  1
GRIDFORMAT_BEGIN
 90
        0
 91
        1
 62
     0
 92
       -2
340
0
 93
        0
 40
0.045
309
GRIDFORMAT_END
309
TABLEFORMAT_END
  1
CELLSTYLE_BEGIN
 90
        1
 91
        1
300
_TITLE
309
CELLSTYLE_END
300
CELLSTYLE
  1
TABLEFORMAT_BEGIN
 90
        5
170
     1
 91
        0
 92
        0
 62
   257
 93
        1
300
CONTENTFORMAT
  1
CONTENTFORMAT_BEGIN
 90
        0
 91
        0
 92
        4
 93
        0
300

 40
0.0
140
1.0
 94
        5
 62
     0
340
10
144
4.5
309
CONTENTFORMAT_END
171
     1
301
MARGIN
  1
CELLMARGIN_BEGIN
 40
1.5
 40
1.5
 40
1.5
 40
1.5
 40
0.18
 40
0.18
309
CELLMARGIN_END
 94
        6
 95
        1
302
GRIDFORMAT
  1
GRIDFORMAT_BEGIN
 90
        0
 91
        1
 62
     0
 92
       -2
340
0
 93
        0
 40
0.045
309
GRIDFORMAT_END
 95
        2
302
GRIDFORMAT
  1
GRIDFORMAT_BEGIN
 90
        0
 91
        1
 62
     0
 92
       -2
340
0
 93
        0
 40
0.045
309
GRIDFORMAT_END
 95
        4
302
GRIDFORMAT
  1
GRIDFORMAT_BEGIN
 90
        0
 91
        1
 62
     0
 92
       -2
340
0
 93
        0
 40
0.045
309
GRIDFORMAT_END
 95
        8
302
GRIDFORMAT
  1
GRIDFORMAT_BEGIN
 90
        0
 91
        1
 62
     0
 92
       -2
340
0
 93
        0
 40
0.045
309
GRIDFORMAT_END
 95
       16
302
GRIDFORMAT
  1
GRIDFORMAT_BEGIN
 90
        0
 91
        1
 62
     0
 92
       -2
340
0
 93
        0
 40
0.045
309
GRIDFORMAT_END
 95
       32
302
GRIDFORMAT
  1
GRIDFORMAT_BEGIN
 90
        0
 91
        1
 62
     0
 92
       -2
340
0
 93
        0
 40
0.045
309
GRIDFORMAT_END
309
TABLEFORMAT_END
  1
CELLSTYLE_BEGIN
 90
        2
 91
        1
300
_HEADER
309
CELLSTYLE_END
300
CELLSTYLE
  1
TABLEFORMAT_BEGIN
 90
        5
170
     1
 91
        0
 92
        0
 62
   257
 93
        1
300
CONTENTFORMAT
  1
CONTENTFORMAT_BEGIN
 90
        0
 91
        0
 92
        4
 93
        0
300

 40
0.0
140
1.0
 94
        2
 62
     0
340
10
144
4.5
309
CONTENTFORMAT_END
171
     1
301
MARGIN
  1
CELLMARGIN_BEGIN
 40
1.5
 40
1.5
 40
1.5
 40
1.5
 40
0.18
 40
0.18
309
CELLMARGIN_END
 94
        6
 95
        1
302
GRIDFORMAT
  1
GRIDFORMAT_BEGIN
 90
        0
 91
        1
 62
     0
 92
       -2
340
0
 93
        0
 40
0.045
309
GRIDFORMAT_END
 95
        2
302
GRIDFORMAT
  1
GRIDFORMAT_BEGIN
 90
        0
 91
        1
 62
     0
 92
       -2
340
0
 93
        0
 40
0.045
309
GRIDFORMAT_END
 95
        4
302
GRIDFORMAT
  1
GRIDFORMAT_BEGIN
 90
        0
 91
        1
 62
     0
 92
       -2
340
0
 93
        0
 40
0.045
309
GRIDFORMAT_END
 95
        8
302
GRIDFORMAT
  1
GRIDFORMAT_BEGIN
 90
        0
 91
        1
 62
     0
 92
       -2
340
0
 93
        0
 40
0.045
309
GRIDFORMAT_END
 95
       16
302
GRIDFORMAT
  1
GRIDFORMAT_BEGIN
 90
        0
 91
        1
 62
     0
 92
       -2
340
0
 93
        0
 40
0.045
309
GRIDFORMAT_END
 95
       32
302
GRIDFORMAT
  1
GRIDFORMAT_BEGIN
 90
        0
 91
        1
 62
     0
 92
       -2
340
0
 93
        0
 40
0.045
309
GRIDFORMAT_END
309
TABLEFORMAT_END
  1
CELLSTYLE_BEGIN
 90
        3
 91
        2
300
_DATA
309
CELLSTYLE_END
  0
XRECORD
  5
2288
102
{ACAD_REACTORS
330
AED
102
}
330
AED
100
AcDbXrecord
280
     1
102
ACAD_ROUNDTRIP_PRE2007_TABLESTYLE
 90
        4
 91
        0
  1

 92
        4
 93
        0
  2

 94
        4
 95
        0
  3

  0
ENDSEC
  0
EOF
