  0
SECTION
  2
HEADER
  9
$ACADVER
  1
AC1015
  9
$ACADMAINTVER
 70
    20
  9
$DWGCODEPAGE
  3
ANSI_1252
  9
$INSBASE
 10
0.0
 20
0.0
 30
0.0
  9
$EXTMIN
 10
1030.268261857436
 20
670.4318713307052
 30
0.0
  9
$EXTMAX
 10
1162.268261857436
 20
800.9728710532481
 30
0.0
  9
$LIMMIN
 10
0.0
 20
0.0
  9
$LIMMAX
 10
420.0
 20
297.0
  9
$ORTHOMODE
 70
     0
  9
$REGENMODE
 70
     1
  9
$FILLMODE
 70
     1
  9
$QTEXTMODE
 70
     0
  9
$MIRRTEXT
 70
     0
  9
$LTSCALE
 40
1.0
  9
$ATTMODE
 70
     1
  9
$TEXTSIZE
 40
3.5
  9
$TRACEWID
 40
1.0
  9
$TEXTSTYLE
  7
STANDARD
  9
$CLAYER
  8
AM_0
  9
$CELTYPE
  6
BYLAYER
  9
$CECOLOR
 62
   256
  9
$CELTSCALE
 40
1.0
  9
$DISPSILH
 70
     0
  9
$DIMSCALE
 40
1.0
  9
$DIMASZ
 40
3.5
  9
$DIMEXO
 40
1.0
  9
$DIMDLI
 40
10.0
  9
$DIMRND
 40
0.0
  9
$DIMDLE
 40
0.0
  9
$DIMEXE
 40
1.0
  9
$DIMTP
 40
0.1
  9
$DIMTM
 40
0.1
  9
$DIMTXT
 40
3.5
  9
$DIMCEN
 40
0.0
  9
$DIMTSZ
 40
0.0
  9
$DIMTOL
 70
     0
  9
$DIMLIM
 70
     0
  9
$DIMTIH
 70
     0
  9
$DIMTOH
 70
     0
  9
$DIMSE1
 70
     0
  9
$DIMSE2
 70
     0
  9
$DIMTAD
 70
     1
  9
$DIMZIN
 70
     8
  9
$DIMBLK
  1

  9
$DIMASO
 70
     1
  9
$DIMSHO
 70
     1
  9
$DIMPOST
  1

  9
$DIMAPOST
  1
"
  9
$DIMALT
 70
     0
  9
$DIMALTD
 70
     2
  9
$DIMALTF
 40
0.0393701
  9
$DIMLFAC
 40
1.0
  9
$DIMTOFL
 70
     1
  9
$DIMTVP
 40
0.0
  9
$DIMTIX
 70
     0
  9
$DIMSOXD
 70
     0
  9
$DIMSAH
 70
     0
  9
$DIMBLK1
  1

  9
$DIMBLK2
  1

  9
$DIMSTYLE
  2
AM_ISO
  9
$DIMCLRD
 70
   256
  9
$DIMCLRE
 70
   256
  9
$DIMCLRT
 70
     2
  9
$DIMTFAC
 40
0.71
  9
$DIMGAP
 40
1.5
  9
$DIMJUST
 70
     0
  9
$DIMSD1
 70
     0
  9
$DIMSD2
 70
     0
  9
$DIMTOLJ
 70
     0
  9
$DIMTZIN
 70
     8
  9
$DIMALTZ
 70
     0
  9
$DIMALTTZ
 70
     0
  9
$DIMUPT
 70
     0
  9
$DIMDEC
 70
     2
  9
$DIMTDEC
 70
     3
  9
$DIMALTU
 70
     2
  9
$DIMALTTD
 70
     4
  9
$DIMTXSTY
  7
STANDARD
  9
$DIMAUNIT
 70
     0
  9
$DIMADEC
 70
     0
  9
$DIMALTRND
 40
0.0
  9
$DIMAZIN
 70
     2
  9
$DIMDSEP
 70
    46
  9
$DIMATFIT
 70
     3
  9
$DIMFRAC
 70
     0
  9
$DIMLDRBLK
  1

  9
$DIMLUNIT
 70
     2
  9
$DIMLWD
 70
    -1
  9
$DIMLWE
 70
    -1
  9
$DIMTMOVE
 70
     0
  9
$LUNITS
 70
     2
  9
$LUPREC
 70
     2
  9
$SKETCHINC
 40
1.0
  9
$FILLETRAD
 40
0.0
  9
$AUNITS
 70
     0
  9
$AUPREC
 70
     0
  9
$MENU
  1
.
  9
$ELEVATION
 40
0.0
  9
$PELEVATION
 40
0.0
  9
$THICKNESS
 40
0.0
  9
$LIMCHECK
 70
     0
  9
$CHAMFERA
 40
2.5
  9
$CHAMFERB
 40
2.5
  9
$CHAMFERC
 40
20.0
  9
$CHAMFERD
 40
0.0
  9
$SKPOLY
 70
     1
  9
$TDCREATE
 40
2456346.581612859
  9
$TDUCREATE
 40
2456346.539946192
  9
$TDUPDATE
 40
2456359.652613762
  9
$TDUUPDATE
 40
2456359.610947095
  9
$TDINDWG
 40
0.0337142824
  9
$TDUSRTIMER
 40
0.0337137037
  9
$USRTIMER
 70
     1
  9
$ANGBASE
 50
0.0
  9
$ANGDIR
 70
     0
  9
$PDMODE
 70
     0
  9
$PDSIZE
 40
0.0
  9
$PLINEWID
 40
0.0
  9
$SPLFRAME
 70
     0
  9
$SPLINETYPE
 70
     6
  9
$SPLINESEGS
 70
     8
  9
$HANDSEED
  5
240D
  9
$SURFTAB1
 70
     6
  9
$SURFTAB2
 70
     6
  9
$SURFTYPE
 70
     6
  9
$SURFU
 70
     6
  9
$SURFV
 70
     6
  9
$UCSBASE
  2

  9
$UCSNAME
  2

  9
$UCSORG
 10
0.0
 20
0.0
 30
0.0
  9
$UCSXDIR
 10
1.0
 20
0.0
 30
0.0
  9
$UCSYDIR
 10
0.0
 20
1.0
 30
0.0
  9
$UCSORTHOREF
  2

  9
$UCSORTHOVIEW
 70
     0
  9
$UCSORGTOP
 10
0.0
 20
0.0
 30
0.0
  9
$UCSORGBOTTOM
 10
0.0
 20
0.0
 30
0.0
  9
$UCSORGLEFT
 10
0.0
 20
0.0
 30
0.0
  9
$UCSORGRIGHT
 10
0.0
 20
0.0
 30
0.0
  9
$UCSORGFRONT
 10
0.0
 20
0.0
 30
0.0
  9
$UCSORGBACK
 10
0.0
 20
0.0
 30
0.0
  9
$PUCSBASE
  2

  9
$PUCSNAME
  2

  9
$PUCSORG
 10
0.0
 20
0.0
 30
0.0
  9
$PUCSXDIR
 10
1.0
 20
0.0
 30
0.0
  9
$PUCSYDIR
 10
0.0
 20
1.0
 30
0.0
  9
$PUCSORTHOREF
  2

  9
$PUCSORTHOVIEW
 70
     0
  9
$PUCSORGTOP
 10
0.0
 20
0.0
 30
0.0
  9
$PUCSORGBOTTOM
 10
0.0
 20
0.0
 30
0.0
  9
$PUCSORGLEFT
 10
0.0
 20
0.0
 30
0.0
  9
$PUCSORGRIGHT
 10
0.0
 20
0.0
 30
0.0
  9
$PUCSORGFRONT
 10
0.0
 20
0.0
 30
0.0
  9
$PUCSORGBACK
 10
0.0
 20
0.0
 30
0.0
  9
$USERI1
 70
     0
  9
$USERI2
 70
     0
  9
$USERI3
 70
     0
  9
$USERI4
 70
     0
  9
$USERI5
 70
     0
  9
$USERR1
 40
0.0
  9
$USERR2
 40
0.0
  9
$USERR3
 40
0.0
  9
$USERR4
 40
0.0
  9
$USERR5
 40
0.0
  9
$WORLDVIEW
 70
     1
  9
$SHADEDGE
 70
     3
  9
$SHADEDIF
 70
    70
  9
$TILEMODE
 70
     1
  9
$MAXACTVP
 70
    48
  9
$PINSBASE
 10
0.0
 20
0.0
 30
0.0
  9
$PLIMCHECK
 70
     0
  9
$PEXTMIN
 10
1.000000000000000E+20
 20
1.000000000000000E+20
 30
1.000000000000000E+20
  9
$PEXTMAX
 10
-1.000000000000000E+20
 20
-1.000000000000000E+20
 30
-1.000000000000000E+20
  9
$PLIMMIN
 10
-0.2500002402958907
 20
-0.2499999962453767
  9
$PLIMMAX
 10
10.74999951940821
 20
8.249999763458731
  9
$UNITMODE
 70
     0
  9
$VISRETAIN
 70
     1
  9
$PLINEGEN
 70
     0
  9
$PSLTSCALE
 70
     1
  9
$TREEDEPTH
 70
  3020
  9
$CMLSTYLE
  2
STANDARD
  9
$CMLJUST
 70
     0
  9
$CMLSCALE
 40
1.0
  9
$PROXYGRAPHICS
 70
     1
  9
$MEASUREMENT
 70
     1
  9
$CELWEIGHT
370
    -1
  9
$ENDCAPS
280
     0
  9
$JOINSTYLE
280
     0
  9
$LWDISPLAY
290
     0
  9
$INSUNITS
 70
     4
  9
$HYPERLINKBASE
  1

  9
$STYLESHEET
  1
@LAYOUT.CTB
  9
$XEDIT
290
     1
  9
$CEPSNTYPE
380
     0
  9
$PSTYLEMODE
290
     1
  9
$FINGERPRINTGUID
  2
{CA768934-4D5D-4225-83F3-3C33ACFC75AF}
  9
$VERSIONGUID
  2
{77536889-A91C-47FA-99CF-5E49103D631F}
  9
$EXTNAMES
290
     1
  9
$PSVPSCALE
 40
0.0
  9
$OLESTARTUP
290
     0
  0
ENDSEC
  0
SECTION
  2
CLASSES
  0
CLASS
  1
DICTIONARYVAR
  2
AcDbDictionaryVar
  3
ObjectDBX Classes
 90
        0
280
     0
281
     0
  0
CLASS
  1
ACMESTATEMGR
  2
AcMeStateMgr
  3
AcMeServices
 90
     1024
280
     0
281
     0
  0
CLASS
  1
ACMESCOPE
  2
AcMeScope
  3
AcMeServices
 90
     1024
280
     0
281
     0
  0
CLASS
  1
ACMECOMMANDHISTORY
  2
AcMeCommandHistory
  3
AcMeServices
 90
     1024
280
     0
281
     0
  0
CLASS
  1
ACRFINSADJUSTERMGR
  2
AcRfInsAdjusterMgr
  3
AcMeServices
 90
     1024
280
     0
281
     0
  0
CLASS
  1
ACMEDRAWINGMAN
  2
AcMeDrawingMan
  3
AcMeServices
 90
     1024
280
     0
281
     0
  0
CLASS
  1
AMATTR
  2
AcMeAttribute
  3
AcMeServices
 90
    33792
280
     0
281
     0
  0
CLASS
  1
ACMEBOMCOLUMN
  2
AcMeBOMColumn
  3
AcMeServices
 90
    33792
280
     0
281
     0
  0
CLASS
  1
ACMEBOMCONF
  2
AcMeBOMConf
  3
AcMeServices
 90
    33792
280
     0
281
     0
  0
CLASS
  1
ACMEBOMTABLE
  2
AcMeBOMTable
  3
AcMeServices
 90
    33792
280
     0
281
     0
  0
CLASS
  1
ACMEBOMENTRY
  2
AcMeBOMEntry
  3
AcMeServices
 90
    33792
280
     0
281
     0
  0
CLASS
  1
ACMEVIEW
  2
AcMeView
  3
AcMeServices
 90
     1024
280
     0
281
     0
  0
CLASS
  1
ACGREFMASTER
  2
AcGrefMaster
  3
AcAttribServices
 90
     1024
280
     0
281
     0
  0
CLASS
  1
AMIMASTER
  2
AmiMaster
  3
AmiServices
 90
     1024
280
     0
281
     0
  0
CLASS
  1
ACASGREFMASTER
  2
AcAsGrefMaster
  3
AutoSurfResolverServices
 90
     1024
280
     0
281
     0
  0
CLASS
  1
ADAPPL
  2
AcAdAppl
  3
DesignerServices
 90
     1024
280
     0
281
     0
  0
CLASS
  1
DEPMGR
  2
AcAdDepMgr
  3
DesignerServices
 90
     1024
280
     0
281
     0
  0
CLASS
  1
PARAMMGR
  2
AcAdParamMgr
  3
DesignerServices
 90
     1024
280
     0
281
     0
  0
CLASS
  1
PARAMSCOPE
  2
AcAdParamScope
  3
DesignerServices
 90
     1024
280
     0
281
     0
  0
CLASS
  1
ACIMSYSVARMAN
  2
AcImSysVarManager
  3
AcMeServices
 90
     1024
280
     0
281
     0
  0
CLASS
  1
ACIMINTSYSVAR
  2
AcImIntSysVar
  3
AcMeServices
 90
     1024
280
     0
281
     0
  0
CLASS
  1
ACIMREALSYSVAR
  2
AcImRealSysVar
  3
AcMeServices
 90
     1024
280
     0
281
     0
  0
CLASS
  1
ACIMSTRSYSVAR
  2
AcImStrSysVar
  3
AcMeServices
 90
     1024
280
     0
281
     0
  0
CLASS
  1
NAMEDAPPL
  2
AcAdNamedAppl
  3
DesignerServices
 90
     1024
280
     0
281
     0
  0
CLASS
  1
ADHNTMPLT
  2
AdHoleNoteTemplateMgr
  3
DesignerServices
 90
    33792
280
     0
281
     0
  0
CLASS
  1
AM_HNTEMPLATE_MGR_NAME
  2
AdHoleNoteTemplateMgrName
  3
DesignerServices
 90
    33792
280
     0
281
     0
  0
CLASS
  1
ACADGREFMODULE
  2
AcAdGrefModule
  3
AdGrefServices
 90
     1024
280
     0
281
     0
  0
CLASS
  1
AM_DRAWING_MGR
  2
AcDmDwgMgr
  3
AcMechDwgViewMgmt
 90
     1024
280
     0
281
     0
  0
CLASS
  1
AM_DWG_DOCUMENT
  2
AcDmDwgDocument
  3
AcMechDwgViewMgmt
 90
     1024
280
     0
281
     0
  0
CLASS
  1
AM_DWG_SHEET
  2
AcDmSheet
  3
AcMechDwgViewMgmt
 90
     1024
280
     0
281
     0
  0
CLASS
  1
AM_VIEWDIMPARMAP
  2
AcDmViewDimParMap
  3
AcMechDwgViewMgmt
 90
     1024
280
     0
281
     0
  0
CLASS
  1
AM_DWGMGR_NAME
  2
AcDmDwgMgrName
  3
AcMechDwgViewMgmt
 90
     1024
280
     0
281
     0
  0
CLASS
  1
ACAMPROJECT
  2
AcAmProject
  3
DesignerAssemblies
 90
     1024
280
     0
281
     0
  0
CLASS
  1
ACAMGRCOMPSET
  2
AcAmGrCompSet
  3
DesignerAssemblies
 90
    32768
280
     0
281
     0
  0
CLASS
  1
ACAMGRCOMPDEFSET
  2
AcAmGrCompDefSet
  3
DesignerAssemblies
 90
     1024
280
     0
281
     0
  0
CLASS
  1
ACAMGRCOMPDEF
  2
AcAmGrCompDef
  3
DesignerAssemblies
 90
     1024
280
     0
281
     0
  0
CLASS
  1
ACCMCONTEXT
  2
AcCmContext
  3
DesignerAssemblies
 90
     1024
280
     0
281
     0
  0
CLASS
  1
ACAMCOMPDEF
  2
AcAmCompDef
  3
DesignerAssemblies
 90
     1024
280
     0
281
     0
  0
CLASS
  1
ACAMCOMPDEFMGR
  2
AcAmCompDefMgr
  3
DesignerAssemblies
 90
     1024
280
     0
281
     0
  0
CLASS
  1
AMCONTEXTMGR
  2
AcAmContextMgr
  3
DesignerAssemblies
 90
     1024
280
     0
281
     0
  0
CLASS
  1
ACAMCONTEXTMODELER
  2
AcAmContextModeler
  3
DesignerAssemblies
 90
     1024
280
     0
281
     0
  0
CLASS
  1
ACDMVIEWGEOM
  2
AcDmViewGeometry
  3
AcMechDwgViewMgmt
 90
    33792
280
     0
281
     1
  0
CLASS
  1
CBROWSERAPPOBJECT
  2
CBrowserAppObject
  3
McadcomServices
 90
     1024
280
     0
281
     0
  0
CLASS
  1
IM_STATIC_MAN
  2
AcImStaticVarManager
  3
AcMeServices
 90
     1024
280
     0
281
     0
  0
CLASS
  1
ASAPP
  2
AcAsAppObject
  3
AutoSurfServices
 90
     1024
280
     0
281
     0
  0
CLASS
  1
ACIMDBLSTATICVAR
  2
AcImDblStaticVar
  3
AcMeServices
 90
     1024
280
     0
281
     0
  0
CLASS
  1
ACIMSTRSTATICVAR
  2
AcImStrStaticVar
  3
AcMeServices
 90
     1024
280
     0
281
     0
  0
CLASS
  1
ACIMINTSTATICVAR
  2
AcImIntStaticVar
  3
AcMeServices
 90
     1024
280
     0
281
     0
  0
CLASS
  1
CATALOGSTATE
  2
AcAmCatalogState
  3
DesignerAssemblies
 90
     1024
280
     0
281
     0
  0
CLASS
  1
DM_PLACEHOLDER
  2
AcDmSelsetPlaceholder
  3
AcMechDwgViewMgmt
 90
     1024
280
     0
281
     0
  0
CLASS
  1
LAYER_INDEX
  2
AcDbLayerIndex
  3
ObjectDBX Classes
 90
        0
280
     0
281
     0
  0
CLASS
  1
IDBUFFER
  2
AcDbIdBuffer
  3
ObjectDBX Classes
 90
        0
280
     0
281
     0
  0
CLASS
  1
ACMSTANDARDJIS
  2
AcmStandardJIS
  3
"Amdt_StdImp|Product Description: AutoCAD Mechanical|Company: Autodesk, Inc."
 90
    33792
280
     0
281
     0
  0
CLASS
  1
ACMSTANDARDANSI
  2
AcmStandardANSI
  3
"Amdt_StdImp|Product Description: AutoCAD Mechanical|Company: Autodesk, Inc."
 90
     1024
280
     0
281
     0
  0
CLASS
  1
ACMSTANDARDBSI
  2
AcmStandardBSI
  3
"Amdt_StdImp|Product Description: AutoCAD Mechanical|Company: Autodesk, Inc."
 90
    33792
280
     0
281
     0
  0
CLASS
  1
ACMSTANDARDDIN
  2
AcmStandardDIN
  3
"Amdt_StdImp|Product Description: AutoCAD Mechanical|Company: Autodesk, Inc."
 90
    33792
280
     0
281
     0
  0
CLASS
  1
ACMSTANDARDISO
  2
AcmStandardISO
  3
"Amdt_StdImp|Product Description: AutoCAD Mechanical|Company: Autodesk, Inc."
 90
     1024
280
     0
281
     0
  0
CLASS
  1
ACDBDICTIONARYWDFLT
  2
AcDbDictionaryWithDefault
  3
ObjectDBX Classes
 90
        0
280
     0
281
     0
  0
CLASS
  1
ACDBPLACEHOLDER
  2
AcDbPlaceHolder
  3
ObjectDBX Classes
 90
        0
280
     0
281
     0
  0
CLASS
  1
LAYOUT
  2
AcDbLayout
  3
ObjectDBX Classes
 90
        0
280
     0
281
     0
  0
CLASS
  1
ACME_DOCUMENT
  2
AcMeDbDoc
  3
AcMeServices
 90
     1024
280
     0
281
     0
  0
CLASS
  1
AMGSETTINGSOBJ
  2
AmgSettingsObj
  3
"AcadM|Product Description: AutoCAD Mechanical|Company: Autodesk, Inc."
 90
     1024
280
     0
281
     0
  0
CLASS
  1
AMGOBJPROPCFG
  2
AmgObjPropCfg
  3
"AmgLay|Product Description: AutoCAD Mechanical|Company: Autodesk, Inc."
 90
     1025
280
     0
281
     0
  0
CLASS
  1
ACDBENTITYCACHE
  2
AcMeEntityCache
  3
AcMeServices
 90
     1024
280
     0
281
     0
  0
CLASS
  1
GSMANAGER
  2
AcMeGSManager
  3
AcMeServices
 90
     1024
280
     0
281
     0
  0
CLASS
  1
AMDTINTERNALREACTOR
  2
AmdtInternalReactor
  3
AcMeServices
 90
     1024
280
     0
281
     0
  0
CLASS
  1
ACME_DATABASE
  2
AcMeDbDatabase
  3
AcMeServices
 90
     1024
280
     0
281
     0
  0
CLASS
  1
ACGREFACADMASTER
  2
AcGrefacadMaster
  3
AcGrefServices
 90
     1024
280
     0
281
     0
  0
CLASS
  1
AMDTMENUSTATEMGR
  2
AmdtMenuStateMgr
  3
McadcomServices
 90
     1024
280
     0
281
     0
  0
CLASS
  1
AMDTMCOMMENUSTATE
  2
AmdtMcomMenuState
  3
McadcomServices
 90
     1024
280
     0
281
     0
  0
CLASS
  1
MAPIADMODULE
  2
MApiAdModule
  3
MApiAdServices
 90
     1024
280
     0
281
     0
  0
CLASS
  1
AMDTDMMENUSTATE
  2
AmdtDmMenuState
  3
AcMechDwgViewMgmt
 90
     1024
280
     0
281
     0
  0
CLASS
  1
AMDTADMENUSTATE
  2
AmdtAdMenuState
  3
DesignerServices
 90
     1024
280
     0
281
     0
  0
CLASS
  1
AMDTAMMENUSTATE
  2
AmdtAmMenuState
  3
DesignerAssemblies
 90
     1024
280
     0
281
     0
  0
CLASS
  1
ACMDATADICTIONARY
  2
AcmDataDictionary
  3
"AcmSymBB|Product Description: AutoCAD Mechanical|Company: Autodesk, Inc."
 90
     1024
280
     0
281
     0
  0
CLASS
  1
ACMDATAENTRYBLOCK
  2
AcmDataEntryBlock
  3
AcmSymBB|Product Description: AutoCAD Mechanical|Company: Autodesk, Inc.
 90
     1024
280
     0
281
     0
  0
CLASS
  1
ACMSURFSTANDARDJIS
  2
AcmSurfTextStdJIS
  3
"Amdt_StdImp|Product Description: AutoCAD Mechanical|Company: Autodesk, Inc."
 90
    33792
280
     0
281
     0
  0
CLASS
  1
ACMFCFSTANDARDJIS
  2
AcmFCFStdJIS
  3
"Amdt_StdImp|Product Description: AutoCAD Mechanical|Company: Autodesk, Inc."
 90
    33792
280
     0
281
     0
  0
CLASS
  1
ACMWELDSTANDARDJIS
  2
AcmWeldingStdJIS
  3
"Amdt_StdImp|Product Description: AutoCAD Mechanical|Company: Autodesk, Inc."
 90
    33792
280
     0
281
     0
  0
CLASS
  1
ACMIDSTANDARDJIS
  2
AcmIdStdJIS
  3
"Amdt_StdImp|Product Description: AutoCAD Mechanical|Company: Autodesk, Inc."
 90
    33792
280
     0
281
     0
  0
CLASS
  1
ACMDATUMSTANDARDJIS
  2
AcmDatumStdJIS
  3
"Amdt_StdImp|Product Description: AutoCAD Mechanical|Company: Autodesk, Inc."
 90
    33792
280
     0
281
     0
  0
CLASS
  1
ACMBOMSTANDARDJIS
  2
AcmBOMStdJIS
  3
"Amdt_StdImp|Product Description: AutoCAD Mechanical|Company: Autodesk, Inc."
 90
    33792
280
     0
281
     0
  0
CLASS
  1
ACMSURFSTANDARDANSI
  2
AcmSurfTextStdANSI
  3
"Amdt_StdImp|Product Description: AutoCAD Mechanical|Company: Autodesk, Inc."
 90
     1024
280
     0
281
     0
  0
CLASS
  1
ACMFCFSTANDARDANSI
  2
AcmFCFStdANSI
  3
"Amdt_StdImp|Product Description: AutoCAD Mechanical|Company: Autodesk, Inc."
 90
     1024
280
     0
281
     0
  0
CLASS
  1
ACMWELDSTANDARDANSI
  2
AcmWeldingStdANSI
  3
"Amdt_StdImp|Product Description: AutoCAD Mechanical|Company: Autodesk, Inc."
 90
     1024
280
     0
281
     0
  0
CLASS
  1
ACMIDSTANDARDANSI
  2
AcmIdStdANSI
  3
"Amdt_StdImp|Product Description: AutoCAD Mechanical|Company: Autodesk, Inc."
 90
     1024
280
     0
281
     0
  0
CLASS
  1
ACMDATUMSTANDARDANSI
  2
AcmDatumStdANSI
  3
"Amdt_StdImp|Product Description: AutoCAD Mechanical|Company: Autodesk, Inc."
 90
     1024
280
     0
281
     0
  0
CLASS
  1
ACMBOMSTANDARDANSI
  2
AcmBOMStdANSI
  3
"Amdt_StdImp|Product Description: AutoCAD Mechanical|Company: Autodesk, Inc."
 90
     1024
280
     0
281
     0
  0
CLASS
  1
ACMSURFSTANDARDBSI
  2
AcmSurfTextStdBSI
  3
"Amdt_StdImp|Product Description: AutoCAD Mechanical|Company: Autodesk, Inc."
 90
    33792
280
     0
281
     0
  0
CLASS
  1
ACMFCFSTANDARDBSI
  2
AcmFCFStdBSI
  3
"Amdt_StdImp|Product Description: AutoCAD Mechanical|Company: Autodesk, Inc."
 90
    33792
280
     0
281
     0
  0
CLASS
  1
ACMWELDSTANDARDBSI
  2
AcmWeldingStdBSI
  3
"Amdt_StdImp|Product Description: AutoCAD Mechanical|Company: Autodesk, Inc."
 90
    33792
280
     0
281
     0
  0
CLASS
  1
ACMIDSTANDARDBSI
  2
AcmIdStdBSI
  3
"Amdt_StdImp|Product Description: AutoCAD Mechanical|Company: Autodesk, Inc."
 90
    33792
280
     0
281
     0
  0
CLASS
  1
ACMDATUMSTANDARDBSI
  2
AcmDatumStdBSI
  3
"Amdt_StdImp|Product Description: AutoCAD Mechanical|Company: Autodesk, Inc."
 90
    33792
280
     0
281
     0
  0
CLASS
  1
ACMBOMSTANDARDBSI
  2
AcmBOMStdBSI
  3
"Amdt_StdImp|Product Description: AutoCAD Mechanical|Company: Autodesk, Inc."
 90
    33792
280
     0
281
     0
  0
CLASS
  1
AMDTEDGESTANDARDDIN
  2
AmdtEdgeStdDIN
  3
"Amdt_StdImp|Product Description: AutoCAD Mechanical|Company: Autodesk, Inc."
 90
    33792
280
     0
281
     0
  0
CLASS
  1
ACMSURFSTANDARDDIN
  2
AcmSurfTextStdDIN
  3
"Amdt_StdImp|Product Description: AutoCAD Mechanical|Company: Autodesk, Inc."
 90
    33792
280
     0
281
     0
  0
CLASS
  1
ACMFCFSTANDARDDIN
  2
AcmFCFStdDIN
  3
"Amdt_StdImp|Product Description: AutoCAD Mechanical|Company: Autodesk, Inc."
 90
    33792
280
     0
281
     0
  0
CLASS
  1
ACMWELDSTANDARDDIN
  2
AcmWeldingStdDIN
  3
"Amdt_StdImp|Product Description: AutoCAD Mechanical|Company: Autodesk, Inc."
 90
    33792
280
     0
281
     0
  0
CLASS
  1
ACMIDSTANDARDDIN
  2
AcmIdStdDIN
  3
"Amdt_StdImp|Product Description: AutoCAD Mechanical|Company: Autodesk, Inc."
 90
    33792
280
     0
281
     0
  0
CLASS
  1
ACMDATUMSTANDARDDIN
  2
AcmDatumStdDIN
  3
"Amdt_StdImp|Product Description: AutoCAD Mechanical|Company: Autodesk, Inc."
 90
    33792
280
     0
281
     0
  0
CLASS
  1
ACMBOMSTANDARDDIN
  2
AcmBOMStdDIN
  3
"Amdt_StdImp|Product Description: AutoCAD Mechanical|Company: Autodesk, Inc."
 90
    33792
280
     0
281
     0
  0
CLASS
  1
ACMSURFSTANDARDISO
  2
AcmSurfTextStdISO
  3
"Amdt_StdImp|Product Description: AutoCAD Mechanical|Company: Autodesk, Inc."
 90
     1024
280
     0
281
     0
  0
CLASS
  1
ACMFCFSTANDARDISO
  2
AcmFCFStdISO
  3
"Amdt_StdImp|Product Description: AutoCAD Mechanical|Company: Autodesk, Inc."
 90
     1024
280
     0
281
     0
  0
CLASS
  1
ACMWELDSTANDARDISO
  2
AcmWeldingStdISO
  3
"Amdt_StdImp|Product Description: AutoCAD Mechanical|Company: Autodesk, Inc."
 90
     1024
280
     0
281
     0
  0
CLASS
  1
ACMIDSTANDARDISO
  2
AcmIdStdISO
  3
"Amdt_StdImp|Product Description: AutoCAD Mechanical|Company: Autodesk, Inc."
 90
     1024
280
     0
281
     0
  0
CLASS
  1
ACMDATUMSTANDARDISO
  2
AcmDatumStdISO
  3
"Amdt_StdImp|Product Description: AutoCAD Mechanical|Company: Autodesk, Inc."
 90
     1024
280
     0
281
     0
  0
CLASS
  1
ACMBOMSTANDARDISO
  2
AcmBOMStdISO
  3
"Amdt_StdImp|Product Description: AutoCAD Mechanical|Company: Autodesk, Inc."
 90
     1024
280
     0
281
     0
  0
CLASS
  1
AMDTBROWSERDBTAB
  2
AmdtBrowserDbTab
  3
McadcomServices
 90
     1024
280
     0
281
     0
  0
CLASS
  1
ACAMGFILTERDAT
  2
AcAmgFilterDat
  3
"AcadM|Product Description: AutoCAD Mechanical|Company: Autodesk, Inc."
 90
     1024
280
     0
281
     0
  0
CLASS
  1
MAPIAMMOUDLE
  2
MApiAmModule
  3
MApiAmServices
 90
     1024
280
     0
281
     0
  0
CLASS
  1
AMDTMAPISURFMOUDULE
  2
AmdtMApiSurfModule
  3
MApiSurfServices
 90
    33792
280
     0
281
     0
  0
CLASS
  1
ACAMGLAYSTD
  2
AcAmgLayStd
  3
"AmgLay|Product Description: AutoCAD Mechanical|Company: Autodesk, Inc."
 90
     1024
280
     0
281
     0
  0
CLASS
  1
ACAMGDIMSTD
  2
AcAmgDimStd
  3
"AmgDim|Product Description: AutoCAD Mechanical|Company: Autodesk, Inc."
 90
     1024
280
     0
281
     0
  0
CLASS
  1
ACAMGTITLESTD
  2
AcAmgTitleStd
  3
"AmgTitle|Product Description: AutoCAD Mechanical|Company: Autodesk, Inc."
 90
     4095
280
     0
281
     0
  0
CLASS
  1
ACMDETAILSTANDARDJIS
  2
AmdtDetailSymStdJIS
  3
"Amdt_StdImp|Product Description: AutoCAD Mechanical|Company: Autodesk, Inc."
 90
    33792
280
     0
281
     0
  0
CLASS
  1
ACMSECTIONSTANDARDJIS
  2
AmdtSectionSymStdJIS
  3
"Amdt_StdImp|Product Description: AutoCAD Mechanical|Company: Autodesk, Inc."
 90
    33792
280
     0
281
     0
  0
CLASS
  1
ACMCENTERLINESTANDARDJIS
  2
AmdtCenterLineStdJIS
  3
"Amdt_StdImp|Product Description: AutoCAD Mechanical|Company: Autodesk, Inc."
 90
    33792
280
     0
281
     0
  0
CLASS
  1
ACMTHREADLINESTANDARDJIS
  2
AmdtThreadLineStdJIS
  3
"Amdt_StdImp|Product Description: AutoCAD Mechanical|Company: Autodesk, Inc."
 90
    33792
280
     0
281
     0
  0
CLASS
  1
ACMDETAILSTANDARDANSI
  2
AmdtDetailSymStdANSI
  3
"Amdt_StdImp|Product Description: AutoCAD Mechanical|Company: Autodesk, Inc."
 90
     1024
280
     0
281
     0
  0
CLASS
  1
ACMSECTIONSTANDARDANSI
  2
AmdtSectionSymStdANSI
  3
"Amdt_StdImp|Product Description: AutoCAD Mechanical|Company: Autodesk, Inc."
 90
     1024
280
     0
281
     0
  0
CLASS
  1
ACMCENTERLINESTANDARDANSI
  2
AmdtCenterLineStdANSI
  3
"Amdt_StdImp|Product Description: AutoCAD Mechanical|Company: Autodesk, Inc."
 90
     1024
280
     0
281
     0
  0
CLASS
  1
ACMTHREADLINESTANDARDANSI
  2
AmdtThreadLineStdANSI
  3
"Amdt_StdImp|Product Description: AutoCAD Mechanical|Company: Autodesk, Inc."
 90
     1024
280
     0
281
     0
  0
CLASS
  1
ACMDETAILSTANDARDBSI
  2
AmdtDetailSymStdBSI
  3
"Amdt_StdImp|Product Description: AutoCAD Mechanical|Company: Autodesk, Inc."
 90
    33792
280
     0
281
     0
  0
CLASS
  1
ACMSECTIONSTANDARDBSI
  2
AmdtSectionSymStdBSI
  3
"Amdt_StdImp|Product Description: AutoCAD Mechanical|Company: Autodesk, Inc."
 90
    33792
280
     0
281
     0
  0
CLASS
  1
ACMCENTERLINESTANDARDBSI
  2
AmdtCenterLineStdBSI
  3
"Amdt_StdImp|Product Description: AutoCAD Mechanical|Company: Autodesk, Inc."
 90
    33792
280
     0
281
     0
  0
CLASS
  1
ACMTHREADLINESTANDARDBSI
  2
AmdtThreadLineStdBSI
  3
"Amdt_StdImp|Product Description: AutoCAD Mechanical|Company: Autodesk, Inc."
 90
    33792
280
     0
281
     0
  0
CLASS
  1
ACMDETAILSTANDARDDIN
  2
AmdtDetailSymStdDIN
  3
"Amdt_StdImp|Product Description: AutoCAD Mechanical|Company: Autodesk, Inc."
 90
    33792
280
     0
281
     0
  0
CLASS
  1
ACMSECTIONSTANDARDDIN
  2
AmdtSectionSymStdDIN
  3
"Amdt_StdImp|Product Description: AutoCAD Mechanical|Company: Autodesk, Inc."
 90
    33792
280
     0
281
     0
  0
CLASS
  1
ACMCENTERLINESTANDARDDIN
  2
AmdtCenterLineStdDIN
  3
"Amdt_StdImp|Product Description: AutoCAD Mechanical|Company: Autodesk, Inc."
 90
    33792
280
     0
281
     0
  0
CLASS
  1
ACMTHREADLINESTANDARDDIN
  2
AmdtThreadLineStdDIN
  3
"Amdt_StdImp|Product Description: AutoCAD Mechanical|Company: Autodesk, Inc."
 90
    33792
280
     0
281
     0
  0
CLASS
  1
AMDTEDGESTANDARDISO
  2
AmdtEdgeStdISO
  3
"Amdt_StdImp|Product Description: AutoCAD Mechanical|Company: Autodesk, Inc."
 90
     1024
280
     0
281
     0
  0
CLASS
  1
ACMDETAILSTANDARDISO
  2
AmdtDetailSymStdISO
  3
"Amdt_StdImp|Product Description: AutoCAD Mechanical|Company: Autodesk, Inc."
 90
     1024
280
     0
281
     0
  0
CLASS
  1
ACMSECTIONSTANDARDISO
  2
AmdtSectionSymStdISO
  3
"Amdt_StdImp|Product Description: AutoCAD Mechanical|Company: Autodesk, Inc."
 90
     1024
280
     0
281
     0
  0
CLASS
  1
ACMCENTERLINESTANDARDISO
  2
AmdtCenterLineStdISO
  3
"Amdt_StdImp|Product Description: AutoCAD Mechanical|Company: Autodesk, Inc."
 90
     1024
280
     0
281
     0
  0
CLASS
  1
ACMTHREADLINESTANDARDISO
  2
AmdtThreadLineStdISO
  3
"Amdt_StdImp|Product Description: AutoCAD Mechanical|Company: Autodesk, Inc."
 90
     1024
280
     0
281
     0
  0
CLASS
  1
ACMNOTESTANDARDISO
  2
AmdtNoteStdISO
  3
"Amdt_StdImp|Product Description: AutoCAD Mechanical|Company: Autodesk, Inc."
 90
     1024
280
     0
281
     0
  0
CLASS
  1
ACAMGHOLECHARTSTDISO
  2
AcAmgHoleChartStdISO
  3
AmgDim|Product Description: AutoCAD Mechanical|Company: Autodesk, Inc.
 90
     1024
280
     0
281
     0
  0
CLASS
  1
ACMNOTESTANDARDANSI
  2
AmdtNoteStdANSI
  3
"Amdt_StdImp|Product Description: AutoCAD Mechanical|Company: Autodesk, Inc."
 90
     1024
280
     0
281
     0
  0
CLASS
  1
AMDTNOTETEMPLATEDB
  2
AmdtNoteTemplateDB
  3
AcmSymBB|Product Description: AutoCAD Mechanical|Company: Autodesk, Inc.
 90
     1024
280
     0
281
     0
  0
CLASS
  1
ACAMGHOLECHARTSTDANSI
  2
AcAmgHoleChartStdANSI
  3
AmgDim|Product Description: AutoCAD Mechanical|Company: Autodesk, Inc.
 90
     1024
280
     0
281
     0
  0
CLASS
  1
TABLESTYLE
  2
AcDbTableStyle
  3
ObjectDBX Classes
 90
     4095
280
     0
281
     0
  0
CLASS
  1
ACAD_TABLE
  2
AcDbTable
  3
ObjectDBX Classes
 90
    33793
280
     0
281
     1
  0
CLASS
  1
MATERIAL
  2
AcDbMaterial
  3
ObjectDBX Classes
 90
     1153
280
     0
281
     0
  0
CLASS
  1
VISUALSTYLE
  2
AcDbVisualStyle
  3
ObjectDBX Classes
 90
     4095
280
     0
281
     0
  0
CLASS
  1
SCALE
  2
AcDbScale
  3
ObjectDBX Classes
 90
     1153
280
     0
281
     0
  0
CLASS
  1
MLEADERSTYLE
  2
AcDbMLeaderStyle
  3
ACDB_MLEADERSTYLE_CLASS
 90
     4095
280
     0
281
     0
  0
CLASS
  1
ACRFATTGENMGR
  2
AcRfAttGeneralMgr
  3
AcAttribServices
 90
     1024
280
     0
281
     0
  0
CLASS
  1
ACRFOBJATTMGR
  2
AcRfObjAttGroupMgr
  3
AcAttribServices
 90
     1024
280
     0
281
     0
  0
CLASS
  1
ACRFMCADAPIATTHOLDER
  2
AcRfMCADAPIAttHolder
  3
AcAttribServices
 90
     1024
280
     0
281
     0
  0
CLASS
  1
AMDTSYSATTR
  2
AmdtSystemAttribute
  3
AcAttribServices
 90
     1024
280
     0
281
     0
  0
CLASS
  1
ACMTAPERSTANDARDISO
  2
AcmTaperStdISO
  3
"Amdt_StdImp|Product Description: AutoCAD Mechanical|Company: Autodesk, Inc."
 90
     1024
280
     0
281
     0
  0
CLASS
  1
ACMANOOTATIONVIEWSTANDARDISO
  2
AmdtAnViewStdISO
  3
"Amdt_StdImp|Product Description: AutoCAD Mechanical|Company: Autodesk, Inc."
 90
     1024
280
     0
281
     0
  0
CLASS
  1
ACMTAPERSTANDARDANSI
  2
AcmTaperStdANSI
  3
"Amdt_StdImp|Product Description: AutoCAD Mechanical|Company: Autodesk, Inc."
 90
     1024
280
     0
281
     0
  0
CLASS
  1
ACMANOOTATIONVIEWSTANDARDANSI
  2
AmdtAnViewStdANSI
  3
"Amdt_StdImp|Product Description: AutoCAD Mechanical|Company: Autodesk, Inc."
 90
     1024
280
     0
281
     0
  0
CLASS
  1
CELLSTYLEMAP
  2
AcDbCellStyleMap
  3
ObjectDBX Classes
 90
     1152
280
     0
281
     0
  0
CLASS
  1
CAMSSTRUCTBTNSTATE
  2
StructBtnState
  3
DesignerAssemblies
 90
    33792
280
     0
281
     0
  0
CLASS
  1
AMDTEDGESTANDARDISO13715
  2
AmdtEdgeStdISO13715
  3
"Amdt_StdImp|Product Description: AutoCAD Mechanical|Company: Autodesk, Inc."
 90
    33792
280
     0
281
     0
  0
CLASS
  1
ACMSURFSTANDARDISO2002
  2
AcmSurfTextStdISO2002
  3
"Amdt_StdImp|Product Description: AutoCAD Mechanical|Company: Autodesk, Inc."
 90
    33792
280
     0
281
     0
  0
CLASS
  1
ACMSECTIONSTANDARDISO2001
  2
AmdtSectionSymStdISO2001
  3
"Amdt_StdImp|Product Description: AutoCAD Mechanical|Company: Autodesk, Inc."
 90
    33792
280
     0
281
     0
  0
CLASS
  1
SORTENTSTABLE
  2
AcDbSortentsTable
  3
ObjectDBX Classes
 90
        0
280
     0
281
     0
  0
CLASS
  1
DIMASSOC
  2
AcDbDimAssoc
  3
"AcDbDimAssoc|Product Desc:     AcDim ARX App For Dimension|Company:          Autodesk, Inc.|WEB Address:      www.autodesk.com"
 90
    32768
280
     0
281
     0
  0
CLASS
  1
AEC_REFEDIT_STATUS_TRACKER
  2
AecDbRefEditStatusTracker
  3
AecArchBase50|Product Desc: Autodesk Architectural Desktop 2007 |Company: Autodesk,Inc. |WEB Address: www.autodesk.com
 90
      129
280
     0
281
     0
  0
CLASS
  1
NPOCOLLECTION
  2
AcDbImpNonPersistentObjectsCollection
  3
ObjectDBX Classes
 90
     1153
280
     0
281
     0
  0
ENDSEC
  0
SECTION
  2
TABLES
  0
TABLE
  2
VPORT
  5
8
330
0
100
AcDbSymbolTable
 70
     1
  0
VPORT
  5
A35
330
8
100
AcDbSymbolTableRecord
100
AcDbViewportTableRecord
  2
*Active
 70
     0
 10
0.0
 20
0.0
 11
1.0
 21
1.0
 12
0.0
 22
0.0
 13
0.0
 23
0.0
 14
2.5
 24
2.5
 15
10.0
 25
10.0
 16
0.0
 26
0.0
 36
1.0
 17
1104.351620926025
 27
786.5067615342557
 37
0.0
 40
267.6488274720057
 41
1.71195652173913
 42
50.0
 43
0.0
 44
0.0
 50
0.0
 51
0.0
 71
     0
 72
   100
 73
     1
 74
     1
 75
     0
 76
     0
 77
     0
 78
     0
281
     0
 65
     0
110
0.0
120
0.0
130
0.0
111
1.0
121
0.0
131
0.0
112
0.0
122
1.0
132
0.0
 79
     0
146
0.0
  0
ENDTAB
  0
TABLE
  2
LTYPE
  5
5
330
0
100
AcDbSymbolTable
 70
    22
  0
LTYPE
  5
14
330
5
100
AcDbSymbolTableRecord
100
AcDbLinetypeTableRecord
  2
BYBLOCK
 70
     0
  3

 72
    65
 73
     0
 40
0.0
  0
LTYPE
  5
15
330
5
100
AcDbSymbolTableRecord
100
AcDbLinetypeTableRecord
  2
BYLAYER
 70
     0
  3

 72
    65
 73
     0
 40
0.0
  0
LTYPE
  5
16
330
5
100
AcDbSymbolTableRecord
100
AcDbLinetypeTableRecord
  2
CONTINUOUS
 70
     0
  3
Solid line
 72
    65
 73
     0
 40
0.0
  0
LTYPE
  5
BD
330
5
100
AcDbSymbolTableRecord
100
AcDbLinetypeTableRecord
  2
HIDDEN
 70
     0
  3
__ __ __ __ __ __ __ __ __ __ __ __ __ __ __ __
 72
    65
 73
     2
 40
0.375
 49
0.25
 74
     0
 49
-0.125
 74
     0
  0
LTYPE
  5
BF
330
5
100
AcDbSymbolTableRecord
100
AcDbLinetypeTableRecord
  2
PHANTOM2
 70
     0
  3
___ _ _ ___ _ _ ___ _ _ ___ _ _ ___ _ _ ___ _ _
 72
    65
 73
     6
 40
1.25
 49
0.625
 74
     0
 49
-0.125
 74
     0
 49
0.125
 74
     0
 49
-0.125
 74
     0
 49
0.125
 74
     0
 49
-0.125
 74
     0
  0
LTYPE
  5
CA
330
5
100
AcDbSymbolTableRecord
100
AcDbLinetypeTableRecord
  2
CENTER
 70
     0
  3
____ _ ____ _ ____ _ ____ _ ____ _ ____ _ ____ 
 72
    65
 73
     4
 40
2.0
 49
1.25
 74
     0
 49
-0.25
 74
     0
 49
0.25
 74
     0
 49
-0.25
 74
     0
  0
LTYPE
  5
15B
330
5
100
AcDbSymbolTableRecord
100
AcDbLinetypeTableRecord
  2
ACISOWELD
 70
     0
  3
_ _ _ _ _
 72
    65
 73
     2
 40
2.0
 49
2.0
 74
     0
 49
-1.0
 74
     0
  0
LTYPE
  5
15C
330
5
100
AcDbSymbolTableRecord
100
AcDbLinetypeTableRecord
  2
ACISOTGB
 70
     0
  3
__ . . __ . .
 72
    65
 73
     6
 40
9.0
 49
4.0
 74
     0
 49
-1.0
 74
     0
 49
1.0
 74
     0
 49
-1.0
 74
     0
 49
1.0
 74
     0
 49
-1.0
 74
     0
  0
LTYPE
  5
15D
330
5
100
AcDbSymbolTableRecord
100
AcDbLinetypeTableRecord
  2
ACISOTGL
 70
     0
  3
_ _ _ _ _
 72
    65
 73
     2
 40
3.0
 49
2.0
 74
     0
 49
-1.0
 74
     0
  0
LTYPE
  5
175
330
5
100
AcDbSymbolTableRecord
100
AcDbLinetypeTableRecord
  2
AM_ISO02W050
 70
     0
  3
__ __ __ __ __ __ __ __ __ __ __ __ __ __ __
 72
    65
 73
     2
 40
7.5
 49
6.0
 74
     0
 49
-1.5
 74
     0
  0
LTYPE
  5
176
330
5
100
AcDbSymbolTableRecord
100
AcDbLinetypeTableRecord
  2
AM_ISO08W050
 70
     0
  3
____ . ____ . ____ . ____ . ____ . ____ . ____
 72
    65
 73
     4
 40
18.0
 49
12.0
 74
     0
 49
-1.5
 74
     0
 49
3.0
 74
     0
 49
-1.5
 74
     0
  0
LTYPE
  5
177
330
5
100
AcDbSymbolTableRecord
100
AcDbLinetypeTableRecord
  2
AM_ISO09W050
 70
     0
  3
_____ . . _____ . . _____ . . ____ .. ____
 72
    65
 73
     6
 40
22.5
 49
12.0
 74
     0
 49
-1.5
 74
     0
 49
3.0
 74
     0
 49
-1.5
 74
     0
 49
3.0
 74
     0
 49
-1.5
 74
     0
  0
LTYPE
  5
178
330
5
100
AcDbSymbolTableRecord
100
AcDbLinetypeTableRecord
  2
AM_ISO02W050x2
 70
     0
  3
 _ _ _ _ _ _ _ _ _ _ _ _
 72
    65
 73
     2
 40
3.75
 49
3.0
 74
     0
 49
-0.75
 74
     0
  0
LTYPE
  5
179
330
5
100
AcDbSymbolTableRecord
100
AcDbLinetypeTableRecord
  2
AM_ISO08W050x2
 70
     0
  3
__ . __ . __ . __ . __ . __
 72
    65
 73
     4
 40
9.0
 49
6.0
 74
     0
 49
-0.75
 74
     0
 49
1.5
 74
     0
 49
-0.75
 74
     0
  0
LTYPE
  5
17C
330
5
100
AcDbSymbolTableRecord
100
AcDbLinetypeTableRecord
  2
Amzigzag
 70
     0
  3
/\/-/\/-/\/-/\/-/\/-/\/
 72
    65
 73
     2
 40
11.0001
 49
0.0001
 74
     4
 75
   135
340
17B
 46
0.04
 50
0.0
 44
0.0
 45
0.0
 49
-11.0
 74
     0
  0
LTYPE
  5
2ED
330
5
100
AcDbSymbolTableRecord
100
AcDbLinetypeTableRecord
  2
Amconstr
 70
     0
  3
_______________________
 72
    65
 73
     2
 40
9999.0
 49
9999.0
 74
     0
 49
0.0
 74
     0
  0
LTYPE
  5
1B7B
330
5
100
AcDbSymbolTableRecord
100
AcDbLinetypeTableRecord
  2
ACANSTGB
 70
     0
  3
__ . . __ . .
 72
    65
 73
     6
 40
0.35433070866
 49
0.15748031496
 74
     0
 49
-0.03937007874
 74
     0
 49
0.03937007874
 74
     0
 49
-0.03937007874
 74
     0
 49
0.03937007874
 74
     0
 49
-0.03937007874
 74
     0
  0
LTYPE
  5
1B7C
330
5
100
AcDbSymbolTableRecord
100
AcDbLinetypeTableRecord
  2
ACANSTGL
 70
     0
  3
_ _ _ _ _
 72
    65
 73
     2
 40
0.11811023622
 49
0.07874015748
 74
     0
 49
-0.03937007874
 74
     0
  0
LTYPE
  5
1B93
330
5
100
AcDbSymbolTableRecord
100
AcDbLinetypeTableRecord
  2
CENTER2
 70
     0
  3
Center (.5x) ___ _ ___ _ ___ _ ___ _ ___ _ ___
 72
    65
 73
     4
 40
1.125
 49
0.75
 74
     0
 49
-0.125
 74
     0
 49
0.125
 74
     0
 49
-0.125
 74
     0
  0
LTYPE
  5
1B94
330
5
100
AcDbSymbolTableRecord
100
AcDbLinetypeTableRecord
  2
HIDDEN2
 70
     0
  3
Hidden (.5x) _ _ _ _ _ _ _ _ _ _ _ _ _ _ _ _ _
 72
    65
 73
     2
 40
0.1875
 49
0.125
 74
     0
 49
-0.0625
 74
     0
  0
LTYPE
  5
1B95
330
5
100
AcDbSymbolTableRecord
100
AcDbLinetypeTableRecord
  2
Amzigzag2
 70
     0
  3
/\/-/\/-/\/-/\/-/\/-/\/
 72
    65
 73
     2
 40
0.4401
 49
0.0001
 74
     4
 75
   135
340
17B
 46
0.0016
 50
0.0
 44
0.0
 45
0.0
 49
-0.4400000000000001
 74
     0
  0
ENDTAB
  0
TABLE
  2
LAYER
  5
2
102
{ACAD_XDICTIONARY
360
592
102
}
330
0
100
AcDbSymbolTable
 70
     6
  0
LAYER
  5
F
102
{ACAD_XDICTIONARY
360
AB7
102
}
330
2
100
AcDbSymbolTableRecord
100
AcDbLayerTableRecord
  2
0
 70
     0
 62
     7
  6
CONTINUOUS
370
    -3
390
166
  0
LAYER
  5
5CF
102
{ACAD_XDICTIONARY
360
AB9
102
}
330
2
100
AcDbSymbolTableRecord
100
AcDbLayerTableRecord
  2
AM_0
 70
     0
 62
     7
  6
CONTINUOUS
370
    50
390
166
  0
LAYER
  5
D2F
102
{ACAD_XDICTIONARY
360
12C3
102
}
330
2
100
AcDbSymbolTableRecord
100
AcDbLayerTableRecord
  2
Sketch Geometry(ISO)
 70
     0
 62
     7
  6
CONTINUOUS
370
    35
390
166
  0
LAYER
  5
D30
102
{ACAD_XDICTIONARY
360
12C5
102
}
330
2
100
AcDbSymbolTableRecord
100
AcDbLayerTableRecord
  2
Visible Edges(ISO)
 70
     0
 62
     7
  6
CONTINUOUS
370
    35
390
166
  0
LAYER
  5
15D4
330
2
100
AcDbSymbolTableRecord
100
AcDbLayerTableRecord
  2
AM_5
 70
     0
 62
     3
  6
CONTINUOUS
370
    25
390
166
1001
AcAecLayerStandard
1000

1000

  0
LAYER
  5
15D7
330
2
100
AcDbSymbolTableRecord
100
AcDbLayerTableRecord
  2
Defpoints
 70
     0
 62
     7
  6
CONTINUOUS
290
     0
370
    -3
390
166
  0
ENDTAB
  0
TABLE
  2
STYLE
  5
3
330
0
100
AcDbSymbolTable
 70
     6
  0
STYLE
  5
10
330
3
100
AcDbSymbolTableRecord
100
AcDbTextStyleTableRecord
  2
STANDARD
 70
     0
 40
0.0
 41
1.0
 50
0.0
 71
     0
 42
3.5
  3
ISOCP.SHX
  4

  0
STYLE
  5
159
330
3
100
AcDbSymbolTableRecord
100
AcDbTextStyleTableRecord
  2
ACISOTS
 70
     0
 40
1.0
 41
1.0
 50
0.0
 71
     0
 42
2.5
  3
isocp.shx
  4

  0
STYLE
  5
15A
330
3
100
AcDbSymbolTableRecord
100
AcDbTextStyleTableRecord
  2
ACISOGDT
 70
     0
 40
0.0
 41
1.0
 50
0.0
 71
     0
 42
2.5
  3
amgdt.shx
  4

  0
STYLE
  5
17B
330
3
100
AcDbSymbolTableRecord
100
AcDbTextStyleTableRecord
  2

 70
     1
 40
0.0
 41
1.0
 50
0.0
 71
     0
 42
3.5
  3
ltypeshp.shx
  4

  0
STYLE
  5
1B74
330
3
100
AcDbSymbolTableRecord
100
AcDbTextStyleTableRecord
  2
ACANSTS
 70
     0
 40
1.0
 41
1.0
 50
0.0
 71
     0
 42
3.5
  3
romans.shx
  4

  0
STYLE
  5
1B77
330
3
100
AcDbSymbolTableRecord
100
AcDbTextStyleTableRecord
  2
ACANSGDT
 70
     0
 40
0.0
 41
1.0
 50
0.0
 71
     0
 42
3.5
  3
amgdt.shx
  4

  0
ENDTAB
  0
TABLE
  2
VIEW
  5
6
330
0
100
AcDbSymbolTable
 70
     3
  0
VIEW
  5
1C8
330
6
100
AcDbSymbolTableRecord
100
AcDbViewTableRecord
  2
AMDTVIEW1
 70
     0
 40
329.0721649484536
 10
210.0
 20
164.5360824742268
 41
420.0
 11
0.0
 21
0.0
 31
1.0
 12
0.0
 22
0.0
 32
0.0
 42
50.0
 43
0.0
 44
0.0
 50
0.0
 71
     0
281
     0
 72
     0
  0
VIEW
  5
1C9
330
6
100
AcDbSymbolTableRecord
100
AcDbViewTableRecord
  2
AMDTVIEW2
 70
     0
 40
329.0721649484536
 10
210.0
 20
164.5360824742268
 41
420.0
 11
0.0
 21
0.0
 31
1.0
 12
0.0
 22
0.0
 32
0.0
 42
50.0
 43
0.0
 44
0.0
 50
0.0
 71
     0
281
     0
 72
     0
  0
VIEW
  5
1CA
330
6
100
AcDbSymbolTableRecord
100
AcDbViewTableRecord
  2
AMDTVIEW3
 70
     0
 40
329.0721649484536
 10
210.0
 20
164.5360824742268
 41
420.0
 11
0.0
 21
0.0
 31
1.0
 12
0.0
 22
0.0
 32
0.0
 42
50.0
 43
0.0
 44
0.0
 50
0.0
 71
     0
281
     0
 72
     0
  0
ENDTAB
  0
TABLE
  2
UCS
  5
7
330
0
100
AcDbSymbolTable
 70
     0
  0
ENDTAB
  0
TABLE
  2
APPID
  5
9
330
0
100
AcDbSymbolTable
 70
    28
  0
APPID
  5
11
330
9
100
AcDbSymbolTableRecord
100
AcDbRegAppTableRecord
  2
ACAD
 70
     0
  0
APPID
  5
CD
330
9
100
AcDbSymbolTableRecord
100
AcDbRegAppTableRecord
  2
AD_DRAW
 70
     0
  0
APPID
  5
E7
330
9
100
AcDbSymbolTableRecord
100
AcDbRegAppTableRecord
  2
DESIGNERASSEMBLIES
 70
     0
  0
APPID
  5
EB
330
9
100
AcDbSymbolTableRecord
100
AcDbRegAppTableRecord
  2
MCAD_NO_VIS
 70
     0
  0
APPID
  5
122
330
9
100
AcDbSymbolTableRecord
100
AcDbRegAppTableRecord
  2
ASURF_PCURVE_APPNAME
 70
     0
  0
APPID
  5
17F
330
9
100
AcDbSymbolTableRecord
100
AcDbRegAppTableRecord
  2
ACAD_TEMP_GRAPHIC
 70
     0
  0
APPID
  5
189
330
9
100
AcDbSymbolTableRecord
100
AcDbRegAppTableRecord
  2
ACATTRIBSERVICES
 70
     0
  0
APPID
  5
1C4
330
9
100
AcDbSymbolTableRecord
100
AcDbRegAppTableRecord
  2
ACADM_DIM_EDIT
 70
     0
  0
APPID
  5
1D5
330
9
100
AcDbSymbolTableRecord
100
AcDbRegAppTableRecord
  2
GENIUS_GENDIM_13
 70
     0
  0
APPID
  5
1D6
330
9
100
AcDbSymbolTableRecord
100
AcDbRegAppTableRecord
  2
GENIUS_GENDTOL_13
 70
     0
  0
APPID
  5
1D7
330
9
100
AcDbSymbolTableRecord
100
AcDbRegAppTableRecord
  2
GENIUS_GE3DTOL_13
 70
     0
  0
APPID
  5
2E9
330
9
100
AcDbSymbolTableRecord
100
AcDbRegAppTableRecord
  2
AMG_3D2D_5.0
 70
     0
  0
APPID
  5
3C0
330
9
100
AcDbSymbolTableRecord
100
AcDbRegAppTableRecord
  2
AMDT_DM_ADJ
 70
     0
  0
APPID
  5
82F
330
9
100
AcDbSymbolTableRecord
100
AcDbRegAppTableRecord
  2
ACAD_PSEXT
 70
     0
  0
APPID
  5
84A
330
9
100
AcDbSymbolTableRecord
100
AcDbRegAppTableRecord
  2
DCO15
 70
     0
  0
APPID
  5
892
330
9
100
AcDbSymbolTableRecord
100
AcDbRegAppTableRecord
  2
ACAD_DSTYLE_DIMTEXT_FILL
 70
     0
  0
APPID
  5
A74
330
9
100
AcDbSymbolTableRecord
100
AcDbRegAppTableRecord
  2
ACAD_MLEADERVER
 70
     0
  0
APPID
  5
AB1
330
9
100
AcDbSymbolTableRecord
100
AcDbRegAppTableRecord
  2
AcAecLayerStandard
 70
     0
  0
APPID
  5
D36
330
9
100
AcDbSymbolTableRecord
100
AcDbRegAppTableRecord
  2
ACAD_DSTYLE_DIMRADIAL_EXTENSION
 70
     0
  0
APPID
  5
13B4
330
9
100
AcDbSymbolTableRecord
100
AcDbRegAppTableRecord
  2
GENIUS_GENSCREG_15
 70
     0
  0
APPID
  5
13B5
330
9
100
AcDbSymbolTableRecord
100
AcDbRegAppTableRecord
  2
GENIUS_GENODEF_13
 70
     0
  0
APPID
  5
13B6
330
9
100
AcDbSymbolTableRecord
100
AcDbRegAppTableRecord
  2
GENIUS_GENOBJ-N-SDF_13
 70
     0
  0
APPID
  5
15E8
330
9
100
AcDbSymbolTableRecord
100
AcDbRegAppTableRecord
  2
ACAD_DSTYLE_DIMINSPECT
 70
     0
  0
APPID
  5
1631
330
9
100
AcDbSymbolTableRecord
100
AcDbRegAppTableRecord
  2
ACAD_EXEMPT_FROM_CAD_STANDARDS
 70
     0
  0
APPID
  5
1AE2
330
9
100
AcDbSymbolTableRecord
100
AcDbRegAppTableRecord
  2
ACAD_DSTYLE_DIMARC_LENGTH_SYMBOL
 70
     0
  0
APPID
  5
1AE3
330
9
100
AcDbSymbolTableRecord
100
AcDbRegAppTableRecord
  2
ACAD_DSTYLE_DIM_LINETYPE
 70
     0
  0
APPID
  5
1AE4
330
9
100
AcDbSymbolTableRecord
100
AcDbRegAppTableRecord
  2
ACAD_DSTYLE_DIM_EXT1_LINETYPE
 70
     0
  0
APPID
  5
1AE5
330
9
100
AcDbSymbolTableRecord
100
AcDbRegAppTableRecord
  2
ACAD_DSTYLE_DIM_EXT2_LINETYPE
 70
     0
  0
ENDTAB
  0
TABLE
  2
DIMSTYLE
  5
A
330
0
100
AcDbSymbolTable
 70
    13
100
AcDbDimStyleTable
 71
     1
340
344
  0
DIMSTYLE
105
344
330
A
100
AcDbSymbolTableRecord
100
AcDbDimStyleTableRecord
  2
AM_ISO
 70
     0
  4
"
 41
2.5
 42
1.0
 43
10.0
 44
1.0
 47
0.1
 48
0.1
 73
     0
 74
     0
 77
     1
 78
     8
 79
     2
140
3.5
141
0.0
143
0.0393701
146
0.71
147
1.5
171
     3
172
     1
176
   256
177
   256
178
     2
271
     2
272
     2
274
     3
283
     0
284
     8
340
10
371
    -1
372
    -1
  0
DIMSTYLE
105
345
330
A
100
AcDbSymbolTableRecord
100
AcDbDimStyleTableRecord
  2
AM_ISO$3
 70
     0
  4
"
 41
2.5
 42
1.0
 43
10.0
 44
1.0
 47
0.1
 48
0.1
 73
     0
 77
     1
 78
     8
 79
     2
140
3.5
141
0.0
143
0.0393701
146
0.71
147
1.5
176
   256
177
   256
178
     2
271
     2
272
     3
274
     4
283
     0
284
     8
288
     1
289
     0
340
10
371
    -1
372
    -1
  0
DIMSTYLE
105
346
330
A
100
AcDbSymbolTableRecord
100
AcDbDimStyleTableRecord
  2
AM_ISO$4
 70
     0
  4
"
 41
2.5
 42
1.0
 43
10.0
 44
1.0
 47
0.1
 48
0.1
 73
     0
 77
     1
 78
     8
 79
     2
140
3.5
141
0.0
143
0.0393701
146
0.71
147
1.5
176
   256
177
   256
178
     2
271
     2
272
     3
274
     4
283
     0
284
     8
288
     1
289
     0
340
10
371
    -1
372
    -1
  0
DIMSTYLE
105
347
330
A
100
AcDbSymbolTableRecord
100
AcDbDimStyleTableRecord
  2
AM_ISO$6
 70
     0
  4
"
 41
2.5
 42
1.0
 43
10.0
 44
1.0
 47
0.1
 48
0.1
 73
     0
 74
     0
 78
     8
 79
     2
140
3.5
141
0.0
143
0.0393701
146
0.71
147
1.5
172
     1
176
   256
177
   256
178
     2
271
     2
272
     3
274
     4
283
     0
284
     8
340
10
371
    -1
372
    -1
  0
DIMSTYLE
105
348
330
A
100
AcDbSymbolTableRecord
100
AcDbDimStyleTableRecord
  2
AM_ISO$7
 70
     0
  4
"
 41
2.5
 42
1.0
 43
10.0
 44
1.0
 47
0.1
 48
0.1
 73
     0
 74
     0
 77
     1
 78
     8
 79
     2
140
5.0
141
0.0
143
0.0393701
146
0.71
147
1.5
172
     1
176
   256
177
   256
178
     2
271
     2
272
     3
274
     4
283
     0
284
     8
340
10
371
    -1
372
    -1
  0
DIMSTYLE
105
349
330
A
100
AcDbSymbolTableRecord
100
AcDbDimStyleTableRecord
  2
AM_ISO$SF
 70
     0
  4
"
 41
2.5
 42
1.0
 43
10.0
 44
1.0
 47
0.1
 48
0.1
 73
     0
 74
     0
 75
     1
 76
     1
 77
     1
 78
     8
 79
     2
140
3.5
141
0.0
143
0.0393701
146
0.71
147
1.5
172
     1
176
   256
177
   256
178
     2
271
     2
272
     3
274
     4
283
     0
284
     8
340
10
371
    -1
372
    -1
  0
DIMSTYLE
105
34A
330
A
100
AcDbSymbolTableRecord
100
AcDbDimStyleTableRecord
  2
AM_ISO$SH
 70
     0
  4
"
 41
2.5
 42
1.0
 43
10.0
 44
1.0
 47
0.1
 48
0.1
 73
     0
 74
     0
 75
     1
 76
     1
 77
     1
 78
     8
 79
     2
140
3.5
141
0.0
143
0.0393701
144
2.0
146
0.71
147
1.5
172
     1
173
     1
176
   256
177
   256
178
     2
271
     2
272
     3
274
     4
283
     0
284
     8
340
10
343
2F4
371
    -1
372
    -1
  0
DIMSTYLE
105
15A0
330
A
100
AcDbSymbolTableRecord
100
AcDbDimStyleTableRecord
  2
AM_ANSI
 70
     0
  4
mm
 41
0.1
 42
0.05
 43
0.5
 44
0.1
 47
0.1
 48
0.1
 78
     7
 79
     2
140
0.12
141
0.0
146
0.71
147
0.06
176
   256
177
   256
178
     2
274
     4
284
     7
340
10
371
    -1
372
    -1
  0
DIMSTYLE
105
1B98
330
A
100
AcDbSymbolTableRecord
100
AcDbDimStyleTableRecord
  2
AM_ANSI$3
 70
     0
  4
mm
 41
0.1
 42
0.05
 43
0.5
 44
0.1
 47
0.1
 48
0.1
 78
     7
 79
     2
140
0.12
141
0.0
146
0.71
147
0.06
176
   256
177
   256
178
     2
274
     4
284
     7
288
     1
289
     0
340
10
371
    -1
372
    -1
  0
DIMSTYLE
105
1B99
330
A
100
AcDbSymbolTableRecord
100
AcDbDimStyleTableRecord
  2
AM_ANSI$4
 70
     0
  4
mm
 41
0.1
 42
0.05
 43
0.5
 44
0.1
 47
0.1
 48
0.1
 78
     7
 79
     2
140
0.12
141
0.0
146
0.71
147
0.06
176
   256
177
   256
178
     2
274
     4
284
     7
288
     1
289
     0
340
10
371
    -1
372
    -1
  0
DIMSTYLE
105
1B9A
330
A
100
AcDbSymbolTableRecord
100
AcDbDimStyleTableRecord
  2
AM_ANSI$7
 70
     0
  4
mm
 41
0.1
 42
0.05
 43
0.5
 44
0.1
 47
0.1
 48
0.1
 78
     7
 79
     2
140
0.24
141
0.0
146
0.71
147
0.06
176
   256
177
   256
178
     2
274
     4
284
     7
340
10
371
    -1
372
    -1
  0
DIMSTYLE
105
1B9B
330
A
100
AcDbSymbolTableRecord
100
AcDbDimStyleTableRecord
  2
AM_ANSI$SF
 70
     0
  4
mm
 41
0.1
 42
0.05
 43
0.5
 44
0.1
 47
0.1
 48
0.1
 75
     1
 76
     1
 78
     7
 79
     2
140
0.12
141
0.0
146
0.71
147
0.06
176
   256
177
   256
178
     2
274
     4
284
     7
340
10
371
    -1
372
    -1
  0
DIMSTYLE
105
1B9C
330
A
100
AcDbSymbolTableRecord
100
AcDbDimStyleTableRecord
  2
AM_ANSI$SH
 70
     0
  4
mm
 41
0.1
 42
0.05
 43
0.5
 44
0.1
 47
0.1
 48
0.1
 75
     1
 76
     1
 78
     7
 79
     2
140
0.12
141
0.0
146
0.71
147
0.06
173
     1
176
   256
177
   256
178
     2
274
     4
284
     7
340
10
343
2F4
371
    -1
372
    -1
  0
ENDTAB
  0
TABLE
  2
BLOCK_RECORD
  5
1
330
0
100
AcDbSymbolTable
 70
     4
  0
BLOCK_RECORD
  5
1A
102
{ACAD_XDICTIONARY
360
12A
102
}
330
1
100
AcDbSymbolTableRecord
100
AcDbBlockTableRecord
  2
*MODEL_SPACE
340
169
  0
BLOCK_RECORD
  5
17
330
1
100
AcDbSymbolTableRecord
100
AcDbBlockTableRecord
  2
*PAPER_SPACE
340
16A
  0
BLOCK_RECORD
  5
2F4
330
1
100
AcDbSymbolTableRecord
100
AcDbBlockTableRecord
  2
GENAXEH
340
0
  0
BLOCK_RECORD
  5
2231
330
1
100
AcDbSymbolTableRecord
100
AcDbBlockTableRecord
  2
Sleev-IT_FC75
340
0
310
2800000020000000200000000100080000000000000400000000000000000000000000000000000000000000000080000080000000808000800000008000800080800000C0C0C000C0DCC000F0CAA6000020400000206000002080000020A0000020C0000020E00000400000004020000040400000406000004080000040A0
310
000040C0000040E00000600000006020000060400000606000006080000060A0000060C0000060E00000800000008020000080400000806000008080000080A0000080C0000080E00000A0000000A0200000A0400000A0600000A0800000A0A00000A0C00000A0E00000C0000000C0200000C0400000C0600000C0800000C0
310
A00000C0C00000C0E00000E0000000E0200000E0400000E0600000E0800000E0A00000E0C00000E0E00040000000400020004000400040006000400080004000A0004000C0004000E00040200000402020004020400040206000402080004020A0004020C0004020E000404000004040200040404000404060004040800040
310
40A0004040C0004040E00040600000406020004060400040606000406080004060A0004060C0004060E00040800000408020004080400040806000408080004080A0004080C0004080E00040A0000040A0200040A0400040A0600040A0800040A0A00040A0C00040A0E00040C0000040C0200040C0400040C0600040C08000
310
40C0A00040C0C00040C0E00040E0000040E0200040E0400040E0600040E0800040E0A00040E0C00040E0E00080000000800020008000400080006000800080008000A0008000C0008000E00080200000802020008020400080206000802080008020A0008020C0008020E00080400000804020008040400080406000804080
310
008040A0008040C0008040E00080600000806020008060400080606000806080008060A0008060C0008060E00080800000808020008080400080806000808080008080A0008080C0008080E00080A0000080A0200080A0400080A0600080A0800080A0A00080A0C00080A0E00080C0000080C0200080C0400080C0600080C0
310
800080C0A00080C0C00080C0E00080E0000080E0200080E0400080E0600080E0800080E0A00080E0C00080E0E000C0000000C0002000C0004000C0006000C0008000C000A000C000C000C000E000C0200000C0202000C0204000C0206000C0208000C020A000C020C000C020E000C0400000C0402000C0404000C0406000C0
310
408000C040A000C040C000C040E000C0600000C0602000C0604000C0606000C0608000C060A000C060C000C060E000C0800000C0802000C0804000C0806000C0808000C080A000C080C000C080E000C0A00000C0A02000C0A04000C0A06000C0A08000C0A0A000C0A0C000C0A0E000C0C00000C0C02000C0C04000C0C06000
310
C0C08000C0C0A000F0FBFF00A4A0A000808080000000FF0000FF000000FFFF00FF000000FF00FF00FFFF0000FFFFFF0000000000000000000000000000000000000000000000000000000000000000000000000000000000000000000000000000000000000000000000000000000000000000000000000000000000FFFF00
310
000000FFFF000000000000000000000000000000000000000000FFFFFF00FF00000000FF00FFFFFF00000000000000000000000000000000FFFF0000000000FF0000FF0000000000FFFF00000000000000000000000000FF00000000000000FF0000FF00000000000000FF0000000000000000000000FF0000000000000000
310
00FFFF000000000000000000FF000000000000000000FF0000000000000000FFFFFFFFFFFF0000000000000000FF00000000000000FF00000000000000FFFFFFFFFFFFFFFFFFFF00000000000000FF000000000000FF000000000000FFFFFFFFFFFFFFFFFFFFFFFF000000000000FF0000000000FF0000000000FFFFFFFFFF
310
FF00000000FFFFFFFFFFFF0000000000FF00000000FF0000000000FFFFFFFF0000000000000000FFFFFFFF0000000000FF00000000FF0000000000FFFFFF00000000000000000000FFFFFF0000000000FF00000000FF00000000FFFFFFFF0000000000000000000000FFFFFF00000000FF00000000FF00000000FFFFFF0000
310
00000000000000000000FFFFFF00000000FF00000000FF00000000FFFFFAFAFAFAFAFAFAFAFAFAFAFAFAFAFFFF0000000000FF0000FF0000000000FFFFFF000000FBFBFBFBFBFB000000FFFFFF0000000000FF0000FF0000000000FFFFFFFF0000000000000000000000FFFFFF0000000000FF0000FF0000000000FFFFFFFF
310
0000000000000000000000FFFFFF0000000000FF000000FF00000000FFFFFFFFFF000000000000000000FFFFFFFF00000000FF00000000FF0000000000FFFFFFFF0000000000000000FFFFFFFF0000000000FF0000000000FF0000000000FFFFFFFFFFFF0000FFFFFFFFFFFF0000000000FF000000000000FF0000000000FF
310
FFFFFFFFFFFFFFFFFFFFFFFFFF0000000000FF00000000000000FF000000000000FFFF00FFFFFFFFFFFFFFFF0000000000FF000000000000000000FF00000000000000FFFFFFFFFFFFFFFFFF00000000FF00000000000000000000FF0000000000000000FFFFFFFFFFFFFF00FFFFFF00FF0000000000000000000000FF0000
310
0000000000FFFFFFFFFF00FFFF000000FF00000000000000000000000000FFFF000000000000FFFFFFFFFF000000FAFF00000000000000000000000000000000FFFF00000000FFFF00000000FFFFFBFAFB0000000000000000000000000000000000FFFFFFFFFFFFFFFFFFFFFBFBFBFBFBFBFBFB0000000000000000000000
310
0000000000000000000000000000000000000000000000000000000000000000000000000000000000000000000000000000000000000000
102
{BLKREFS
331
23FD
102
}
1001
ACAD
1000
DesignCenter Data
1002
{
1070
     1
1070
     4
1002
}
  0
ENDTAB
  0
ENDSEC
  0
SECTION
  2
BLOCKS
  0
BLOCK
  5
1B
330
1A
100
AcDbEntity
  8
0
100
AcDbBlockBegin
  2
*MODEL_SPACE
 70
     0
 10
0.0
 20
0.0
 30
0.0
  3
*MODEL_SPACE
  1

  0
ENDBLK
  5
1C
330
1A
100
AcDbEntity
  8
0
100
AcDbBlockEnd
  0
BLOCK
  5
18
330
17
100
AcDbEntity
 67
     1
  8
0
100
AcDbBlockBegin
  2
*PAPER_SPACE
 70
     0
 10
0.0
 20
0.0
 30
0.0
  3
*PAPER_SPACE
  1

  0
ENDBLK
  5
19
330
17
100
AcDbEntity
 67
     1
  8
0
100
AcDbBlockEnd
  0
BLOCK
  5
2005
330
2F4
100
AcDbEntity
  8
0
100
AcDbBlockBegin
  2
GENAXEH
 70
     0
 10
0.0
 20
0.0
 30
0.0
  3
GENAXEH
  1

  0
LINE
  5
2006
330
2F4
100
AcDbEntity
  8
0
100
AcDbLine
 10
-1.0
 20
0.0
 30
0.0
 11
1.0
 21
0.0
 31
0.0
  0
ENDBLK
  5
2007
330
2F4
100
AcDbEntity
  8
0
100
AcDbBlockEnd
  0
BLOCK
  5
2232
330
2231
100
AcDbEntity
  8
0
100
AcDbBlockBegin
  2
Sleev-IT_FC75
 70
     0
 10
0.0
 20
0.0
 30
0.0
  3
Sleev-IT_FC75
  1

  0
LINE
  5
2234
330
2231
100
AcDbEntity
  8
Visible Edges(ISO)
100
AcDbLine
 10
0.1516100114258734
 20
31.14445399111435
 30
0.0
 11
1.152174488795026
 21
40.98380770435574
 31
0.0
  0
LINE
  5
2235
330
2231
100
AcDbEntity
  8
Visible Edges(ISO)
100
AcDbLine
 10
7.121390429146003
 20
40.37679777243147
 30
0.0
 11
6.120825951777987
 21
30.53744405918974
 31
0.0
  0
LINE
  5
2236
330
2231
100
AcDbEntity
  8
Visible Edges(ISO)
100
AcDbLine
 10
6.120825951777987
 20
30.53744405918974
 30
0.0
 11
0.1516100114258734
 21
31.14445399111435
 31
0.0
  0
ARC
  5
2237
330
2231
100
AcDbEntity
  8
Visible Edges(ISO)
100
AcDbCircle
 10
-0.0000000000079581
 20
0.0000000000010232
 30
0.0
 40
41.00000000000235
100
AcDbArc
 50
79.99742427012474
 51
88.38967250407916
  0
LINE
  5
2238
330
2231
100
AcDbEntity
  8
Visible Edges(ISO)
100
AcDbLine
 10
6.417839042966079
 20
30.47640631732509
 30
0.0
 11
9.378569247805899
 21
39.91293573347139
 31
0.0
  0
LINE
  5
2239
330
2231
100
AcDbEntity
  8
Visible Edges(ISO)
100
AcDbLine
 10
15.10340478620605
 20
38.11675699563125
 30
0.0
 11
12.14267458136601
 21
28.68022757948484
 31
0.0
  0
LINE
  5
223A
330
2231
100
AcDbEntity
  8
Visible Edges(ISO)
100
AcDbLine
 10
12.14267458136601
 20
28.68022757948484
 30
0.0
 11
6.417839042966079
 21
30.47640631732509
 31
0.0
  0
ARC
  5
223B
330
2231
100
AcDbEntity
  8
Visible Edges(ISO)
100
AcDbCircle
 10
-0.0000000000079581
 20
0.000000000003979
 30
0.0
 40
40.99999999999932
100
AcDbArc
 50
68.38452104431199
 51
76.77676927826436
  0
LINE
  5
223C
330
2231
100
AcDbEntity
  8
Visible Edges(ISO)
100
AcDbLine
 10
12.42132099002197
 20
28.56065098807858
 30
0.0
 11
17.22100427987698
 21
37.20802348408791
 31
0.0
  0
LINE
  5
223D
330
2231
100
AcDbEntity
  8
Visible Edges(ISO)
100
AcDbLine
 10
22.46708397674388
 20
34.29621170890153
 30
0.0
 11
17.66740068688909
 21
25.64883921289197
 31
0.0
  0
LINE
  5
223E
330
2231
100
AcDbEntity
  8
Visible Edges(ISO)
100
AcDbLine
 10
17.66740068688909
 20
25.64883921289197
 30
0.0
 11
12.42132099002197
 21
28.56065098807858
 31
0.0
  0
ARC
  5
223F
330
2231
100
AcDbEntity
  8
Visible Edges(ISO)
100
AcDbCircle
 10
-0.0000000000090949
 20
0.00000000000216
 30
0.0
 40
41.00000000000109
100
AcDbArc
 50
56.77161781850394
 51
65.1638660524568
  0
LINE
  5
2240
330
2231
100
AcDbEntity
  8
Visible Edges(ISO)
100
AcDbLine
 10
17.91627259630195
 20
25.47561925164655
 30
0.0
 11
24.35840937334706
 21
32.97981038150863
 31
0.0
  0
LINE
  5
2241
330
2231
100
AcDbEntity
  8
Visible Edges(ISO)
100
AcDbLine
 10
28.9109581095031
 20
29.07157548517546
 30
0.0
 11
22.4688213324589
 21
21.56738435531327
 31
0.0
  0
LINE
  5
2242
330
2231
100
AcDbEntity
  8
Visible Edges(ISO)
100
AcDbLine
 10
22.4688213324589
 20
21.56738435531327
 30
0.0
 11
17.91627259630195
 21
25.47561925164655
 31
0.0
  0
ARC
  5
2243
330
2231
100
AcDbEntity
  8
Visible Edges(ISO)
100
AcDbCircle
 10
-0.0000000000100044
 20
0.0000000000019327
 30
0.0
 40
41.00000000000187
100
AcDbArc
 50
45.15871459269923
 51
53.5509628266615
  0
LINE
  5
2244
330
2231
100
AcDbEntity
  8
Visible Edges(ISO)
100
AcDbLine
 10
22.67772989741707
 20
21.34761266979399
 30
0.0
 11
30.49857832507996
 21
27.40139996694757
 31
0.0
  0
LINE
  5
2245
330
2231
100
AcDbEntity
  8
Visible Edges(ISO)
100
AcDbLine
 10
34.17121422036598
 20
22.65674554532143
 30
0.0
 11
26.35036579270286
 21
16.60295824816785
 31
0.0
  0
LINE
  5
2246
330
2231
100
AcDbEntity
  8
Visible Edges(ISO)
100
AcDbLine
 10
26.35036579270286
 20
16.60295824816785
 30
0.0
 11
22.67772989741707
 21
21.34761266979399
 31
0.0
  0
ARC
  5
2247
330
2231
100
AcDbEntity
  8
Visible Edges(ISO)
100
AcDbCircle
 10
-0.0000000000079581
 20
0.0000000000035243
 30
0.0
 40
40.9999999999995
100
AcDbArc
 50
33.54581136689417
 51
41.93805960085831
  0
LINE
  5
2248
330
2231
100
AcDbEntity
  8
Visible Edges(ISO)
100
AcDbLine
 10
26.51075827201203
 20
16.34563231700224
 30
0.0
 11
35.39013189675279
 21
20.7011730182121
 31
0.0
  0
LINE
  5
2249
330
2231
100
AcDbEntity
  8
Visible Edges(ISO)
100
AcDbLine
 10
38.03249680609884
 20
15.31434578078745
 30
0.0
 11
29.15312318135807
 21
10.95880507957781
 31
0.0
  0
LINE
  5
224A
330
2231
100
AcDbEntity
  8
Visible Edges(ISO)
100
AcDbLine
 10
29.15312318135807
 20
10.95880507957781
 30
0.0
 11
26.51075827201203
 21
16.34563231700224
 31
0.0
  0
ARC
  5
224B
330
2231
100
AcDbEntity
  8
Visible Edges(ISO)
100
AcDbCircle
 10
-0.0000000000090949
 20
0.0000000000030695
 30
0.0
 40
41.00000000000028
100
AcDbArc
 50
21.93290814108733
 51
30.3251563750376
  0
LINE
  5
224C
330
2231
100
AcDbEntity
  8
Visible Edges(ISO)
100
AcDbLine
 10
29.25843308806793
 20
10.67445985662232
 30
0.0
 11
38.83280931040895
 21
13.15343761382644
 31
0.0
  0
LINE
  5
224D
330
2231
100
AcDbEntity
  8
Visible Edges(ISO)
100
AcDbLine
 10
40.33672450396193
 20
7.34497490062904
 30
0.0
 11
30.76234828162001
 21
4.865997143425147
 31
0.0
  0
LINE
  5
224E
330
2231
100
AcDbEntity
  8
Visible Edges(ISO)
100
AcDbLine
 10
30.76234828162001
 20
4.865997143425147
 30
0.0
 11
29.25843308806793
 21
10.67445985662232
 31
0.0
  0
ARC
  5
224F
330
2231
100
AcDbEntity
  8
Visible Edges(ISO)
100
AcDbCircle
 10
-0.0000000000109139
 20
0.0000000000026148
 30
0.0
 40
41.0000000000027
100
AcDbArc
 50
10.32000491528323
 51
18.71225314923426
  0
LINE
  5
2250
330
2231
100
AcDbEntity
  8
Visible Edges(ISO)
100
AcDbLine
 10
30.80826421577808
 20
4.566273755516476
 30
0.0
 11
40.68566694823608
 21
5.067198928067568
 31
0.0
  0
LINE
  5
2251
330
2231
100
AcDbEntity
  8
Visible Edges(ISO)
100
AcDbLine
 10
40.98956196126801
 20
-0.9251001149590365
 30
0.0
 11
31.11215922881092
 21
-1.426025287509673
 31
0.0
  0
LINE
  5
2252
330
2231
100
AcDbEntity
  8
Visible Edges(ISO)
100
AcDbLine
 10
31.11215922881092
 20
-1.426025287509673
 30
0.0
 11
30.80826421577808
 21
4.566273755516476
 31
0.0
  0
ARC
  5
2253
330
2231
100
AcDbEntity
  8
Visible Edges(ISO)
100
AcDbCircle
 10
-0.0000000000109139
 20
0.0000000000032969
 30
0.0
 40
41.00000000000227
100
AcDbArc
 50
358.7071016894753
 51
7.099349923427495
  0
LINE
  5
2254
330
2231
100
AcDbEntity
  8
Visible Edges(ISO)
100
AcDbLine
 10
31.09680138667682
 20
-1.728856129654218
 30
0.0
 11
40.87284860083786
 21
-3.226491477176978
 31
0.0
  0
LINE
  5
2255
330
2231
100
AcDbEntity
  8
Visible Edges(ISO)
100
AcDbLine
 10
39.96428193580982
 20
-9.15730142314544
 30
0.0
 11
30.188234721649
 21
-7.659666075622908
 31
0.0
  0
LINE
  5
2256
330
2231
100
AcDbEntity
  8
Visible Edges(ISO)
100
AcDbLine
 10
30.188234721649
 20
-7.659666075622908
 30
0.0
 11
31.09680138667682
 21
-1.728856129654218
 31
0.0
  0
ARC
  5
2257
330
2231
100
AcDbEntity
  8
Visible Edges(ISO)
100
AcDbCircle
 10
-0.0000000000090949
 20
0.0000000000035243
 30
0.0
 40
41.00000000000028
100
AcDbArc
 50
347.094198463667
 51
355.4864466976239
  0
LINE
  5
2258
330
2231
100
AcDbEntity
  8
Visible Edges(ISO)
100
AcDbLine
 10
30.11223185508607
 20
-7.95320644174501
 30
0.0
 11
39.38669102936592
 21
-11.38808894224871
 31
0.0
  0
LINE
  5
2259
330
2231
100
AcDbEntity
  8
Visible Edges(ISO)
100
AcDbLine
 10
37.30285951229712
 20
-17.01460173513135
 30
0.0
 11
28.02840033801704
 21
-13.57971923462742
 31
0.0
  0
LINE
  5
225A
330
2231
100
AcDbEntity
  8
Visible Edges(ISO)
100
AcDbLine
 10
28.02840033801704
 20
-13.57971923462742
 30
0.0
 11
30.11223185508607
 21
-7.95320644174501
 31
0.0
  0
ARC
  5
225B
330
2231
100
AcDbEntity
  8
Visible Edges(ISO)
100
AcDbCircle
 10
-0.0000000000100044
 20
0.0000000000037517
 30
0.0
 40
41.00000000000131
100
AcDbArc
 50
335.4812952378602
 51
343.873543471814
  0
LINE
  5
225C
330
2231
100
AcDbEntity
  8
Visible Edges(ISO)
100
AcDbLine
 10
27.89486401330987
 20
-13.85195154764847
 30
0.0
 11
36.28803769941101
 21
-19.08345670798144
 31
0.0
  0
LINE
  5
225D
330
2231
100
AcDbEntity
  8
Visible Edges(ISO)
100
AcDbLine
 10
33.11425363744911
 20
-24.17532225294997
 30
0.0
 11
24.72107995134797
 21
-18.94381709261677
 31
0.0
  0
LINE
  5
225E
330
2231
100
AcDbEntity
  8
Visible Edges(ISO)
100
AcDbLine
 10
24.72107995134797
 20
-18.94381709261677
 30
0.0
 11
27.89486401330987
 21
-13.85195154764847
 31
0.0
  0
ARC
  5
225F
330
2231
100
AcDbEntity
  8
Visible Edges(ISO)
100
AcDbCircle
 10
-0.0000000000079581
 20
0.0000000000030695
 30
0.0
 40
40.9999999999996
100
AcDbArc
 50
323.8683920120504
 51
332.2606402460089
  0
LINE
  5
2260
330
2231
100
AcDbEntity
  8
Visible Edges(ISO)
100
AcDbLine
 10
24.53547716132084
 20
-19.18359612965559
 30
0.0
 11
31.70374784237902
 21
-25.99754551387787
 31
0.0
  0
LINE
  5
2261
330
2231
100
AcDbEntity
  8
Visible Edges(ISO)
100
AcDbLine
 10
27.56994632792498
 20
-30.34630223725264
 30
0.0
 11
20.40167564686703
 21
-23.53235285303026
 31
0.0
  0
LINE
  5
2262
330
2231
100
AcDbEntity
  8
Visible Edges(ISO)
100
AcDbLine
 10
20.40167564686703
 20
-23.53235285303026
 30
0.0
 11
24.53547716132084
 21
-19.18359612965559
 31
0.0
  0
ARC
  5
2263
330
2231
100
AcDbEntity
  8
Visible Edges(ISO)
100
AcDbCircle
 10
-0.0000000000090949
 20
0.0000000000040927
 30
0.0
 40
41.00000000000108
100
AcDbArc
 50
312.2554887862473
 51
320.6477370202039
  0
LINE
  5
2264
330
2231
100
AcDbEntity
  8
Visible Edges(ISO)
100
AcDbLine
 10
20.17160499155193
 20
-23.72986203213782
 30
0.0
 11
25.82150282364705
 21
-31.84729175185442
 31
0.0
  0
LINE
  5
2265
330
2231
100
AcDbEntity
  8
Visible Edges(ISO)
100
AcDbLine
 10
20.89692217640299
 20
-35.27490104242327
 30
0.0
 11
15.24702434430787
 21
-27.15747132270667
 31
0.0
  0
LINE
  5
2266
330
2231
100
AcDbEntity
  8
Visible Edges(ISO)
100
AcDbLine
 10
15.24702434430787
 20
-27.15747132270667
 30
0.0
 11
20.17160499155193
 21
-23.72986203213782
 31
0.0
  0
ARC
  5
2267
330
2231
100
AcDbEntity
  8
Visible Edges(ISO)
100
AcDbCircle
 10
-0.0000000000090949
 20
0.0000000000045475
 30
0.0
 40
41.00000000000154
100
AcDbArc
 50
300.6425855604415
 51
309.0348337943972
  0
LINE
  5
2268
330
2231
100
AcDbEntity
  8
Visible Edges(ISO)
100
AcDbLine
 10
14.98190494336495
 20
-27.30462459488388
 30
0.0
 11
18.88212244541705
 21
-36.39320612361189
 31
0.0
  0
LINE
  5
2269
330
2231
100
AcDbEntity
  8
Visible Edges(ISO)
100
AcDbLine
 10
13.36837557569606
 20
-38.75934125429206
 30
0.0
 11
9.468158073643962
 21
-29.6707597255637
 31
0.0
  0
LINE
  5
226A
330
2231
100
AcDbEntity
  8
Visible Edges(ISO)
100
AcDbLine
 10
9.468158073643962
 20
-29.6707597255637
 30
0.0
 11
14.98190494336495
 21
-27.30462459488388
 31
0.0
  0
ARC
  5
226B
330
2231
100
AcDbEntity
  8
Visible Edges(ISO)
100
AcDbCircle
 10
-0.0000000000090949
 20
0.000000000003979
 30
0.0
 40
41.00000000000075
100
AcDbArc
 50
289.0296823346369
 51
297.4219305685953
  0
LINE
  5
226C
330
2231
100
AcDbEntity
  8
Visible Edges(ISO)
100
AcDbLine
 10
9.178843946497863
 20
-29.76153261855802
 30
0.0
 11
11.1697057557169
 21
-39.44917836064849
 31
0.0
  0
LINE
  5
226D
330
2231
100
AcDbEntity
  8
Visible Edges(ISO)
100
AcDbLine
 10
5.292526108202082
 20
-40.65696948118056
 30
0.0
 11
3.301664298983041
 21
-30.96932373908999
 31
0.0
  0
LINE
  5
226E
330
2231
100
AcDbEntity
  8
Visible Edges(ISO)
100
AcDbLine
 10
3.301664298983041
 20
-30.96932373908999
 30
0.0
 11
9.178843946497863
 21
-29.76153261855802
 31
0.0
  0
ARC
  5
226F
330
2231
100
AcDbEntity
  8
Visible Edges(ISO)
100
AcDbCircle
 10
-0.0000000000090949
 20
0.0000000000048885
 30
0.0
 40
41.00000000000152
100
AcDbArc
 50
277.416779108828
 51
285.8090273427953
  0
LINE
  5
2270
330
2231
100
AcDbEntity
  8
Visible Edges(ISO)
100
AcDbLine
 10
2.999999999992041
 20
-30.99999999999671
 30
0.0
 11
2.999999999992041
 21
-40.89009660051852
 31
0.0
  0
LINE
  5
2271
330
2231
100
AcDbEntity
  8
Visible Edges(ISO)
100
AcDbLine
 10
-3.000000000007958
 20
-40.89009660051852
 30
0.0
 11
-3.000000000007958
 21
-30.99999999999671
 31
0.0
  0
LINE
  5
2272
330
2231
100
AcDbEntity
  8
Visible Edges(ISO)
100
AcDbLine
 10
-3.000000000007958
 20
-30.99999999999671
 30
0.0
 11
2.999999999992041
 21
-30.99999999999671
 31
0.0
  0
ARC
  5
2273
330
2231
100
AcDbEntity
  8
Visible Edges(ISO)
100
AcDbCircle
 10
-0.0000000000079581
 20
0.0000000000048885
 30
0.0
 40
41.00000000000149
100
AcDbArc
 50
265.8038758830117
 51
274.1961241169883
  0
LINE
  5
2274
330
2231
100
AcDbEntity
  8
Visible Edges(ISO)
100
AcDbLine
 10
-3.301664298998957
 20
-30.96932373908999
 30
0.0
 11
-5.292526108217998
 21
-40.65696948118045
 31
0.0
  0
LINE
  5
2275
330
2231
100
AcDbEntity
  8
Visible Edges(ISO)
100
AcDbLine
 10
-11.16970575573305
 20
-39.44917836064849
 30
0.0
 11
-9.178843946514007
 21
-29.76153261855802
 31
0.0
  0
LINE
  5
2276
330
2231
100
AcDbEntity
  8
Visible Edges(ISO)
100
AcDbLine
 10
-9.178843946514007
 20
-29.76153261855802
 30
0.0
 11
-3.301664298998957
 21
-30.96932373908999
 31
0.0
  0
ARC
  5
2277
330
2231
100
AcDbEntity
  8
Visible Edges(ISO)
100
AcDbCircle
 10
-0.0000000000079581
 20
0.0000000000040927
 30
0.0
 40
41.00000000000076
100
AcDbArc
 50
254.1909726572047
 51
262.5832208911719
  0
LINE
  5
2278
330
2231
100
AcDbEntity
  8
Visible Edges(ISO)
100
AcDbLine
 10
-9.468158073661015
 20
-29.67075972556381
 30
0.0
 11
-13.36837557571312
 21
-38.75934125429206
 31
0.0
  0
LINE
  5
2279
330
2231
100
AcDbEntity
  8
Visible Edges(ISO)
100
AcDbLine
 10
-18.8821224454341
 20
-36.39320612361189
 30
0.0
 11
-14.981904943382
 21
-27.30462459488388
 31
0.0
  0
LINE
  5
227A
330
2231
100
AcDbEntity
  8
Visible Edges(ISO)
100
AcDbLine
 10
-14.981904943382
 20
-27.30462459488388
 30
0.0
 11
-9.468158073661015
 21
-29.67075972556381
 31
0.0
  0
ARC
  5
227B
330
2231
100
AcDbEntity
  8
Visible Edges(ISO)
100
AcDbCircle
 10
-0.0000000000079581
 20
0.0000000000040927
 30
0.0
 40
41.00000000000096
100
AcDbArc
 50
242.5780694314048
 51
250.9703176653632
  0
LINE
  5
227C
330
2231
100
AcDbEntity
  8
Visible Edges(ISO)
100
AcDbLine
 10
-15.24702434432493
 20
-27.15747132270667
 30
0.0
 11
-20.89692217642005
 21
-35.27490104242327
 31
0.0
  0
LINE
  5
227D
330
2231
100
AcDbEntity
  8
Visible Edges(ISO)
100
AcDbLine
 10
-25.82150282366388
 20
-31.84729175185442
 30
0.0
 11
-20.17160499156898
 21
-23.72986203213782
 31
0.0
  0
LINE
  5
227E
330
2231
100
AcDbEntity
  8
Visible Edges(ISO)
100
AcDbLine
 10
-20.17160499156898
 20
-23.72986203213782
 30
0.0
 11
-15.24702434432493
 21
-27.15747132270667
 31
0.0
  0
ARC
  5
227F
330
2231
100
AcDbEntity
  8
Visible Edges(ISO)
100
AcDbCircle
 10
-0.0000000000079581
 20
0.0000000000035243
 30
0.0
 40
41.0000000000002
100
AcDbArc
 50
230.9651662056028
 51
239.3574144395584
  0
LINE
  5
2280
330
2231
100
AcDbEntity
  8
Visible Edges(ISO)
100
AcDbLine
 10
-20.40167564688409
 20
-23.53235285303037
 30
0.0
 11
-27.5699463279409
 21
-30.34630223725264
 31
0.0
  0
LINE
  5
2281
330
2231
100
AcDbEntity
  8
Visible Edges(ISO)
100
AcDbLine
 10
-31.70374784239516
 20
-25.99754551387787
 30
0.0
 11
-24.53547716133812
 21
-19.18359612965559
 31
0.0
  0
LINE
  5
2282
330
2231
100
AcDbEntity
  8
Visible Edges(ISO)
100
AcDbLine
 10
-24.53547716133812
 20
-19.18359612965559
 30
0.0
 11
-20.40167564688409
 21
-23.53235285303037
 31
0.0
  0
ARC
  5
2283
330
2231
100
AcDbEntity
  8
Visible Edges(ISO)
100
AcDbCircle
 10
-0.0000000000079581
 20
0.0000000000030695
 30
0.0
 40
40.99999999999981
100
AcDbArc
 50
219.3522629797961
 51
227.7445112137527
  0
LINE
  5
2284
330
2231
100
AcDbEntity
  8
Visible Edges(ISO)
100
AcDbLine
 10
-24.72107995136503
 20
-18.94381709261677
 30
0.0
 11
-33.11425363746594
 21
-24.17532225294997
 31
0.0
  0
LINE
  5
2285
330
2231
100
AcDbEntity
  8
Visible Edges(ISO)
100
AcDbLine
 10
-36.28803769942806
 20
-19.08345670798144
 30
0.0
 11
-27.89486401332601
 21
-13.85195154764847
 31
0.0
  0
LINE
  5
2286
330
2231
100
AcDbEntity
  8
Visible Edges(ISO)
100
AcDbLine
 10
-27.89486401332601
 20
-13.85195154764847
 30
0.0
 11
-24.72107995136503
 21
-18.94381709261677
 31
0.0
  0
ARC
  5
2287
330
2231
100
AcDbEntity
  8
Visible Edges(ISO)
100
AcDbCircle
 10
-0.0000000000079581
 20
0.0000000000035243
 30
0.0
 40
41.00000000000028
100
AcDbArc
 50
207.7393597539912
 51
216.1316079879496
  0
LINE
  5
2288
330
2231
100
AcDbEntity
  8
Visible Edges(ISO)
100
AcDbLine
 10
-28.02840033803295
 20
-13.57971923462742
 30
0.0
 11
-37.30285951231304
 21
-17.01460173513135
 31
0.0
  0
LINE
  5
2289
330
2231
100
AcDbEntity
  8
Visible Edges(ISO)
100
AcDbLine
 10
-39.38669102938206
 20
-11.38808894224883
 30
0.0
 11
-30.11223185510198
 21
-7.95320644174501
 31
0.0
  0
LINE
  5
228A
330
2231
100
AcDbEntity
  8
Visible Edges(ISO)
100
AcDbLine
 10
-30.11223185510198
 20
-7.95320644174501
 30
0.0
 11
-28.02840033803295
 21
-13.57971923462742
 31
0.0
  0
ARC
  5
228B
330
2231
100
AcDbEntity
  8
Visible Edges(ISO)
100
AcDbCircle
 10
-0.0000000000070486
 20
0.0000000000040927
 30
0.0
 40
41.00000000000195
100
AcDbArc
 50
196.126456528186
 51
204.5187047621398
  0
LINE
  5
228C
330
2231
100
AcDbEntity
  8
Visible Edges(ISO)
100
AcDbLine
 10
-30.18823472166605
 20
-7.659666075622908
 30
0.0
 11
-39.9642819358271
 21
-9.15730142314544
 31
0.0
  0
LINE
  5
228D
330
2231
100
AcDbEntity
  8
Visible Edges(ISO)
100
AcDbLine
 10
-40.87284860085401
 20
-3.226491477176978
 30
0.0
 11
-31.09680138669296
 21
-1.728856129654218
 31
0.0
  0
LINE
  5
228E
330
2231
100
AcDbEntity
  8
Visible Edges(ISO)
100
AcDbLine
 10
-31.09680138669296
 20
-1.728856129654218
 30
0.0
 11
-30.18823472166605
 21
-7.659666075622908
 31
0.0
  0
ARC
  5
228F
330
2231
100
AcDbEntity
  8
Visible Edges(ISO)
100
AcDbCircle
 10
-0.0000000000059117
 20
0.0000000000037517
 30
0.0
 40
41.00000000000258
100
AcDbArc
 50
184.5135533023761
 51
192.905801536333
  0
LINE
  5
2290
330
2231
100
AcDbEntity
  8
Visible Edges(ISO)
100
AcDbLine
 10
-31.11215922882707
 20
-1.426025287509901
 30
0.0
 11
-40.98956196128415
 21
-0.9251001149590365
 31
0.0
  0
LINE
  5
2291
330
2231
100
AcDbEntity
  8
Visible Edges(ISO)
100
AcDbLine
 10
-40.68566694825199
 20
5.067198928067568
 30
0.0
 11
-30.80826421579491
 21
4.566273755516476
 31
0.0
  0
LINE
  5
2292
330
2231
100
AcDbEntity
  8
Visible Edges(ISO)
100
AcDbLine
 10
-30.80826421579491
 20
4.566273755516476
 30
0.0
 11
-31.11215922882707
 21
-1.426025287509901
 31
0.0
  0
ARC
  5
2293
330
2231
100
AcDbEntity
  8
Visible Edges(ISO)
100
AcDbCircle
 10
-0.0000000000090949
 20
0.0000000000035243
 30
0.0
 40
40.99999999999901
100
AcDbArc
 50
172.9006500765725
 51
181.2928983105246
  0
LINE
  5
2294
330
2231
100
AcDbEntity
  8
Visible Edges(ISO)
100
AcDbLine
 10
-30.76234828163706
 20
4.865997143425147
 30
0.0
 11
-40.33672450397808
 21
7.34497490062904
 31
0.0
  0
LINE
  5
2295
330
2231
100
AcDbEntity
  8
Visible Edges(ISO)
100
AcDbLine
 10
-38.832809310426
 20
13.15343761382644
 30
0.0
 11
-29.25843308808408
 21
10.67445985662232
 31
0.0
  0
LINE
  5
2296
330
2231
100
AcDbEntity
  8
Visible Edges(ISO)
100
AcDbLine
 10
-29.25843308808408
 20
10.67445985662232
 30
0.0
 11
-30.76234828163706
 21
4.865997143425147
 31
0.0
  0
ARC
  5
2297
330
2231
100
AcDbEntity
  8
Visible Edges(ISO)
100
AcDbCircle
 10
-0.0000000000059117
 20
0.0000000000027285
 30
0.0
 40
41.0000000000024
100
AcDbArc
 50
161.2877468507657
 51
169.6799950847232
  0
LINE
  5
2298
330
2231
100
AcDbEntity
  8
Visible Edges(ISO)
100
AcDbLine
 10
-29.15312318137399
 20
10.95880507957781
 30
0.0
 11
-38.03249680611612
 21
15.31434578078745
 31
0.0
  0
LINE
  5
2299
330
2231
100
AcDbEntity
  8
Visible Edges(ISO)
100
AcDbLine
 10
-35.39013189677007
 20
20.7011730182121
 30
0.0
 11
-26.51075827202817
 21
16.34563231700224
 31
0.0
  0
LINE
  5
229A
330
2231
100
AcDbEntity
  8
Visible Edges(ISO)
100
AcDbLine
 10
-26.51075827202817
 20
16.34563231700224
 30
0.0
 11
-29.15312318137399
 21
10.95880507957781
 31
0.0
  0
ARC
  5
229B
330
2231
100
AcDbEntity
  8
Visible Edges(ISO)
100
AcDbCircle
 10
-0.0000000000070486
 20
0.0000000000030695
 30
0.0
 40
41.00000000000091
100
AcDbArc
 50
149.6748436249624
 51
158.0670918589127
  0
LINE
  5
229C
330
2231
100
AcDbEntity
  8
Visible Edges(ISO)
100
AcDbLine
 10
-26.35036579272014
 20
16.60295824816774
 30
0.0
 11
-34.17121422038304
 21
22.65674554532143
 31
0.0
  0
LINE
  5
229D
330
2231
100
AcDbEntity
  8
Visible Edges(ISO)
100
AcDbLine
 10
-30.49857832509611
 20
27.40139996694757
 30
0.0
 11
-22.67772989743412
 21
21.34761266979399
 31
0.0
  0
LINE
  5
229E
330
2231
100
AcDbEntity
  8
Visible Edges(ISO)
100
AcDbLine
 10
-22.67772989743412
 20
21.34761266979399
 30
0.0
 11
-26.35036579272014
 21
16.60295824816774
 31
0.0
  0
ARC
  5
229F
330
2231
100
AcDbEntity
  8
Visible Edges(ISO)
100
AcDbCircle
 10
-0.0000000000070486
 20
0.00000000000216
 30
0.0
 40
41.00000000000179
100
AcDbArc
 50
138.0619403991552
 51
146.4541886331058
  0
LINE
  5
22A0
330
2231
100
AcDbEntity
  8
Visible Edges(ISO)
100
AcDbLine
 10
-22.46882133247504
 20
21.56738435531304
 30
0.0
 11
-28.91095810951993
 21
29.07157548517546
 31
0.0
  0
LINE
  5
22A1
330
2231
100
AcDbEntity
  8
Visible Edges(ISO)
100
AcDbLine
 10
-24.35840937336298
 20
32.97981038150863
 30
0.0
 11
-17.916272596319
 21
25.47561925164655
 31
0.0
  0
LINE
  5
22A2
330
2231
100
AcDbEntity
  8
Visible Edges(ISO)
100
AcDbLine
 10
-17.916272596319
 20
25.47561925164655
 30
0.0
 11
-22.46882133247504
 21
21.56738435531304
 31
0.0
  0
ARC
  5
22A3
330
2231
100
AcDbEntity
  8
Visible Edges(ISO)
100
AcDbCircle
 10
-0.0000000000079581
 20
0.0000000000026148
 30
0.0
 40
41.00000000000085
100
AcDbArc
 50
126.4490371733385
 51
134.8412854073008
  0
LINE
  5
22A4
330
2231
100
AcDbEntity
  8
Visible Edges(ISO)
100
AcDbLine
 10
-17.66740068690592
 20
25.64883921289197
 30
0.0
 11
-22.46708397676116
 21
34.29621170890153
 31
0.0
  0
LINE
  5
22A5
330
2231
100
AcDbEntity
  8
Visible Edges(ISO)
100
AcDbLine
 10
-17.22100427989312
 20
37.20802348408791
 30
0.0
 11
-12.42132099003811
 21
28.56065098807858
 31
0.0
  0
LINE
  5
22A6
330
2231
100
AcDbEntity
  8
Visible Edges(ISO)
100
AcDbLine
 10
-12.42132099003811
 20
28.56065098807858
 30
0.0
 11
-17.66740068690592
 21
25.64883921289197
 31
0.0
  0
ARC
  5
22A7
330
2231
100
AcDbEntity
  8
Visible Edges(ISO)
100
AcDbCircle
 10
-0.0000000000079581
 20
0.0000000000030695
 30
0.0
 40
41.00000000000013
100
AcDbArc
 50
114.8361339475432
 51
123.228382181496
  0
LINE
  5
22A8
330
2231
100
AcDbEntity
  8
Visible Edges(ISO)
100
AcDbLine
 10
-12.14267458138306
 20
28.68022757948472
 30
0.0
 11
-15.10340478622311
 21
38.11675699563125
 31
0.0
  0
LINE
  5
22A9
330
2231
100
AcDbEntity
  8
Visible Edges(ISO)
100
AcDbLine
 10
-9.378569247822952
 20
39.91293573347139
 30
0.0
 11
-6.417839042981995
 21
30.47640631732509
 31
0.0
  0
LINE
  5
22AA
330
2231
100
AcDbEntity
  8
Visible Edges(ISO)
100
AcDbLine
 10
-6.417839042981995
 20
30.47640631732509
 30
0.0
 11
-12.14267458138306
 21
28.68022757948472
 31
0.0
  0
ARC
  5
22AB
330
2231
100
AcDbEntity
  8
Visible Edges(ISO)
100
AcDbCircle
 10
-0.0000000000079581
 20
0.0000000000027285
 30
0.0
 40
41.00000000000057
100
AcDbArc
 50
103.2232307217356
 51
111.615478955688
  0
ARC
  5
22AC
330
2231
100
AcDbEntity
  8
Visible Edges(ISO)
100
AcDbCircle
 10
-0.0000000000090949
 20
0.0000000000085265
 30
0.0
 40
39.99999999999455
100
AcDbArc
 50
100.1076739175709
 51
103.1181325340471
  0
ARC
  5
22AD
330
2231
100
AcDbEntity
  8
Visible Edges(ISO)
100
AcDbCircle
 10
-0.0000000000100044
 20
0.0000000000128466
 30
0.0
 40
40.99999999999034
100
AcDbArc
 50
100.0025757298752
 51
103.2232307217356
  0
ARC
  5
22AE
330
2231
100
AcDbEntity
  8
Visible Edges(ISO)
100
AcDbCircle
 10
-0.0000000000079581
 20
0.0000000000032969
 30
0.0
 40
40.00000000000015
100
AcDbArc
 50
111.7205771433804
 51
114.7310357598425
  0
ARC
  5
22AF
330
2231
100
AcDbEntity
  8
Visible Edges(ISO)
100
AcDbCircle
 10
-0.0000000000090949
 20
0.0000000000048885
 30
0.0
 40
40.99999999999832
100
AcDbArc
 50
111.615478955688
 51
114.8361339475432
  0
ARC
  5
22B0
330
2231
100
AcDbEntity
  8
Visible Edges(ISO)
100
AcDbCircle
 10
-0.0000000000079581
 20
0.0000000000027285
 30
0.0
 40
40.0000000000007
100
AcDbArc
 50
123.3334803691897
 51
126.3439389856534
  0
ARC
  5
22B1
330
2231
100
AcDbEntity
  8
Visible Edges(ISO)
100
AcDbCircle
 10
-0.0000000000120508
 20
0.0000000000089813
 30
0.0
 40
40.99999999999312
100
AcDbArc
 50
123.228382181496
 51
126.4490371733385
  0
ARC
  5
22B2
330
2231
100
AcDbEntity
  8
Visible Edges(ISO)
100
AcDbCircle
 10
-0.0000000000040927
 20
-0.0000000000009095
 30
0.0
 40
40.00000000000599
100
AcDbArc
 50
134.9463835949903
 51
137.9568422114627
  0
ARC
  5
22B3
330
2231
100
AcDbEntity
  8
Visible Edges(ISO)
100
AcDbCircle
 10
-0.0000000000079581
 20
0.0000000000030695
 30
0.0
 40
41.00000000000052
100
AcDbArc
 50
134.8412854073008
 51
138.0619403991552
  0
ARC
  5
22B4
330
2231
100
AcDbEntity
  8
Visible Edges(ISO)
100
AcDbCircle
 10
-0.0000000000138698
 20
0.0000000000070486
 30
0.0
 40
39.99999999999287
100
AcDbArc
 50
146.559286820798
 51
149.569745437268
  0
ARC
  5
22B5
330
2231
100
AcDbEntity
  8
Visible Edges(ISO)
100
AcDbCircle
 10
-0.0000000000070486
 20
0.00000000000216
 30
0.0
 40
41.00000000000206
100
AcDbArc
 50
146.4541886331058
 51
149.6748436249502
  0
ARC
  5
22B6
330
2231
100
AcDbEntity
  8
Visible Edges(ISO)
100
AcDbCircle
 10
-0.0000000000070486
 20
0.0000000000030695
 30
0.0
 40
40.00000000000087
100
AcDbArc
 50
158.1721900466086
 51
161.1826486630714
  0
ARC
  5
22B7
330
2231
100
AcDbEntity
  8
Visible Edges(ISO)
100
AcDbCircle
 10
-0.0000000000100044
 20
0.000000000003979
 30
0.0
 40
40.9999999999979
100
AcDbArc
 50
158.0670918589127
 51
161.2877468507657
  0
ARC
  5
22B8
330
2231
100
AcDbEntity
  8
Visible Edges(ISO)
100
AcDbCircle
 10
-0.000000000017053
 20
0.0000000000045475
 30
0.0
 40
39.99999999999112
100
AcDbArc
 50
169.7850932724082
 51
172.7955518888776
  0
ARC
  5
22B9
330
2231
100
AcDbEntity
  8
Visible Edges(ISO)
100
AcDbCircle
 10
-0.0000000000040927
 20
0.0000000000026148
 30
0.0
 40
41.00000000000418
100
AcDbArc
 50
169.6799950847232
 51
172.9006500765725
  0
ARC
  5
22BA
330
2231
100
AcDbEntity
  8
Visible Edges(ISO)
100
AcDbCircle
 10
-0.000000000017053
 20
0.0000000000027285
 30
0.0
 40
39.99999999999128
100
AcDbArc
 50
181.3979964982201
 51
184.4084551146844
  0
ARC
  5
22BB
330
2231
100
AcDbEntity
  8
Visible Edges(ISO)
100
AcDbCircle
 10
0.0000000000011369
 20
0.000000000003979
 30
0.0
 40
41.00000000000895
100
AcDbArc
 50
181.2928983105246
 51
184.5135533023761
  0
ARC
  5
22BC
330
2231
100
AcDbEntity
  8
Visible Edges(ISO)
100
AcDbCircle
 10
-0.0000000000100044
 20
0.0000000000030695
 30
0.0
 40
39.99999999999829
100
AcDbArc
 50
193.010899724023
 51
196.0213583404943
  0
ARC
  5
22BD
330
2231
100
AcDbEntity
  8
Visible Edges(ISO)
100
AcDbCircle
 10
-0.0000000000120508
 20
0.0000000000026148
 30
0.0
 40
40.99999999999631
100
AcDbArc
 50
192.905801536333
 51
196.126456528186
  0
ARC
  5
22BE
330
2231
100
AcDbEntity
  8
Visible Edges(ISO)
100
AcDbCircle
 10
-0.0000000000059117
 20
0.0000000000045475
 30
0.0
 40
40.00000000000308
100
AcDbArc
 50
204.6238029498276
 51
207.6342615662978
  0
ARC
  5
22BF
330
2231
100
AcDbEntity
  8
Visible Edges(ISO)
100
AcDbCircle
 10
-0.0000000000211458
 20
-0.0000000000026148
 30
0.0
 40
40.99999999998646
100
AcDbArc
 50
204.5187047621398
 51
207.7393597539912
  0
ARC
  5
22C0
330
2231
100
AcDbEntity
  8
Visible Edges(ISO)
100
AcDbCircle
 10
-0.0000000000020464
 20
0.0000000000084128
 30
0.0
 40
40.0000000000083
100
AcDbArc
 50
216.2367061756404
 51
219.2471647921038
  0
ARC
  5
22C1
330
2231
100
AcDbEntity
  8
Visible Edges(ISO)
100
AcDbCircle
 10
-0.0000000000050022
 20
0.0000000000060254
 30
0.0
 40
41.00000000000431
100
AcDbArc
 50
216.1316079879496
 51
219.3522629797911
  0
ARC
  5
22C2
330
2231
100
AcDbEntity
  8
Visible Edges(ISO)
100
AcDbCircle
 10
-0.0000000000109139
 20
0.0000000000005684
 30
0.0
 40
39.99999999999662
100
AcDbArc
 50
227.8496094014442
 51
230.8600680179093
  0
ARC
  5
22C3
330
2231
100
AcDbEntity
  8
Visible Edges(ISO)
100
AcDbCircle
 10
-0.0000000000040927
 20
0.0000000000085265
 30
0.0
 40
41.00000000000714
100
AcDbArc
 50
227.7445112137527
 51
230.9651662056028
  0
ARC
  5
22C4
330
2231
100
AcDbEntity
  8
Visible Edges(ISO)
100
AcDbCircle
 10
-0.0000000000070486
 20
0.0000000000050022
 30
0.0
 40
40.0000000000019
100
AcDbArc
 50
239.4625126272564
 51
242.4729712437175
  0
ARC
  5
22C5
330
2231
100
AcDbEntity
  8
Visible Edges(ISO)
100
AcDbCircle
 10
-0.0000000000070486
 20
0.0000000000048885
 30
0.0
 40
41.00000000000171
100
AcDbArc
 50
239.3574144395584
 51
242.5780694314048
  0
ARC
  5
22C6
330
2231
100
AcDbEntity
  8
Visible Edges(ISO)
100
AcDbCircle
 10
-0.0000000000059117
 20
0.0000000000122782
 30
0.0
 40
40.00000000000935
100
AcDbArc
 50
251.0754158530544
 51
254.0858744695246
  0
ARC
  5
22C7
330
2231
100
AcDbEntity
  8
Visible Edges(ISO)
100
AcDbCircle
 10
-0.0000000000050022
 20
0.0000000000135287
 30
0.0
 40
41.00000000001067
100
AcDbArc
 50
250.9703176653632
 51
254.1909726572047
  0
ARC
  5
22C8
330
2231
100
AcDbEntity
  8
Visible Edges(ISO)
100
AcDbCircle
 10
-0.0000000000070486
 20
0.0000000000129603
 30
0.0
 40
40.00000000000963
100
AcDbArc
 50
262.6883190788637
 51
265.6987776953271
  0
ARC
  5
22C9
330
2231
100
AcDbEntity
  8
Visible Edges(ISO)
100
AcDbCircle
 10
-0.0000000000100044
 20
-0.0000000000173941
 30
0.0
 40
40.99999999997918
100
AcDbArc
 50
262.5832208911719
 51
265.8038758830246
  0
ARC
  5
22CA
330
2231
100
AcDbEntity
  8
Visible Edges(ISO)
100
AcDbCircle
 10
-0.0000000000070486
 20
-0.0000000000089813
 30
0.0
 40
39.99999999998781
100
AcDbArc
 50
274.3012223046729
 51
277.3116809211363
  0
ARC
  5
22CB
330
2231
100
AcDbEntity
  8
Visible Edges(ISO)
100
AcDbCircle
 10
-0.0000000000109139
 20
0.0000000000269438
 30
0.0
 40
41.00000000002387
100
AcDbArc
 50
274.1961241169883
 51
277.416779108828
  0
ARC
  5
22CC
330
2231
100
AcDbEntity
  8
Visible Edges(ISO)
100
AcDbCircle
 10
-0.0000000000070486
 20
-0.0000000000006821
 30
0.0
 40
39.99999999999575
100
AcDbArc
 50
285.9141255304754
 51
288.9245841469456
  0
ARC
  5
22CD
330
2231
100
AcDbEntity
  8
Visible Edges(ISO)
100
AcDbCircle
 10
-0.0000000000100044
 20
0.0000000000084128
 30
0.0
 40
41.00000000000533
100
AcDbArc
 50
285.8090273427953
 51
289.0296823346369
  0
ARC
  5
22CE
330
2231
100
AcDbEntity
  8
Visible Edges(ISO)
100
AcDbCircle
 10
-0.0000000000129603
 20
0.0000000000115961
 30
0.0
 40
40.00000000000951
100
AcDbArc
 50
297.5270287562826
 51
300.5374873727436
  0
ARC
  5
22CF
330
2231
100
AcDbEntity
  8
Visible Edges(ISO)
100
AcDbCircle
 10
-0.0000000000070486
 20
0.000000000001819
 30
0.0
 40
40.99999999999821
100
AcDbArc
 50
297.4219305685953
 51
300.6425855604415
  0
ARC
  5
22D0
330
2231
100
AcDbEntity
  8
Visible Edges(ISO)
100
AcDbCircle
 10
-0.0000000000120508
 20
0.0000000000070486
 30
0.0
 40
40.00000000000496
100
AcDbArc
 50
309.1399319820907
 51
312.1503905985558
  0
ARC
  5
22D1
330
2231
100
AcDbEntity
  8
Visible Edges(ISO)
100
AcDbCircle
 10
-0.0000000000090949
 20
0.000000000003979
 30
0.0
 40
41.00000000000082
100
AcDbArc
 50
309.0348337943972
 51
312.2554887862473
  0
ARC
  5
22D2
330
2231
100
AcDbEntity
  8
Visible Edges(ISO)
100
AcDbCircle
 10
-0.0000000000100044
 20
0.0000000000045475
 30
0.0
 40
40.00000000000222
100
AcDbArc
 50
320.7528352078963
 51
323.7632938243596
  0
ARC
  5
22D3
330
2231
100
AcDbEntity
  8
Visible Edges(ISO)
100
AcDbCircle
 10
-0.0000000000100044
 20
0.0000000000044338
 30
0.0
 40
41.00000000000178
100
AcDbArc
 50
320.6477370202089
 51
323.8683920120504
  0
ARC
  5
22D4
330
2231
100
AcDbEntity
  8
Visible Edges(ISO)
100
AcDbCircle
 10
-0.0000000000040927
 20
0.0000000000012506
 30
0.0
 40
39.99999999999502
100
AcDbArc
 50
332.3657384337022
 51
335.3761970501724
  0
ARC
  5
22D5
330
2231
100
AcDbEntity
  8
Visible Edges(ISO)
100
AcDbCircle
 10
-0.0000000000138698
 20
0.0000000000062528
 30
0.0
 40
41.00000000000677
100
AcDbArc
 50
332.2606402460089
 51
335.4812952378602
  0
ARC
  5
22D6
330
2231
100
AcDbEntity
  8
Visible Edges(ISO)
100
AcDbCircle
 10
-0.0000000000050022
 20
0.00000000000216
 30
0.0
 40
39.99999999999608
100
AcDbArc
 50
343.9786416595056
 51
346.989100275977
  0
ARC
  5
22D7
330
2231
100
AcDbEntity
  8
Visible Edges(ISO)
100
AcDbCircle
 10
-0.0000000000129603
 20
0.0000000000044338
 30
0.0
 40
41.00000000000479
100
AcDbArc
 50
343.873543471814
 51
347.094198463667
  0
ARC
  5
22D8
330
2231
100
AcDbEntity
  8
Visible Edges(ISO)
100
AcDbCircle
 10
-0.0000000000120508
 20
0.0000000000035243
 30
0.0
 40
40.00000000000389
100
AcDbArc
 50
355.5915448853155
 51
358.6020035017798
  0
ARC
  5
22D9
330
2231
100
AcDbEntity
  8
Visible Edges(ISO)
100
AcDbCircle
 10
-0.0000000000031832
 20
0.0000000000030695
 30
0.0
 40
40.99999999999417
100
AcDbArc
 50
355.4864466976239
 51
358.7071016894753
  0
ARC
  5
22DA
330
2231
100
AcDbEntity
  8
Visible Edges(ISO)
100
AcDbCircle
 10
-0.0000000000100044
 20
0.0000000000030695
 30
0.0
 40
40.00000000000135
100
AcDbArc
 50
7.204448111122388
 51
10.21490672758534
  0
ARC
  5
22DB
330
2231
100
AcDbEntity
  8
Visible Edges(ISO)
100
AcDbCircle
 10
-0.0000000000011369
 20
0.0000000000044338
 30
0.0
 40
40.9999999999924
100
AcDbArc
 50
7.099349923427495
 51
10.32000491528323
  0
ARC
  5
22DC
330
2231
100
AcDbEntity
  8
Visible Edges(ISO)
100
AcDbCircle
 10
-0.0000000000179625
 20
-0.0000000000003411
 30
0.0
 40
40.00000000001084
100
AcDbArc
 50
18.81735133692856
 51
21.82780995339136
  0
ARC
  5
22DD
330
2231
100
AcDbEntity
  8
Visible Edges(ISO)
100
AcDbCircle
 10
0.0000000000011369
 20
0.0000000000070486
 30
0.0
 40
40.99999999998988
100
AcDbArc
 50
18.71225314923426
 51
21.93290814108733
  0
ARC
  5
22DE
330
2231
100
AcDbEntity
  8
Visible Edges(ISO)
100
AcDbCircle
 10
-0.0000000000109139
 20
0.0000000000019327
 30
0.0
 40
40.00000000000254
100
AcDbArc
 50
30.43025456273193
 51
33.44071317920197
  0
ARC
  5
22DF
330
2231
100
AcDbEntity
  8
Visible Edges(ISO)
100
AcDbCircle
 10
-0.0000000000090949
 20
0.0000000000030695
 30
0.0
 40
41.00000000000057
100
AcDbArc
 50
30.3251563750498
 51
33.54581136689417
  0
ARC
  5
22E0
330
2231
100
AcDbEntity
  8
Visible Edges(ISO)
100
AcDbCircle
 10
-0.0000000000138698
 20
-0.00000000000216
 30
0.0
 40
40.00000000000802
100
AcDbArc
 50
42.04315778853731
 51
45.05361640500971
  0
ARC
  5
22E1
330
2231
100
AcDbEntity
  8
Visible Edges(ISO)
100
AcDbCircle
 10
-0.0000000000100044
 20
0.00000000000216
 30
0.0
 40
41.00000000000163
100
AcDbArc
 50
41.93805960085831
 51
45.15871459269923
  0
ARC
  5
22E2
330
2231
100
AcDbEntity
  8
Visible Edges(ISO)
100
AcDbCircle
 10
-0.0000000000031832
 20
0.000000000014893
 30
0.0
 40
39.99999999998747
100
AcDbArc
 50
65.26896424015752
 51
68.27942285661956
  0
ARC
  5
22E3
330
2231
100
AcDbEntity
  8
Visible Edges(ISO)
100
AcDbCircle
 10
-0.0000000000090949
 20
0.00000000000216
 30
0.0
 40
41.0000000000011
100
AcDbArc
 50
65.1638660524568
 51
68.38452104431199
  0
ARC
  5
22E4
330
2231
100
AcDbEntity
  8
Visible Edges(ISO)
100
AcDbCircle
 10
-0.0000000000100044
 20
0.0000000000005684
 30
0.0
 40
40.00000000000318
100
AcDbArc
 50
53.65606101434654
 51
56.66651963081023
  0
ARC
  5
22E5
330
2231
100
AcDbEntity
  8
Visible Edges(ISO)
100
AcDbCircle
 10
-0.0000000000138698
 20
-0.0000000000051159
 30
0.0
 40
41.00000000001021
100
AcDbArc
 50
53.5509628266615
 51
56.77161781850394
  0
ARC
  5
22E6
330
2231
100
AcDbEntity
  8
Visible Edges(ISO)
100
AcDbCircle
 10
-0.0000000000070486
 20
0.0000000000601403
 30
0.0
 40
40.99999999994309
100
AcDbArc
 50
88.38967250407916
 51
89.86025405775507
  0
LINE
  5
22E7
330
2231
100
AcDbEntity
  8
Visible Edges(ISO)
100
AcDbLine
 10
0.3693769595699905
 20
33.28593120553171
 30
0.0
 11
0.099999999991951
 21
40.99987804860245
 31
0.0
  0
LINE
  5
22E8
330
2231
100
AcDbEntity
  8
Visible Edges(ISO)
100
AcDbLine
 10
-0.1000000000078671
 20
40.99987804860245
 30
0.0
 11
-0.3693769595870435
 21
33.28593120553126
 31
0.0
  0
ARC
  5
22E9
330
2231
100
AcDbEntity
  8
Visible Edges(ISO)
100
AcDbCircle
 10
-0.0000000000070486
 20
-0.0000000000574119
 30
0.0
 40
41.00000000006047
100
AcDbArc
 50
90.13974594224492
 51
91.61032749592083
  0
ARC
  5
22EA
330
2231
100
AcDbEntity
  8
Visible Edges(ISO)
100
AcDbCircle
 10
-0.0000000000079581
 20
0.0000000000037517
 30
0.0
 40
39.99999999999956
100
AcDbArc
 50
76.88186746595285
 51
79.89232608242904
  0
ARC
  5
22EB
330
2231
100
AcDbEntity
  8
Visible Edges(ISO)
100
AcDbCircle
 10
-0.0000000000090949
 20
-0.0000000000006821
 30
0.0
 40
41.00000000000417
100
AcDbArc
 50
76.77676927826436
 51
79.99742427012474
  0
LINE
  5
22EC
330
2231
100
AcDbEntity
  8
Visible Edges(ISO)
100
AcDbLine
 10
-6.120825951793904
 20
30.53744405918974
 30
0.0
 11
-7.121390429163056
 21
40.37679777243147
 31
0.0
  0
LINE
  5
22ED
330
2231
100
AcDbEntity
  8
Visible Edges(ISO)
100
AcDbLine
 10
-1.152174488811169
 20
40.98380770435574
 30
0.0
 11
-0.1516100114431538
 21
31.14445399111435
 31
0.0
  0
LINE
  5
22EE
330
2231
100
AcDbEntity
  8
Visible Edges(ISO)
100
AcDbLine
 10
-0.1516100114431538
 20
31.14445399111435
 30
0.0
 11
-6.120825951793904
 21
30.53744405918974
 31
0.0
  0
ARC
  5
22EF
330
2231
100
AcDbEntity
  8
Visible Edges(ISO)
100
AcDbCircle
 10
-0.0000000000079581
 20
0.0000000000027285
 30
0.0
 40
41.00000000000066
100
AcDbArc
 50
91.61032749592083
 51
100.0025757298752
  0
LINE
  5
22F0
330
2231
100
AcDbEntity
  8
Visible Edges(ISO)
100
AcDbLine
 10
13.76522238653615
 20
-64.54857591495397
 30
0.0
 11
1.999999999992041
 21
-40.95119045888338
 31
0.0
  0
LINE
  5
22F1
330
2231
100
AcDbEntity
  8
Visible Edges(ISO)
100
AcDbLine
 10
0.9999999999920419
 20
40.98780306384185
 30
0.0
 11
0.9999999999920419
 21
42.88164102565701
 31
0.0
  0
LINE
  5
22F2
330
2231
100
AcDbEntity
  8
Visible Edges(ISO)
100
AcDbLine
 10
0.9999999999920419
 20
46.08165585967708
 30
0.0
 11
0.9999999999920419
 21
65.99242380758892
 31
0.0
  0
ARC
  5
22F3
330
2231
100
AcDbEntity
  8
Visible Edges(ISO)
100
AcDbCircle
 10
-0.0000000000079581
 20
0.0000000000032969
 30
0.0
 40
66.00000000000007
100
AcDbArc
 50
282.0382108122093
 51
89.13184890975191
  0
LINE
  5
22F4
330
2231
100
AcDbEntity
  8
Visible Edges(ISO)
100
AcDbLine
 10
-13.76522238655297
 20
-64.54857591495386
 30
0.0
 11
-2.000000000007958
 21
-40.95119045888338
 31
0.0
  0
LINE
  5
22F5
330
2231
100
AcDbEntity
  8
Visible Edges(ISO)
100
AcDbLine
 10
-1.000000000007958
 20
40.98780306384151
 30
0.0
 11
-1.000000000007958
 21
42.88773078236056
 31
0.0
  0
LINE
  5
22F6
330
2231
100
AcDbEntity
  8
Visible Edges(ISO)
100
AcDbLine
 10
-1.000000000007958
 20
46.08774561638085
 30
0.0
 11
-1.000000000007958
 21
65.99242380758892
 31
0.0
  0
ARC
  5
22F7
330
2231
100
AcDbEntity
  8
Visible Edges(ISO)
100
AcDbCircle
 10
-0.0000000000079581
 20
0.0000000000032969
 30
0.0
 40
65.99999999999988
100
AcDbArc
 50
90.8681510902481
 51
257.9617891877908
  0
LINE
  5
22F8
330
2231
100
AcDbEntity
  8
Visible Edges(ISO)
100
AcDbLine
 10
-3.000000000007958
 20
41.16506407137342
 30
0.0
 11
-12.33245328880707
 21
39.38874326352459
 31
0.0
  0
LINE
  5
22F9
330
2231
100
AcDbEntity
  8
Visible Edges(ISO)
100
AcDbLine
 10
-3.299169820277029
 20
42.73684567790769
 30
0.0
 11
-12.63162310907592
 21
40.9605248700592
 31
0.0
  0
LINE
  5
22FA
330
2231
100
AcDbEntity
  8
Visible Edges(ISO)
100
AcDbLine
 10
-12.63162310907592
 20
40.9605248700592
 30
0.0
 11
-12.33245328880707
 21
39.38874326352459
 31
0.0
  0
LINE
  5
22FB
330
2231
100
AcDbEntity
  8
Visible Edges(ISO)
100
AcDbLine
 10
-3.299169820277029
 20
42.73684567790769
 30
0.0
 11
-3.000000000007958
 21
41.16506407137342
 31
0.0
  0
ARC
  5
22FC
330
2231
100
AcDbEntity
  8
Visible Edges(ISO)
100
AcDbCircle
 10
-6.842369588546034
 20
44.50552750405427
 30
0.0
 40
4.000000000000004
100
AcDbArc
 50
23.40372033866367
 51
100.7766590086726
  0
ARC
  5
22FD
330
2231
100
AcDbEntity
  8
Visible Edges(ISO)
100
AcDbCircle
 10
-6.842369588547171
 20
44.50552750405472
 30
0.0
 40
4.000000000000662
100
AcDbArc
 50
332.7291515550547
 51
336.2473633822528
  0
ARC
  5
22FE
330
2231
100
AcDbEntity
  8
Visible Edges(ISO)
100
AcDbCircle
 10
-6.842369588546034
 20
44.50552750405427
 30
0.0
 40
2.400000000000003
100
AcDbArc
 50
280.7766590086727
 51
318.01522696468
  0
ARC
  5
22FF
330
2231
100
AcDbEntity
  8
Visible Edges(ISO)
100
AcDbCircle
 10
-6.842369588546034
 20
44.50552750405427
 30
0.0
 40
2.400000000000006
100
AcDbArc
 50
41.63585675624004
 51
100.7766590086726
  0
LINE
  5
2300
330
2231
100
AcDbEntity
  8
Visible Edges(ISO)
100
AcDbLine
 10
-9.260312096161896
 20
48.11711358635455
 30
0.0
 11
-7.590294139219167
 21
48.43498152039058
 31
0.0
  0
LINE
  5
2301
330
2231
100
AcDbEntity
  8
Visible Edges(ISO)
100
AcDbLine
 10
-8.961142275893053
 20
46.54533197982027
 30
0.0
 11
-9.260312096161896
 21
48.11711358635455
 31
0.0
  0
LINE
  5
2302
330
2231
100
AcDbEntity
  8
Visible Edges(ISO)
100
AcDbLine
 10
-7.291124318950096
 20
46.86319991385619
 30
0.0
 11
-8.961142275893053
 21
46.54533197982027
 31
0.0
  0
ARC
  5
2303
330
2231
100
AcDbEntity
  8
Visible Edges(ISO)
100
AcDbCircle
 10
-6.842369588545125
 20
44.50552750405427
 30
0.0
 40
1.600000000000003
100
AcDbArc
 50
89.82554186044737
 51
269.8255418604474
  0
LINE
  5
2304
330
2231
100
AcDbEntity
  8
Visible Edges(ISO)
100
AcDbLine
 10
-6.847241371324116
 20
42.90553492103026
 30
0.0
 11
-3.64725620527497
 21
42.89579135547194
 31
0.0
  0
LINE
  5
2305
330
2231
100
AcDbEntity
  8
Visible Edges(ISO)
100
AcDbLine
 10
-3.637512639716987
 20
46.0957765215204
 30
0.0
 11
-6.837497805766133
 21
46.10552008707872
 31
0.0
  0
LINE
  5
2306
330
2231
100
AcDbEntity
  8
Visible Edges(ISO)
100
AcDbLine
 10
12.15267055208892
 20
42.84768250052752
 30
0.0
 11
-3.64725620527497
 21
42.89579135547194
 31
0.0
  0
LINE
  5
2307
330
2231
100
AcDbEntity
  8
Visible Edges(ISO)
100
AcDbLine
 10
12.1624141176469
 20
46.0476676665761
 30
0.0
 11
-3.637512639716987
 21
46.0957765215204
 31
0.0
  0
LINE
  5
2308
330
2231
100
AcDbEntity
  8
Visible Edges(ISO)
100
AcDbLine
 10
12.15267055208892
 20
42.84768250052752
 30
0.0
 11
15.33345759284702
 21
42.83799739092546
 31
0.0
  0
LINE
  5
2309
330
2231
100
AcDbEntity
  8
Visible Edges(ISO)
100
AcDbLine
 10
15.34320115840501
 20
46.03798255697381
 30
0.0
 11
12.1624141176469
 21
46.0476676665761
 31
0.0
  0
ARC
  5
230A
330
2231
100
AcDbEntity
  8
Visible Edges(ISO)
100
AcDbCircle
 10
8.629921201746128
 20
47.95777717985607
 30
0.0
 40
2.050000000000026
100
AcDbArc
 50
291.928438627848
 51
247.7226450930696
  0
LINE
  5
230B
330
2231
100
AcDbEntity
  8
Visible Edges(ISO)
100
AcDbLine
 10
36.91775753576894
 20
46.23262678242326
 30
0.0
 11
13.7964414808489
 21
52.28987461859583
 31
0.0
  0
LINE
  5
230C
330
2231
100
AcDbEntity
  8
Visible Edges(ISO)
100
AcDbLine
 10
36.91775753576894
 20
46.23262678242326
 30
0.0
 11
37.69011361765502
 21
46.03028742623348
 31
0.0
  0
LINE
  5
230D
330
2231
100
AcDbEntity
  8
Visible Edges(ISO)
100
AcDbLine
 10
36.51227820354506
 20
44.68485854682114
 30
0.0
 11
37.28463428543205
 21
44.48251919063125
 31
0.0
  0
LINE
  5
230E
330
2231
100
AcDbEntity
  8
Visible Edges(ISO)
100
AcDbLine
 10
36.72830013138696
 20
45.50944281422289
 30
0.0
 11
36.91775753619209
 21
46.23262678403796
 31
0.0
  0
LINE
  5
230F
330
2231
100
AcDbEntity
  8
Visible Edges(ISO)
100
AcDbLine
 10
36.51227820402801
 20
44.68485854866606
 30
0.0
 11
36.72830013138696
 21
45.50944281422289
 31
0.0
  0
LINE
  5
2310
330
2231
100
AcDbEntity
  8
Visible Edges(ISO)
100
AcDbLine
 10
13.79644148151305
 20
52.28987462113309
 30
0.0
 11
13.31493477353001
 21
50.45189983766511
 31
0.0
  0
SPLINE
  5
2311
330
2231
100
AcDbEntity
  8
Visible Edges(ISO)
100
AcDbSpline
210
0.0
220
0.0
230
1.0
 70
     8
 71
     3
 72
    14
 73
    10
 74
     0
 42
0.0000000001
 43
0.0000000001
 40
-0.2286651747759609
 40
-0.2286651747759609
 40
-0.2286651747759609
 40
-0.2286651747759609
 40
-0.2096556653767674
 40
-0.2096556653767674
 40
-0.1906461559775739
 40
-0.1906461559775739
 40
-0.1718063443396231
 40
-0.1718063443396231
 40
-0.1529665327016723
 40
-0.1529665327016723
 40
-0.1529665327016723
 40
-0.1529665327016723
 10
13.31493477353001
 20
50.45189983766511
 30
0.0
 10
13.29922886905797
 20
50.3919483231939
 30
0.0
 10
13.2704588968229
 20
50.33050733455809
 30
0.0
 10
13.19000890447796
 20
50.22399777733472
 30
0.0
 10
13.13831680295402
 20
50.17895973186046
 30
0.0
 10
13.02951057406494
 20
50.11532819332671
 30
0.0
 10
12.96537980286598
 20
50.09234399930097
 30
0.0
 10
12.83327110837194
 20
50.07419017077222
 30
0.0
 10
12.7652942044549
 20
50.079019650688
 30
0.0
 10
12.70454490858492
 20
50.09493455535937
 30
0.0
  0
ELLIPSE
  5
2312
330
2231
100
AcDbEntity
  8
Visible Edges(ISO)
100
AcDbEllipse
 10
35.40707764489503
 20
44.15703423742843
 30
0.0
 11
1.276410919919219
 21
1.934473692341813
 31
0.0
210
0.0
220
0.0
230
1.0
 40
0.0066029868388586
 41
1.525382940362588
 42
1.57728319731281
  0
SPLINE
  5
2313
330
2231
100
AcDbEntity
  8
Visible Edges(ISO)
100
AcDbSpline
210
0.0
220
0.0
230
1.0
 70
     8
 71
     3
 72
    17
 73
    13
 74
     0
 42
0.0000000001
 43
0.0000000001
 40
0.0
 40
0.0
 40
0.0
 40
0.0
 40
0.25
 40
0.25
 40
0.25
 40
0.5
 40
0.5
 40
0.5
 40
0.75
 40
0.75
 40
0.75
 40
1.0
 40
1.0
 40
1.0
 40
1.0
 10
35.45226372972093
 20
44.25327447993072
 30
0.0
 10
35.64320550742286
 20
44.57918697129559
 30
0.0
 10
35.82274185052984
 20
44.88699297184814
 30
0.0
 10
35.98405936440599
 20
45.15068485318545
 30
0.0
 10
36.14537687828192
 20
45.41437673452253
 30
0.0
 10
36.28853271039998
 20
45.6341726361096
 30
0.0
 10
36.4113696221491
 20
45.80183809287416
 30
0.0
 10
36.53420653389799
 20
45.96950354963803
 30
0.0
 10
36.63682862228097
 20
46.08543591360853
 30
0.0
 10
36.72046427525402
 20
46.15432410406663
 30
0.0
 10
36.80409992822684
 20
46.22321229452484
 30
0.0
 10
36.86884954391485
 20
46.245439544389
 30
0.0
 10
36.91775753673619
 20
46.23262678611354
 30
0.0
  0
SPLINE
  5
2314
330
2231
100
AcDbEntity
  8
Visible Edges(ISO)
100
AcDbSpline
210
0.0
220
0.0
230
1.0
 70
     8
 71
     3
 72
    18
 73
    14
 74
     0
 42
0.0000000001
 43
0.0000000001
 40
-0.1525407850974777
 40
-0.1525407850974777
 40
-0.1525407850974777
 40
-0.1525407850974777
 40
-0.1181950956146801
 40
-0.1181950956146801
 40
-0.0865338679253085
 40
-0.0865338679253085
 40
-0.0669010067910081
 40
-0.0669010067910081
 40
-0.0484579910555542
 40
-0.0484579910555542
 40
-0.0229355347966384
 40
-0.0229355347966384
 40
0.0
 40
0.0
 40
0.0
 40
0.0
 10
35.43302522121599
 20
44.17983854867748
 30
0.0
 10
35.52670216150295
 20
44.24594375353729
 30
0.0
 10
35.61917900658614
 20
44.31169331540354
 30
0.0
 10
35.79379324610909
 20
44.43042975256605
 30
0.0
 10
35.87550868691096
 20
44.483314153999
 30
0.0
 10
36.00366813291908
 20
44.55772821219193
 30
0.0
 10
36.05144733301108
 20
44.58339538440566
 30
0.0
 10
36.14168768782383
 20
44.62641791281305
 30
0.0
 10
36.18412972469605
 20
44.64410431441161
 30
0.0
 10
36.28186084900403
 20
44.67763022871475
 30
0.0
 10
36.33554462185884
 20
44.69002132496576
 30
0.0
 10
36.43113360627694
 20
44.69793123338638
 30
0.0
 10
36.47337937974703
 20
44.69504913921002
 30
0.0
 10
36.51227820451095
 20
44.68485855051142
 30
0.0
  0
ELLIPSE
  5
2315
330
2231
100
AcDbEntity
  8
Visible Edges(ISO)
100
AcDbEllipse
 10
35.39456787213794
 20
44.10928278219308
 30
0.0
 11
-1.746094981367764
 21
-1.001275660584272
 31
0.0
210
0.0
220
0.0
230
1.0
 40
0.0209161467731797
 41
4.678370489106811
 42
4.705287827320871
  0
LINE
  5
2316
330
2231
100
AcDbEntity
  8
Visible Edges(ISO)
100
AcDbLine
 10
35.43302522121599
 20
44.17983854867702
 30
0.0
 11
35.45226372972093
 21
44.25327447993072
 31
0.0
  0
LINE
  5
2317
330
2231
100
AcDbEntity
  8
Visible Edges(ISO)
100
AcDbLine
 10
12.70454490858492
 20
50.09493455535937
 30
0.0
 11
8.641653290128942
 21
51.1593178024475
 31
0.0
  0
ARC
  5
2318
330
2231
100
AcDbEntity
  8
Visible Edges(ISO)
100
AcDbCircle
 10
8.033434291793128
 20
48.83766544904403
 30
0.0
 40
2.400000000000023
100
AcDbArc
 50
75.3197456902806
 51
165.3197456902789
  0
LINE
  5
2319
330
2231
100
AcDbEntity
  8
Visible Edges(ISO)
100
AcDbLine
 10
5.002193106997083
 20
46.7372900350764
 30
0.0
 11
5.711781938388867
 21
49.4458844473803
 31
0.0
  0
ARC
  5
231A
330
2231
100
AcDbEntity
  8
Visible Edges(ISO)
100
AcDbCircle
 10
8.097729578202006
 20
45.9263313706283
 30
0.0
 40
3.199999999999877
100
AcDbArc
 50
165.3197456902789
 51
177.4307378691111
  0
ARC
  5
231B
330
2231
100
AcDbEntity
  8
Visible Edges(ISO)
100
AcDbCircle
 10
8.097729578202006
 20
45.92633137063001
 30
0.0
 40
3.200000000001836
100
AcDbArc
 50
253.2039718979792
 51
255.3197456902806
  0
LINE
  5
231C
330
2231
100
AcDbEntity
  8
Visible Edges(ISO)
100
AcDbLine
 10
22.66935745781484
 20
38.80091447140353
 30
0.0
 11
7.286770913754025
 21
42.83079489942383
 31
0.0
  0
ARC
  5
231D
330
2231
100
AcDbEntity
  8
Visible Edges(ISO)
100
AcDbCircle
 10
32.89141295420904
 20
31.264364768213
 30
0.0
 40
12.70000000000014
100
AcDbArc
 50
82.54991629590639
 51
143.5992722168695
  0
ARC
  5
231E
330
2231
100
AcDbEntity
  8
Visible Edges(ISO)
100
AcDbCircle
 10
34.66778772939802
 20
44.84871210837184
 30
0.0
 40
1.000000000000007
100
AcDbArc
 50
262.5499162959064
 51
315.9091171760239
  0
CIRCLE
  5
231F
330
2231
100
AcDbEntity
  8
Visible Edges(ISO)
100
AcDbCircle
 10
21.26766253581286
 20
43.71661059821713
 30
0.0
 40
1.400000000000015
  0
LINE
  5
2320
330
2231
100
AcDbEntity
  8
Visible Edges(ISO)
100
AcDbLine
 10
37.69011361765502
 20
46.03028742623348
 30
0.0
 11
37.28463428543205
 21
44.48251919063125
 31
0.0
  0
LINE
  5
2321
330
2231
100
AcDbEntity
  8
Visible Edges(ISO)
100
AcDbLine
 10
12.75986414344402
 20
50.70069010197403
 30
0.0
 11
6.472055686309886
 21
52.34794988913449
 31
0.0
  0
LINE
  5
2322
330
2231
100
AcDbEntity
  8
Visible Edges(ISO)
100
AcDbLine
 10
6.472055686309886
 20
52.34794988913449
 30
0.0
 11
5.939864062765991
 21
50.31650407990662
 31
0.0
  0
LINE
  5
2323
330
2231
100
AcDbEntity
  8
Visible Edges(ISO)
100
AcDbLine
 10
12.60780939385881
 20
50.12027701362342
 30
0.0
 11
12.75986414344402
 21
50.70069010197403
 31
0.0
  0
LINE
  5
2324
330
2231
100
AcDbEntity
  8
Visible Edges(ISO)
100
AcDbLine
 10
4.827379127390031
 20
46.07000195582805
 30
0.0
 11
5.002193106997083
 21
46.7372900350764
 31
0.0
  0
LINE
  5
2325
330
2231
100
AcDbEntity
  8
Visible Edges(ISO)
100
AcDbLine
 10
5.711781938390004
 20
49.4458844473803
 30
0.0
 11
5.939864062765991
 21
50.31650407990662
 31
0.0
  0
LINE
  5
2326
330
2231
100
AcDbEntity
  8
Visible Edges(ISO)
100
AcDbLine
 10
10.47904289968301
 20
41.99449377671169
 30
0.0
 11
10.40301552489109
 21
41.70428723253633
 31
0.0
  0
LINE
  5
2327
330
2231
100
AcDbEntity
  8
Visible Edges(ISO)
100
AcDbLine
 10
3.596686216603984
 20
41.3722843566411
 30
0.0
 11
3.989717750236877
 21
42.87253769880112
 31
0.0
  0
SPLINE
  5
2328
330
2231
100
AcDbEntity
  8
Visible Edges(ISO)
100
AcDbSpline
210
0.0
220
0.0
230
1.0
 70
     8
 71
     3
 72
     8
 73
     4
 74
     0
 42
0.0000000001
 43
0.0000000001
 40
-0.2386057459238637
 40
-0.2386057459238637
 40
-0.2386057459238637
 40
-0.2386057459238637
 40
-0.2284121227312375
 40
-0.2284121227312375
 40
-0.2284121227312375
 40
-0.2284121227312375
 10
4.013426259075913
 20
42.87258381756908
 30
0.0
 10
4.015748855161973
 20
42.86444064227021
 30
0.0
 10
4.019599091534018
 20
42.85972083788499
 30
0.0
 10
4.024780665999969
 20
42.85836338571209
 30
0.0
  0
LINE
  5
2329
330
2231
100
AcDbEntity
  8
Visible Edges(ISO)
100
AcDbLine
 10
23.62580426564
 20
37.72335041847794
 30
0.0
 11
23.75251655696002
 21
38.20702799210369
 31
0.0
  0
LINE
  5
232A
330
2231
100
AcDbEntity
  8
Visible Edges(ISO)
100
AcDbLine
 10
16.46769983497893
 20
39.59992777921878
 30
0.0
 11
16.59408846730002
 21
40.08236990363991
 31
0.0
  0
LINE
  5
232B
330
2231
100
AcDbEntity
  8
Visible Edges(ISO)
100
AcDbLine
 10
16.46769983497893
 20
39.59992777921878
 30
0.0
 11
10.2766268925709
 21
41.22184510811507
 31
0.0
  0
LINE
  5
232C
330
2231
100
AcDbEntity
  8
Visible Edges(ISO)
100
AcDbLine
 10
10.40301552489109
 20
41.70428723253633
 30
0.0
 11
10.2766268925709
 21
41.22184510811507
 31
0.0
  0
SPLINE
  5
232D
330
2231
100
AcDbEntity
  8
Visible Edges(ISO)
100
AcDbSpline
210
0.0
220
0.0
230
1.0
 70
     8
 71
     3
 72
     8
 73
     4
 74
     0
 42
0.0000000001
 43
0.0000000001
 40
-0.3229320565119527
 40
-0.3229320565119527
 40
-0.3229320565119527
 40
-0.3229320565119527
 40
-0.2761446812655437
 40
-0.2761446812655437
 40
-0.2761446812655437
 40
-0.2761446812655437
 10
3.619301333774956
 20
41.31059515010997
 30
0.0
 10
3.59551859585008
 20
41.31682567511416
 30
0.0
 10
3.588302429707027
 20
41.33743564732299
 30
0.0
 10
3.596686216603984
 20
41.3722843566411
 30
0.0
  0
LINE
  5
232E
330
2231
100
AcDbEntity
  8
Visible Edges(ISO)
100
AcDbLine
 10
3.619301333774956
 20
41.31059515010997
 30
0.0
 11
4.61966917750783
 21
41.04852200768152
 31
0.0
  0
LINE
  5
232F
330
2231
100
AcDbEntity
  8
Visible Edges(ISO)
100
AcDbLine
 10
5.025148509731934
 20
42.59629024328353
 30
0.0
 11
4.024780665999969
 21
42.85836338571209
 31
0.0
  0
LINE
  5
2330
330
2231
100
AcDbEntity
  8
Visible Edges(ISO)
100
AcDbLine
 10
16.09457634002388
 20
39.69635722909913
 30
0.0
 11
5.025148509731934
 21
42.59629024328353
 31
0.0
  0
LINE
  5
2331
330
2231
100
AcDbEntity
  8
Visible Edges(ISO)
100
AcDbLine
 10
16.09457634002388
 20
39.69635722909913
 30
0.0
 11
18.41077936755709
 21
39.08956582758515
 31
0.0
  0
LINE
  5
2332
330
2231
100
AcDbEntity
  8
Visible Edges(ISO)
100
AcDbLine
 10
19.74769077956102
 20
38.73932608618714
 30
0.0
 11
18.41077936755709
 21
39.08956582758515
 31
0.0
  0
LINE
  5
2333
330
2231
100
AcDbEntity
  8
Visible Edges(ISO)
100
AcDbLine
 10
23.62580426564
 20
37.72335041847805
 30
0.0
 11
19.74769077956102
 21
38.73932608618714
 31
0.0
  0
LINE
  5
2334
330
2231
100
AcDbEntity
  8
Visible Edges(ISO)
100
AcDbLine
 10
16.59408846730002
 20
40.08236990364014
 30
0.0
 11
16.67011584209194
 21
40.37257644781539
 31
0.0
  0
LINE
  5
2335
330
2231
100
AcDbEntity
  8
Visible Edges(ISO)
100
AcDbLine
 10
23.75251655696002
 20
38.20702799210369
 30
0.0
 11
24.41015289604389
 21
40.71731287056628
 31
0.0
  0
ARC
  5
2336
330
2231
100
AcDbEntity
  8
Visible Edges(ISO)
100
AcDbCircle
 10
21.24232007754904
 20
43.61987508349227
 30
0.0
 40
1.400000000000019
100
AcDbArc
 50
347.3664587879645
 51
163.273032592623
  0
LINE
  5
2337
330
2231
100
AcDbEntity
  8
Visible Edges(ISO)
100
AcDbLine
 10
15.6890970078
 20
38.14858899349656
 30
0.0
 11
13.40167018879993
 21
38.74784169667601
 31
0.0
  0
LINE
  5
2338
330
2231
100
AcDbEntity
  8
Visible Edges(ISO)
100
AcDbLine
 10
7.317936852662114
 20
40.34163854159362
 30
0.0
 11
4.61966917750783
 21
41.04852200768152
 31
0.0
  0
LINE
  5
2339
330
2231
100
AcDbEntity
  8
Visible Edges(ISO)
100
AcDbLine
 10
23.22032493341589
 20
36.17558218287582
 30
0.0
 11
19.34221144733692
 21
37.19155785058467
 31
0.0
  0
LINE
  5
233A
330
2231
100
AcDbEntity
  8
Visible Edges(ISO)
100
AcDbLine
 10
19.34221144733692
 20
37.19155785058467
 30
0.0
 11
18.00530003533299
 21
37.54179759198303
 31
0.0
  0
LINE
  5
233B
330
2231
100
AcDbEntity
  8
Visible Edges(ISO)
100
AcDbLine
 10
15.6890970078
 20
38.14858899349656
 30
0.0
 11
18.00530003533299
 21
37.54179759198303
 31
0.0
  0
LINE
  5
233C
330
2231
100
AcDbEntity
  8
Visible Edges(ISO)
100
AcDbLine
 10
19.74769077956102
 20
38.73932608618714
 30
0.0
 11
19.34221144733692
 21
37.19155785058467
 31
0.0
  0
LINE
  5
233D
330
2231
100
AcDbEntity
  8
Visible Edges(ISO)
100
AcDbLine
 10
18.00530003533299
 20
37.54179759198303
 30
0.0
 11
18.41077936755709
 21
39.08956582758515
 31
0.0
  0
LINE
  5
233E
330
2231
100
AcDbEntity
  8
Visible Edges(ISO)
100
AcDbLine
 10
23.62580426564
 20
37.72335041847794
 30
0.0
 11
23.22032493341589
 21
36.1755821828757
 31
0.0
  0
ARC
  5
233F
330
2231
100
AcDbEntity
  8
Visible Edges(ISO)
100
AcDbCircle
 10
-0.0000000000059117
 20
-0.0000000000096634
 30
0.0
 40
38.45000000001327
100
AcDbArc
 50
100.2814117277795
 51
102.944394723844
  0
ARC
  5
2340
330
2231
100
AcDbEntity
  8
Visible Edges(ISO)
100
AcDbCircle
 10
-0.0000000000090949
 20
0.0000000000045475
 30
0.0
 40
38.44999999999847
100
AcDbArc
 50
111.8943149535783
 51
114.5572979496505
  0
ARC
  5
2341
330
2231
100
AcDbEntity
  8
Visible Edges(ISO)
100
AcDbCircle
 10
-0.0000000000150067
 20
0.0000000000120508
 30
0.0
 40
38.44999999998928
100
AcDbArc
 50
123.5072181793938
 51
126.1702011754546
  0
ARC
  5
2342
330
2231
100
AcDbEntity
  8
Visible Edges(ISO)
100
AcDbCircle
 10
-0.0000000000070486
 20
0.00000000000216
 30
0.0
 40
38.45000000000153
100
AcDbArc
 50
135.1201214052018
 51
137.7831044012623
  0
ARC
  5
2343
330
2231
100
AcDbEntity
  8
Visible Edges(ISO)
100
AcDbCircle
 10
-0.0000000000179625
 20
0.0000000000093223
 30
0.0
 40
38.44999999998876
100
AcDbArc
 50
146.7330246309993
 51
149.3960076270678
  0
ARC
  5
2344
330
2231
100
AcDbEntity
  8
Visible Edges(ISO)
100
AcDbCircle
 10
-0.0000000000079581
 20
0.0000000000035243
 30
0.0
 40
38.44999999999983
100
AcDbArc
 50
158.3459278568054
 51
161.0089108528749
  0
ARC
  5
2345
330
2231
100
AcDbEntity
  8
Visible Edges(ISO)
100
AcDbCircle
 10
-0.0000000000129603
 20
0.0000000000040927
 30
0.0
 40
38.44999999999532
100
AcDbArc
 50
169.9588310826108
 51
172.6218140786815
  0
ARC
  5
2346
330
2231
100
AcDbEntity
  8
Visible Edges(ISO)
100
AcDbCircle
 10
0.0000000000088676
 20
0.0000000000040927
 30
0.0
 40
38.45000000001697
100
AcDbArc
 50
181.571734308421
 51
184.2347173044822
  0
ARC
  5
2347
330
2231
100
AcDbEntity
  8
Visible Edges(ISO)
100
AcDbCircle
 10
-0.0000000000120508
 20
0.00000000000216
 30
0.0
 40
38.44999999999642
100
AcDbArc
 50
193.1846375342258
 51
195.847620530291
  0
ARC
  5
2348
330
2231
100
AcDbEntity
  8
Visible Edges(ISO)
100
AcDbCircle
 10
-0.0000000000079581
 20
0.0000000000035243
 30
0.0
 40
38.4500000000005
100
AcDbArc
 50
204.7975407600365
 51
207.4605237561015
  0
ARC
  5
2349
330
2231
100
AcDbEntity
  8
Visible Edges(ISO)
100
AcDbCircle
 10
-0.0000000000138698
 20
-0.0000000000011369
 30
0.0
 40
38.44999999999259
100
AcDbArc
 50
216.4104439858393
 51
219.0734269819018
  0
ARC
  5
234A
330
2231
100
AcDbEntity
  8
Visible Edges(ISO)
100
AcDbCircle
 10
-0.0000000000129603
 20
-0.0000000000026148
 30
0.0
 40
38.44999999999231
100
AcDbArc
 50
228.0233472116409
 51
230.6863302077119
  0
ARC
  5
234B
330
2231
100
AcDbEntity
  8
Visible Edges(ISO)
100
AcDbCircle
 10
-0.0000000000050022
 20
0.0000000000098908
 30
0.0
 40
38.45000000000732
100
AcDbArc
 50
239.6362504374549
 51
242.2992334335265
  0
ARC
  5
234C
330
2231
100
AcDbEntity
  8
Visible Edges(ISO)
100
AcDbCircle
 10
-0.0000000000109139
 20
-0.0000000000047748
 30
0.0
 40
38.44999999999149
100
AcDbArc
 50
251.249153663261
 51
253.9121366593212
  0
ARC
  5
234D
330
2231
100
AcDbEntity
  8
Visible Edges(ISO)
100
AcDbCircle
 10
-0.0000000000090949
 20
0.0
 30
0.0
 40
38.44999999999675
100
AcDbArc
 50
262.8620568890577
 51
265.52503988513
  0
ARC
  5
234E
330
2231
100
AcDbEntity
  8
Visible Edges(ISO)
100
AcDbCircle
 10
-0.0000000000079581
 20
0.0000000000013642
 30
0.0
 40
38.44999999999826
100
AcDbArc
 50
274.47496011487
 51
277.1379431109422
  0
ARC
  5
234F
330
2231
100
AcDbEntity
  8
Visible Edges(ISO)
100
AcDbCircle
 10
-0.0000000000040927
 20
-0.000000000009436
 30
0.0
 40
38.44999999998665
100
AcDbArc
 50
286.0878633406788
 51
288.7508463367391
  0
ARC
  5
2350
330
2231
100
AcDbEntity
  8
Visible Edges(ISO)
100
AcDbCircle
 10
-0.0000000000090949
 20
0.0000000000040927
 30
0.0
 40
38.45000000000111
100
AcDbArc
 50
297.7007665664736
 51
300.3637495625451
  0
ARC
  5
2351
330
2231
100
AcDbEntity
  8
Visible Edges(ISO)
100
AcDbCircle
 10
0.0000000000029559
 20
-0.0000000000097771
 30
0.0
 40
38.44999999998267
100
AcDbArc
 50
309.3136697922881
 51
311.9766527883591
  0
ARC
  5
2352
330
2231
100
AcDbEntity
  8
Visible Edges(ISO)
100
AcDbCircle
 10
-0.0000000000179625
 20
0.0000000000111413
 30
0.0
 40
38.45000000001244
100
AcDbArc
 50
320.9265730180982
 51
323.5895560141607
  0
ARC
  5
2353
330
2231
100
AcDbEntity
  8
Visible Edges(ISO)
100
AcDbCircle
 10
-0.0000000000090949
 20
0.0000000000035243
 30
0.0
 40
38.45000000000048
100
AcDbArc
 50
332.5394762438985
 51
335.2024592399635
  0
ARC
  5
2354
330
2231
100
AcDbEntity
  8
Visible Edges(ISO)
100
AcDbCircle
 10
0.0000000000079581
 20
-0.0000000000009095
 30
0.0
 40
38.4499999999832
100
AcDbArc
 50
344.152379469709
 51
346.8153624657742
  0
ARC
  5
2355
330
2231
100
AcDbEntity
  8
Visible Edges(ISO)
100
AcDbCircle
 10
-0.0000000000040927
 20
0.0000000000030695
 30
0.0
 40
38.44999999999526
100
AcDbArc
 50
355.7652826955178
 51
358.4282656915791
  0
ARC
  5
2356
330
2231
100
AcDbEntity
  8
Visible Edges(ISO)
100
AcDbCircle
 10
-0.0000000000241016
 20
0.0000000000009095
 30
0.0
 40
38.45000000001557
100
AcDbArc
 50
7.378185921324949
 51
10.04116891738916
  0
ARC
  5
2357
330
2231
100
AcDbEntity
  8
Visible Edges(ISO)
100
AcDbCircle
 10
-0.0000000000138698
 20
0.0000000000013642
 30
0.0
 40
38.45000000000583
100
AcDbArc
 50
18.99108914713122
 51
21.6540721431946
  0
ARC
  5
2358
330
2231
100
AcDbEntity
  8
Visible Edges(ISO)
100
AcDbCircle
 10
-0.0000000000250111
 20
-0.0000000000069349
 30
0.0
 40
38.45000000001952
100
AcDbArc
 50
30.60399237293219
 51
33.26697536900072
  0
ARC
  5
2359
330
2231
100
AcDbEntity
  8
Visible Edges(ISO)
100
AcDbCircle
 10
-0.0000000000040927
 20
0.000000000007617
 30
0.0
 40
38.44999999999347
100
AcDbArc
 50
42.2168955987377
 51
44.87987859481193
  0
ARC
  5
235A
330
2231
100
AcDbEntity
  8
Visible Edges(ISO)
100
AcDbCircle
 10
0.0
 20
0.000000000014893
 30
0.0
 40
38.44999999998578
100
AcDbArc
 50
53.82979882454536
 51
56.49278182060614
  0
ARC
  5
235B
330
2231
100
AcDbEntity
  8
Visible Edges(ISO)
100
AcDbCircle
 10
-0.0000000000138698
 20
-0.0000000000104592
 30
0.0
 40
38.45000000001486
100
AcDbArc
 50
65.44270205034944
 51
68.10568504642167
  0
ARC
  5
235C
330
2231
100
AcDbEntity
  8
Visible Edges(ISO)
100
AcDbCircle
 10
-0.0000000000031832
 20
0.0000000000277396
 30
0.0
 40
38.44999999997492
100
AcDbArc
 50
77.05560527615594
 51
79.71858827222051
  0
ARC
  5
235D
330
2231
100
AcDbEntity
  8
Visible Edges(ISO)
100
AcDbCircle
 10
-0.0000000000090949
 20
0.0000000000013642
 30
0.0
 40
40.95000000000202
100
AcDbArc
 50
76.78190194749098
 51
79.99229160090443
  0
ARC
  5
235E
330
2231
100
AcDbEntity
  8
Visible Edges(ISO)
100
AcDbCircle
 10
-0.0000000000079581
 20
0.0000000000040927
 30
0.0
 40
40.94999999999914
100
AcDbArc
 50
65.16899872168727
 51
68.37938837509231
  0
ARC
  5
235F
330
2231
100
AcDbEntity
  8
Visible Edges(ISO)
100
AcDbCircle
 10
-0.0000000000020464
 20
0.0000000000125056
 30
0.0
 40
40.94999999998878
100
AcDbArc
 50
53.55609549587879
 51
56.76648514927755
  0
ARC
  5
2360
330
2231
100
AcDbEntity
  8
Visible Edges(ISO)
100
AcDbCircle
 10
-0.0000000000059117
 20
0.0000000000050022
 30
0.0
 40
40.94999999999742
100
AcDbArc
 50
41.94319227006695
 51
45.1535819234825
  0
ARC
  5
2361
330
2231
100
AcDbEntity
  8
Visible Edges(ISO)
100
AcDbCircle
 10
-0.0000000000090949
 20
0.0000000000027285
 30
0.0
 40
40.95000000000104
100
AcDbArc
 50
30.33028904426711
 51
33.54067869767428
  0
ARC
  5
2362
330
2231
100
AcDbEntity
  8
Visible Edges(ISO)
100
AcDbCircle
 10
-0.0000000000150067
 20
0.0000000000010232
 30
0.0
 40
40.95000000000658
100
AcDbArc
 50
18.71738581846102
 51
21.92777547186688
  0
ARC
  5
2363
330
2231
100
AcDbEntity
  8
Visible Edges(ISO)
100
AcDbCircle
 10
-0.0000000000020464
 20
0.0000000000045475
 30
0.0
 40
40.9499999999934
100
AcDbArc
 50
7.104482592650018
 51
10.31487224605755
  0
ARC
  5
2364
330
2231
100
AcDbEntity
  8
Visible Edges(ISO)
100
AcDbCircle
 10
-0.0000000000011369
 20
0.0000000000027285
 30
0.0
 40
40.9499999999929
100
AcDbArc
 50
355.491579366845
 51
358.7019690202512
  0
ARC
  5
2365
330
2231
100
AcDbEntity
  8
Visible Edges(ISO)
100
AcDbCircle
 10
-0.0000000000070486
 20
0.0000000000030695
 30
0.0
 40
40.94999999999902
100
AcDbArc
 50
343.8786761410406
 51
347.0890657944468
  0
ARC
  5
2366
330
2231
100
AcDbEntity
  8
Visible Edges(ISO)
100
AcDbCircle
 10
0.0000000000011369
 20
-0.0000000000011369
 30
0.0
 40
40.94999999998973
100
AcDbArc
 50
332.265772915228
 51
335.4761625686383
  0
ARC
  5
2367
330
2231
100
AcDbEntity
  8
Visible Edges(ISO)
100
AcDbCircle
 10
-0.000000000017053
 20
0.0000000000102318
 30
0.0
 40
40.95000000001132
100
AcDbArc
 50
320.6528696894184
 51
323.8632593428369
  0
ARC
  5
2368
330
2231
100
AcDbEntity
  8
Visible Edges(ISO)
100
AcDbCircle
 10
-0.0000000000120508
 20
0.000000000007617
 30
0.0
 40
40.95000000000534
100
AcDbArc
 50
309.0399664636147
 51
312.2503561170262
  0
ARC
  5
2369
330
2231
100
AcDbEntity
  8
Visible Edges(ISO)
100
AcDbCircle
 10
-0.0000000000120508
 20
0.0000000000100044
 30
0.0
 40
40.95000000000765
100
AcDbArc
 50
297.4270632378161
 51
300.637452891213
  0
ARC
  5
236A
330
2231
100
AcDbEntity
  8
Visible Edges(ISO)
100
AcDbCircle
 10
-0.0000000000059117
 20
-0.000000000003979
 30
0.0
 40
40.94999999999243
100
AcDbArc
 50
285.8141600120052
 51
289.0245496654238
  0
ARC
  5
236B
330
2231
100
AcDbEntity
  8
Visible Edges(ISO)
100
AcDbCircle
 10
-0.0000000000100044
 20
0.0000000000213731
 30
0.0
 40
40.95000000001802
100
AcDbArc
 50
274.2012567861894
 51
277.4116464396099
  0
ARC
  5
236C
330
2231
100
AcDbEntity
  8
Visible Edges(ISO)
100
AcDbCircle
 10
-0.0000000000090949
 20
0.0000000000001137
 30
0.0
 40
40.94999999999695
100
AcDbArc
 50
262.5883535603902
 51
265.7987432138106
  0
ARC
  5
236D
330
2231
100
AcDbEntity
  8
Visible Edges(ISO)
100
AcDbCircle
 10
-0.0000000000079581
 20
0.0000000000040927
 30
0.0
 40
40.95000000000071
100
AcDbArc
 50
250.9754503345762
 51
254.1858399879948
  0
ARC
  5
236E
330
2231
100
AcDbEntity
  8
Visible Edges(ISO)
100
AcDbCircle
 10
-0.0000000000120508
 20
-0.0000000000034106
 30
0.0
 40
40.94999999999243
100
AcDbArc
 50
239.362547108787
 51
242.5729367621839
  0
ARC
  5
236F
330
2231
100
AcDbEntity
  8
Visible Edges(ISO)
100
AcDbCircle
 10
-0.0000000000090949
 20
0.0000000000026148
 30
0.0
 40
40.94999999999894
100
AcDbArc
 50
227.7496438829738
 51
230.9600335363853
  0
ARC
  5
2370
330
2231
100
AcDbEntity
  8
Visible Edges(ISO)
100
AcDbCircle
 10
-0.000000000017053
 20
-0.0000000000034106
 30
0.0
 40
40.94999999998868
100
AcDbArc
 50
216.1367406571632
 51
219.3471303105816
  0
ARC
  5
2371
330
2231
100
AcDbEntity
  8
Visible Edges(ISO)
100
AcDbCircle
 10
-0.0000000000079581
 20
0.0000000000037517
 30
0.0
 40
40.95000000000065
100
AcDbArc
 50
204.5238374313617
 51
207.734227084772
  0
ARC
  5
2372
330
2231
100
AcDbEntity
  8
Visible Edges(ISO)
100
AcDbCircle
 10
-0.0000000000259206
 20
-0.0000000000013642
 30
0.0
 40
40.94999999998207
100
AcDbArc
 50
192.9109342055532
 51
196.1213238589594
  0
ARC
  5
2373
330
2231
100
AcDbEntity
  8
Visible Edges(ISO)
100
AcDbCircle
 10
0.0000000000038654
 20
0.000000000003979
 30
0.0
 40
40.95000000001257
100
AcDbArc
 50
181.2980309797488
 51
184.5084206331549
  0
ARC
  5
2374
330
2231
100
AcDbEntity
  8
Visible Edges(ISO)
100
AcDbCircle
 10
0.0000000000140972
 20
-0.0000000000002274
 30
0.0
 40
40.95000000002264
100
AcDbArc
 50
169.6851277539424
 51
172.89551740735
  0
ARC
  5
2375
330
2231
100
AcDbEntity
  8
Visible Edges(ISO)
100
AcDbCircle
 10
-0.000000000017053
 20
0.0000000000063665
 30
0.0
 40
40.94999999999067
100
AcDbArc
 50
158.0722245281331
 51
161.2826141815451
  0
ARC
  5
2376
330
2231
100
AcDbEntity
  8
Visible Edges(ISO)
100
AcDbCircle
 10
-0.0000000000070486
 20
0.0000000000027285
 30
0.0
 40
40.95000000000108
100
AcDbArc
 50
146.4593213023257
 51
149.6697109557329
  0
ARC
  5
2377
330
2231
100
AcDbEntity
  8
Visible Edges(ISO)
100
AcDbCircle
 10
0.0000000000020464
 20
-0.0000000000060254
 30
0.0
 40
40.95000000001359
100
AcDbArc
 50
134.8464180765175
 51
138.056807729933
  0
ARC
  5
2378
330
2231
100
AcDbEntity
  8
Visible Edges(ISO)
100
AcDbCircle
 10
-0.0000000000020464
 20
-0.000000000005798
 30
0.0
 40
40.95000000001122
100
AcDbArc
 50
123.2335148507224
 51
126.4439045041212
  0
ARC
  5
2379
330
2231
100
AcDbEntity
  8
Visible Edges(ISO)
100
AcDbCircle
 10
-0.0000000000138698
 20
0.0000000000155751
 30
0.0
 40
40.94999999998669
100
AcDbArc
 50
111.6206116249077
 51
114.8310012783127
  0
ARC
  5
237A
330
2231
100
AcDbEntity
  8
Visible Edges(ISO)
100
AcDbCircle
 10
-0.0000000000079581
 20
0.0000000000005684
 30
0.0
 40
40.9500000000026
100
AcDbArc
 50
100.0077083990956
 51
103.218098052509
  0
ARC
  5
237B
330
2231
100
AcDbEntity
  8
Visible Edges(ISO)
100
AcDbCircle
 10
-0.0000000000059117
 20
0.0000000000139835
 30
0.0
 40
38.4499999999889
100
AcDbArc
 50
77.05560527615594
 51
79.71858827222051
  0
ARC
  5
237C
330
2231
100
AcDbEntity
  8
Visible Edges(ISO)
100
AcDbCircle
 10
-0.0000000000070486
 20
0.0000000000067075
 30
0.0
 40
38.44999999999645
100
AcDbArc
 50
65.44270205034944
 51
68.10568504642167
  0
ARC
  5
237D
330
2231
100
AcDbEntity
  8
Visible Edges(ISO)
100
AcDbCircle
 10
0.0000000000029559
 20
0.000000000018872
 30
0.0
 40
38.44999999998093
100
AcDbArc
 50
53.82979882454536
 51
56.49278182060614
  0
ARC
  5
237E
330
2231
100
AcDbEntity
  8
Visible Edges(ISO)
100
AcDbCircle
 10
0.0000000000011369
 20
0.0000000000122782
 30
0.0
 40
38.44999999998708
100
AcDbArc
 50
42.2168955987377
 51
44.87987859481193
  0
ARC
  5
237F
330
2231
100
AcDbEntity
  8
Visible Edges(ISO)
100
AcDbCircle
 10
-0.0000000000129603
 20
0.0
 30
0.0
 40
38.45000000000587
100
AcDbArc
 50
30.60399237293219
 51
33.26697536900072
  0
ARC
  5
2380
330
2231
100
AcDbEntity
  8
Visible Edges(ISO)
100
AcDbCircle
 10
-0.0000000000211458
 20
-0.0000000000013642
 30
0.0
 40
38.45000000001375
100
AcDbArc
 50
18.99108914713122
 51
21.6540721431946
  0
ARC
  5
2381
330
2231
100
AcDbEntity
  8
Visible Edges(ISO)
100
AcDbCircle
 10
-0.0000000000241016
 20
0.0000000000009095
 30
0.0
 40
38.45000000001551
100
AcDbArc
 50
7.378185921324949
 51
10.04116891738916
  0
ARC
  5
2382
330
2231
100
AcDbEntity
  8
Visible Edges(ISO)
100
AcDbCircle
 10
-0.0000000000020464
 20
0.0000000000030695
 30
0.0
 40
38.44999999999352
100
AcDbArc
 50
355.7652826955178
 51
358.4282656915791
  0
ARC
  5
2383
330
2231
100
AcDbEntity
  8
Visible Edges(ISO)
100
AcDbCircle
 10
-0.0000000000050022
 20
0.00000000000216
 30
0.0
 40
38.44999999999629
100
AcDbArc
 50
344.152379469709
 51
346.8153624657742
  0
ARC
  5
2384
330
2231
100
AcDbEntity
  8
Visible Edges(ISO)
100
AcDbCircle
 10
-0.0000000000079581
 20
0.0000000000030695
 30
0.0
 40
38.44999999999937
100
AcDbArc
 50
332.5394762439043
 51
335.2024592399635
  0
ARC
  5
2385
330
2231
100
AcDbEntity
  8
Visible Edges(ISO)
100
AcDbCircle
 10
-0.0000000000070486
 20
0.0000000000026148
 30
0.0
 40
38.44999999999897
100
AcDbArc
 50
320.9265730180982
 51
323.5895560141659
  0
ARC
  5
2386
330
2231
100
AcDbEntity
  8
Visible Edges(ISO)
100
AcDbCircle
 10
0.0000000000059117
 20
-0.0000000000131877
 30
0.0
 40
38.44999999997839
100
AcDbArc
 50
309.3136697922881
 51
311.9766527883591
  0
ARC
  5
2387
330
2231
100
AcDbEntity
  8
Visible Edges(ISO)
100
AcDbCircle
 10
-0.0000000000059117
 20
-0.0000000000002274
 30
0.0
 40
38.449999999996
100
AcDbArc
 50
297.7007665664736
 51
300.3637495625451
  0
ARC
  5
2388
330
2231
100
AcDbEntity
  8
Visible Edges(ISO)
100
AcDbCircle
 10
-0.0000000000070486
 20
0.0000000000005684
 30
0.0
 40
38.44999999999725
100
AcDbArc
 50
286.0878633406788
 51
288.7508463367391
  0
ARC
  5
2389
330
2231
100
AcDbEntity
  8
Visible Edges(ISO)
100
AcDbCircle
 10
-0.0000000000070486
 20
-0.0000000000026148
 30
0.0
 40
38.44999999999423
100
AcDbArc
 50
274.47496011487
 51
277.1379431109422
  0
ARC
  5
238A
330
2231
100
AcDbEntity
  8
Visible Edges(ISO)
100
AcDbCircle
 10
-0.0000000000100044
 20
-0.0000000000123919
 30
0.0
 40
38.44999999998434
100
AcDbArc
 50
262.8620568890577
 51
265.52503988513
  0
ARC
  5
238B
330
2231
100
AcDbEntity
  8
Visible Edges(ISO)
100
AcDbCircle
 10
-0.0000000000090949
 20
0.0000000000026148
 30
0.0
 40
38.44999999999919
100
AcDbArc
 50
251.249153663261
 51
253.9121366593212
  0
ARC
  5
238C
330
2231
100
AcDbEntity
  8
Visible Edges(ISO)
100
AcDbCircle
 10
-0.0000000000059117
 20
0.0000000000070486
 30
0.0
 40
38.45000000000418
100
AcDbArc
 50
239.6362504374549
 51
242.2992334335265
  0
ARC
  5
238D
330
2231
100
AcDbEntity
  8
Visible Edges(ISO)
100
AcDbCircle
 10
-0.0000000000020464
 20
0.0000000000111413
 30
0.0
 40
38.45000000001012
100
AcDbArc
 50
228.0233472116409
 51
230.6863302077119
  0
ARC
  5
238E
330
2231
100
AcDbEntity
  8
Visible Edges(ISO)
100
AcDbCircle
 10
-0.0000000000138698
 20
-0.0000000000009095
 30
0.0
 40
38.44999999999334
100
AcDbArc
 50
216.4104439858393
 51
219.0734269819018
  0
ARC
  5
238F
330
2231
100
AcDbEntity
  8
Visible Edges(ISO)
100
AcDbCircle
 10
-0.0000000000031832
 20
0.0000000000062528
 30
0.0
 40
38.45000000000656
100
AcDbArc
 50
204.7975407600365
 51
207.4605237561015
  0
ARC
  5
2390
330
2231
100
AcDbEntity
  8
Visible Edges(ISO)
100
AcDbCircle
 10
-0.0000000000129603
 20
0.00000000000216
 30
0.0
 40
38.4499999999955
100
AcDbArc
 50
193.1846375342258
 51
195.847620530291
  0
ARC
  5
2391
330
2231
100
AcDbEntity
  8
Visible Edges(ISO)
100
AcDbCircle
 10
0.0000000000050022
 20
0.0000000000040927
 30
0.0
 40
38.45000000001356
100
AcDbArc
 50
181.571734308421
 51
184.2347173044822
  0
ARC
  5
2392
330
2231
100
AcDbEntity
  8
Visible Edges(ISO)
100
AcDbCircle
 10
-0.0000000000150067
 20
0.0000000000040927
 30
0.0
 40
38.44999999999338
100
AcDbArc
 50
169.9588310826108
 51
172.6218140786815
  0
ARC
  5
2393
330
2231
100
AcDbEntity
  8
Visible Edges(ISO)
100
AcDbCircle
 10
-0.0000000000259206
 20
0.0000000000095497
 30
0.0
 40
38.44999999998159
100
AcDbArc
 50
158.3459278568054
 51
161.0089108528749
  0
ARC
  5
2394
330
2231
100
AcDbEntity
  8
Visible Edges(ISO)
100
AcDbCircle
 10
-0.0000000000100044
 20
0.0000000000040927
 30
0.0
 40
38.44999999999828
100
AcDbArc
 50
146.7330246309993
 51
149.3960076270678
  0
ARC
  5
2395
330
2231
100
AcDbEntity
  8
Visible Edges(ISO)
100
AcDbCircle
 10
-0.0000000000138698
 20
0.0000000000085265
 30
0.0
 40
38.4499999999924
100
AcDbArc
 50
135.1201214051881
 51
137.7831044012623
  0
ARC
  5
2396
330
2231
100
AcDbEntity
  8
Visible Edges(ISO)
100
AcDbCircle
 10
-0.0000000000161435
 20
0.0000000000135287
 30
0.0
 40
38.44999999998741
100
AcDbArc
 50
123.5072181793938
 51
126.1702011754546
  0
ARC
  5
2397
330
2231
100
AcDbEntity
  8
Visible Edges(ISO)
100
AcDbCircle
 10
-0.0000000000109139
 20
0.0000000000089813
 30
0.0
 40
38.44999999999387
100
AcDbArc
 50
111.8943149535783
 51
114.5572979496505
  0
ARC
  5
2398
330
2231
100
AcDbEntity
  8
Visible Edges(ISO)
100
AcDbCircle
 10
-0.0000000000050022
 20
-0.0000000000110276
 30
0.0
 40
38.45000000001446
100
AcDbArc
 50
100.2814117277795
 51
102.944394723844
  0
ARC
  5
2399
330
2231
100
AcDbEntity
  8
Visible Edges(ISO)
100
AcDbCircle
 10
-0.0000000000020464
 20
-0.0000000000268301
 30
0.0
 40
35.95000000003091
100
AcDbArc
 50
100.5933073503546
 51
102.6324991012526
  0
ARC
  5
239A
330
2231
100
AcDbEntity
  8
Visible Edges(ISO)
100
AcDbCircle
 10
-0.0000000000079581
 20
0.0000000000030695
 30
0.0
 40
35.95000000000048
100
AcDbArc
 50
112.206210576164
 51
114.2454023270655
  0
ARC
  5
239B
330
2231
100
AcDbEntity
  8
Visible Edges(ISO)
100
AcDbCircle
 10
-0.0000000000291038
 20
0.0000000000325144
 30
0.0
 40
35.94999999996435
100
AcDbArc
 50
123.8191138019613
 51
125.8583055528711
  0
ARC
  5
239C
330
2231
100
AcDbEntity
  8
Visible Edges(ISO)
100
AcDbCircle
 10
-0.0000000000329692
 20
0.0000000000267164
 30
0.0
 40
35.94999999996614
100
AcDbArc
 50
135.4320170277747
 51
137.4712087786718
  0
ARC
  5
239D
330
2231
100
AcDbEntity
  8
Visible Edges(ISO)
100
AcDbCircle
 10
-0.0000000000129603
 20
0.0000000000062528
 30
0.0
 40
35.9499999999944
100
AcDbArc
 50
147.0449202535843
 51
149.0841120044865
  0
ARC
  5
239E
330
2231
100
AcDbEntity
  8
Visible Edges(ISO)
100
AcDbCircle
 10
0.0
 20
0.0
 30
0.0
 40
35.950000000009
100
AcDbArc
 50
158.6578234793894
 51
160.6970152302841
  0
ARC
  5
239F
330
2231
100
AcDbEntity
  8
Visible Edges(ISO)
100
AcDbCircle
 10
0.0000000000070486
 20
0.0000000000010232
 30
0.0
 40
35.9500000000159
100
AcDbArc
 50
170.2707267051941
 51
172.3099184560921
  0
ARC
  5
23A0
330
2231
100
AcDbEntity
  8
Visible Edges(ISO)
100
AcDbCircle
 10
0.0000000000168257
 20
0.0000000000044338
 30
0.0
 40
35.9500000000249
100
AcDbArc
 50
181.8836299310016
 51
183.9228216818972
  0
ARC
  5
23A1
330
2231
100
AcDbEntity
  8
Visible Edges(ISO)
100
AcDbCircle
 10
0.0000000000011369
 20
0.0000000000055707
 30
0.0
 40
35.95000000000914
100
AcDbArc
 50
193.4965331568126
 51
195.5357249077041
  0
ARC
  5
23A2
330
2231
100
AcDbEntity
  8
Visible Edges(ISO)
100
AcDbCircle
 10
-0.0000000000259206
 20
-0.0000000000055707
 30
0.0
 40
35.94999999998016
100
AcDbArc
 50
205.109436382615
 51
207.148628133516
  0
ARC
  5
23A3
330
2231
100
AcDbEntity
  8
Visible Edges(ISO)
100
AcDbCircle
 10
-0.0000000000150067
 20
-0.0000000000020464
 30
0.0
 40
35.94999999999115
100
AcDbArc
 50
216.7223396084229
 51
218.7615313593256
  0
ARC
  5
23A4
330
2231
100
AcDbEntity
  8
Visible Edges(ISO)
100
AcDbCircle
 10
-0.0000000000129603
 20
-0.0000000000022737
 30
0.0
 40
35.94999999999262
100
AcDbArc
 50
228.3352428342297
 51
230.374434585128
  0
ARC
  5
23A5
330
2231
100
AcDbEntity
  8
Visible Edges(ISO)
100
AcDbCircle
 10
-0.0000000000150067
 20
-0.0000000000089813
 30
0.0
 40
35.94999999998612
100
AcDbArc
 50
239.9481460600339
 51
241.9873378109366
  0
ARC
  5
23A6
330
2231
100
AcDbEntity
  8
Visible Edges(ISO)
100
AcDbCircle
 10
-0.0000000000050022
 20
0.0000000000139835
 30
0.0
 40
35.95000000001125
100
AcDbArc
 50
251.5610492858364
 51
253.6002410367397
  0
ARC
  5
23A7
330
2231
100
AcDbEntity
  8
Visible Edges(ISO)
100
AcDbCircle
 10
-0.0000000000059117
 20
0.0000000000285354
 30
0.0
 40
35.95000000002547
100
AcDbArc
 50
263.1739525116554
 51
265.213144262547
  0
ARC
  5
23A8
330
2231
100
AcDbEntity
  8
Visible Edges(ISO)
100
AcDbCircle
 10
-0.0000000000079581
 20
0.0000000000009095
 30
0.0
 40
35.94999999999757
100
AcDbArc
 50
274.786855737453
 51
276.8260474883446
  0
ARC
  5
23A9
330
2231
100
AcDbEntity
  8
Visible Edges(ISO)
100
AcDbCircle
 10
-0.0000000000079581
 20
0.00000000000216
 30
0.0
 40
35.94999999999879
100
AcDbArc
 50
286.3997589632603
 51
288.4389507141636
  0
ARC
  5
23AA
330
2231
100
AcDbEntity
  8
Visible Edges(ISO)
100
AcDbCircle
 10
0.0
 20
-0.0000000000120508
 30
0.0
 40
35.94999999998235
100
AcDbArc
 50
298.0126621890633
 51
300.0518539399661
  0
ARC
  5
23AB
330
2231
100
AcDbEntity
  8
Visible Edges(ISO)
100
AcDbCircle
 10
0.0000000000029559
 20
-0.0000000000096634
 30
0.0
 40
35.94999999998285
100
AcDbArc
 50
309.6255654148719
 51
311.6647571657703
  0
ARC
  5
23AC
330
2231
100
AcDbEntity
  8
Visible Edges(ISO)
100
AcDbCircle
 10
-0.0000000000109139
 20
0.0000000000050022
 30
0.0
 40
35.95000000000285
100
AcDbArc
 50
321.2384686406744
 51
323.2776603915771
  0
ARC
  5
23AD
330
2231
100
AcDbEntity
  8
Visible Edges(ISO)
100
AcDbCircle
 10
-0.0000000000241016
 20
0.0000000000111413
 30
0.0
 40
35.95000000001734
100
AcDbArc
 50
332.851371866484
 51
334.8905636173851
  0
ARC
  5
23AE
330
2231
100
AcDbEntity
  8
Visible Edges(ISO)
100
AcDbCircle
 10
-0.0000000000259206
 20
0.0000000000079581
 30
0.0
 40
35.95000000001798
100
AcDbArc
 50
344.4642750922959
 51
346.5034668431874
  0
ARC
  5
23AF
330
2231
100
AcDbEntity
  8
Visible Edges(ISO)
100
AcDbCircle
 10
-0.0000000000031832
 20
0.0000000000030695
 30
0.0
 40
35.94999999999446
100
AcDbArc
 50
356.0771783181027
 51
358.1163700689984
  0
ARC
  5
23B0
330
2231
100
AcDbEntity
  8
Visible Edges(ISO)
100
AcDbCircle
 10
-0.0000000000109139
 20
0.0000000000027285
 30
0.0
 40
35.95000000000316
100
AcDbArc
 50
7.690081543907909
 51
9.729273294805826
  0
ARC
  5
23B1
330
2231
100
AcDbEntity
  8
Visible Edges(ISO)
100
AcDbCircle
 10
-0.0000000000109139
 20
0.00000000000216
 30
0.0
 40
35.95000000000299
100
AcDbArc
 50
19.30298476971582
 51
21.34217652061062
  0
ARC
  5
23B2
330
2231
100
AcDbEntity
  8
Visible Edges(ISO)
100
AcDbCircle
 10
-0.0000000000079581
 20
0.0000000000037517
 30
0.0
 40
35.94999999999922
100
AcDbArc
 50
30.91588799551352
 51
32.95507974641569
  0
ARC
  5
23B3
330
2231
100
AcDbEntity
  8
Visible Edges(ISO)
100
AcDbCircle
 10
-0.0000000000438831
 20
-0.0000000000305818
 30
0.0
 40
35.95000000004934
100
AcDbArc
 50
42.52879122132818
 51
44.56798297222524
  0
ARC
  5
23B4
330
2231
100
AcDbEntity
  8
Visible Edges(ISO)
100
AcDbCircle
 10
-0.0000000000129603
 20
-0.0000000000040927
 30
0.0
 40
35.95000000000908
100
AcDbArc
 50
54.14169444712888
 51
56.1808861980387
  0
ARC
  5
23B5
330
2231
100
AcDbEntity
  8
Visible Edges(ISO)
100
AcDbCircle
 10
-0.000000000017053
 20
-0.0000000000180762
 30
0.0
 40
35.95000000002339
100
AcDbArc
 50
65.75459767293441
 51
67.793789423836
  0
ARC
  5
23B6
330
2231
100
AcDbEntity
  8
Visible Edges(ISO)
100
AcDbCircle
 10
-0.0000000000079581
 20
0.000000000003979
 30
0.0
 40
35.94999999999944
100
AcDbArc
 50
77.36750089874739
 51
79.40669264964542
  0
ARC
  5
23B7
330
2231
100
AcDbEntity
  8
Visible Edges(ISO)
100
AcDbCircle
 10
-0.0000000000179625
 20
0.0000000000530918
 30
0.0
 40
33.44999999994916
100
AcDbArc
 50
100.9520004526902
 51
102.2738059989323
  0
ARC
  5
23B8
330
2231
100
AcDbEntity
  8
Visible Edges(ISO)
100
AcDbCircle
 10
0.0000000000190994
 20
-0.0000000000587761
 30
0.0
 40
33.45000000006741
100
AcDbArc
 50
112.5649036784831
 51
113.8867092247288
  0
ARC
  5
23B9
330
2231
100
AcDbEntity
  8
Visible Edges(ISO)
100
AcDbCircle
 10
-0.0000000000220552
 20
0.0000000000228511
 30
0.0
 40
33.44999999997603
100
AcDbArc
 50
124.1778069042933
 51
125.4996124505501
  0
ARC
  5
23BA
330
2231
100
AcDbEntity
  8
Visible Edges(ISO)
100
AcDbCircle
 10
0.0000000000070486
 20
-0.0000000000123919
 30
0.0
 40
33.45000000002213
100
AcDbArc
 50
135.7907101301019
 51
137.1125156763548
  0
ARC
  5
23BB
330
2231
100
AcDbEntity
  8
Visible Edges(ISO)
100
AcDbCircle
 10
-0.0000000000211458
 20
0.0000000000111413
 30
0.0
 40
33.44999999998505
100
AcDbArc
 50
147.4036133559046
 51
148.7254189021615
  0
ARC
  5
23BC
330
2231
100
AcDbEntity
  8
Visible Edges(ISO)
100
AcDbCircle
 10
-0.0000000000379714
 20
0.0000000000144382
 30
0.0
 40
33.44999999996857
100
AcDbArc
 50
159.0165165817112
 51
160.3383221279619
  0
ARC
  5
23BD
330
2231
100
AcDbEntity
  8
Visible Edges(ISO)
100
AcDbCircle
 10
0.0000000000600267
 20
-0.0000000000070486
 30
0.0
 40
33.45000000006943
100
AcDbArc
 50
170.6294198075253
 51
171.9512253537706
  0
ARC
  5
23BE
330
2231
100
AcDbEntity
  8
Visible Edges(ISO)
100
AcDbCircle
 10
0.0000000000100044
 20
0.0000000000040927
 30
0.0
 40
33.45000000001864
100
AcDbArc
 50
182.2423230333244
 51
183.5641285795735
  0
ARC
  5
23BF
330
2231
100
AcDbEntity
  8
Visible Edges(ISO)
100
AcDbCircle
 10
-0.0000000000050022
 20
0.0000000000040927
 30
0.0
 40
33.4500000000031
100
AcDbArc
 50
193.8552262591306
 51
195.1770318053851
  0
ARC
  5
23C0
330
2231
100
AcDbEntity
  8
Visible Edges(ISO)
100
AcDbCircle
 10
0.0000000000600267
 20
0.0000000000366072
 30
0.0
 40
33.45000000007568
100
AcDbArc
 50
205.4681294849372
 51
206.7899350311871
  0
ARC
  5
23C1
330
2231
100
AcDbEntity
  8
Visible Edges(ISO)
100
AcDbCircle
 10
0.0000000000400178
 20
0.0000000000402451
 30
0.0
 40
33.45000000006046
100
AcDbArc
 50
217.0810327107504
 51
218.4028382569886
  0
ARC
  5
23C2
330
2231
100
AcDbEntity
  8
Visible Edges(ISO)
100
AcDbCircle
 10
-0.0000000000420641
 20
-0.000000000035925
 30
0.0
 40
33.44999999994853
100
AcDbArc
 50
228.6939359365493
 51
230.0157414828092
  0
ARC
  5
23C3
330
2231
100
AcDbEntity
  8
Visible Edges(ISO)
100
AcDbCircle
 10
0.0000000000129603
 20
0.0000000000414957
 30
0.0
 40
33.45000000004365
100
AcDbArc
 50
240.3068391623655
 51
241.6286447086113
  0
ARC
  5
23C4
330
2231
100
AcDbEntity
  8
Visible Edges(ISO)
100
AcDbCircle
 10
-0.0000000000138698
 20
-0.0000000000138698
 30
0.0
 40
33.44999999998178
100
AcDbArc
 50
251.9197423881644
 51
253.2415479344161
  0
ARC
  5
23C5
330
2231
100
AcDbEntity
  8
Visible Edges(ISO)
100
AcDbCircle
 10
-0.0000000000129603
 20
-0.0000000000428599
 30
0.0
 40
33.4499999999535
100
AcDbArc
 50
263.5326456139738
 51
264.8544511602194
  0
ARC
  5
23C6
330
2231
100
AcDbEntity
  8
Visible Edges(ISO)
100
AcDbCircle
 10
-0.0000000000070486
 20
-0.0000000000079581
 30
0.0
 40
33.4499999999887
100
AcDbArc
 50
275.1455488397806
 51
276.4673543860261
  0
ARC
  5
23C7
330
2231
100
AcDbEntity
  8
Visible Edges(ISO)
100
AcDbCircle
 10
-0.0000000000150067
 20
0.0000000000262617
 30
0.0
 40
33.45000000002402
100
AcDbArc
 50
286.758452065584
 51
288.0802576118356
  0
ARC
  5
23C8
330
2231
100
AcDbEntity
  8
Visible Edges(ISO)
100
AcDbCircle
 10
-0.0000000000070486
 20
0.0
 30
0.0
 40
33.44999999999629
100
AcDbArc
 50
298.3713552913887
 51
299.6931608376345
  0
ARC
  5
23C9
330
2231
100
AcDbEntity
  8
Visible Edges(ISO)
100
AcDbCircle
 10
0.0000000000029559
 20
-0.000000000009436
 30
0.0
 40
33.44999999998294
100
AcDbArc
 50
309.9842585171908
 51
311.3060640634507
  0
ARC
  5
23CA
330
2231
100
AcDbEntity
  8
Visible Edges(ISO)
100
AcDbCircle
 10
0.0000000000011369
 20
-0.0000000000040927
 30
0.0
 40
33.4499999999879
100
AcDbArc
 50
321.5971617430113
 51
322.9189672892549
  0
ARC
  5
23CB
330
2231
100
AcDbEntity
  8
Visible Edges(ISO)
100
AcDbCircle
 10
0.0000000000140972
 20
-0.0000000000079581
 30
0.0
 40
33.44999999997522
100
AcDbArc
 50
333.2100649688129
 51
334.5318705150628
  0
ARC
  5
23CC
330
2231
100
AcDbEntity
  8
Visible Edges(ISO)
100
AcDbCircle
 10
0.000000000035925
 20
-0.0000000000082991
 30
0.0
 40
33.44999999995407
100
AcDbArc
 50
344.8229681946149
 51
346.1447737408694
  0
ARC
  5
23CD
330
2231
100
AcDbEntity
  8
Visible Edges(ISO)
100
AcDbCircle
 10
-0.0000000000391083
 20
0.0000000000048885
 30
0.0
 40
33.45000000003063
100
AcDbArc
 50
356.4358714204264
 51
357.7576769666691
  0
ARC
  5
23CE
330
2231
100
AcDbEntity
  8
Visible Edges(ISO)
100
AcDbCircle
 10
0.0000000000270575
 20
0.0000000000084128
 30
0.0
 40
33.44999999996487
100
AcDbArc
 50
8.048774646229391
 51
9.370580192481021
  0
ARC
  5
23CF
330
2231
100
AcDbEntity
  8
Visible Edges(ISO)
100
AcDbCircle
 10
-0.0000000000591172
 20
-0.000000000015234
 30
0.0
 40
33.45000000005418
100
AcDbArc
 50
19.66167787203804
 51
20.9834834182888
  0
ARC
  5
23D0
330
2231
100
AcDbEntity
  8
Visible Edges(ISO)
100
AcDbCircle
 10
-0.0000000000459295
 20
-0.0000000000204636
 30
0.0
 40
33.45000000004467
100
AcDbArc
 50
31.27458109784405
 51
32.59638664408985
  0
ARC
  5
23D1
330
2231
100
AcDbEntity
  8
Visible Edges(ISO)
100
AcDbCircle
 10
0.0000000000259206
 20
0.0000000000362661
 30
0.0
 40
33.44999999995244
100
AcDbArc
 50
42.88748432364513
 51
44.20928986989809
  0
ARC
  5
23D2
330
2231
100
AcDbEntity
  8
Visible Edges(ISO)
100
AcDbCircle
 10
-0.00000000004502
 20
-0.0000000000502496
 30
0.0
 40
33.45000000006507
100
AcDbArc
 50
54.50038754944992
 51
55.82219309570302
  0
ARC
  5
23D3
330
2231
100
AcDbEntity
  8
Visible Edges(ISO)
100
AcDbCircle
 10
-0.0000000000059117
 20
0.0000000000089813
 30
0.0
 40
33.44999999999398
100
AcDbArc
 50
66.11329077527118
 51
67.43509632151682
  0
ARC
  5
23D4
330
2231
100
AcDbEntity
  8
Visible Edges(ISO)
100
AcDbCircle
 10
-0.0000000000179625
 20
-0.0000000000449063
 30
0.0
 40
33.45000000004915
100
AcDbArc
 50
77.72619400106771
 51
79.04799954730977
  0
ARC
  5
23D5
330
2231
100
AcDbEntity
  8
Visible Edges(ISO)
100
AcDbCircle
 10
-0.0000000000109139
 20
-0.0000000000080718
 30
0.0
 40
35.95000000001172
100
AcDbArc
 50
77.36750089874739
 51
79.40669264964542
  0
ARC
  5
23D6
330
2231
100
AcDbEntity
  8
Visible Edges(ISO)
100
AcDbCircle
 10
-0.0000000000031832
 20
0.000000000015234
 30
0.0
 40
35.9499999999871
100
AcDbArc
 50
65.75459767293441
 51
67.793789423836
  0
ARC
  5
23D7
330
2231
100
AcDbEntity
  8
Visible Edges(ISO)
100
AcDbCircle
 10
0.0000000000011369
 20
0.0000000000171667
 30
0.0
 40
35.94999999998311
100
AcDbArc
 50
54.14169444712888
 51
56.1808861980387
  0
ARC
  5
23D8
330
2231
100
AcDbEntity
  8
Visible Edges(ISO)
100
AcDbCircle
 10
-0.0000000000179625
 20
-0.000000000005798
 30
0.0
 40
35.95000000001314
100
AcDbArc
 50
42.52879122132818
 51
44.56798297222524
  0
ARC
  5
23D9
330
2231
100
AcDbEntity
  8
Visible Edges(ISO)
100
AcDbCircle
 10
0.0000000000120508
 20
0.0000000000160298
 30
0.0
 40
35.94999999997597
100
AcDbArc
 50
30.91588799551352
 51
32.95507974641569
  0
ARC
  5
23DA
330
2231
100
AcDbEntity
  8
Visible Edges(ISO)
100
AcDbCircle
 10
-0.0000000000291038
 20
-0.0000000000040927
 30
0.0
 40
35.95000000002168
100
AcDbArc
 50
19.30298476971582
 51
21.34217652061062
  0
ARC
  5
23DB
330
2231
100
AcDbEntity
  8
Visible Edges(ISO)
100
AcDbCircle
 10
-0.0000000000291038
 20
0.0
 30
0.0
 40
35.95000000002097
100
AcDbArc
 50
7.690081543907909
 51
9.729273294805826
  0
ARC
  5
23DC
330
2231
100
AcDbEntity
  8
Visible Edges(ISO)
100
AcDbCircle
 10
0.0000000000011369
 20
0.0000000000027285
 30
0.0
 40
35.9499999999906
100
AcDbArc
 50
356.0771783181027
 51
358.1163700689984
  0
ARC
  5
23DD
330
2231
100
AcDbEntity
  8
Visible Edges(ISO)
100
AcDbCircle
 10
-0.0000000000329692
 20
0.0000000000098908
 30
0.0
 40
35.95000000002575
100
AcDbArc
 50
344.4642750922959
 51
346.5034668431874
  0
ARC
  5
23DE
330
2231
100
AcDbEntity
  8
Visible Edges(ISO)
100
AcDbCircle
 10
-0.0000000000070486
 20
0.0000000000026148
 30
0.0
 40
35.9499999999983
100
AcDbArc
 50
332.851371866484
 51
334.8905636173851
  0
ARC
  5
23DF
330
2231
100
AcDbEntity
  8
Visible Edges(ISO)
100
AcDbCircle
 10
-0.0000000000211458
 20
0.0000000000128466
 30
0.0
 40
35.95000000001558
100
AcDbArc
 50
321.2384686406744
 51
323.2776603915771
  0
ARC
  5
23E0
330
2231
100
AcDbEntity
  8
Visible Edges(ISO)
100
AcDbCircle
 10
0.0000000000070486
 20
-0.0000000000151203
 30
0.0
 40
35.94999999997563
100
AcDbArc
 50
309.6255654148719
 51
311.6647571657703
  0
ARC
  5
23E1
330
2231
100
AcDbEntity
  8
Visible Edges(ISO)
100
AcDbCircle
 10
-0.0000000000161435
 20
0.0000000000165983
 30
0.0
 40
35.95000000001504
100
AcDbArc
 50
298.0126621890633
 51
300.0518539399661
  0
ARC
  5
23E2
330
2231
100
AcDbEntity
  8
Visible Edges(ISO)
100
AcDbCircle
 10
-0.0000000000100044
 20
0.0000000000081855
 30
0.0
 40
35.95000000000508
100
AcDbArc
 50
286.3997589632603
 51
288.4389507141636
  0
ARC
  5
23E3
330
2231
100
AcDbEntity
  8
Visible Edges(ISO)
100
AcDbCircle
 10
-0.0000000000070486
 20
-0.0000000000110276
 30
0.0
 40
35.94999999998578
100
AcDbArc
 50
274.786855737453
 51
276.8260474883446
  0
ARC
  5
23E4
330
2231
100
AcDbEntity
  8
Visible Edges(ISO)
100
AcDbCircle
 10
-0.0000000000070486
 20
0.0000000000146656
 30
0.0
 40
35.95000000001141
100
AcDbArc
 50
263.1739525116554
 51
265.213144262547
  0
ARC
  5
23E5
330
2231
100
AcDbEntity
  8
Visible Edges(ISO)
100
AcDbCircle
 10
-0.0000000000031832
 20
0.0000000000214868
 30
0.0
 40
35.95000000001911
100
AcDbArc
 50
251.5610492858364
 51
253.6002410367397
  0
ARC
  5
23E6
330
2231
100
AcDbEntity
  8
Visible Edges(ISO)
100
AcDbCircle
 10
0.0000000000050022
 20
0.0000000000268301
 30
0.0
 40
35.95000000002679
100
AcDbArc
 50
239.9481460600339
 51
241.9873378109366
  0
ARC
  5
23E7
330
2231
100
AcDbEntity
  8
Visible Edges(ISO)
100
AcDbCircle
 10
-0.0000000000320597
 20
-0.0000000000245564
 30
0.0
 40
35.94999999996328
100
AcDbArc
 50
228.3352428342297
 51
230.374434585128
  0
ARC
  5
23E8
330
2231
100
AcDbEntity
  8
Visible Edges(ISO)
100
AcDbCircle
 10
-0.0000000000040927
 20
0.0000000000062528
 30
0.0
 40
35.95000000000496
100
AcDbArc
 50
216.7223396084229
 51
218.7615313593256
  0
ARC
  5
23E9
330
2231
100
AcDbEntity
  8
Visible Edges(ISO)
100
AcDbCircle
 10
-0.0000000000040927
 20
0.0000000000055707
 30
0.0
 40
35.95000000000503
100
AcDbArc
 50
205.109436382615
 51
207.148628133516
  0
ARC
  5
23EA
330
2231
100
AcDbEntity
  8
Visible Edges(ISO)
100
AcDbCircle
 10
0.0000000000109139
 20
0.0000000000081855
 30
0.0
 40
35.95000000001964
100
AcDbArc
 50
193.4965331568126
 51
195.5357249077041
  0
ARC
  5
23EB
330
2231
100
AcDbEntity
  8
Visible Edges(ISO)
100
AcDbCircle
 10
0.0000000000050022
 20
0.0000000000037517
 30
0.0
 40
35.95000000001301
100
AcDbArc
 50
181.8836299310016
 51
183.9228216818972
  0
ARC
  5
23EC
330
2231
100
AcDbEntity
  8
Visible Edges(ISO)
100
AcDbCircle
 10
-0.0000000000090949
 20
0.0000000000035243
 30
0.0
 40
35.94999999999914
100
AcDbArc
 50
170.2707267051941
 51
172.3099184560921
  0
ARC
  5
23ED
330
2231
100
AcDbEntity
  8
Visible Edges(ISO)
100
AcDbCircle
 10
-0.0000000000090949
 20
0.0000000000037517
 30
0.0
 40
35.94999999999899
100
AcDbArc
 50
158.6578234793894
 51
160.6970152302841
  0
ARC
  5
23EE
330
2231
100
AcDbEntity
  8
Visible Edges(ISO)
100
AcDbCircle
 10
-0.0000000000011369
 20
-0.0000000000009095
 30
0.0
 40
35.95000000000843
100
AcDbArc
 50
147.0449202535843
 51
149.0841120044865
  0
ARC
  5
23EF
330
2231
100
AcDbEntity
  8
Visible Edges(ISO)
100
AcDbCircle
 10
0.0
 20
-0.0000000000040927
 30
0.0
 40
35.95000000001097
100
AcDbArc
 50
135.4320170277747
 51
137.4712087786718
  0
ARC
  5
23F0
330
2231
100
AcDbEntity
  8
Visible Edges(ISO)
100
AcDbCircle
 10
-0.0000000000020464
 20
-0.0000000000060254
 30
0.0
 40
35.95000000001127
100
AcDbArc
 50
123.8191138019613
 51
125.8583055528711
  0
ARC
  5
23F1
330
2231
100
AcDbEntity
  8
Visible Edges(ISO)
100
AcDbCircle
 10
-0.0000000000200089
 20
0.0000000000308091
 30
0.0
 40
35.94999999997011
100
AcDbArc
 50
112.206210576164
 51
114.2454023270655
  0
ARC
  5
23F2
330
2231
100
AcDbEntity
  8
Visible Edges(ISO)
100
AcDbCircle
 10
-0.0000000000040927
 20
-0.0000000000200089
 30
0.0
 40
35.95000000002396
100
AcDbArc
 50
100.5933073503546
 51
102.6324991012526
  0
CIRCLE
  5
23F3
330
2231
100
AcDbEntity
  8
Sketch Geometry(ISO)
100
AcDbCircle
 10
-0.0000000000070486
 20
0.00000000000216
 30
0.0
 40
30.15000000000001
  0
CIRCLE
  5
23F4
330
2231
100
AcDbEntity
  8
Sketch Geometry(ISO)
100
AcDbCircle
 10
-0.0000000000070486
 20
0.00000000000216
 30
0.0
 40
31.0
  0
LINE
  5
23F5
330
2231
100
AcDbEntity
  8
AM_5
100
AcDbLine
 10
36.39692667902591
 20
58.03028285577568
 30
0.0
 11
37.72528166731195
 21
60.14817639065814
 31
0.0
  0
LINE
  5
23F6
330
2231
100
AcDbEntity
  8
AM_5
100
AcDbLine
 10
37.72528166731195
 20
60.14817639065814
 30
0.0
 11
46.04890371455598
 21
60.14817639065814
 31
0.0
  0
SOLID
  5
23F7
330
2231
100
AcDbEntity
  8
AM_5
100
AcDbTrace
 10
36.043944423212
 20
58.25167535382331
 30
0.0
 11
36.74990893483983
 21
57.80889035772805
 31
0.0
 12
35.0685716907401
 22
55.91238932089368
 32
0.0
 13
35.0685716907401
 23
55.91238932089368
 33
0.0
  0
MTEXT
  5
23F8
330
2231
100
AcDbEntity
  8
AM_5
 62
     2
100
AcDbMText
 10
42.63709269093396
 20
63.39817639065813
 30
0.0
 40
3.5
 41
0.0
 71
     5
 72
     1
  1
%%C153,5 [6,043"]
 73
     1
 44
1.0
1001
ACAD
1000
MTEXTBEGIN
1070
    73
1070
     1
1070
    44
1040
1.0
1070
    74
1070
     0
1000
MTEXTEND
  0
LINE
  5
23F9
330
2231
100
AcDbEntity
  8
AM_5
100
AcDbLine
 10
-27.65000000000805
 20
0.00000000000216
 30
0.0
 11
27.64999999999304
 21
0.00000000000216
 31
0.0
  0
SOLID
  5
23FA
330
2231
100
AcDbEntity
  8
AM_5
100
AcDbTrace
 10
-27.65000000000805
 20
0.4166666666690162
 30
0.0
 11
-27.65000000000805
 21
-0.4166666666644688
 31
0.0
 12
-30.15000000000805
 22
0.00000000000216
 32
0.0
 13
-30.15000000000805
 23
0.00000000000216
 33
0.0
  0
SOLID
  5
23FB
330
2231
100
AcDbEntity
  8
AM_5
100
AcDbTrace
 10
27.64999999999304
 20
0.4166666666690162
 30
0.0
 11
27.64999999999304
 21
-0.4166666666644688
 31
0.0
 12
30.14999999999304
 22
0.00000000000216
 32
0.0
 13
30.14999999999304
 23
0.00000000000216
 33
0.0
  0
MTEXT
  5
23FC
330
2231
100
AcDbEntity
  8
AM_5
 62
     2
100
AcDbMText
 10
-0.0000000000070486
 20
3.250344488191331
 30
0.0
 40
3.5
 41
0.0
 71
     5
 72
     1
  1
%%C75 []2,953"
 73
     1
 44
1.0
1001
ACAD
1000
MTEXTBEGIN
1070
    73
1070
     1
1070
    44
1040
1.0
1070
    74
1070
     0
1000
MTEXTEND
  0
ENDBLK
  5
2233
330
2231
100
AcDbEntity
  8
0
100
AcDbBlockEnd
  0
ENDSEC
  0
SECTION
  2
ENTITIES
  0
INSERT
  5
23FD
330
1A
100
AcDbEntity
  8
AM_0
100
AcDbBlockReference
  2
Sleev-IT_FC75
 10
1096.268261857444
 20
734.9804472456591
 30
0.0
  0
VIEWPORT
  5
22
102
{ACAD_XDICTIONARY
360
2407
102
}
330
17
100
AcDbEntity
 67
     1
  8
0
100
AcDbViewport
 10
7.900096624318575
 20
6.635154955787665
 30
0.0
 40
18.8944864125024
 41
11.87498859712033
 68
     1
 69
     1
 12
7.900096624318575
 22
6.635154955787665
 13
0.0
 23
0.0
 14
1.0
 24
1.0
 15
10.0
 25
10.0
 16
0.0
 26
0.0
 36
1.0
 17
0.0
 27
0.0
 37
0.0
 42
50.0
 43
0.0
 44
0.0
 45
11.87498859712033
 50
0.0
 51
0.0
 72
   100
 90
    32800
  1

281
     0
 71
     1
 74
     0
110
0.0
120
0.0
130
0.0
111
1.0
121
0.0
131
0.0
112
0.0
122
1.0
132
0.0
 79
     0
146
0.0
1001
GENIUS_GENODEF_13
1002
{
1000
HIER
1070
     0
1002
}
1002
{
1000
MANEDIT
1070
     0
1002
}
1002
{
1000
NOSEL
1070
     0
1002
}
1002
{
1000
BEHIND
1070
     0
1002
}
1002
{
1000
OTHER
1070
     0
1002
}
1002
{
1000
REACTOR
1002
}
1001
GENIUS_GENOBJ-N-SDF_13
1002
{
1000
OWNER
1000
GEN
1002
}
1001
GENIUS_GENSCREG_15
1000
PF
1040
1.0
1000
DF
1040
1.0
1000
MIN
1011
-1.547146581932626
1021
0.6976606572275
1031
0.0
1000
MAX
1011
17.34733983056977
1021
12.57264925434783
1031
0.0
1000
FLAGS
1070
     4
  0
ENDSEC
  0
SECTION
  2
OBJECTS
  0
DICTIONARY
  5
C
330
0
100
AcDbDictionary
281
     1
  3
ACAD_2007HEADERVARS_RT
350
2402
  3
ACAD_COLOR
350
3CA
  3
ACAD_GROUP
350
D
  3
ACAD_LAYOUT
350
167
  3
ACAD_MATERIAL
350
3C9
  3
ACAD_MLEADERSTYLE
350
A72
  3
ACAD_MLINESTYLE
350
E
  3
ACAD_PLOTSETTINGS
350
168
  3
ACAD_PLOTSTYLENAME
350
165
  3
ACAD_SCALELIST
350
A60
  3
ACAD_TABLESTYLE
350
650
  3
ACAD_VISUALSTYLE
350
A4F
  3
ACDB_RECOMPOSE_DATA
350
AF1
  3
ACDBVARIABLEDICTIONARY
350
5D
  3
ACMDICTIONARY
350
142
  3
AMG
350
171
  3
AMGSNAPSETTINGS
350
1F2
  3
ASE_INDEX_DICTIONARY
350
849
  3
DWGPROPS
350
2401
  0
DICTIONARY
  5
592
330
2
100
AcDbDictionary
280
     1
281
     1
  3
ACAD_LAYERFILTERS
360
C7C
  3
ACAD_LAYERSTATES
360
822
  3
ACLYDICTIONARY
360
C7B
  3
AMLAYER_GROUPCOLORS
360
593
  0
DICTIONARY
  5
AB7
330
F
100
AcDbDictionary
280
     1
281
     1
  3
ADSK_XREC_LAYER_RECONCILED
360
12C1
  0
DICTIONARY
  5
AB9
330
5CF
100
AcDbDictionary
280
     1
281
     1
  3
ADSK_XREC_LAYER_RECONCILED
360
12C2
  0
DICTIONARY
  5
12C3
330
D2F
100
AcDbDictionary
280
     1
281
     1
  3
ADSK_XREC_LAYER_RECONCILED
360
12C4
  0
DICTIONARY
  5
12C5
330
D30
100
AcDbDictionary
280
     1
281
     1
  3
ADSK_XREC_LAYER_RECONCILED
360
12C6
  0
DICTIONARY
  5
12A
330
1A
100
AcDbDictionary
280
     1
281
     1
  3
ACAD_INDEX
360
12B
  3
ACAD_SORTENTS
360
1578
  0
DICTIONARY
  5
2407
330
22
100
AcDbDictionary
280
     1
281
     1
  3
ACAD_XREC_ROUNDTRIP
360
2408
  0
DICTIONARY
  5
2402
102
{ACAD_REACTORS
330
C
102
}
330
C
100
AcDbDictionary
281
     1
  3
DIMARCSYM
350
2403
  3
DIMLTEX1
350
2405
  3
DIMLTEX2
350
2406
  3
DIMLTYPE
350
2404
  0
DICTIONARY
  5
3CA
102
{ACAD_REACTORS
330
C
102
}
330
C
100
AcDbDictionary
281
     1
  0
DICTIONARY
  5
D
102
{ACAD_REACTORS
330
C
102
}
330
C
100
AcDbDictionary
281
     1
  0
DICTIONARY
  5
167
102
{ACAD_REACTORS
330
C
102
}
330
C
100
AcDbDictionary
281
     1
  3
Layout1
350
16A
  3
Model
350
169
  0
DICTIONARY
  5
3C9
102
{ACAD_REACTORS
330
C
102
}
330
C
100
AcDbDictionary
281
     1
  3
ByBlock
350
A3F
  3
ByLayer
350
A37
  3
Global
350
A47
  0
DICTIONARY
  5
A72
102
{ACAD_REACTORS
330
C
102
}
330
C
100
AcDbDictionary
281
     1
  3
Standard
350
A73
  0
DICTIONARY
  5
E
102
{ACAD_REACTORS
330
C
102
}
330
C
100
AcDbDictionary
281
     1
  3
STANDARD
350
13
  0
DICTIONARY
  5
168
102
{ACAD_REACTORS
330
C
102
}
330
C
100
AcDbDictionary
281
     1
  0
ACDBDICTIONARYWDFLT
  5
165
102
{ACAD_REACTORS
330
C
102
}
330
C
100
AcDbDictionary
281
     1
  3
Normal
350
166
100
AcDbDictionaryWithDefault
340
166
  0
DICTIONARY
  5
A60
102
{ACAD_REACTORS
330
C
102
}
330
C
100
AcDbDictionary
281
     1
  3
A0
350
A61
  3
A1
350
A62
  3
A2
350
A63
  3
A3
350
A64
  3
A4
350
A65
  3
A5
350
A66
  3
A6
350
A67
  3
A7
350
A68
  3
A8
350
A69
  3
A9
350
A6A
  3
B0
350
A6B
  3
B1
350
A6C
  3
B2
350
A6D
  3
B3
350
A6E
  3
B4
350
A6F
  3
B5
350
A70
  3
B6
350
A71
  0
DICTIONARY
  5
650
102
{ACAD_REACTORS
330
C
102
}
330
C
100
AcDbDictionary
281
     1
  3
Standard
350
651
  0
DICTIONARY
  5
A4F
102
{ACAD_REACTORS
330
C
102
}
330
C
100
AcDbDictionary
281
     1
  3
2dWireframe
350
A55
  3
3D Hidden
350
A57
  3
3dWireframe
350
A56
  3
Basic
350
A54
  3
Brighten
350
A5B
  3
ColorChange
350
A5F
  3
Conceptual
350
A58
  3
Dim
350
A5A
  3
Facepattern
350
A5E
  3
Flat
350
A50
  3
FlatWithEdges
350
A51
  3
Gouraud
350
A52
  3
GouraudWithEdges
350
A53
  3
Linepattern
350
A5D
  3
Realistic
350
A59
  3
Thicken
350
A5C
  0
XRECORD
  5
AF1
102
{ACAD_REACTORS
330
C
102
}
330
C
100
AcDbXrecord
280
     1
 90
        1
330
651
  0
DICTIONARY
  5
5D
102
{ACAD_REACTORS
330
C
102
}
330
C
100
AcDbDictionary
281
     1
  3
CANNOSCALE
350
AF4
  3
CMLEADERSTYLE
350
AF2
  3
CTABLESTYLE
350
66F
  3
DIMADEC
350
5E
  3
DIMASSOC
350
3C7
  3
INDEXCTL
350
128
  3
LAYEREVAL
350
AF6
  3
LAYERNOTIFY
350
AF7
  3
LIGHTINGUNITS
350
AF5
  3
MSLTSCALE
350
AF3
  3
SORTENTS
350
12C7
  0
DICTIONARY
  5
142
102
{ACAD_REACTORS
330
C
102
}
330
C
100
AcDbDictionary
281
     1
  3
ACMSTDDICTIONARY
350
143
  3
AMDTSECTSYM_ARROWCOLOR
350
47D
  0
DICTIONARY
  5
171
102
{ACAD_REACTORS
330
C
102
}
330
C
100
AcDbDictionary
281
     1
  3
AcMgSettings
350
172
  0
DICTIONARY
  5
1F2
102
{ACAD_REACTORS
330
C
102
}
330
C
100
AcDbDictionary
281
     1
  3
DIMENSION
350
15CD
  3
FEA
350
15CE
  3
HATCH
350
15CF
  3
SYMBOLS
350
15D0
  0
DICTIONARY
  5
849
102
{ACAD_REACTORS
330
C
102
}
330
C
100
AcDbDictionary
281
     1
  3
ASEBlockHierarchyIndexRecord
350
84B
1001
DCO15
1040
1524370329.156
  0
XRECORD
  5
2401
102
{ACAD_REACTORS
330
C
102
}
330
C
100
AcDbXrecord
280
     1
  1
DWGPROPS COOKIE
  2

  3

  4

  6

  7

  8
se-jenboh
  9

300
AmdtFileType=84
301
=
302
=
303
=
304
=
305
=
306
=
307
=
308
=
309
=
 40
0.0337141898148148
 41
2456346.581612859
 42
2456359.652613762
  1

 90
        1
  0
DICTIONARY
  5
C7C
102
{ACAD_REACTORS
330
592
102
}
330
592
100
AcDbDictionary
281
     1
  0
DICTIONARY
  5
822
102
{ACAD_REACTORS
330
592
102
}
330
592
100
AcDbDictionary
281
     1
  0
DICTIONARY
  5
C7B
102
{ACAD_REACTORS
330
592
102
}
330
592
100
AcDbDictionary
281
     1
1001
ACAD
1000
<All
  0
DICTIONARY
  5
593
102
{ACAD_REACTORS
330
592
102
}
330
592
100
AcDbDictionary
280
     1
281
     1
  0
XRECORD
  5
12C1
102
{ACAD_REACTORS
330
AB7
102
}
330
AB7
100
AcDbXrecord
280
     1
290
     1
  0
XRECORD
  5
12C2
102
{ACAD_REACTORS
330
AB9
102
}
330
AB9
100
AcDbXrecord
280
     1
290
     1
  0
XRECORD
  5
12C4
102
{ACAD_REACTORS
330
12C3
102
}
330
12C3
100
AcDbXrecord
280
     1
290
     1
  0
XRECORD
  5
12C6
102
{ACAD_REACTORS
330
12C5
102
}
330
12C5
100
AcDbXrecord
280
     1
290
     1
  0
DICTIONARY
  5
12B
102
{ACAD_REACTORS
330
12A
102
}
330
12A
100
AcDbDictionary
281
     1
  3
*A1
350
12C
  0
SORTENTSTABLE
  5
1578
102
{ACAD_REACTORS
330
12A
102
}
330
12A
100
AcDbSortentsTable
330
1A
  0
XRECORD
  5
2408
102
{ACAD_REACTORS
330
2407
102
}
330
2407
100
AcDbXrecord
280
     1
102
SHADEPLOT
 70
     0
  0
XRECORD
  5
2403
102
{ACAD_REACTORS
330
2402
102
}
330
2402
100
AcDbXrecord
280
     1
 70
     1
  0
XRECORD
  5
2405
102
{ACAD_REACTORS
330
2402
102
}
330
2402
100
AcDbXrecord
280
     1
340
14
  0
XRECORD
  5
2406
102
{ACAD_REACTORS
330
2402
102
}
330
2402
100
AcDbXrecord
280
     1
340
14
  0
XRECORD
  5
2404
102
{ACAD_REACTORS
330
2402
102
}
330
2402
100
AcDbXrecord
280
     1
340
14
  0
LAYOUT
  5
16A
102
{ACAD_XDICTIONARY
360
824
102
}
102
{ACAD_REACTORS
330
167
102
}
330
167
100
AcDbPlotSettings
  1

  2
none_device
  4
Letter_(8.50_x_11.00_Inches)
  6

 40
6.349999904632567
 41
6.349999904632567
 42
6.350006103515625
 43
6.350006103515625
 44
215.8999938964844
 45
279.3999938964844
 46
0.0
 47
7.25904629660107
 48
0.0
 49
0.0
140
0.0
141
0.0
142
1.0
143
1.0
 70
   688
 72
     0
 73
     1
 74
     5
  7
@Layout.ctb
 75
     0
147
1.0
148
-74.57150970956639
149
-30.33168042120906
100
AcDbLayout
  1
Layout1
 70
     1
 71
     1
 10
-0.2500002402958907
 20
-0.2499999962453767
 11
10.74999951940821
 21
8.249999763458731
 12
0.0
 22
0.0
 32
0.0
 14
1.000000000000000E+20
 24
1.000000000000000E+20
 34
1.000000000000000E+20
 15
-1.000000000000000E+20
 25
-1.000000000000000E+20
 35
-1.000000000000000E+20
146
0.0
 13
0.0
 23
0.0
 33
0.0
 16
1.0
 26
0.0
 36
0.0
 17
0.0
 27
1.0
 37
0.0
 76
     0
330
17
331
22
1001
ACAD_PSEXT
1000
None
1000
None
1000
Not applicable
1000
The layout will not be plotted unless a new plotter configuration name is selected.
1070
     0
  0
LAYOUT
  5
169
102
{ACAD_XDICTIONARY
360
2409
102
}
102
{ACAD_REACTORS
330
167
102
}
330
167
100
AcDbPlotSettings
  1

  2
none_device
  4
Letter_(8.50_x_11.00_Inches)
  6

 40
6.349999904632567
 41
6.349999904632567
 42
6.350006103515625
 43
6.350006103515625
 44
215.8999938964844
 45
279.3999938964844
 46
38.1308720290886
 47
0.0
 48
0.0
 49
0.0
140
0.0
141
0.0
142
1.0
143
24.24127445441686
 70
 11956
 72
     0
 73
     1
 74
     0
  7
@Layout.ctb
 75
     0
147
0.0412519565289521
148
8019.824937415057
149
-189.2331007602539
100
AcDbLayout
  1
Model
 70
     1
 71
     0
 10
0.0
 20
0.0
 11
12.0
 21
9.0
 12
0.0
 22
0.0
 32
0.0
 14
0.0
 24
0.0
 34
0.0
 15
0.0
 25
0.0
 35
0.0
146
0.0
 13
0.0
 23
0.0
 33
0.0
 16
1.0
 26
0.0
 36
0.0
 17
0.0
 27
1.0
 37
0.0
 76
     0
330
1A
331
A35
1001
ACAD_PSEXT
1000
None
1000
None
1000
Not applicable
1000
The layout will not be plotted unless a new plotter configuration name is selected.
1070
     0
  0
MATERIAL
  5
A3F
102
{ACAD_XDICTIONARY
360
A40
102
}
102
{ACAD_REACTORS
330
3C9
102
}
330
3C9
100
AcDbMaterial
  1
ByBlock
 72
     0
 43
0.0008202099737533
 43
0.0
 43
0.0
 43
0.0
 43
0.0
 43
0.0008202099737533
 43
0.0
 43
0.0
 43
0.0
 43
0.0
 43
1.0
 43
0.0
 43
0.0
 43
0.0
 43
0.0
 43
1.0
 77
     0
 47
0.0008202099737533
 47
0.0
 47
0.0
 47
0.0
 47
0.0
 47
0.0008202099737533
 47
0.0
 47
0.0
 47
0.0
 47
0.0
 47
1.0
 47
0.0
 47
0.0
 47
0.0
 47
0.0
 47
1.0
171
     0
 49
0.0008202099737533
 49
0.0
 49
0.0
 49
0.0
 49
0.0
 49
0.0008202099737533
 49
0.0
 49
0.0
 49
0.0
 49
0.0
 49
1.0
 49
0.0
 49
0.0
 49
0.0
 49
0.0
 49
1.0
175
     0
142
0.0008202099737533
142
0.0
142
0.0
142
0.0
142
0.0
142
0.0008202099737533
142
0.0
142
0.0
142
0.0
142
0.0
142
1.0
142
0.0
142
0.0
142
0.0
142
0.0
142
1.0
179
     0
144
0.0008202099737533
144
0.0
144
0.0
144
0.0
144
0.0
144
0.0008202099737533
144
0.0
144
0.0
144
0.0
144
0.0
144
1.0
144
0.0
144
0.0
144
0.0
144
0.0
144
1.0
147
0.0008202099737533
147
0.0
147
0.0
147
0.0
147
0.0
147
0.0008202099737533
147
0.0
147
0.0
147
0.0
147
0.0
147
1.0
147
0.0
147
0.0
147
0.0
147
0.0
147
1.0
  0
MATERIAL
  5
A37
102
{ACAD_XDICTIONARY
360
A38
102
}
102
{ACAD_REACTORS
330
3C9
102
}
330
3C9
100
AcDbMaterial
  1
ByLayer
 72
     0
 43
0.0008202099737533
 43
0.0
 43
0.0
 43
0.0
 43
0.0
 43
0.0008202099737533
 43
0.0
 43
0.0
 43
0.0
 43
0.0
 43
1.0
 43
0.0
 43
0.0
 43
0.0
 43
0.0
 43
1.0
 77
     0
 47
0.0008202099737533
 47
0.0
 47
0.0
 47
0.0
 47
0.0
 47
0.0008202099737533
 47
0.0
 47
0.0
 47
0.0
 47
0.0
 47
1.0
 47
0.0
 47
0.0
 47
0.0
 47
0.0
 47
1.0
171
     0
 49
0.0008202099737533
 49
0.0
 49
0.0
 49
0.0
 49
0.0
 49
0.0008202099737533
 49
0.0
 49
0.0
 49
0.0
 49
0.0
 49
1.0
 49
0.0
 49
0.0
 49
0.0
 49
0.0
 49
1.0
175
     0
142
0.0008202099737533
142
0.0
142
0.0
142
0.0
142
0.0
142
0.0008202099737533
142
0.0
142
0.0
142
0.0
142
0.0
142
1.0
142
0.0
142
0.0
142
0.0
142
0.0
142
1.0
179
     0
144
0.0008202099737533
144
0.0
144
0.0
144
0.0
144
0.0
144
0.0008202099737533
144
0.0
144
0.0
144
0.0
144
0.0
144
1.0
144
0.0
144
0.0
144
0.0
144
0.0
144
1.0
147
0.0008202099737533
147
0.0
147
0.0
147
0.0
147
0.0
147
0.0008202099737533
147
0.0
147
0.0
147
0.0
147
0.0
147
1.0
147
0.0
147
0.0
147
0.0
147
0.0
147
1.0
  0
MATERIAL
  5
A47
102
{ACAD_XDICTIONARY
360
A48
102
}
102
{ACAD_REACTORS
330
3C9
102
}
330
3C9
100
AcDbMaterial
  1
Global
 72
     0
 43
0.0008202099737533
 43
0.0
 43
0.0
 43
0.0
 43
0.0
 43
0.0008202099737533
 43
0.0
 43
0.0
 43
0.0
 43
0.0
 43
1.0
 43
0.0
 43
0.0
 43
0.0
 43
0.0
 43
1.0
 77
     0
 47
0.0008202099737533
 47
0.0
 47
0.0
 47
0.0
 47
0.0
 47
0.0008202099737533
 47
0.0
 47
0.0
 47
0.0
 47
0.0
 47
1.0
 47
0.0
 47
0.0
 47
0.0
 47
0.0
 47
1.0
171
     0
 49
0.0008202099737533
 49
0.0
 49
0.0
 49
0.0
 49
0.0
 49
0.0008202099737533
 49
0.0
 49
0.0
 49
0.0
 49
0.0
 49
1.0
 49
0.0
 49
0.0
 49
0.0
 49
0.0
 49
1.0
175
     0
142
0.0008202099737533
142
0.0
142
0.0
142
0.0
142
0.0
142
0.0008202099737533
142
0.0
142
0.0
142
0.0
142
0.0
142
1.0
142
0.0
142
0.0
142
0.0
142
0.0
142
1.0
179
     0
144
0.0008202099737533
144
0.0
144
0.0
144
0.0
144
0.0
144
0.0008202099737533
144
0.0
144
0.0
144
0.0
144
0.0
144
1.0
144
0.0
144
0.0
144
0.0
144
0.0
144
1.0
147
0.0008202099737533
147
0.0
147
0.0
147
0.0
147
0.0
147
0.0008202099737533
147
0.0
147
0.0
147
0.0
147
0.0
147
1.0
147
0.0
147
0.0
147
0.0
147
0.0
147
1.0
  0
MLEADERSTYLE
  5
A73
102
{ACAD_REACTORS
330
A72
102
}
330
A72
100
AcDbMLeaderStyle
170
     2
171
     1
172
     0
 90
        2
 40
0.0
 41
0.0
173
     1
 91
-1056964608
340
14
 92
       -2
290
     1
 42
2.0
291
     1
 43
0.36
  3
Standard
 44
4.0
300

342
10
174
     1
178
     6
175
     1
176
     0
 93
-1056964608
 45
4.0
292
     0
297
     0
 46
4.0
 94
-1056964608
 47
1.0
 49
1.0
140
1.0
293
     1
141
0.0
294
     1
177
     0
142
1.0
295
     0
296
     0
143
0.125
1001
ACAD_MLEADERVER
1070
     2
  0
MLINESTYLE
  5
13
102
{ACAD_REACTORS
330
E
102
}
330
E
100
AcDbMlineStyle
  2
STANDARD
 70
     0
  3

 62
     0
 51
90.0
 52
90.0
 71
     2
 49
0.5
 62
   256
  6
BYLAYER
 49
-0.5
 62
   256
  6
BYLAYER
  0
ACDBPLACEHOLDER
  5
166
102
{ACAD_REACTORS
330
165
102
}
330
165
  0
SCALE
  5
A61
102
{ACAD_REACTORS
330
A60
102
}
330
A60
100
AcDbScale
 70
     0
300
1:1
140
1.0
141
1.0
290
     1
  0
SCALE
  5
A62
102
{ACAD_REACTORS
330
A60
102
}
330
A60
100
AcDbScale
 70
     0
300
1:2
140
1.0
141
2.0
290
     0
  0
SCALE
  5
A63
102
{ACAD_REACTORS
330
A60
102
}
330
A60
100
AcDbScale
 70
     0
300
1:4
140
1.0
141
4.0
290
     0
  0
SCALE
  5
A64
102
{ACAD_REACTORS
330
A60
102
}
330
A60
100
AcDbScale
 70
     0
300
1:5
140
1.0
141
5.0
290
     0
  0
SCALE
  5
A65
102
{ACAD_REACTORS
330
A60
102
}
330
A60
100
AcDbScale
 70
     0
300
1:8
140
1.0
141
8.0
290
     0
  0
SCALE
  5
A66
102
{ACAD_REACTORS
330
A60
102
}
330
A60
100
AcDbScale
 70
     0
300
1:10
140
1.0
141
10.0
290
     0
  0
SCALE
  5
A67
102
{ACAD_REACTORS
330
A60
102
}
330
A60
100
AcDbScale
 70
     0
300
1:16
140
1.0
141
16.0
290
     0
  0
SCALE
  5
A68
102
{ACAD_REACTORS
330
A60
102
}
330
A60
100
AcDbScale
 70
     0
300
1:20
140
1.0
141
20.0
290
     0
  0
SCALE
  5
A69
102
{ACAD_REACTORS
330
A60
102
}
330
A60
100
AcDbScale
 70
     0
300
1:30
140
1.0
141
30.0
290
     0
  0
SCALE
  5
A6A
102
{ACAD_REACTORS
330
A60
102
}
330
A60
100
AcDbScale
 70
     0
300
1:40
140
1.0
141
40.0
290
     0
  0
SCALE
  5
A6B
102
{ACAD_REACTORS
330
A60
102
}
330
A60
100
AcDbScale
 70
     0
300
1:50
140
1.0
141
50.0
290
     0
  0
SCALE
  5
A6C
102
{ACAD_REACTORS
330
A60
102
}
330
A60
100
AcDbScale
 70
     0
300
1:100
140
1.0
141
100.0
290
     0
  0
SCALE
  5
A6D
102
{ACAD_REACTORS
330
A60
102
}
330
A60
100
AcDbScale
 70
     0
300
2:1
140
2.0
141
1.0
290
     0
  0
SCALE
  5
A6E
102
{ACAD_REACTORS
330
A60
102
}
330
A60
100
AcDbScale
 70
     0
300
4:1
140
4.0
141
1.0
290
     0
  0
SCALE
  5
A6F
102
{ACAD_REACTORS
330
A60
102
}
330
A60
100
AcDbScale
 70
     0
300
8:1
140
8.0
141
1.0
290
     0
  0
SCALE
  5
A70
102
{ACAD_REACTORS
330
A60
102
}
330
A60
100
AcDbScale
 70
     0
300
10:1
140
10.0
141
1.0
290
     0
  0
SCALE
  5
A71
102
{ACAD_REACTORS
330
A60
102
}
330
A60
100
AcDbScale
 70
     0
300
100:1
140
100.0
141
1.0
290
     0
  0
TABLESTYLE
  5
651
102
{ACAD_XDICTIONARY
360
AED
102
}
102
{ACAD_REACTORS
330
650
102
}
330
650
100
AcDbTableStyle
  3
Standard
 70
     0
 71
     0
 40
1.5
 41
1.5
280
     0
281
     0
  7
STANDARD
140
4.5
170
     2
 62
     0
 63
     7
283
     0
274
    -2
284
     1
 64
     0
275
    -2
285
     1
 65
     0
276
    -2
286
     1
 66
     0
277
    -2
287
     1
 67
     0
278
    -2
288
     1
 68
     0
279
    -2
289
     1
 69
     0
  7
STANDARD
140
6.0
170
     5
 62
     0
 63
     7
283
     0
274
    -2
284
     1
 64
     0
275
    -2
285
     1
 65
     0
276
    -2
286
     1
 66
     0
277
    -2
287
     1
 67
     0
278
    -2
288
     1
 68
     0
279
    -2
289
     1
 69
     0
  7
STANDARD
140
4.5
170
     5
 62
     0
 63
     7
283
     0
274
    -2
284
     1
 64
     0
275
    -2
285
     1
 65
     0
276
    -2
286
     1
 66
     0
277
    -2
287
     1
 67
     0
278
    -2
288
     1
 68
     0
279
    -2
289
     1
 69
     0
  0
VISUALSTYLE
  5
A55
102
{ACAD_REACTORS
330
A4F
102
}
330
A4F
100
AcDbVisualStyle
  2
2dWireframe
 70
     4
 71
     0
 72
     2
 73
     0
 90
        0
 40
-0.6
 41
-30.0
 62
     5
 63
     7
 74
     1
 91
        4
 64
     7
 65
   257
 75
     1
175
     1
 42
1.0
 92
        0
 66
   257
 43
1.0
 76
     1
 77
     6
 78
     2
 67
     7
 79
     5
170
     0
171
     0
290
     0
174
     0
 93
        1
 44
0.0
173
     0
291
     0
 45
0.0
1001
ACAD
1000
AcDbSavedByObjectVersion
1070
     0
1000
AcDbSavedByObjectVersion
1070
     0
1000
AcDbSavedByObjectVersion
1070
     0
1000
AcDbSavedByObjectVersion
1070
     0
1000
AcDbSavedByObjectVersion
1070
     0
1000
AcDbSavedByObjectVersion
1070
     0
  0
VISUALSTYLE
  5
A57
102
{ACAD_REACTORS
330
A4F
102
}
330
A4F
100
AcDbVisualStyle
  2
3D Hidden
 70
     6
 71
     1
 72
     2
 73
     2
 90
        0
 40
-0.6
 41
-30.0
 62
     5
 63
     7
 74
     2
 91
        2
 64
     7
 65
   257
 75
     2
175
     1
 42
40.0
 92
        0
 66
   257
 43
1.0
 76
     1
 77
     6
 78
     2
 67
     7
 79
     3
170
     0
171
     0
290
     0
174
     0
 93
        1
 44
0.0
173
     0
291
     0
 45
0.0
1001
ACAD
1000
AcDbSavedByObjectVersion
1070
     0
1000
AcDbSavedByObjectVersion
1070
     0
1000
AcDbSavedByObjectVersion
1070
     0
1000
AcDbSavedByObjectVersion
1070
     0
1000
AcDbSavedByObjectVersion
1070
     0
1000
AcDbSavedByObjectVersion
1070
     0
  0
VISUALSTYLE
  5
A56
102
{ACAD_REACTORS
330
A4F
102
}
330
A4F
100
AcDbVisualStyle
  2
3dWireframe
 70
     5
 71
     0
 72
     2
 73
     0
 90
        0
 40
-0.6
 41
-30.0
 62
     5
 63
     7
 74
     1
 91
        4
 64
     7
 65
   257
 75
     1
175
     1
 42
1.0
 92
        0
 66
   257
 43
1.0
 76
     1
 77
     6
 78
     2
 67
     7
 79
     5
170
     0
171
     0
290
     0
174
     0
 93
        1
 44
0.0
173
     0
291
     0
 45
0.0
1001
ACAD
1000
AcDbSavedByObjectVersion
1070
     0
1000
AcDbSavedByObjectVersion
1070
     0
1000
AcDbSavedByObjectVersion
1070
     0
1000
AcDbSavedByObjectVersion
1070
     0
1000
AcDbSavedByObjectVersion
1070
     0
1000
AcDbSavedByObjectVersion
1070
     0
  0
VISUALSTYLE
  5
A54
102
{ACAD_REACTORS
330
A4F
102
}
330
A4F
100
AcDbVisualStyle
  2
Basic
 70
     7
 71
     1
 72
     0
 73
     1
 90
        0
 40
-0.6
 41
-30.0
 62
     5
 63
     7
 74
     0
 91
        4
 64
     7
 65
   257
 75
     1
175
     1
 42
1.0
 92
        8
 66
     7
 43
1.0
 76
     1
 77
     6
 78
     2
 67
     7
 79
     5
170
     0
171
     0
290
     0
174
     0
 93
        1
 44
0.0
173
     0
291
     1
 45
0.0
1001
ACAD
1000
AcDbSavedByObjectVersion
1070
     0
1000
AcDbSavedByObjectVersion
1070
     0
1000
AcDbSavedByObjectVersion
1070
     0
1000
AcDbSavedByObjectVersion
1070
     0
1000
AcDbSavedByObjectVersion
1070
     0
1000
AcDbSavedByObjectVersion
1070
     0
  0
VISUALSTYLE
  5
A5B
102
{ACAD_REACTORS
330
A4F
102
}
330
A4F
100
AcDbVisualStyle
  2
Brighten
 70
    12
 71
     2
 72
     2
 73
     0
 90
        0
 40
-0.6
 41
-30.0
 62
     5
 63
     7
 74
     1
 91
        4
 64
     7
 65
   257
 75
     1
175
     1
 42
1.0
 92
        8
 66
     7
 43
1.0
 76
     1
 77
     6
 78
     2
 67
     7
 79
     5
170
     0
171
     0
290
     0
174
     0
 93
        1
 44
50.0
173
     0
291
     1
 45
0.0
1001
ACAD
1000
AcDbSavedByObjectVersion
1070
     0
1000
AcDbSavedByObjectVersion
1070
     0
1000
AcDbSavedByObjectVersion
1070
     0
1000
AcDbSavedByObjectVersion
1070
     0
1000
AcDbSavedByObjectVersion
1070
     0
1000
AcDbSavedByObjectVersion
1070
     0
  0
VISUALSTYLE
  5
A5F
102
{ACAD_REACTORS
330
A4F
102
}
330
A4F
100
AcDbVisualStyle
  2
ColorChange
 70
    16
 71
     2
 72
     2
 73
     3
 90
        0
 40
-0.6
 41
-30.0
 62
     5
 63
     8
 74
     1
 91
        4
 64
     7
 65
   257
 75
     1
175
     1
 42
1.0
 92
        8
 66
     8
 43
1.0
 76
     1
 77
     6
 78
     2
 67
     7
 79
     5
170
     0
171
     0
290
     0
174
     0
 93
        1
 44
0.0
173
     0
291
     1
 45
0.0
1001
ACAD
1000
AcDbSavedByObjectVersion
1070
     0
1000
AcDbSavedByObjectVersion
1070
     0
1000
AcDbSavedByObjectVersion
1070
     0
1000
AcDbSavedByObjectVersion
1070
     0
1000
AcDbSavedByObjectVersion
1070
     0
1000
AcDbSavedByObjectVersion
1070
     0
  0
VISUALSTYLE
  5
A58
102
{ACAD_REACTORS
330
A4F
102
}
330
A4F
100
AcDbVisualStyle
  2
Conceptual
 70
     9
 71
     3
 72
     2
 73
     0
 90
        0
 40
-0.6
 41
-30.0
 62
     5
 63
     7
 74
     2
 91
        2
 64
     7
 65
   257
 75
     1
175
     1
 42
40.0
 92
        8
 66
     7
 43
1.0
 76
     1
 77
     6
 78
     2
 67
     7
 79
     3
170
     0
171
     0
290
     0
174
     0
 93
        1
 44
0.0
173
     0
291
     0
 45
0.0
1001
ACAD
1000
AcDbSavedByObjectVersion
1070
     0
1000
AcDbSavedByObjectVersion
1070
     0
1000
AcDbSavedByObjectVersion
1070
     0
1000
AcDbSavedByObjectVersion
1070
     0
1000
AcDbSavedByObjectVersion
1070
     0
1000
AcDbSavedByObjectVersion
1070
     0
  0
VISUALSTYLE
  5
A5A
102
{ACAD_REACTORS
330
A4F
102
}
330
A4F
100
AcDbVisualStyle
  2
Dim
 70
    11
 71
     2
 72
     2
 73
     0
 90
        0
 40
-0.6
 41
-30.0
 62
     5
 63
     7
 74
     1
 91
        4
 64
     7
 65
   257
 75
     1
175
     1
 42
1.0
 92
        8
 66
     7
 43
1.0
 76
     1
 77
     6
 78
     2
 67
     7
 79
     5
170
     0
171
     0
290
     0
174
     0
 93
        1
 44
-50.0
173
     0
291
     1
 45
0.0
1001
ACAD
1000
AcDbSavedByObjectVersion
1070
     0
1000
AcDbSavedByObjectVersion
1070
     0
1000
AcDbSavedByObjectVersion
1070
     0
1000
AcDbSavedByObjectVersion
1070
     0
1000
AcDbSavedByObjectVersion
1070
     0
1000
AcDbSavedByObjectVersion
1070
     0
  0
VISUALSTYLE
  5
A5E
102
{ACAD_REACTORS
330
A4F
102
}
330
A4F
100
AcDbVisualStyle
  2
Facepattern
 70
    15
 71
     2
 72
     2
 73
     0
 90
        0
 40
-0.6
 41
-30.0
 62
     5
 63
     7
 74
     1
 91
        4
 64
     7
 65
   257
 75
     1
175
     1
 42
1.0
 92
        8
 66
     7
 43
1.0
 76
     1
 77
     6
 78
     2
 67
     7
 79
     5
170
     0
171
     0
290
     0
174
     0
 93
        1
 44
0.0
173
     0
291
     1
 45
0.0
1001
ACAD
1000
AcDbSavedByObjectVersion
1070
     0
1000
AcDbSavedByObjectVersion
1070
     0
1000
AcDbSavedByObjectVersion
1070
     0
1000
AcDbSavedByObjectVersion
1070
     0
1000
AcDbSavedByObjectVersion
1070
     0
1000
AcDbSavedByObjectVersion
1070
     0
  0
VISUALSTYLE
  5
A50
102
{ACAD_REACTORS
330
A4F
102
}
330
A4F
100
AcDbVisualStyle
  2
Flat
 70
     0
 71
     2
 72
     1
 73
     1
 90
        2
 40
-0.6
 41
30.0
 62
     5
 63
     7
 74
     0
 91
        4
 64
     7
 65
   257
 75
     1
175
     1
 42
1.0
 92
        8
 66
     7
 43
1.0
 76
     1
 77
     6
 78
     2
 67
     7
 79
     5
170
     0
171
     0
290
     0
174
     0
 93
       13
 44
0.0
173
     0
291
     1
 45
0.0
1001
ACAD
1000
AcDbSavedByObjectVersion
1070
     0
1000
AcDbSavedByObjectVersion
1070
     0
1000
AcDbSavedByObjectVersion
1070
     0
1000
AcDbSavedByObjectVersion
1070
     0
1000
AcDbSavedByObjectVersion
1070
     0
1000
AcDbSavedByObjectVersion
1070
     0
  0
VISUALSTYLE
  5
A51
102
{ACAD_REACTORS
330
A4F
102
}
330
A4F
100
AcDbVisualStyle
  2
FlatWithEdges
 70
     1
 71
     2
 72
     1
 73
     1
 90
        2
 40
-0.6
 41
30.0
 62
     5
 63
     7
 74
     1
 91
        4
 64
     7
 65
   257
 75
     1
175
     1
 42
1.0
 92
        0
 66
   257
 43
1.0
 76
     1
 77
     6
 78
     2
 67
     7
 79
     5
170
     0
171
     0
290
     0
174
     0
 93
       13
 44
0.0
173
     0
291
     1
 45
0.0
1001
ACAD
1000
AcDbSavedByObjectVersion
1070
     0
1000
AcDbSavedByObjectVersion
1070
     0
1000
AcDbSavedByObjectVersion
1070
     0
1000
AcDbSavedByObjectVersion
1070
     0
1000
AcDbSavedByObjectVersion
1070
     0
1000
AcDbSavedByObjectVersion
1070
     0
  0
VISUALSTYLE
  5
A52
102
{ACAD_REACTORS
330
A4F
102
}
330
A4F
100
AcDbVisualStyle
  2
Gouraud
 70
     2
 71
     2
 72
     2
 73
     1
 90
        2
 40
-0.6
 41
30.0
 62
     5
 63
     7
 74
     0
 91
        4
 64
     7
 65
   257
 75
     1
175
     1
 42
1.0
 92
        0
 66
     7
 43
1.0
 76
     1
 77
     6
 78
     2
 67
     7
 79
     5
170
     0
171
     0
290
     0
174
     0
 93
       13
 44
0.0
173
     0
291
     1
 45
0.0
1001
ACAD
1000
AcDbSavedByObjectVersion
1070
     0
1000
AcDbSavedByObjectVersion
1070
     0
1000
AcDbSavedByObjectVersion
1070
     0
1000
AcDbSavedByObjectVersion
1070
     0
1000
AcDbSavedByObjectVersion
1070
     0
1000
AcDbSavedByObjectVersion
1070
     0
  0
VISUALSTYLE
  5
A53
102
{ACAD_REACTORS
330
A4F
102
}
330
A4F
100
AcDbVisualStyle
  2
GouraudWithEdges
 70
     3
 71
     2
 72
     2
 73
     1
 90
        2
 40
-0.6
 41
30.0
 62
     5
 63
     7
 74
     1
 91
        4
 64
     7
 65
   257
 75
     1
175
     1
 42
1.0
 92
        0
 66
   257
 43
1.0
 76
     1
 77
     6
 78
     2
 67
     7
 79
     5
170
     0
171
     0
290
     0
174
     0
 93
       13
 44
0.0
173
     0
291
     1
 45
0.0
1001
ACAD
1000
AcDbSavedByObjectVersion
1070
     0
1000
AcDbSavedByObjectVersion
1070
     0
1000
AcDbSavedByObjectVersion
1070
     0
1000
AcDbSavedByObjectVersion
1070
     0
1000
AcDbSavedByObjectVersion
1070
     0
1000
AcDbSavedByObjectVersion
1070
     0
  0
VISUALSTYLE
  5
A5D
102
{ACAD_REACTORS
330
A4F
102
}
330
A4F
100
AcDbVisualStyle
  2
Linepattern
 70
    14
 71
     2
 72
     2
 73
     0
 90
        0
 40
-0.6
 41
-30.0
 62
     5
 63
     7
 74
     1
 91
        4
 64
     7
 65
   257
 75
     7
175
     7
 42
1.0
 92
        8
 66
     7
 43
1.0
 76
     1
 77
     6
 78
     2
 67
     7
 79
     5
170
     0
171
     0
290
     0
174
     0
 93
        1
 44
0.0
173
     0
291
     1
 45
0.0
1001
ACAD
1000
AcDbSavedByObjectVersion
1070
     0
1000
AcDbSavedByObjectVersion
1070
     0
1000
AcDbSavedByObjectVersion
1070
     0
1000
AcDbSavedByObjectVersion
1070
     0
1000
AcDbSavedByObjectVersion
1070
     0
1000
AcDbSavedByObjectVersion
1070
     0
  0
VISUALSTYLE
  5
A59
102
{ACAD_REACTORS
330
A4F
102
}
330
A4F
100
AcDbVisualStyle
  2
Realistic
 70
     8
 71
     2
 72
     2
 73
     0
 90
        0
 40
-0.6
 41
-30.0
 62
     5
 63
     7
 74
     1
 91
        0
 64
     7
 65
   257
 75
     1
175
     1
 42
1.0
 92
        8
 66
     8
 43
1.0
 76
     1
 77
     6
 78
     2
 67
     7
 79
     5
170
     0
171
     0
290
     0
174
     0
 93
       13
 44
0.0
173
     0
291
     0
 45
0.0
1001
ACAD
1000
AcDbSavedByObjectVersion
1070
     0
1000
AcDbSavedByObjectVersion
1070
     0
1000
AcDbSavedByObjectVersion
1070
     0
1000
AcDbSavedByObjectVersion
1070
     0
1000
AcDbSavedByObjectVersion
1070
     0
1000
AcDbSavedByObjectVersion
1070
     0
  0
VISUALSTYLE
  5
A5C
102
{ACAD_REACTORS
330
A4F
102
}
330
A4F
100
AcDbVisualStyle
  2
Thicken
 70
    13
 71
     2
 72
     2
 73
     0
 90
        0
 40
-0.6
 41
-30.0
 62
     5
 63
     7
 74
     1
 91
        4
 64
     7
 65
   257
 75
     1
175
     1
 42
1.0
 92
       12
 66
     7
 43
1.0
 76
     1
 77
     6
 78
     2
 67
     7
 79
     5
170
     0
171
     0
290
     0
174
     0
 93
        1
 44
0.0
173
     0
291
     1
 45
0.0
1001
ACAD
1000
AcDbSavedByObjectVersion
1070
     0
1000
AcDbSavedByObjectVersion
1070
     0
1000
AcDbSavedByObjectVersion
1070
     0
1000
AcDbSavedByObjectVersion
1070
     0
1000
AcDbSavedByObjectVersion
1070
     0
1000
AcDbSavedByObjectVersion
1070
     0
  0
DICTIONARYVAR
  5
AF4
102
{ACAD_REACTORS
330
5D
102
}
330
5D
100
DictionaryVariables
280
     0
  1
1:1
  0
DICTIONARYVAR
  5
AF2
102
{ACAD_REACTORS
330
5D
102
}
330
5D
100
DictionaryVariables
280
     0
  1
STANDARD
  0
DICTIONARYVAR
  5
66F
102
{ACAD_REACTORS
330
5D
102
}
330
5D
100
DictionaryVariables
280
     0
  1
STANDARD
  0
DICTIONARYVAR
  5
5E
102
{ACAD_REACTORS
330
5D
102
}
330
5D
100
DictionaryVariables
280
     0
  1
0
  0
DICTIONARYVAR
  5
3C7
102
{ACAD_REACTORS
330
5D
102
}
330
5D
100
DictionaryVariables
280
     0
  1
2
  0
DICTIONARYVAR
  5
128
102
{ACAD_REACTORS
330
5D
102
}
330
5D
100
DictionaryVariables
280
     0
  1
1
  0
DICTIONARYVAR
  5
AF6
102
{ACAD_REACTORS
330
5D
102
}
330
5D
100
DictionaryVariables
280
     0
  1
1
  0
DICTIONARYVAR
  5
AF7
102
{ACAD_REACTORS
330
5D
102
}
330
5D
100
DictionaryVariables
280
     0
  1
15
  0
DICTIONARYVAR
  5
AF5
102
{ACAD_REACTORS
330
5D
102
}
330
5D
100
DictionaryVariables
280
     0
  1
0
  0
DICTIONARYVAR
  5
AF3
102
{ACAD_REACTORS
330
5D
102
}
330
5D
100
DictionaryVariables
280
     0
  1
0
  0
DICTIONARYVAR
  5
12C7
102
{ACAD_REACTORS
330
5D
102
}
330
5D
100
DictionaryVariables
280
     0
  1
127
  0
DICTIONARY
  5
143
102
{ACAD_REACTORS
330
142
102
}
330
142
100
AcDbDictionary
281
     1
  0
XRECORD
  5
47D
102
{ACAD_REACTORS
330
142
102
}
330
142
100
AcDbXrecord
280
     1
 90
-1056964608
  0
DICTIONARY
  5
172
102
{ACAD_REACTORS
330
171
102
}
330
171
100
AcDbDictionary
281
     1
  3
DWGSETTINGS
350
1F58
  3
TRANSSETTINGS
350
1F5C
  0
ACAMGFILTERDAT
  5
15CD
102
{ACAD_REACTORS
330
1F2
102
}
330
1F2
100
AcAmgFilterDat
 70
    15
  1
DIMENSION,AMDT_*_DIM
  2
*
  3
*
  4
*
  5
*
290
     1
  0
ACAMGFILTERDAT
  5
15CE
102
{ACAD_REACTORS
330
1F2
102
}
330
1F2
100
AcAmgFilterDat
 70
    15
  1
*
  2
AM_FEA-AM_*
  3
*
  4
*
  5
*
290
     1
  0
ACAMGFILTERDAT
  5
15CF
102
{ACAD_REACTORS
330
1F2
102
}
330
1F2
100
AcAmgFilterDat
 70
    15
  1
HATCH
  2
*
  3
*
  4
*
  5
*
290
     1
  0
ACAMGFILTERDAT
  5
15D0
102
{ACAD_REACTORS
330
1F2
102
}
330
1F2
100
AcAmgFilterDat
 70
    15
  1
ACMFCFRAME,ACMDATUMTARGET,ACMDATUMID,ACMWELDSYM,ACMSURFSYM,ACMFEATID,ACMPARTREF,ACMBALLOON
  2
*
  3
*
  4
*
  5
*
290
     1
  0
XRECORD
  5
84B
102
{ACAD_REACTORS
330
849
102
}
330
849
100
AcDbXrecord
280
     1
  0
LAYER_INDEX
  5
12C
102
{ACAD_REACTORS
330
12B
102
}
330
12B
100
AcDbIndex
 40
2456359.652613762
100
AcDbLayerIndex
  8
0
360
12D
 90
        0
  8
AM_0
360
59B
 90
        1
  8
Sketch Geometry(ISO)
360
8F9
 90
        0
  8
Visible Edges(ISO)
360
AD1
 90
        0
  8
AM_5
360
AD4
 90
        0
  8
Defpoints
360
1800
 90
        0
  0
DICTIONARY
  5
824
330
16A
100
AcDbDictionary
280
     1
281
     1
  3
ACAD_XREC_ROUNDTRIP
360
240B
  3
ADSK_XREC_LAYOUTTHUMBNAIL
360
825
  0
DICTIONARY
  5
2409
330
169
100
AcDbDictionary
280
     1
281
     1
  3
ACAD_XREC_ROUNDTRIP
360
240A
  0
DICTIONARY
  5
A40
330
A3F
100
AcDbDictionary
280
     1
281
     1
  3
ACAD_XREC_ROUNDTRIP
360
12D1
  3
BUMPTILE
360
A42
  3
DIFFUSETILE
360
A41
  3
OPACITYTILE
360
A45
  3
REFLECTIONTILE
360
A44
  3
REFRACTIONTILE
360
A46
  3
SPECULARTILE
360
A43
  0
DICTIONARY
  5
A38
330
A37
100
AcDbDictionary
280
     1
281
     1
  3
ACAD_XREC_ROUNDTRIP
360
12D0
  3
BUMPTILE
360
A3A
  3
DIFFUSETILE
360
A39
  3
OPACITYTILE
360
A3D
  3
REFLECTIONTILE
360
A3C
  3
REFRACTIONTILE
360
A3E
  3
SPECULARTILE
360
A3B
  0
DICTIONARY
  5
A48
330
A47
100
AcDbDictionary
280
     1
281
     1
  3
ACAD_XREC_ROUNDTRIP
360
12D2
  3
BUMPTILE
360
A4A
  3
DIFFUSETILE
360
A49
  3
OPACITYTILE
360
A4D
  3
REFLECTIONTILE
360
A4C
  3
REFRACTIONTILE
360
A4E
  3
SPECULARTILE
360
A4B
  0
DICTIONARY
  5
AED
330
651
100
AcDbDictionary
280
     1
281
     1
  3
ACAD_ROUNDTRIP_2008_TABLESTYLE_CELLSTYLEMAP
360
2400
  3
ACAD_XREC_ROUNDTRIP
360
240C
  0
IDBUFFER
  5
12D
330
0
100
AcDbIdBuffer
  0
IDBUFFER
  5
59B
330
0
100
AcDbIdBuffer
330
23FD
  0
IDBUFFER
  5
8F9
330
0
100
AcDbIdBuffer
  0
IDBUFFER
  5
AD1
330
0
100
AcDbIdBuffer
  0
IDBUFFER
  5
AD4
330
0
100
AcDbIdBuffer
  0
IDBUFFER
  5
1800
330
0
100
AcDbIdBuffer
  0
XRECORD
  5
240B
102
{ACAD_REACTORS
330
824
102
}
330
824
100
AcDbXrecord
280
     1
102
SHADEPLOT
 70
     0
102
SHADEPLOTRESLEVEL
 70
     2
102
SHADEPLOTCUSTOMDPI
 70
   300
  0
XRECORD
  5
825
102
{ACAD_REACTORS
330
824
102
}
330
824
100
AcDbXrecord
280
     1
310
28000000B40000008B0000000100080000000000BC610000000000000000000000010000000000000000000000000000FFFFFF000000000000000000000000000000000000000000000000000000000000000000330000006600000099000000CC000000FF00000000330000333300006633000099330000CC330000FF3300
310
0000660000336600006666000099660000CC660000FF66000000990000339900006699000099990000CC990000FF99000000CC000033CC000066CC000099CC0000CCCC0000FFCC000000FF000033FF000066FF000099FF0000CCFF0000FFFF000000003300330033006600330099003300CC003300FF003300003333003333
310
33006633330099333300CC333300FF33330000663300336633006666330099663300CC663300FF66330000993300339933006699330099993300CC993300FF99330000CC330033CC330066CC330099CC3300CCCC3300FFCC330000FF330033FF330066FF330099FF3300CCFF3300FFFF330000006600330066006600660099
310
006600CC006600FF00660000336600333366006633660099336600CC336600FF33660000666600336666006666660099666600CC666600FF66660000996600339966006699660099996600CC996600FF99660000CC660033CC660066CC660099CC6600CCCC6600FFCC660000FF660033FF660066FF660099FF6600CCFF6600
310
FFFF660000009900330099006600990099009900CC009900FF00990000339900333399006633990099339900CC339900FF33990000669900336699006666990099669900CC669900FF66990000999900339999006699990099999900CC999900FF99990000CC990033CC990066CC990099CC9900CCCC9900FFCC990000FF99
310
0033FF990066FF990099FF9900CCFF9900FFFF99000000CC003300CC006600CC009900CC00CC00CC00FF00CC000033CC003333CC006633CC009933CC00CC33CC00FF33CC000066CC003366CC006666CC009966CC00CC66CC00FF66CC000099CC003399CC006699CC009999CC00CC99CC00FF99CC0000CCCC0033CCCC0066CC
310
CC0099CCCC00CCCCCC00FFCCCC0000FFCC0033FFCC0066FFCC0099FFCC00CCFFCC00FFFFCC000000FF003300FF006600FF009900FF00CC00FF00FF00FF000033FF003333FF006633FF009933FF00CC33FF00FF33FF000066FF003366FF006666FF009966FF00CC66FF00FF66FF000099FF003399FF006699FF009999FF00CC
310
99FF00FF99FF0000CCFF0033CCFF0066CCFF0099CCFF00CCCCFF00FFCCFF0000FFFF0033FFFF0066FFFF0099FFFF00CCFFFF00FFFFFF00000000000D0D0D001A1A1A00282828003535350043434300505050005D5D5D006B6B6B00787878008686860093939300A1A1A100AEAEAE00BBBBBB00C9C9C900D6D6D600E4E4E400
310
F1F1F100FFFFFF0000000000000000000000000000000000000000000000000000000000000000000000000000000000E2E2E2E2E2E2E2E2E2E2E2E2E2E2E2E2E2E2E2E2E2E2E2E2E2E2E2E2E2E2E2E2E2E2E2E2E2E2E2E2E2E2E2E2E2E2E2E2E2E2E2E2E2E2E2E2E2E2E2E2E2E2E2E2E2E2E2E2E2E2E2E2E2E2E2E2E2E2E2
310
E2E2E2E2E2E2E2E2E2E2E2E2E2E2E2E2E2E2E2E2E2E2E2E2E2E2E2E2E2E2E2E2E2E2E2E2E2E2E2E2E2E2E2E2E2E2E2E2E2E2E2E2E2E2E2E2E2E2E2E2E2E2E2E2E2E2E2E2E2E2E2E2E2E2E2E2E2E2E2E2E2E2E2E2E2E2E2E2E2E2E2E2E2E2E2E2E2E2E2E2E2E2E2E2E2E2E2E2E2E2E2E2E2E2E2E2E2E2E2E2E2E2E2E2E2E2E2
310
E2E2E2E2E2E2E2E2E2E2E2E2E2E2E2E2E2E2E2E2E2E2E2E2E2E2E2E2E2E2E2E2E2E2E2E2E2E2E2E2E2E2E2E2E2E2E2E2E2E2E2E2E2E2E2E2E2E2E2E2E2E2E2E2E2E2E2E2E2E2E2E2E2E2E2E2E2E2E2E2E2E2E2E2E2E2E2E2E2E2E2E2E2E2E2E2E2E2E2E2E2E2E2E2E2E2E2E2E2E2E2E2E2E2E2E2E2E2E2E2E2E2E2E2E2E2E2
310
E2E2E2E2E2E2E2E2E2E2E2E2E2E2E2E2E2E2E2E2E2E2E2E2E2E2E2E2E2E2E2E2E2E2E2E2E2E2E2E2E2E2E2E2E2E2E2E2E2E2E2E2E2E2E2E2E2E2E2E2E2E2E2E2E2E2E2E2E2E2E2E2E2E2E2E2E2E2E2E2E2E2E2E2E2E2E2E2E2E2E2E2E2E2E2E2E2E2E2E2E2E2E2E2E2E2E2E2E2E2E2E2E2E2E2E2E2E2E2E2E2E2E2E2E2E2E2
310
E2E2E2E2E2E2E2E2E2E2E2E2E2E2E2E2E2E2E2E2E2E2E2E2E2E2E2E2E2E2E2E2E2E2E2E2E2E2E2E2E2E2E2E2E2E2E2E2E2E2E2E2E2E2E2E2E2E2E2E2E2E2E2E2E2E2E2E2E2E2E2E2E2E2E2E2E2E2E2E2E2E2E2E2E2E2E2E2E2E2E2E2E2E2E2E2E2E2E2E2E2E2E2E2E2E2E2E2E2E2E2E2E2E2E2E2E2E2E2E2E2E2E2E2E2E2E2
310
E2E2E2E2E2E2E2E2E2E2E2E2E2E2E2E2E2E2E2E2E2E2E2E2E2E2E2E2E2E2E2E2E2E2E2E2E2E2E2E2E2E2E2E2E2E2E2E2E2E2E2E2E2E2E2E2E2E2E2E2E2E2E2E2E2E2E2E2E2E2E2E2E2E2E2E2E2E2E2E2E2E2E2E2E2E2E2E2E2E2E2E2E2E2E2E2E2E2E2E2E2E2E2E2E2E2E2E2E2E2E2E2E2E2E2E2E2E2E2E2E2E2E2E2E2E2E2
310
E2E2E2E2E2E2E2E2E2E2E2E2E2E2E2E2E2E2E2E2E2E2E2E2E2E2E2E2E2E2E2E2E2E2E2E2E2E2E2E2E2E2E2E2E2E2E2E2E2E2E2E2E2E2E2E2E2E2E2E2E2E2E2E2E2E2E2E2E2E2E2E2E2E2E2E2E2E2E2E2E2E2E2E2E2E2E2E2E2E2E2E2E2E2E2E2E2E2E2E2E2E2E2E2E2E2E2E2E2E2E2E2E2E2E2E2E2E2E2E2E2E2E2E2E2E2E2
310
E2E2E2E2E2E2E2E2E2E2E2E2E2E2E2E2E2E2E2E2E2E2E2E2E2E2E2E2E2E2E2E2E2E2E2E2E2E2E2E2E2E2E2E2E2E2E2E2E2E2E2E2E2E2E2E2E2E2E2E2E2E2E2E2E2E2E2E2E2E2E2E2E2E2E2E2E2E2E2E2E2E2E2E2E2E2E2E2E2E2E2E2E2E2E2E2E2E2E2E2E2E2E2E2E2E2E2E2E2E2E2E2E2E2E2E2E2E2E2E2E2E2E2E2E2E2E2
310
E2E2E2E2E2E2E2E2E2E2E2E2E2E2E2E2E2E2E2E2E2E2E2E2E2E2E2E2E2E2E2E2E2E2E2E2E2E2E2E2E2E2E2E2E2E2E2E2E2E2E2E2E2E2E2E2E2E2E2E2E2E2E2E2E2E2E2E2E2E2E2E2E2E2E2E2E2E2E2E2E2E2E2E2E2E2E2E2E2E2E2E2E2E2E2E2E2E2E2E2E2E2E2E2E2E2E2E2E2E2E2E2E2E2E2E2E2E2E2E2E2E2E2E2E2E2E2
310
E2E2E2E2E2E2E2E2E2E2E2E2E2E2E2E2E2E2E2E2E2E2E2E2E2E2E2E2E2E2E2E2E2E2E2E2E2E2E2E2E2E2E2E2E2E2E2E2E2E2E2E2E2E2E2E2E2E2E2E2E2E2E2E2E2E2E2E2E2E2E2E2E2E2E2E2E2E2E2E2E2E2E2E2E2E2E2E2E2E2E2E2E2E2E2E2E2E2E2E2E2E2E2E2E2E2E2E2E2E2E2E2E2E2E2E2E2E2E2E2E2E2E2E2E2E2E2
310
E2E2E2E2E2E2E2E2E2E2E2E2E2E2E2E2E2E2E2E2E2E2E2E2E2E2E2E2E2E2E2E2E2E2E2E2E2E2E2E2E2E2E2E2E2E2E2E2E2E2E2E2E2E2E2E2E2E2E2E2E2E2E2E2E2E2E2E2E2E2E2E2E2E2E2E2E2E2E2E2E2E2E2E2E2E2E2E2E2E2E2E2E2E2E2E2E2E2E2E2E2E2E2E2E2E2E2E2E2E2E2E2E2E2E2E2E2E2E2E2E2E2E2E2E2E2E2
310
E2E2E2E2E2E2E2E2E2E2E2E2E2E2E2E2E2E2E2E2E2E2E2E2E2E2E2E2E2E2E2E2E2E2E2E2E2E2E2E2E2E2E2E2E2E2E2E2E2E2E2E2E2E2E2E2E2E2E2E2E2E2E2E2E2E2E2E2E2E2E2E2E2E2E2E2E2E2E2E2E2E2E2E2E2E2E2E2E2E2E2E2E2E2E2E2E2E2E2E2E2E2E2E2E2E2E2E2E2E2E2E2E2E2E2E2E2E2E2E2E2E2E2E2E2E2E2
310
E2E2E2E2E2E2E2E2E2E2E2E2E2E2E2E2E2E2E2E2E2E2E2E2E2E2E2E2E2E2E2E2E2E2E2E2E2E2E2E2E2E2E2E2E2E2E2E2E2E2E2E2E2E2E2E2E2E2E2E2E2E2E2E2E2E2E2E2E2E2E2E2E2E2E2E2E2E2E2E2E2E2E2E2E2E2E2E2E2E2E2E2E2E2E2E2E2E2E2E2E2E2E2E2E2E2E2E2E2E2E2E2E2E2E2E2E2E2E2E2E2E2E2E2E2E2E2
310
E2E2E2E2E2E2E2E2E2E2E2E2E2E2E2E2E2E2E2E2E2E2E2E2E2E2E2E2E2E2E2E2E2E2E2E2E2E2E2E2E2E2E2E2E2E2E2E2E2E2E2E2E2E2E2E2E2E2E2E2E2E2E2E2E2E2E2E2E2E2E2E2E2E2E2E2E2E2E2E2E2E2E2E2E2E2E2E2E2E2E2E2E2E2E2E2E2E2E2E2E2E2E2E2E2E2E2E2E2E2E2E2E2E2E2E2E2E2E2E2E2E2E2E2E2E2E2
310
E2E2E2E2E2E2E2E2E2E2E2E2E2E2E2E2E2E2E2E2E2E2E2E2E2E2E2E2E2E2E2E2E2E2E2E2E2E2E2E2E2E2E2E2E2E2E2E2E2E2E2E2E2E2E2E2E2E2E2E2E2E2E2E2E2E2E2E2E2E2E2E2E2E2E2E2E2E2E2E2E2E2E2E2E2E2E2E2E2E2E2E2E2E2E2E2E2E2E2E2E2E2E2E2E2E2E2E2E2E2E2E2E2E2E2E2E2E2E2E2E2E2E2E2E2E2E2
310
E2E2E2E2E2E2E2E2E2E2E2E2E2E2E2E2E2E2E2E2E2E2E2E2E2E2E2E2E2E2E2E2E2E2E2E2E2E2E2E2E2E2E2E2E2E2E2E2E2E2E2E2E2E2E2E2E2E2E2E2E2E2E2E2E2E2E2E2E2E2E2E2E2E2E2E2E2E2E2E2E2E2E2E2E2E2E2E2E2E2E2E2E2E2E2E2E2E2E2E2E2E2E2E2E2E2E2E2E2E2E2E2E2E2E2E2E2E2E2E2E2E2E2E2E2E2E2
310
E2E2E2E2E2E2E2E2E2E2E2E2E2E2E2E2E2E2E2E2E2E2E2E2E2E2E2E2E2E2E2E2E2E2E2E2E2E2E2E2E2E2E2E2E2E2E2E2E2E2E2E2E2E2E2E2E2E2E2E2E2E2E2E2E2E2E2E2E2E2E2E2E2E2E2E2E2E2E2E2E2E2E2E2E2E2E2E2E2E2E2E2E2E2E2E2E2E2E2E2E2E2E2E2E2E2E2E2E2E2E2E2E2E2E2E2E2E2E2E2E2E2E2E2E2E2E2
310
E2E2E2E2E2E2E2E2E2E2E2E2E2E2E2E2E2E2E2E2E2E2E2E2E2E2E2E2E2E2E2E2E2E2E2E2E2E2E2E2E2E2E2E2E2E2E2E2E2E2E2E2E2E2E2E2E2E2E2E2E2E2E2E2E2E2E2E2E2E2E2E2E2E2E2E2E2E2E2E2E2E2E2E2E2E2E2E2E2E2E2E2E2E2E2E2E2E2E2E2E2E2E2E2E2E2E2E2E2E2E2E2E2E2E2E2E2E2E2E2E2E2E2E2E2E2E2
310
E2E2E2E2E2E2E2E2E2E2E2E2E2E2E2E2E2E2E2E2E2E2E2E2E2E2E2E2E2E2E2E2E2E2E2E2E2E2E2E2E2E2E2E2E2E2E2E2E2E2E2E2E2E2E2E2E2E2E2E2E2E2E2E2E2E2E2E2E2E2E2E2E2E2E2E2E2E2E2E2E2E2E2E2E2E2E2E2E2E2E2E2E2E2E2E2E2E2E2E2E2E2E2E2E2E2E2E2E2E2E2E2E2E2E2E2E2E2E2E2E2E2E2E2E2E2E2
310
E2E2E2E2E2E2E2E2E2E2E2E2E2E2E2E2E2E2E2E2E2E2E2E2E2E2E2E2E2E2E2E2E2E2E2E2E2E2E2E2E2E2E2E2E2E2E2E2E2E2E2E2E2E2E2E2E2E2E2E2E2E2E2E2E2E2E2E2E2E2E2E2E2E2E2E2E2E2E2E2E2E2E2E2E2E2E2E2E2E2E2E2E2E2E2E2E2E2E2E2E2E2E2E2E2E2E2E2E2E2E2E2E2E2E2E2E2E2E2E2E2E2E2E2E2E2E2
310
E2E2E2E2E2E2E2E2E2E2E2E2E2E2E2E2E2E2E2E2E2E2E2E2E2E2E2E2E2E2E2E2E2E2E2E2E2E2E2E2E2E2E2E2E2E2E2E2E2E2E2E2E2E2E2E2E2E2E2E2E2E2E2E2E2E2E2E2E2E2E2E2E2E2E2E2E2E2E2E2E2E2E2E2E2E2E2E2E2E2E2E2E2E2E2E2E2E2E2E2E2E2E2E2E2E2E2E2E2E2E2E2E2E2E2E2E2E2E2E2E2E2E2E2E2E2E2
310
E2E2E2E2E2E2E2E2E2E2E2E2E2E2E2E2E2E2E2E2E2E2E2E2E2E2E2E2E2E2E2E2E2E2E2E2E2E2E2E2E2E2E2E2E2E2E2E2E2E2E2E2E2E2E2E2E2E2E2E2E2E2E2E2E2E2E2E2E2E2E2E2E2E2E2E2E2E2E2E2E2E2E2E2E2E2E2E2E2E2E2E2E2E2E2E2E2E2E2E2E2E2E2E2E2E2E2E2E2E2E2E2E2E2E2E2E2E2E2E2E2E2E2E2E2E2E2
310
E2E2E2E2E2E2E2E2E2E2E2E2E2E2E2E2E2E2E2E2E2E2E2E2E2E2E2E2E2E2E2E2E2E2E2E2E2E2E2E2E2E2E2E2E2E2E2E2E2E2E2E2E2E2E2E2E2E2E2E2E2E2E2E2E2E2E2E2E2E2E2E2E2E2E2E2E2E2E2E2E2E2E2E2E2E2E2E2E2E2E2E2E2E2E2E2E2E2E2E2E2E2E2E2E2E2E2E2E2E2E2E2E2E2E2E2E2E2E2E2E2E2E2E2E2E2E2
310
E2E2E2E2E2E2E2E2E2E2E2E2E2E2E2E2E2E2E2E2E2E2E2E2E2E2E2E2E2E2E2E2E2E2E2E2E2E2E2E2E2E2E2E2E2E2E2E2E2E2E2E2E2E2E2E2E2E2E2E2E2E2E2E2E2E2E2E2E2E2E2E2E2E2E2E2E2E2E2E2E2E2E2E2E2E2E2E2E2E2E2E2E2E2E2E2E2E2E2E2E2E2E2E2E2E2E2E2E2E2E2E2E2E2E2E2E2E2E2E2E2E2E2E2E2E2E2
310
E2E2E2E2E2E2E2E2E2E2E2E2E2E2E2E2E2E2E2E2E2E2E2E2E2E2E2E2E2E2E2E2E2E2E2E2E2E2E2E2E2E2E2E2E2E2E2E2E2E2E2E2E2E2E2E2E2E2E2E2E2E2E2E2E2E2E2E2E2E2E2E2E2E2E2E2E2E2E2E2E2E2E2E2E2E2E2E2E2E2E2E2E2E2E2E2E2E2E2E2E2E2E2E2E2E2E2E2E2E2E2E2E2E2E2E2E2E2E2E2E2E2E2E2E2E2E2
310
E2E2E2E2E2E2E2E2E2E2E2E2E2E2E2E2E2E2E2E2E2E2E2E2E2E2E2E2E2E2E2E2E2E2E2E2E2E2E2E2E2E2E2E2E2E2E2E2E2E2E2E2E2E2E2E2E2E2E2E2E2E2E2E2E2E2E2E2E2E2E2E2E2E2E2E2E2E2E2E2E2E2E2E2E2E2E2E2E2E2E2E2E2E2E2E2E2E2E2E2E2E2E2E2E2E2E2E2E2E2E2E2E2E2E2E2E2E2E2E2E2E2E2E2E2E2E2
310
E2E2E2E2E2E2E2E2E2E2E2E2E2E2E2E2E2E2E2E2E2E2E2E2E2E2E2E2E2E2E2E2E2E2E2E2E2E2E2E2E2E2E2E2E2E2E2E2E2E2E2E2E2E2E2E2E2E2E2E2E2E2E2E2E2E2E2E2E2E2E2E2E2E2E2E2E2E2E2E2E2E2E2E2E2E2E2E2E2E2E2E2E2E2E2E2E2E2E2E2E2E2E2E2E2E2E2E2E2E2E2E2E2E2E2E2E2E2E2E2E2E2E2E2E2E2E2
310
E2E2E2E2E2E2E2E2E2E2E2E2E2E2E2E2E2E2E2E2E2E2E2E2E2E2E2E2E2E2E2E2E2E2E2E2E2E2E2E2E2E2E2E2E2E2E2E2E2E2E2E2E2E2E2E2E2E2E2E2E2E2E2E2E2E2E2E2E2E2E2E2E2E2E2E2E2E2E2E2E2E2E2E2E2E2E2E2E2E2E2E2E2E2E2E2E2E2E2E2E2E2E2E2E2E2E2E2E2E2E2E2E2E2E2E2E2E2E2E2E2E2E2E2E2E2E2
310
E2E2E2E2E2E2E2E2E2E2E2E2E2E2E2E2E2E2E2E2E2E2E2E2E2E2E2E2E2E2E2E2E2E2E2E2E2E2E2E2E2E2E2E2E2E2E2E2E2E2E2E2E2E2E2E2E2E2E2E2E2E2E2E2E2E2E2E2E2E2E2E2E2E2E2E2E2E2E2E2E2E2E2E2E2E2E2E2E2E2E2E2E2E2E2E2E2E2E2E2E2E2E2E2E2E2E2E2E2E2E2E2E2E2E2E2E2E2E2E2E2E2E2E2E2E2E2
310
E2E2E2E2E2E2E2E2E2E2E2E2E2E2E2E2E2E2E2E2E2E2E2E2E2E2E2E2E2E2E2E2E2E2E2E2E2E2E2E2E2E2E2E2E2E2E2E2E2E2E2E2E2E2E2E2E2E2E2E2E2E2E2E2E2E2E2E2E2E2E2E2E2E2E2E2E2E2E2E2E2E2E2E2E2E2E2E2E2E2E2E2E2E2E2E2E2E2E2E2E2E2E2E2E2E2E2E2E2E2E2E2E2E2E2E2E2E2E2E2E2E2E2E2E2E2E2
310
E2E2E2E2E2E2E2E2E2E2E2E2E2E2E2E2E2E2E2E2E2E2E2E2E2E2E2E2E2E2E2E2E2E2E2E2E2E2E2E2E2E2E2E2E2E2E2E2E2E2E2E2E2E2E2E2E2E2E2E2E2E2E2E2E2E2E2E2E2E2E2E2E2E2E2E2E2E2E2E2E2E2E2E2E2E2E2E2E2E2E2E2E2E2E2E2E2E2E2E2E2E2E2E2E2E2E2E2E2E2E2E2E2E2E2E2E2E2E2E2E2E2E2E2E2E2E2
310
E2E2E2E2E2E2E2E2E2E2E2E2E2E2E2E2E2E2E2E2E2E2E2E2E2E2E2E2E2E2E2E2E2E2E2E2E2E2E2E2E2E2E2E2E2E2E2E2E2E2E2E2E2E2E2E2E2E2E2E2E2E2E2E2E2E2E2E2E2E2E2E2E2E2E2E2E2E2E2E2E2E2E2E2E2E2E2E2E2E2E2E2E2E2E2E2E2E2E2E2E2E2E2E2E2E2E2E2E2E2E2E2E2E2E2E2E2E2E2E2E2E2E2E2E2E2E2
310
E2E2E2E2E2E2E2E2E2E2E2E2E2E2E2E2E2E2E2E2E2E2E2E2E2E2E2E2E2E2E2E2E2E2E2E2E2E2E2E2E2E2E2E2E2E2E2E2E2E2E2E2E2E2E2E2E2E2E2E2E2E2E2E2E2E2E2E2E2E2E2E2E2E2E2E2E2E2E2E2E2E2E2E2E2E2E2E2E2E2E2E2E2E2E2E2E2E2E2E2E2E2E2E2E2E2E2E2E2E2E2E2E2E2E2E2E2E2E2E2E2E2E2E2E2E2E2
310
E2E2E2E2E2E2E2E2E2E2E2E2E2E2E2E2E2E2E2E2E2E2E2E2E2E2E2E2E2E2E2E2E2E2E2E2E2E2E2E2E2E2E2E2E2E2E2E2E2E2E2E2E2E2E2E2E2E2E2E2E2E2E2E2E2E2E2E2E2E2E2E2E2E2E2E2E2E2E2E2E2E2E2E2E2E2E2E2E2E2E2E2E2E2E2E2E2E2E2E2E2E2E2E2E2E2E2E2E2E2E2E2E2E2E2E2E2E2E2E2E2E2E2E2E2E2E2
310
E2E2E2E2E2E2E2E2E2E2E2E2E2E2E2E2E2E2E2E2E2E2E2E2E2E2E2E2E2E2E2E2E2E2E2E2E2E2E2E2E2E2E2E2E2E2E2E2E2E2E2E2E2E2E2E2E2E2E2E2E2E2E2E2E2E2E2E2E2E2E2E2E2E2E2E2E2E2E2E2E2E2E2E2E2E2E2E2E2E2E2E2E2E2E2E2E2E2E2E2E2E2E2E2E2E2E2E2E2E2E2E2E2E2E2E2E2E2E2E2E2E2E2E2E2E2E2
310
E2E2E2E2E2E2E2E2E2E2E2E2E2E2E2E2E2E2E2E2E2E2E2E2E2E2E2E2E2E2E2E2E2E2E2E2E2E2E2E2E2E2E2E2E2E2E2E2E2E2E2E2E2E2E2E2E2E2E2E2E2E2E2E2E2E2E2E2E2E2E2E2E2E2E2E2E2E2E2E2E2E2E2E2E2E2E2E2E2E2E2E2E2E2E2E2E2E2E2E2E2E2E2E2E2E2E2E2E2E2E2E2E2E2E2E2E2E2E2E2E2E2E2E2E2E2E2
310
E2E2E2E2E2E2E2E2E2E2E2E2E2E2E2E2E2E2E2E2E2E2E2E2E2E2E2E2E2E2E2E2E2E2E2E2E2E2E2E2E2E2E2E2E2E2E2E2E2E2E2E2E2E2E2E2E2E2E2E2E2E2E2E2E2E2E2E2E2E2E2E2E2E2E2E2E2E2E2E2E2E2E2E2E2E2E2E2E2E2E2E2E2E2E2E2E2E2E2E2E2E2E2E2E2E2E2E2E2E2E2E2E2E2E2E2E2E2E2E2E2E2E2E2E2E2E2
310
E2E2E2E2E2E2E2E2E2E2E2E2E2E2E2E2E2E2E2E2E2E2E2E2E2E2E2E2E2E2E2E2E2E2E2E2E2E2E2E2E2E2E2E2E2E2E2E2E2E2E2E2E2E2E2E2E2E2E2E2E2E2E2E2E2E2E2E2E2E2E2E2E2E2E2E2E2E2E2E2E2E2E2E2E2E2E2E2E2E2E2E2E2E2E2E2E2E2E2E2E2E2E2E2E2E2E2E2E2E2E2E2E2E2E2E2E2E2E2E2E2E2E2E2E2E2E2
310
E2E2E2E2E2E2E2E2E2E2E2E2E2E2E2E2E2E2E2E2E2E2E2E2E2E2E2E2E2E2E2E2E2E2E2E2E2E2E2E2E2E2E2E2E2E2E2E2E2E2E2E2E2E2E2E2E2E2E2E2E2E2E2E2E2E2E2E2E2E2E2E2E2E2E2E2E2E2E2E2E2E2E2E2E2E2E2E2E2E2E2E2E2E2E2E2E2E2E2E2E2E2E2E2E2E2E2E2E2E2E2E2E2E2E2E2E2E2E2E2E2E2E2E2E2E2E2
310
E2E2E2E2E2E2E2E2E2E2E2E2E2E2E2E2E2E2E2E2E2E2E2E2E2E2E2E2E2E2E2E2E2E2E2E2E2E2E2E2E2E2E2E2E2E2E2E2E2E2E2E2E2E2E2E2E2E2E2E2E2E2E2E2E2E2E2E2E2E2E2E2E2E2E2E2E2E2E2E2E2E2E2E2E2E2E2E2E2E2E2E2E2E2E2E2E2E2E2E2E2E2E2E2E2E2E2E2E2E2E2E2E2E2E2E2E2E2E2E2E2E2E2E2E2E2E2
310
E2E2E2E2E2E2E2E2E2E2E2E2E2E2E2E2E2E2E2E2E2E2E2E2E2E2E2E2E2E2E2E2E2E2E2E2E2E2E2E2E2E2E2E2E2E2E2E2E2E2E2E2E2E2E2E2E2E2E2E2E2E2E2E2E2E2E2E2E2E2E2E2E2E2E2E2E2E2E2E2E2E2E2E2E2E2E2E2E2E2E2E2E2E2E2E2E2E2E2E2E2E2E2E2E2E2E2E2E2E2E2E2E2E2E2E2E2E2E2E2E2E2E2E2E2E2E2
310
E2E2E2E2E2E2E2E2E2E2E2E2E2E2E2E2E2E2E2E2E2E2E2E2E2E2E2E2E2E2E2E2E2E2E2E2E2E2E2E2E2E2E2E2E2E2E2E2E2E2E2E2E2E2E2E2E2E2E2E2E2E2E2E2E2E2E2E2E2E2E2E2E2E2E2E2E2E2E2E2E2E2E2E2E2E2E2E2E2E2E2E2E2E2E2E2E2E2E2E2E2E2E2E2E2E2E2E2E2E2E2E2E2E2E2E2E2E2E2E2E2E2E2E2E2E2E2
310
E2E2E2E2E2E2E2E2E2E2E2E2E2E2E2E2E2E2E2E2E2E2E2E2E2E2E2E2E2E2E2E2E2E2E2E2E2E2E2E2E2E2E2E2E2E2E2E2E2E2E2E2E2E2E2E2E2E2E2E2E2E2E2E2E2E2E2E2E2E2E2E2E2E2E2E2E2E2E2E2E2E2E2E2E2E2E2E2E2E2E2E2E2E2E2E2E2E2E2E2E2E2E2E2E2E2E2E2E2E2E2E2E2E2E2E2E2E2E2E2E2E2E2E2E2E2E2
310
E2E2E2E2E2E2E2E2E2E2E2E2E2E2E2E2E2E2E2E2E2E2E2E2E2E2E2E2E2E2E2E2E2E2E2E2E2E2E2E2E2E2E2E2E2E2E2E2E2E2E2E2E2E2E2E2E2E2E2E2E2E2E2E2E2E2E2E2E2E2E2E2E2E2E2E2E2E2E2E2E2E2E2E2E2E2E2E2E2E2E2E2E2E2E2E2E2E2E2E2E2E2E2E2E2E2E2E2E2E2E2E2E2E2E2E2E2E2E2E2E2E2E2E2E2E2E2
310
E2E2E2E2E2E2E2E2E2E2E2E2E2E2E2E2E2E2E2E2E2E2E2E2E2E2E2E2E2E2E2E2E2E2E2E2E2E2E2E2E2E2E2E2E2E2E2E2E2E2E2E2E2E2E2E2E2E2E2E2E2E2E2E2E2E2E2E2E2E2E2E2E2E2E2E2E2E2E2E2E2E2E2E2E2E2E2E2E2E2E2E2E2E2E2E2E2E2E2E2E2E2E2E2E2E2E2E2E2E2E2E2E2E2E2E2E2E2E2E2E2E2E2E2E2E2E2
310
E2E2E2E2E2E2E2E2E2E2E2E2E2E2E2E2E2E2E2E2E2E2E2E2E2E2E2E2E2E2E2E2E2E2E2E2E2E2E2E2E2E2E2E2E2E2E2E2E2E2E2E2E2E2E2E2E2E2E2E2E2E2E2E2E2E2E2E2E2E2E2E2E2E2E2E2E2E2E2E2E2E2E2E2E2E2E2E2E2E2E2E2E2E2E2E2E2E2E2E2E2E2E2E2E2E2E2E2E2E2E2E2E2E2E2E2E2E2E2E2E2E2E2E2E2E2E2
310
E2E2E2E2E2E2E2E2E2E2E2E2E2E2E2E2E2E2E2E2E2E2E2E2E2E2E2E2E2E2E2E2E2E2E2E2E2E2E2E2E2E2E2E2E2E2E2E2E2E2E2E2E2E2E2E2E2E2E2E2E2E2E2E2E2E2E2E2E2E2E2E2E2E2E2E2E2E2E2E2E2E2E2E2E2E2E2E2E2E2E2E2E2E2E2E2E2E2E2E2E2E2E2E2E2E2E2E2E2E2E2E2E2E2E2E2E2E2E2E2E2E2E2E2E2E2E2
310
E2E2E2E2E2E2E2E2E2E2E2E2E2E2E2E2E2E2E2E2E2E2E2E2E2E2E2E2E2E2E2E2E2E2E2E2E2E2E2E2E2E2E2E2E2E2E2E2E2E2E2E2E2E2E2E2E2E2E2E2E2E2E2E2E2E2E2E2E2E2E2E2E2E2E2E2E2E2E2E2E2E2E2E2E2E2E2E2E2E2E2E2E2E2E2E2E2E2E2E2E2E2E2E2E2E2E2E2E2E2E2E2E2E2E2E2E2E2E2E2E2E2E2E2E2E2E2
310
E2E2E2E2E2E2E2E2E2E2E2E2E2E2E2E2E2E2E2E2E2E2E2E2E2E2E2E2E2E2E2E2E2E2E2E2E2E2E2E2E2E2E2E2E2E2E2E2E2E2E2E2E2E2E2E2E2E2E2E2E2E2E2E2E2E2E2E2E2E2E2E2E2E2E2E2E2E2E2E2E2E2E2E2E2E2E2E2E2E2E2E2E2E2E2E2E2E2E2E2E2E2E2E2E2E2E2E2E2E2E2E2E2E2E2E2E2E2E2E2E2E2E2E2E2E2E2
310
E2E2E2E2E2E2E2E2E2E2E2E2E2E2E2E2E2E2E2E2E2E2E2E2E2E2E2E2E2E2E2E2E2E2E2E2E2E2E2E2E2E2E2E2E2E2E2E2E2E2E2E2E2E2E2E2E2E2E2E2E2E2E2E2E2E2E2E2E2E2E2E2E2E2E2E2E2E2E2E2E2E2E2E2E2E2E2E2E2E2E2E2E2E2E2E2E2E2E2E2E2E2E2E2E2E2E2E2E2E2E2E2E2E2E2E2E2E2E2E2E2E2E2E2E2E2E2
310
E2E2E2E2E2E2E2E2E2E2E2E2E2E2E2E2E2E2E2E2E2E2E2E2E2E2E2E2E2E2E2E2E2E2E2E2E2E2E2E2E2E2E2E2E2E2E2E2E2E2E2E2E2E2E2E2E2E2E2E2E2E2E2E2E2E2E2E2E2E2E2E2E2E2E2E2E2E2E2E2E2E2E2E2E2E2E2E2E2E2E2E2E2E2E2E2E2E2E2E2E2E2E2E2E2E2E2E2E2E2E2E2E2E2E2E2E2E2E2E2E2E2E2E2E2E2E2
310
E2E2E2E2E2E2E2E2E2E2E2E2E2E2E2E2E2E2E2E2E2E2E2E2E2E2E2E2E2E2E2E2E2E2E2E2E2E2E2E2E2E2E2E2E2E2E2E2E2E2E2E2E2E2E2E2E2E2E2E2E2E2E2E2E2E2E2E2E2E2E2E2E2E2E2E2E2E2E2E2E2E2E2E2E2E2E2E2E2E2E2E2E2E2E2E2E2E2E2E2E2E2E2E2E2E2E2E2E2E2E2E2E2E2E2E2E2E2E2E2E2E2E2E2E2E2E2
310
E2E2E2E2E2E2E2E2E2E2E2E2E2E2E2E2E2E2E2E2E2E2E2E2E2E2E2E2E2E2E2E2E2E2E2E2E2E2E2E2E2E2E2E2E2E2E2E2E2E2E2E2E2E2E2E2E2E2E2E2E2E2E2E2E2E2E2E2E2E2E2E2E2E2E2E2E2E2E2E2E2E2E2E2E2E2E2E2E2E2E2E2E2E2E2E2E2E2E2E2E2E2E2E2E2E2E2E2E2E2E2E2E2E2E2E2E2E2E2E2E2E2E2E2E2E2E2
310
E2E2E2E2E2E2E2E2E2E2E2E2E2E2E2E2E2E2E2E2E2E2E2E2E2E2E2E2E2E2E2E2E2E2E2E2E2E2E2E2E2E2E2E2E2E2E2E2E2E2E2E2E2E2E2E2E2E2E2E2E2E2E2E2E2E2E2E2E2E2E2E2E2E2E2E2E2E2E2E2E2E2E2E2E2E2E2E2E2E2E2E2E2E2E2E2E2E2E2E2E2E2E2E2E2E2E2E2E2E2E2E2E2E2E2E2E2E2E2E2E2E2E2E2E2E2E2
310
E2E2E2E2E2E2E2E2E2E2E2E2E2E2E2E2E2E2E2E2E2E2E2E2E2E2E2E2E2E2E2E2E2E2E2E2E2E2E2E2E2E2E2E2E2E2E2E2E2E2E2E2E2E2E2E2E2E2E2E2E2E2E2E2E2E2E2E2E2E2E2E2E2E2E2E2E2E2E2E2E2E2E2E2E2E2E2E2E2E2E2E2E2E2E2E2E2E2E2E2E2E2E2E2E2E2E2E2E2E2E2E2E2E2E2E2E2E2E2E2E2E2E2E2E2E2E2
310
E2E2E2E2E2E2E2E2E2E2E2E2E2E2E2E2E2E2E2E2E2E2E2E2E2E2E2E2E2E2E2E2E2E2E2E2E2E2E2E2E2E2E2E2E2E2E2E2E2E2E2E2E2E2E2E2E2E2E2E2E2E2E2E2E2E2E2E2E2E2E2E2E2E2E2E2E2E2E2E2E2E2E2E2E2E2E2E2E2E2E2E2E2E2E2E2E2E2E2E2E2E2E2E2E2E2E2E2E2E2E2E2E2E2E2E2E2E2E2E2E2E2E2E2E2E2E2
310
E2E2E2E2E2E2E2E2E2E2E2E2E2E2E2E2E2E2E2E2E2E2E2E2E2E2E2E2E2E2E2E2E2E2E2E2E2E2E2E2E2E2E2E2E2E2E2E2E2E2E2E2E2E2E2E2E2E2E2E2E2E2E2E2E2E2E2E2E2E2E2E2E2E2E2E2E2E2E2E2E2E2E2E2E2E2E2E2E2E2E2E2E2E2E2E2E2E2E2E2E2E2E2E2E2E2E2E2E2E2E2E2E2E2E2E2E2E2E2E2E2E2E2E2E2E2E2
310
E2E2E2E2E2E2E2E2E2E2E2E2E2E2E2E2E2E2E2E2E2E2E2E2E2E2E2E2E2E2E2E2E2E2E2E2E2E2E2E2E2E2E2E2E2E2E2E2E2E2E2E2E2E2E2E2E2E2E2E2E2E2E2E2E2E2E2E2E2E2E2E2E2E2E2E2E2E2E2E2E2E2E2E2E2E2E2E2E2E2E2E2E2E2E2E2E2E2E2E2E2E2E2E2E2E2E2E2E2E2E2E2E2E2E2E2E2E2E2E2E2E2E2E2E2E2E2
310
E2E2E2E2E2E2E2E2E2E2E2E2E2E2E2E2E2E2E2E2E2E2E2E2E2E2E2E2E2E2E2E2E2E2E2E2E2E2E2E2E2E2E2E2E2E2E2E2E2E2E2E2E2E2E2E2E2E2E2E2E2E2E2E2E2E2E2E2E2E2E2E2E2E2E2E2E2E2E2E2E2E2E2E2E2E2E2E2E2E2E2E2E2E2E2E2E2E2E2E2E2E2E2E2E2E2E2E2E2E2E2E2E2E2E2E2E2E2E2E2E2E2E2E2E2E2E2
310
E2E2E2E2E2E2E2E2E2E2E2E2E2E2E2E2E2E2E2E2E2E2E2E2E2E2E2E2E2E2E2E2E2E2E2E2E2E2E2E2E2E2E2E2E2E2E2E2E2E2E2E2E2E2E2E2E2E2E2E2E2E2E2E2E2E2E2E2E2E2E2E2E2E2E2E2E2E2E2E2E2E2E2E2E2E2E2E2E2E2E2E2E2E2E2E2E2E2E2E2E2E2E2E2E2E2E2E2E2E2E2E2E2E2E2E2E2E2E2E2E2E2E2E2E2E2E2
310
E2E2E2E2E2E2E2E2E2E2E2E2E2E2E2E2E2E2E2E2E2E2E2E2E2E2E2E2E2E2E2E2E2E2E2E2E2E2E2E2E2E2E2E2E2E2E2E2E2E2E2E2E2E2E2E2E2E2E2E2E2E2E2E2E2E2E2E2E2E2E2E2E2E2E2E2E2E2E2E2E2E2E2E2E2E2E2E2E2E2E2E2E2E2E2E2E2E2E2E2E2E2E2E2E2E2E2E2E2E2E2E2E2E2E2E2E2E2E2E2E2E2E2E2E2E2E2
310
E2E2E2E2E2E2E2E2E2E2E2E2E2E2E2E2E2E2E2E2E2E2E2E2E2E2E2E2E2E2E2E2E2E2E2E2E2E2E2E2E2E2E2E2E2E2E2E2E2E2E2E2E2E2E2E2E2E2E2E2E2E2E2E2E2E2E2E2E2E2E2E2E2E2E2E2E2E2E2E2E2E2E2E2E2E2E2E2E2E2E2E2E2E2E2E2E2E2E2E2E2E2E2E2E2E2E2E2E2E2E2E2E2E2E2E2E2E2E2E2E2E2E2E2E2E2E2
310
E2E2E2E2E2E2E2E2E2E2E2E2E2E2E2E2E2E2E2E2E2E2E2E2E2E2E2E2E2E2E2E2E2E2E2E2E2E2E2E2E2E2E2E2E2E2E2E2E2E2E2E2E2E2E2E2E2E2E2E2E2E2E2E2E2E2E2E2E2E2E2E2E2E2E2E2E2E2E2E2E2E2E2E2E2E2E2E2E2E2E2E2E2E2E2E2E2E2E2E2E2E2E2E2E2E2E2E2E2E2E2E2E2E2E2E2E2E2E2E2E2E2E2E2E2E2E2
310
E2E2E2E2E2E2E2E2E2E2E2E2E2E2E2E2E2E2E2E2E2E2E2E2E2E2E2E2E2E2E2E2E2E2E2E2E2E2E2E2E2E2E2E2E2E2E2E2E2E2E2E2E2E2E2E2E2E2E2E2E2E2E2E2E2E2E2E2E2E2E2E2E2E2E2E2E2E2E2E2E2E2E2E2E2E2E2E2E2E2E2E2E2E2E2E2E2E2E2E2E2E2E2E2E2E2E2E2E2E2E2E2E2E2E2E2E2E2E2E2E2E2E2E2E2E2E2
310
E2E2E2E2E2E2E2E2E2E2E2E2E2E2E2E2E2E2E2E2E2E2E2E2E2E2E2E2E2E2E2E2E2E2E2E2E2E2E2E2E2E2E2E2E2E2E2E2E2E2E2E2E2E2E2E2E2E2E2E2E2E2E2E2E2E2E2E2E2E2E2E2E2E2E2E2E2E2E2E2E2E2E2E2E2E2E2E2E2E2E2E2E2E2E2E2E2E2E2E2E2E2E2E2E2E2E2E2E2E2E2E2E2E2E2E2E2E2E2E2E2E2E2E2E2E2E2
310
E2E2E2E2E2E2E2E2E2E2E2E2E2E2E2E2E2E2E2E2E2E2E2E2E2E2E2E2E2E2E2E2E2E2E2E2E2E2E2E2E2E2E2E2E2E2E2E2E2E2E2E2E2E2E2E2E2E2E2E2E2E2E2E2E2E2E2E2E2E2E2E2E2E2E2E2E2E2E2E2E2E2E2E2E2E2E2E2E2E2E2E2E2E2E2E2E2E2E2E2E2E2E2E2E2E2E2E2E2E2E2E2E2E2E2E2E2E2E2E2E2E2E2E2E2E2E2
310
E2E2E2E2E2E2E2E2E2E2E2E2E2E2E2E2E2E2E2E2E2E2E2E2E2E2E2E2E2E2E2E2E2E2E2E2E2E2E2E2E2E2E2E2E2E2E2E2E2E2E2E2E2E2E2E2E2E2E2E2E2E2E2E2E2E2E2E2E2E2E2E2E2E2E2E2E2E2E2E2E2E2E2E2E2E2E2E2E2E2E2E2E2E2E2E2E2E2E2E2E2E2E2E2E2E2E2E2E2E2E2E2E2E2E2E2E2E2E2E2E2E2E2E2E2E2E2
310
E2E2E2E2E2E2E2E2E2E2E2E2E2E2E2E2E2E2E2E2E2E2E2E2E2E2E2E2E2E2E2E2E2E2E2E2E2E2E2E2E2E2E2E2E2E2E2E2E2E2E2E2E2E2E2E2E2E2E2E2E2E2E2E2E2E2E2E2E2E2E2E2E2E2E2E2E2E2E2E2E2E2E2E2E2E2E2E2E2E2E2E2E2E2E2E2E2E2E2E2E2E2E2E2E2E2E2E2E2E2E2E2E2E2E2E2E2E2E2E2E2E2E2E2E2E2E2
310
E2E2E2E2E2E2E2E2E2E2E2E2E2E2E2E2E2E2E2E2E2E2E2E2E2E2E2E2E2E2E2E2E2E2E2E2E2E2E2E2E2E2E2E2E2E2E2E2E2E2E2E2E2E2E2E2E2E2E2E2E2E2E2E2E2E2E2E2E2E2E2E2E2E2E2E2E2E2E2E2E2E2E2E2E2E2E2E2E2E2E2E2E2E2E2E2E2E2E2E2E2E2E2E2E2E2E2E2E2E2E2E2E2E2E2E2E2E2E2E2E2E2E2E2E2E2E2
310
E2E2E2E2E2E2E2E2E2E2E2E2E2E2E2E2E2E2E2E2E2E2E2E2E2E2E2E2E2E2E2E2E2E2E2E2E2E2E2E2E2E2E2E2E2E2E2E2E2E2E2E2E2E2E2E2E2E2E2E2E2E2E2E2E2E2E2E2E2E2E2E2E2E2E2E2E2E2E2E2E2E2E2E2E2E2E2E2E2E2E2E2E2E2E2E2E2E2E2E2E2E2E2E2E2E2E2E2E2E2E2E2E2E2E2E2E2E2E2E2E2E2E2E2E2E2E2
310
E2E2E2E2E2E2E2E2E2E2E2E2E2E2E2E2E2E2E2E2E2E2E2E2E2E2E2E2E2E2E2E2E2E2E2E2E2E2E2E2E2E2E2E2E2E2E2E2E2E2E2E2E2E2E2E2E2E2E2E2E2E2E2E2E2E2E2E2E2E2E2E2E2E2E2E2E2E2E2E2E2E2E2E2E2E2E2E2E2E2E2E2E2E2E2E2E2E2E2E2E2E2E2E2E2E2E2E2E2E2E2E2E2E2E2E2E2E2E2E2E2E2E2E2E2E2E2
310
E2E2E2E2E2E2E2E2E2E2E2E2E2E2E2E2E2E2E2E2E2E2E2E2E2E2E2E2E2E2E2E2E2E2E2E2E2E2E2E2E2E2E2E2E2E2E2E2E2E2E2E2E2E2E2E2E2E2E2E2E2E2E2E2E2E2E2E2E2E2E2E2E2E2E2E2E2E2E2E2E2E2E2E2E2E2E2E2E2E2E2E2E2E2E2E2E2E2E2E2E2E2E2E2E2E2E2E2E2E2E2E2E2E2E2E2E2E2E2E2E2E2E2E2E2E2E2
310
E2E2E2E2E2E2E2E2E2E2E2E2E2E2E2E2E2E2E2E2E2E2E2E2E2E2E2E2E2E2E2E2E2E2E2E2E2E2E2E2E2E2E2E2E2E2E2E2E2E2E2E2E2E2E2E2E2E2E2E2E2E2E2E2E2E2E2E2E2E2E2E2E2E2E2E2E2E2E2E2E2E2E2E2E2E2E2E2E2E2E2E2E2E2E2E2E2E2E2E2E2E2E2E2E2E2E2E2E2E2E2E2E2E2E2E2E2E2E2E2E2E2E2E2E2E2E2
310
E2E2E2E2E2E2E2E2E2E2E2E2E2E2E2E2E2E2E2E2E2E2E2E2E2E2E2E2E2E2E2E2E2E2E2E2E2E2E2E2E2E2E2E2E2E2E2E2E2E2E2E2E2E2E2E2E2E2E2E2E2E2E2E2E2E2E2E2E2E2E2E2E2E2E2E2E2E2E2E2E2E2E2E2E2E2E2E2E2E2E2E2E2E2E2E2E2E2E2E2E2E2E2E2E2E2E2E2E2E2E2E2E2E2E2E2E2E2E2E2E2E2E2E2E2E2E2
310
E2E2E2E2E2E2E2E2E2E2E2E2E2E2E2E2E2E2E2E2E2E2E2E2E2E2E2E2E2E2E2E2E2E2E2E2E2E2E2E2E2E2E2E2E2E2E2E2E2E2E2E2E2E2E2E2E2E2E2E2E2E2E2E2E2E2E2E2E2E2E2E2E2E2E2E2E2E2E2E2E2E2E2E2E2E2E2E2E2E2E2E2E2E2E2E2E2E2E2E2E2E2E2E2E2E2E2E2E2E2E2E2E2E2E2E2E2E2E2E2E2E2E2E2E2E2E2
310
E2E2E2E2E2E2E2E2E2E2E2E2E2E2E2E2E2E2E2E2E2E2E2E2E2E2E2E2E2E2E2E2E2E2E2E2E2E2E2E2E2E2E2E2E2E2E2E2E2E2E2E2E2E2E2E2E2E2E2E2E2E2E2E2E2E2E2E2E2E2E2E2E2E2E2E2E2E2E2E2E2E2E2E2E2E2E2E2E2E2E2E2E2E2E2E2E2E2E2E2E2E2E2E2E2E2E2E2E2E2E2E2E2E2E2E2E2E2E2E2E2E2E2E2E2E2E2
310
E2E2E2E2E2E2E2E2E2E2E2E2E2E2E2E2E2E2E2E2E2E2E2E2E2E2E2E2E2E2E2E2E2E2E2E2E2E2E2E2E2E2E2E2E2E2E2E2E2E2E2E2E2E2E2E2E2E2E2E2E2E2E2E2E2E2E2E2E2E2E2E2E2E2E2E2E2E2E2E2E2E2E2E2E2E2E2E2E2E2E2E2E2E2E2E2E2E2E2E2E2E2E2E2E2E2E2E2E2E2E2E2E2E2E2E2E2E2E2E2E2E2E2E2E2E2E2
310
E2E2E2E2E2E2E2E2E2E2E2E2E2E2E2E2E2E2E2E2E2E2E2E2E2E2E2E2E2E2E2E2E2E2E2E2E2E2E2E2E2E2E2E2E2E2E2E2E2E2E2E2E2E2E2E2E2E2E2E2E2E2E2E2E2E2E2E2E2E2E2E2E2E2E2E2E2E2E2E2E2E2E2E2E2E2E2E2E2E2E2E2E2E2E2E2E2E2E2E2E2E2E2E2E2E2E2E2E2E2E2E2E2E2E2E2E2E2E2E2E2E2E2E2E2E2E2
310
E2E2E2E2E2E2E2E2E2E2E2E2E2E2E2E2E2E2E2E2E2E2E2E2E2E2E2E2E2E2E2E2E2E2E2E2E2E2E2E2E2E2E2E2E2E2E2E2E2E2E2E2E2E2E2E2E2E2E2E2E2E2E2E2E2E2E2E2E2E2E2E2E2E2E2E2E2E2E2E2E2E2E2E2E2E2E2E2E2E2E2E2E2E2E2E2E2E2E2E2E2E2E2E2E2E2E2E2E2E2E2E2E2E2E2E2E2E2E2E2E2E2E2E2E2E2E2
310
E2E2E2E2E2E2E2E2E2E2E2E2E2E2E2E2E2E2E2E2E2E2E2E2E2E2E2E2E2E2E2E2E2E2E2E2E2E2E2E2E2E2E2E2E2E2E2E2E2E2E2E2E2E2E2E2E2E2E2E2E2E2E2E2E2E2E2E2E2E2E2E2E2E2E2E2E2E2E2E2E2E2E2E2E2E2E2E2E2E2E2E2E2E2E2E2E2E2E2E2E2E2E2E2E2E2E2E2E2E2E2E2E2E2E2E2E2E2E2E2E2E2E2E2E2E2E2
310
E2E2E2E2E2E2E2E2E2E2E2E2E2E2E2E2E2E2E2E2E2E2E2E2E2E2E2E2E2E2E2E2E2E2E2E2E2E2E2E2E2E2E2E2E2E2E2E2E2E2E2E2E2E2E2E2E2E2E2E2E2E2E2E2E2E2E2E2E2E2E2E2E2E2E2E2E2E2E2E2E2E2E2E2E2E2E2E2E2E2E2E2E2E2E2E2E2E2E2E2E2E2E2E2E2E2E2E2E2E2E2E2E2E2E2E2E2E2E2E2E2E2E2E2E2E2E2
310
E2E2E2E2E2E2E2E2E2E2E2E2E2E2E2E2E2E2E2E2E2E2E2E2E2E2E2E2E2E2E2E2E2E2E2E2E2E2E2E2E2E2E2E2E2E2E2E2E2E2E2E2E2E2E2E2E2E2E2E2E2E2E2E2E2E2E2E2E2E2E2E2E2E2E2E2E2E2E2E2E2E2E2E2E2E2E2E2E2E2E2E2E2E2E2E2E2E2E2E2E2E2E2E2E2E2E2E2E2E2E2E2E2E2E2E2E2E2E2E2E2E2E2E2E2E2E2
310
E2E2E2E2E2E2E2E2E2E2E2E2E2E2E2E2E2E2E2E2E2E2E2E2E2E2E2E2E2E2E2E2E2E2E2E2E2E2E2E2E2E2E2E2E2E2E2E2E2E2E2E2E2E2E2E2E2E2E2E2E2E2E2E2E2E2E2E2E2E2E2E2E2E2E2E2E2E2E2E2E2E2E2E2E2E2E2E2E2E2E2E2E2E2E2E2E2E2E2E2E2E2E2E2E2E2E2E2E2E2E2E2E2E2E2E2E2E2E2E2E2E2E2E2E2E2E2
310
E2E2E2E2E2E2E2E2E2E2E2E2E2E2E2E2E2E2E2E2E2E2E2E2E2E2E2E2E2E2E2E2E2E2E2E2E2E2E2E2E2E2E2E2E2E2E2E2E2E2E2E2E2E2E2E2E2E2E2E2E2E2E2E2E2E2E2E2E2E2E2E2E2E2E2E2E2E2E2E2E2E2E2E2E2E2E2E2E2E2E2E2E2E2E2E2E2E2E2E2E2E2E2E2E2E2E2E2E2E2E2E2E2E2E2E2E2E2E2E2E2E2E2E2E2E2E2
310
E2E2E2E2E2E2E2E2E2E2E2E2E2E2E2E2E2E2E2E2E2E2E2E2E2E2E2E2E2E2E2E2E2E2E2E2E2E2E2E2E2E2E2E2E2E2E2E2E2E2E2E2E2E2E2E2E2E2E2E2E2E2E2E2E2E2E2E2E2E2E2E2E2E2E2E2E2E2E2E2E2E2E2E2E2E2E2E2E2E2E2E2E2E2E2E2E2E2E2E2E2E2E2E2E2E2E2E2E2E2E2E2E2E2E2E2E2E2E2E2E2E2E2E2E2E2E2
310
E2E2E2E2E2E2E2E2E2E2E2E2E2E2E2E2E2E2E2E2E2E2E2E2E2E2E2E2E2E2E2E2E2E2E2E2E2E2E2E2E2E2E2E2E2E2E2E2E2E2E2E2E2E2E2E2E2E2E2E2E2E2E2E2E2E2E2E2E2E2E2E2E2E2E2E2E2E2E2E2E2E2E2E2E2E2E2E2E2E2E2E2E2E2E2E2E2E2E2E2E2E2E2E2E2E2E2E2E2E2E2E2E2E2E2E2E2E2E2E2E2E2E2E2E2E2E2
310
E2E2E2E2E2E2E2E2E2E2E2E2E2E2E2E2E2E2E2E2E2E2E2E2E2E2E2E2E2E2E2E2E2E2E2E2E2E2E2E2E2E2E2E2E2E2E2E2E2E2E2E2E2E2E2E2E2E2E2E2E2E2E2E2E2E2E2E2E2E2E2E2E2E2E2E2E2E2E2E2E2E2E2E2E2E2E2E2E2E2E2E2E2E2E2E2E2E2E2E2E2E2E2E2E2E2E2E2E2E2E2E2E2E2E2E2E2E2E2E2E2E2E2E2E2E2E2
310
E2E2E2E2E2E2E2E2E2E2E2E2E2E2E2E2E2E2E2E2E2E2E2E2E2E2E2E2E2E2E2E2E2E2E2E2E2E2E2E2E2E2E2E2E2E2E2E2E2E2E2E2E2E2E2E2E2E2E2E2E2E2E2E2E2E2E2E2E2E2E2E2E2E2E2E2E2E2E2E2E2E2E2E2E2E2E2E2E2E2E2E2E2E2E2E2E2E2E2E2E2E2E2E2E2E2E2E2E2E2E2E2E2E2E2E2E2E2E2E2E2E2E2E2E2E2E2
310
E2E2E2E2E2E2E2E2E2E2E2E2E2E2E2E2E2E2E2E2E2E2E2E2E2E2E2E2E2E2E2E2E2E2E2E2E2E2E2E2E2E2E2E2E2E2E2E2E2E2E2E2E2E2E2E2E2E2E2E2E2E2E2E2E2E2E2E2E2E2E2E2E2E2E2E2E2E2E2E2E2E2E2E2E2E2E2E2E2E2E2E2E2E2E2E2E2E2E2E2E2E2E2E2E2E2E2E2E2E2E2E2E2E2E2E2E2E2E2E2E2E2E2E2E2E2E2
310
E2E2E2E2E2E2E2E2E2E2E2E2E2E2E2E2E2E2E2E2E2E2E2E2E2E2E2E2E2E2E2E2E2E2E2E2E2E2E2E2E2E2E2E2E2E2E2E2E2E2E2E2E2E2E2E2E2E2E2E2E2E2E2E2E2E2E2E2E2E2E2E2E2E2E2E2E2E2E2E2E2E2E2E2E2E2E2E2E2E2E2E2E2E2E2E2E2E2E2E2E2E2E2E2E2E2E2E2E2E2E2E2E2E2E2E2E2E2E2E2E2E2E2E2E2E2E2
310
E2E2E2E2E2E2E2E2E2E2E2E2E2E2E2E2E2E2E2E2E2E2E2E2E2E2E2E2E2E2E2E2E2E2E2E2E2E2E2E2E2E2E2E2E2E2E2E2E2E2E2E2E2E2E2E2E2E2E2E2E2E2E2E2E2E2E2E2E2E2E2E2E2E2E2E2E2E2E2E2E2E2E2E2E2E2E2E2E2E2E2E2E2E2E2E2E2E2E2E2E2E2E2E2E2E2E2E2E2E2E2E2E2E2E2E2E2E2E2E2E2E2E2E2E2E2E2
310
E2E2E2E2E2E2E2E2E2E2E2E2E2E2E2E2E2E2E2E2E2E2E2E2E2E2E2E2E2E2E2E2E2E2E2E2E2E2E2E2E2E2E2E2E2E2E2E2E2E2E2E2E2E2E2E2E2E2E2E2E2E2E2E2E2E2E2E2E2E2E2E2E2E2E2E2E2E2E2E2E2E2E2E2E2E2E2E2E2E2E2E2E2E2E2E2E2E2E2E2E2E2E2E2E2E2E2E2E2E2E2E2E2E2E2E2E2E2E2E2E2E2E2E2E2E2E2
310
E2E2E2E2E2E2E2E2E2E2E2E2E2E2E2E2E2E2E2E2E2E2E2E2E2E2E2E2E2E2E2E2E2E2E2E2E2E2E2E2E2E2E2E2E2E2E2E2E2E2E2E2E2E2E2E2E2E2E2E2E2E2E2E2E2E2E2E2E2E2E2E2E2E2E2E2E2E2E2E2E2E2E2E2E2E2E2E2E2E2E2E2E2E2E2E2E2E2E2E2E2E2E2E2E2E2E2E2E2E2E2E2E2E2E2E2E2E2E2E2E2E2E2E2E2E2E2
310
E2E2E2E2E2E2E2E2E2E2E2E2E2E2E2E2E2E2E2E2E2E2E2E2E2E2E2E2E2E2E2E2E2E2E2E2E2E2E2E2E2E2E2E2E2E2E2E2E2E2E2E2E2E2E2E2E2E2E2E2E2E2E2E2E2E2E2E2E2E2E2E2E2E2E2E2E2E2E2E2E2E2E2E2E2E2E2E2E2E2E2E2E2E2E2E2E2E2E2E2E2E2E2E2E2E2E2E2E2E2E2E2E2E2E2E2E2E2E2E2E2E2E2E2E2E2E2
310
E2E2E2E2E2E2E2E2E2E2E2E2E2E2E2E2E2E2E2E2E2E2E2E2E2E2E2E2E2E2E2E2E2E2E2E2E2E2E2E2E2E2E2E2E2E2E2E2E2E2E2E2E2E2E2E2E2E2E2E2E2E2E2E2E2E2E2E2E2E2E2E2E2E2E2E2E2E2E2E2E2E2E2E2E2E2E2E2E2E2E2E2E2E2E2E2E2E2E2E2E2E2E2E2E2E2E2E2E2E2E2E2E2E2E2E2E2E2E2E2E2E2E2E2E2E2E2
310
E2E2E2E2E2E2E2E2E2E2E2E2E2E2E2E2E2E2E2E2E2E2E2E2E2E2E2E2E2E2E2E2E2E2E2E2E2E2E2E2E2E2E2E2E2E2E2E2E2E2E2E2E2E2E2E2E2E2E2E2E2E2E2E2E2E2E2E2E2E2E2E2E2E2E2E2E2E2E2E2E2E2E2E2E2E2E2E2E2E2E2E2E2E2E2E2E2E2E2E2E2E2E2E2E2E2E2E2E2E2E2E2E2E2E2E2E2E2E2E2E2E2E2E2E2E2E2
310
E2E2E2E2E2E2E2E2E2E2E2E2E2E2E2E2E2E2E2E2E2E2E2E2E2E2E2E2E2E2E2E2E2E2E2E2E2E2E2E2E2E2E2E2E2E2E2E2E2E2E2E2E2E2E2E2E2E2E2E2E2E2E2E2E2E2E2E2E2E2E2E2E2E2E2E2E2E2E2E2E2E2E2E2E2E2E2E2E2E2E2E2E2E2E2E2E2E2E2E2E2E2E2E2E2E2E2E2E2E2E2E2E2E2E2E2E2E2E2E2E2E2E2E2E2E2E2
310
E2E2E2E2E2E2E2E2E2E2E2E2E2E2E2E2E2E2E2E2E2E2E2E2E2E2E2E2E2E2E2E2E2E2E2E2E2E2E2E2E2E2E2E2E2E2E2E2E2E2E2E2E2E2E2E2E2E2E2E2E2E2E2E2E2E2E2E2E2E2E2E2E2E2E2E2E2E2E2E2E2E2E2E2E2E2E2E2E2E2E2E2E2E2E2E2E2E2E2E2E2E2E2E2E2E2E2E2E2E2E2E2E2E2E2E2E2E2E2E2E2E2E2E2E2E2E2
310
E2E2E2E2E2E2E2E2E2E2E2E2E2E2E2E2E2E2E2E2E2E2E2E2E2E2E2E2E2E2E2E2E2E2E2E2E2E2E2E2E2E2E2E2E2E2E2E2E2E2E2E2E2E2E2E2E2E2E2E2E2E2E2E2E2E2E2E2E2E2E2E2E2E2E2E2E2E2E2E2E2E2E2E2E2E2E2E2E2E2E2E2E2E2E2E2E2E2E2E2E2E2E2E2E2E2E2E2E2E2E2E2E2E2E2E2E2E2E2E2E2E2E2E2E2E2E2
310
E2E2E2E2E2E2E2E2E2E2E2E2E2E2E2E2E2E2E2E2E2E2E2E2E2E2E2E2E2E2E2E2E2E2E2E2E2E2E2E2E2E2E2E2E2E2E2E2E2E2E2E2E2E2E2E2E2E2E2E2E2E2E2E2E2E2E2E2E2E2E2E2E2E2E2E2E2E2E2E2E2E2E2E2E2E2E2E2E2E2E2E2E2E2E2E2E2E2E2E2E2E2E2E2E2E2E2E2E2E2E2E2E2E2E2E2E2E2E2E2E2E2E2E2E2E2E2
310
E2E2E2E2E2E2E2E2E2E2E2E2E2E2E2E2E2E2E2E2E2E2E2E2E2E2E2E2E2E2E2E2E2E2E2E2E2E2E2E2E2E2E2E2E2E2E2E2E2E2E2E2E2E2E2E2E2E2E2E2E2E2E2E2E2E2E2E2E2E2E2E2E2E2E2E2E2E2E2E2E2E2E2E2E2E2E2E2E2E2E2E2E2E2E2E2E2E2E2E2E2E2E2E2E2E2E2E2E2E2E2E2E2E2E2E2E2E2E2E2E2E2E2E2E2E2E2
310
E2E2E2E2E2E2E2E2E2E2E2E2E2E2E2E2E2E2E2E2E2E2E2E2E2E2E2E2E2E2E2E2E2E2E2E2E2E2E2E2E2E2E2E2E2E2E2E2E2E2E2E2E2E2E2E2E2E2E2E2E2E2E2E2E2E2E2E2E2E2E2E2E2E2E2E2E2E2E2E2E2E2E2E2E2E2E2E2E2E2E2E2E2E2E2E2E2E2E2E2E2E2E2E2E2E2E2E2E2E2E2E2E2E2E2E2E2E2E2E2E2E2E2E2E2E2E2
310
E2E2E2E2E2E2E2E2E2E2E2E2E2E2E2E2E2E2E2E2E2E2E2E2E2E2E2E2E2E2E2E2E2E2E2E2E2E2E2E2E2E2E2E2E2E2E2E2E2E2E2E2E2E2E2E2E2E2E2E2E2E2E2E2E2E2E2E2E2E2E2E2E2E2E2E2E2E2E2E2E2E2E2E2E2E2E2E2E2E2E2E2E2E2E2E2E2E2E2E2E2E2E2E2E2E2E2E2E2E2E2E2E2E2E2E2E2E2E2E2E2E2E2E2E2E2E2
310
E2E2E2E2E2E2E2E2E2E2E2E2E2E2E2E2E2E2E2E2E2E2E2E2E2E2E2E2E2E2E2E2E2E2E2E2E2E2E2E2E2E2E2E2E2E2E2E2E2E2E2E2E2E2E2E2E2E2E2E2E2E2E2E2E2E2E2E2E2E2E2E2E2E2E2E2E2E2E2E2E2E2E2E2E2E2E2E2E2E2E2E2E2E2E2E2E2E2E2E2E2E2E2E2E2E2E2E2E2E2E2E2E2E2E2E2E2E2E2E2E2E2E2E2E2E2E2
310
E2E2E2E2E2E2E2E2E2E2E2E2E2E2E2E2E2E2E2E2E2E2E2E2E2E2E2E2E2E2E2E2E2E2E2E2E2E2E2E2E2E2E2E2E2E2E2E2E2E2E2E2E2E2E2E2E2E2E2E2E2E2E2E2E2E2E2E2E2E2E2E2E2E2E2E2E2E2E2E2E2E2E2E2E2E2E2E2E2E2E2E2E2E2E2E2E2E2E2E2E2E2E2E2E2E2E2E2E2E2E2E2E2E2E2E2E2E2E2E2E2E2E2E2E2E2E2
310
E2E2E2E2E2E2E2E2E2E2E2E2E2E2E2E2E2E2E2E2E2E2E2E2E2E2E2E2E2E2E2E2E2E2E2E2E2E2E2E2E2E2E2E2E2E2E2E2E2E2E2E2E2E2E2E2E2E2E2E2E2E2E2E2E2E2E2E2E2E2E2E2E2E2E2E2E2E2E2E2E2E2E2E2E2E2E2E2E2E2E2E2E2E2E2E2E2E2E2E2E2E2E2E2E2E2E2E2E2E2E2E2E2E2E2E2E2E2E2E2E2E2E2E2E2E2E2
310
E2E2E2E2E2E2E2E2E2E2E2E2E2E2E2E2E2E2E2E2E2E2E2E2E2E2E2E2E2E2E2E2E2E2E2E2E2E2E2E2E2E2E2E2E2E2E2E2E2E2E2E2E2E2E2E2E2E2E2E2E2E2E2E2E2E2E2E2E2E2E2E2E2E2E2E2E2E2E2E2E2E2E2E2E2E2E2E2E2E2E2E2E2E2E2E2E2E2E2E2E2E2E2E2E2E2E2E2E2E2E2E2E2E2E2E2E2E2E2E2E2E2E2E2E2E2E2
310
E2E2E2E2E2E2E2E2E2E2E2E2E2E2E2E2E2E2E2E2E2E2E2E2E2E2E2E2E2E2E2E2E2E2E2E2E2E2E2E2E2E2E2E2E2E2E2E2E2E2E2E2E2E2E2E2E2E2E2E2E2E2E2E2E2E2E2E2E2E2E2E2E2E2E2E2E2E2E2E2E2E2E2E2E2E2E2E2E2E2E2E2E2E2E2E2E2E2E2E2E2E2E2E2E2E2E2E2E2E2E2E2E2E2E2E2E2E2E2E2E2E2E2E2E2E2E2
310
E2E2E2E2E2E2E2E2E2E2E2E2E2E2E2E2E2E2E2E2E2E2E2E2E2E2E2E2E2E2E2E2E2E2E2E2E2E2E2E2E2E2E2E2E2E2E2E2E2E2E2E2E2E2E2E2E2E2E2E2E2E2E2E2E2E2E2E2E2E2E2E2E2E2E2E2E2E2E2E2E2E2E2E2E2E2E2E2E2E2E2E2E2E2E2E2E2E2E2E2E2E2E2E2E2E2E2E2E2E2E2E2E2E2E2E2E2E2E2E2E2E2E2E2E2E2E2
310
E2E2E2E2E2E2E2E2E2E2E2E2E2E2E2E2E2E2E2E2E2E2E2E2E2E2E2E2E2E2E2E2E2E2E2E2E2E2E2E2E2E2E2E2E2E2E2E2E2E2E2E2E2E2E2E2E2E2E2E2E2E2E2E2E2E2E2E2E2E2E2E2E2E2E2E2E2E2E2E2E2E2E2E2E2E2E2E2E2E2E2E2E2E2E2E2E2E2E2E2E2E2E2E2E2E2E2E2E2E2E2E2E2E2E2E2E2E2E2E2E2E2E2E2E2E2E2
310
E2E2E2E2E2E2E2E2E2E2E2E2E2E2E2E2E2E2E2E2E2E2E2E2E2E2E2E2E2E2E2E2E2E2E2E2E2E2E2E2E2E2E2E2E2E2E2E2E2E2E2E2E2E2E2E2E2E2E2E2E2E2E2E2E2E2E2E2E2E2E2E2E2E2E2E2E2E2E2E2E2E2E2E2E2E2E2E2E2E2E2E2E2E2E2E2E2E2E2E2E2E2E2E2E2E2E2E2E2E2E2E2E2E2E2E2E2E2E2E2E2E2E2E2E2E2E2
310
E2E2E2E2E2E2E2E2E2E2E2E2E2E2E2E2E2E2E2E2E2E2E2E2E2E2E2E2E2E2E2E2E2E2E2E2E2E2E2E2E2E2E2E2E2E2E2E2E2E2E2E2E2E2E2E2E2E2E2E2E2E2E2E2E2E2E2E2E2E2E2E2E2E2E2E2E2E2E2E2E2E2E2E2E2E2E2E2E2E2E2E2E2E2E2E2E2E2E2E2E2E2E2E2E2E2E2E2E2E2E2E2E2E2E2E2E2E2E2E2E2E2E2E2E2E2E2
310
E2E2E2E2E2E2E2E2E2E2E2E2E2E2E2E2E2E2E2E2E2E2E2E2E2E2E2E2E2E2E2E2E2E2E2E2E2E2E2E2E2E2E2E2E2E2E2E2E2E2E2E2E2E2E2E2E2E2E2E2E2E2E2E2E2E2E2E2E2E2E2E2E2E2E2E2E2E2E2E2E2E2E2E2E2E2E2E2E2E2E2E2E2E2E2E2E2E2E2E2E2E2E2E2E2E2E2E2E2E2E2E2E2E2E2E2E2E2E2E2E2E2E2E2E2E2E2
310
E2E2E2E2E2E2E2E2E2E2E2E2E2E2E2E2E2E2E2E2E2E2E2E2E2E2E2E2E2E2E2E2E2E2E2E2E2E2E2E2E2E2E2E2E2E2E2E2E2E2E2E2E2E2E2E2E2E2E2E2E2E2E2E2E2E2E2E2E2E2E2E2E2E2E2E2E2E2E2E2E2E2E2E2E2E2E2E2E2E2E2E2E2E2E2E2E2E2E2E2E2E2E2E2E2E2E2E2E2E2E2E2E2E2E2E2E2E2E2E2E2E2E2E2E2E2E2
310
E2E2E2E2E2E2E2E2E2E2E2E2E2E2E2E2E2E2E2E2E2E2E2E2E2E2E2E2E2E2E2E2E2E2E2E2E2E2E2E2E2E2E2E2E2E2E2E2E2E2E2E2E2E2E2E2E2E2E2E2E2E2E2E2E2E2E2E2E2E2E2E2E2E2E2E2E2E2E2E2E2E2E2E2E2E2E2E2E2E2E2E2E2E2E2E2E2E2E2E2E2E2E2E2E2E2E2E2E2E2E2E2E2E2E2E2E2E2E2E2E2E2E2E2E2E2E2
310
E2E2E2E2E2E2E2E2E2E2E2E2E2E2E2E2E2E2E2E2E2E2E2E2E2E2E2E2E2E2E2E2E2E2E2E2E2E2E2E2E2E2E2E2E2E2E2E2E2E2E2E2E2E2E2E2E2E2E2E2E2E2E2E2E2E2E2E2E2E2E2E2E2E2E2E2E2E2E2E2E2E2E2E2E2E2E2E2E2E2E2E2E2E2E2E2E2E2E2E2E2E2E2E2E2E2E2E2E2E2E2E2E2E2E2E2E2E2E2E2E2E2E2E2E2E2E2
310
E2E2E2E2E2E2E2E2E2E2E2E2E2E2E2E2E2E2E2E2E2E2E2E2E2E2E2E2E2E2E2E2E2E2E2E2E2E2E2E2E2E2E2E2E2E2E2E2E2E2E2E2E2E2E2E2E2E2E2E2E2E2E2E2E2E2E2E2E2E2E2E2E2E2E2E2E2E2E2E2E2E2E2E2E2E2E2E2E2E2E2E2E2E2E2E2E2E2E2E2E2E2E2E2E2E2E2E2E2E2E2E2E2E2E2E2E2E2E2E2E2E2E2E2E2E2E2
310
E2E2E2E2E2E2E2E2E2E2E2E2E2E2E2E2E2E2E2E2E2E2E2E2E2E2E2E2E2E2E2E2E2E2E2E2E2E2E2E2E2E2E2E2E2E2E2E2E2E2E2E2E2E2E2E2E2E2E2E2E2E2E2E2E2E2E2E2E2E2E2E2E2E2E2E2E2E2E2E2E2E2E2E2E2E2E2E2E2E2E2E2E2E2E2E2E2E2E2E2E2E2E2E2E2E2E2E2E2E2E2E2E2E2E2E2E2E2E2E2E2E2E2E2E2E2E2
310
E2E2E2E2E2E2E2E2E2E2E2E2E2E2E2E2E2E2E2E2E2E2E2E2E2E2E2E2E2E2E2E2E2E2E2E2E2E2E2E2E2E2E2E2E2E2E2E2E2E2E2E2E2E2E2E2E2E2E2E2E2E2E2E2E2E2E2E2E2E2E2E2E2E2E2E2E2E2E2E2E2E2E2E2E2E2E2E2E2E2E2E2E2E2E2E2E2E2E2E2E2E2E2E2E2E2E2E2E2E2E2E2E2E2E2E2E2E2E2E2E2E2E2E2E2E2E2
310
E2E2E2E2E2E2E2E2E2E2E2E2E2E2E2E2E2E2E2E2E2E2E2E2E2E2E2E2E2E2E2E2E2E2E2E2E2E2E2E2E2E2E2E2E2E2E2E2E2E2E2E2E2E2E2E2E2E2E2E2E2E2E2E2E2E2E2E2E2E2E2E2E2E2E2E2E2E2E2E2E2E2E2E2E2E2E2E2E2E2E2E2E2E2E2E2E2E2E2E2E2E2E2E2E2E2E2E2E2E2E2E2E2E2E2E2E2E2E2E2E2E2E2E2E2E2E2
310
E2E2E2E2E2E2E2E2E2E2E2E2E2E2E2E2E2E2E2E2E2E2E2E2E2E2E2E2E2E2E2E2E2E2E2E2E2E2E2E2E2E2E2E2E2E2E2E2E2E2E2E2E2E2E2E2E2E2E2E2E2E2E2E2E2E2E2E2E2E2E2E2E2E2E2E2E2E2E2E2E2E2E2E2E2E2E2E2E2E2E2E2E2E2E2E2E2E2E2E2E2E2E2E2E2E2E2E2E2E2E2E2E2E2E2E2E2E2E2E2E2E2E2E2E2E2E2
310
E2E2E2E2E2E2E2E2E2E2E2E2E2E2E2E2E2E2E2E2E2E2E2E2E2E2E2E2E2E2E2E2E2E2E2E2E2E2E2E2E2E2E2E2E2E2E2E2E2E2E2E2E2E2E2E2E2E2E2E2E2E2E2E2E2E2E2E2E2E2E2E2E2E2E2E2E2E2E2E2E2E2E2E2E2E2E2E2E2E2E2E2E2E2E2E2E2E2E2E2E2E2E2E2E2E2E2E2E2E2E2E2E2E2E2E2E2E2E2E2E2E2E2E2E2E2E2
310
E2E2E2E2E2E2E2E2E2E2E2E2E2E2E2E2E2E2E2E2E2E2E2E2E2E2E2E2E2E2E2E2E2E2E2E2E2E2E2E2E2E2E2E2E2E2E2E2E2E2E2E2E2E2E2E2E2E2E2E2E2E2E2E2E2E2E2E2E2E2E2E2E2E2E2E2E2E2E2E2E2E2E2E2E2E2E2E2E2E2E2E2E2E2E2E2E2E2E2E2E2E2E2E2E2E2E2E2E2E2E2E2E2E2E2E2E2E2E2E2E2E2E2E2E2E2E2
310
E2E2E2E2E2E2E2E2E2E2E2E2E2E2E2E2E2E2E2E2E2E2E2E2E2E2E2E2E2E2E2E2E2E2E2E2E2E2E2E2E2E2E2E2E2E2E2E2E2E2E2E2E2E2E2E2E2E2E2E2E2E2E2E2E2E2E2E2E2E2E2E2E2E2E2E2E2E2E2E2E2E2E2E2E2E2E2E2E2E2E2E2E2E2E2E2E2E2E2E2E2E2E2E2E2E2E2E2E2E2E2E2E2E2E2E2E2E2E2E2E2E2E2E2E2E2E2
310
E2E2E2E2E2E2E2E2E2E2E2E2E2E2E2E2E2E2E2E2E2E2E2E2E2E2E2E2E2E2E2E2E2E2E2E2E2E2E2E2E2E2E2E2E2E2E2E2E2E2E2E2E2E2E2E2E2E2E2E2E2E2E2E2E2E2E2E2E2E2E2E2E2E2E2E2E2E2E2E2E2E2E2E2E2E2E2E2E2E2E2E2E2E2E2E2E2E2E2E2E2E2E2E2E2E2E2E2E2E2E2E2E2E2E2E2E2E2E2E2E2E2E2E2E2E2E2
310
E2E2E2E2E2E2E2E2E2E2E2E2E2E2E2E2E2E2E2E2E2E2E2E2E2E2E2E2E2E2E2E2E2E2E2E2E2E2E2E2E2E2E2E2E2E2E2E2E2E2E2E2E2E2E2E2E2E2E2E2E2E2E2E2E2E2E2E2E2E2E2E2E2E2E2E2E2E2E2E2E2E2E2E2E2E2E2E2E2E2E2E2E2E2E2E2E2E2E2E2E2E2E2E2E2E2E2E2E2E2E2E2E2E2E2E2E2E2E2E2E2E2E2E2E2E2E2
310
E2E2E2E2E2E2E2E2E2E2E2E2E2E2E2E2E2E2E2E2E2E2E2E2E2E2E2E2E2E2E2E2E2E2E2E2E2E2E2E2E2E2E2E2E2E2E2E2E2E2E2E2E2E2E2E2E2E2E2E2E2E2E2E2E2E2E2E2E2E2E2E2E2E2E2E2E2E2E2E2E2E2E2E2E2E2E2E2E2E2E2E2E2E2E2E2E2E2E2E2E2E2E2E2E2E2E2E2E2E2E2E2E2E2E2E2E2E2E2E2E2E2E2E2E2E2E2
310
E2E2E2E2E2E2E2E2E2E2E2E2E2E2E2E2E2E2E2E2E2E2E2E2E2E2E2E2E2E2E2E2E2E2E2E2E2E2E2E2E2E2E2E2E2E2E2E2E2E2E2E2E2E2E2E2E2E2E2E2E2E2E2E2E2E2E2E2E2E2E2E2E2E2E2E2E2E2E2E2E2E2E2E2E2E2E2E2E2E2E2E2E2E2E2E2E2E2E2E2E2E2E2E2E2E2E2E2E2E2E2E2E2E2E2E2E2E2E2E2E2E2E2E2E2E2E2
310
E2E2E2E2E2E2E2E2E2E2E2E2E2E2E2E2E2E2E2E2E2E2E2E2E2E2E2E2E2E2E2E2E2E2E2E2E2E2E2E2E2E2E2E2E2E2E2E2E2E2E2E2E2E2E2E2E2E2E2E2E2E2E2E2E2E2E2E2E2E2E2E2E2E2E2E2E2E2E2E2E2E2E2E2E2E2E2E2E2E2E2E2E2E2E2E2E2E2E2E2E2E2E2E2E2E2E2E2E2E2E2E2E2E2E2E2E2E2E2E2E2E2E2E2E2E2E2
310
E2E2E2E2E2E2E2E2E2E2E2E2E2E2E2E2E2E2E2E2E2E2E2E2E2E2E2E2E2E2E2E2E2E2E2E2E2E2E2E2E2E2E2E2E2E2E2E2E2E2E2E2E2E2E2E2E2E2E2E2E2E2E2E2E2E2E2E2E2E2E2E2E2E2E2E2E2E2E2E2E2E2E2E2E2E2E2E2E2E2E2E2E2E2E2E2E2E2E2E2E2E2E2E2E2E2E2E2E2E2E2E2E2E2E2E2E2E2E2E2E2E2E2E2E2E2E2
310
E2E2E2E2E2E2E2E2E2E2E2E2E2E2E2E2E2E2E2E2E2E2E2E2E2E2E2E2E2E2E2E2E2E2E2E2E2E2E2E2E2E2E2E2E2E2E2E2E2E2E2E2E2E2E2E2E2E2E2E2E2E2E2E2E2E2E2E2E2E2E2E2E2E2E2E2E2E2E2E2E2E2E2E2E2E2E2E2E2E2E2E2E2E2E2E2E2E2E2E2E2E2E2E2E2E2E2E2E2E2E2E2E2E2E2E2E2E2E2E2E2E2E2E2E2E2E2
310
E2E2E2E2E2E2E2E2E2E2E2E2E2E2E2E2E2E2E2E2E2E2E2E2E2E2E2E2E2E2E2E2E2E2E2E2E2E2E2E2E2E2E2E2E2E2E2E2E2E2E2E2E2E2E2E2E2E2E2E2E2E2E2E2E2E2E2E2E2E2E2E2E2E2E2E2E2E2E2E2E2E2E2E2E2E2E2E2E2E2E2E2E2E2E2E2E2E2E2E2E2E2E2E2E2E2E2E2E2E2E2E2E2E2E2E2E2E2E2E2E2E2E2E2E2E2E2
310
E2E2E2E2E2E2E2E2E2E2E2E2E2E2E2E2E2E2E2E2E2E2E2E2E2E2E2E2E2E2E2E2E2E2E2E2E2E2E2E2E2E2E2E2E2E2E2E2E2E2E2E2E2E2E2E2E2E2E2E2E2E2E2E2E2E2E2E2E2E2E2E2E2E2E2E2E2E2E2E2E2E2E2E2E2E2E2E2E2E2E2E2E2E2E2E2E2E2E2E2E2E2E2E2E2E2E2E2E2E2E2E2E2E2E2E2E2E2E2E2E2E2E2E2E2E2E2
310
E2E2E2E2E2E2E2E2E2E2E2E2E2E2E2E2E2E2E2E2E2E2E2E2E2E2E2E2E2E2E2E2E2E2E2E2E2E2E2E2E2E2E2E2E2E2E2E2E2E2E2E2E2E2E2E2E2E2E2E2E2E2E2E2E2E2E2E2E2E2E2E2E2E2E2E2E2E2E2E2E2E2E2E2E2E2E2E2E2E2E2E2E2E2E2E2E2E2E2E2E2E2E2E2E2E2E2E2E2E2E2E2E2E2E2E2E2E2E2E2E2E2E2E2E2E2E2
310
E2E2E2E2E2E2E2E2E2E2E2E2E2E2E2E2E2E2E2E2E2E2E2E2E2E2E2E2E2E2E2E2E2E2E2E2E2E2E2E2E2E2E2E2E2E2E2E2E2E2E2E2E2E2E2E2E2E2E2E2E2E2E2E2E2E2E2E2E2E2E2E2E2E2E2E2E2E2E2E2E2E2E2E2E2E2E2E2E2E2E2E2E2E2E2E2E2E2E2E2E2E2E2E2E2E2E2E2E2E2E2E2E2E2E2E2E2E2E2E2E2E2E2E2E2E2E2
310
E2E2E2E2E2E2E2E2E2E2E2E2E2E2E2E2E2E2E2E2E2E2E2E2E2E2E2E2E2E2E2E2E2E2E2E2E2E2E2E2E2E2E2E2E2E2E2E2E2E2E2E2E2E2E2E2E2E2E2E2E2E2E2E2E2E2E2E2E2E2E2E2E2E2E2E2E2E2E2E2E2E2E2E2E2E2E2E2E2E2E2E2E2E2E2E2E2E2E2E2E2E2E2E2E2E2E2E2E2E2E2E2E2E2E2E2E2E2E2E2E2E2E2E2E2E2E2
310
E2E2E2E2E2E2E2E2E2E2E2E2E2E2E2E2E2E2E2E2E2E2E2E2E2E2E2E2E2E2E2E2E2E2E2E2E2E2E2E2E2E2E2E2E2E2E2E2E2E2E2E2E2E2E2E2E2E2E2E2E2E2E2E2E2E2E2E2E2E2E2E2E2E2E2E2E2E2E2E2E2E2E2E2E2E2E2E2E2E2E2E2E2E2E2E2E2E2E2E2E2E2E2E2E2E2E2E2E2E2E2E2E2E2E2E2E2E2E2E2E2E2E2E2E2E2E2
310
E2E2E2E2E2E2E2E2E2E2E2E2E2E2E2E2E2E2E2E2E2E2E2E2E2E2E2E2E2E2E2E2E2E2E2E2E2E2E2E2E2E2E2E2E2E2E2E2E2E2E2E2E2E2E2E2E2E2E2E2E2E2E2E2E2E2E2E2E2E2E2E2E2E2E2E2E2E2E2E2E2E2E2E2E2E2E2E2E2E2E2E2E2E2E2E2E2E2E2E2E2E2E2E2E2E2E2E2E2E2E2E2E2E2E2E2E2E2E2E2E2E2E2E2E2E2E2
310
E2E2E2E2E2E2E2E2E2E2E2E2E2E2E2E2E2E2E2E2E2E2E2E2E2E2E2E2E2E2E2E2E2E2E2E2E2E2E2E2E2E2E2E2E2E2E2E2E2E2E2E2E2E2E2E2E2E2E2E2E2E2E2E2E2E2E2E2E2E2E2E2E2E2E2E2E2E2E2E2E2E2E2E2E2E2E2E2E2E2E2E2E2E2E2E2E2E2E2E2E2E2E2E2E2E2E2E2E2E2E2E2E2E2E2E2E2E2E2E2E2E2E2E2E2E2E2
310
E2E2E2E2E2E2E2E2E2E2E2E2E2E2E2E2E2E2E2E2E2E2E2E2E2E2E2E2E2E2E2E2E2E2E2E2E2E2E2E2E2E2E2E2E2E2E2E2E2E2E2E2E2E2E2E2E2E2E2E2E2E2E2E2E2E2E2E2E2E2E2E2E2E2E2E2E2E2E2E2E2E2E2E2E2E2E2E2E2E2E2E2E2E2E2E2E2E2E2E2E2E2E2E2E2E2E2E2E2E2E2E2E2E2E2E2E2E2E2E2E2E2E2E2E2E2E2
310
E2E2E2E2E2E2E2E2E2E2E2E2E2E2E2E2E2E2E2E2E2E2E2E2E2E2E2E2E2E2E2E2E2E2E2E2E2E2E2E2E2E2E2E2E2E2E2E2E2E2E2E2E2E2E2E2E2E2E2E2E2E2E2E2E2E2E2E2E2E2E2E2E2E2E2E2E2E2E2E2E2E2E2E2E2E2E2E2E2E2E2E2E2E2E2E2E2E2E2E2E2E2E2E2E2E2E2E2E2E2E2E2E2E2E2E2E2E2E2E2E2E2E2E2E2E2E2
310
E2E2E2E2E2E2E2E2E2E2E2E2E2E2E2E2E2E2E2E2E2E2E2E2E2E2E2E2E2E2E2E2E2E2E2E2E2E2E2E2E2E2E2E2E2E2E2E2E2E2E2E2E2E2E2E2E2E2E2E2E2E2E2E2E2E2E2E2E2E2E2E2E2E2E2E2E2E2E2E2E2E2E2E2E2E2E2E2E2E2E2E2E2E2E2E2E2E2E2E2E2E2E2E2E2E2E2E2E2E2E2E2E2E2E2E2E2E2E2E2E2E2E2E2E2E2E2
310
E2E2E2E2E2E2E2E2E2E2E2E2E2E2E2E2E2E2E2E2E2E2E2E2E2E2E2E2E2E2E2E2E2E2E2E2E2E2E2E2E2E2E2E2E2E2E2E2E2E2E2E2E2E2E2E2E2E2E2E2E2E2E2E2E2E2E2E2E2E2E2E2E2E2E2E2E2E2E2E2E2E2E2E2E2E2E2E2E2E2E2E2E2E2E2E2E2E2E2E2E2E2E2E2E2E2E2E2E2E2E2E2E2E2E2E2E2E2E2E2E2E2E2E2E2E2E2
310
E2E2E2E2E2E2E2E2E2E2E2E2E2E2E2E2E2E2E2E2E2E2E2E2E2E2E2E2E2E2E2E2E2E2E2E2E2E2E2E2E2E2E2E2E2E2E2E2E2E2E2E2E2E2E2E2E2E2E2E2E2E2E2E2E2E2E2E2E2E2E2E2E2E2E2E2E2E2E2E2E2E2E2E2E2E2E2E2E2E2E2E2E2E2E2E2E2E2E2E2E2E2E2E2E2E2E2E2E2E2E2E2E2E2E2E2E2E2E2E2E2E2E2E2E2E2E2
310
E2E2E2E2E2E2E2E2E2E2E2E2E2E2E2E2E2E2E2E2E2E2E2E2E2E2E2E2E2E2E2E2E2E2E2E2E2E2E2E2E2E2E2E2E2E2E2E2E2E2E2E2E2E2E2E2E2E2E2E2E2E2E2E2E2E2E2E2E2E2E2E2E2E2E2E2E2E2E2E2E2E2E2E2E2E2E2E2E2E2E2E2E2E2E2E2E2E2E2E2E2E2E2E2E2E2E2E2E2E2E2E2E2E2E2E2E2E2E2E2E2E2E2E2E2E2E2
310
E2E2E2E2E2E2E2E2E2E2E2E2E2E2E2E2E2E2E2E2E2E2E2E2E2E2E2E2E2E2E2E2E2E2E2E2E2E2E2E2E2E2E2E2E2E2E2E2E2E2E2E2E2E2E2E2E2E2E2E2E2E2E2E2E2E2E2E2E2E2E2E2E2E2E2E2E2E2E2E2E2E2E2E2E2E2E2E2E2E2E2E2E2E2E2E2E2E2E2E2E2E2E2E2E2E2E2E2E2E2E2E2E2E2E2E2E2E2E2E2E2E2E2E2E2E2E2
310
E2E2E2E2E2E2E2E2E2E2E2E2E2E2E2E2E2E2E2E2E2E2E2E2E2E2E2E2E2E2E2E2E2E2E2E2E2E2E2E2E2E2E2E2E2E2E2E2E2E2E2E2E2E2E2E2E2E2E2E2E2E2E2E2E2E2E2E2E2E2E2E2E2E2E2E2E2E2E2E2E2E2E2E2E2E2E2E2E2E2E2E2E2E2E2E2E2E2E2E2E2E2E2E2E2E2E2E2E2E2E2E2E2E2E2E2E2E2E2E2E2E2E2E2E2E2E2
310
E2E2E2E2E2E2E2E2E2E2E2E2E2E2E2E2E2E2E2E2E2E2E2E2E2E2E2E2E2E2E2E2E2E2E2E2E2E2E2E2E2E2E2E2E2E2E2E2E2E2E2E2E2E2E2E2E2E2E2E2E2E2E2E2E2E2E2E2E2E2E2E2E2E2E2E2E2E2E2E2E2E2E2E2E2E2E2E2E2E2E2E2E2E2E2E2E2E2E2E2E2E2E2E2E2E2E2E2E2E2E2E2E2E2E2E2E2E2E2E2E2E2E2E2E2E2E2
310
E2E2E2E2E2E2E2E2E2E2E2E2E2E2E2E2E2E2E2E2E2E2E2E2E2E2E2E2E2E2E2E2E2E2E2E2E2E2E2E2E2E2E2E2E2E2E2E2E2E2E2E2E2E2E2E2E2E2E2E2E2E2E2E2E2E2E2E2E2E2E2E2E2E2E2E2E2E2E2E2E2E2E2E2E2E2E2E2E2E2E2E2E2E2E2E2E2E2E2E2E2E2E2E2E2E2E2E2E2E2E2E2E2E2E2E2E2E2E2E2E2E2E2E2E2E2E2
310
E2E2E2E2E2E2E2E2E2E2E2E2E2E2E2E2E2E2E2E2E2E2E2E2E2E2E2E2E2E2E2E2E2E2E2E2E2E2E2E2E2E2E2E2E2E2E2E2E2E2E2E2E2E2E2E2E2E2E2E2E2E2E2E2E2E2E2E2E2E2E2E2E2E2E2E2E2E2E2E2E2E2E2E2E2E2E2E2E2E2E2E2E2E2E2E2E2E2E2E2E2E2E2E2E2E2E2E2E2E2E2E2E2E2E2E2E2E2E2E2E2E2E2E2E2E2E2
310
E2E2E2E2E2E2E2E2E2E2E2E2E2E2E2E2E2E2E2E2E2E2E2E2E2E2E2E2E2E2E2E2E2E2E2E2E2E2E2E2E2E2E2E2E2E2E2E2E2E2E2E2E2E2E2E2E2E2E2E2E2E2E2E2E2E2E2E2E2E2E2E2E2E2E2E2E2E2E2E2E2E2E2E2E2E2E2E2E2E2E2E2E2E2E2E2E2E2E2E2E2E2E2E2E2E2E2E2E2E2E2E2E2E2E2E2E2E2E2E2E2E2E2E2E2E2E2
310
E2E2E2E2E2E2E2E2E2E2E2E2E2E2E2E2E2E2E2E2E2E2E2E2E2E2E2E2E2E2E2E2E2E2E2E2E2E2E2E2E2E2E2E2E2E2E2E2E2E2E2E2E2E2E2E2E2E2E2E2E2E2E2E2E2E2E2E2E2E2E2E2E2E2E2E2E2E2E2E2E2E2E2E2E2E2E2E2E2E2E2E2E2E2E2E2E2E2E2E2E2E2E2E2E2E2E2E2E2E2E2E2E2E2E2E2E2E2E2E2E2E2E2E2E2E2E2
310
E2E2E2E2E2E2E2E2E2E2E2E2E2E2E2E2E2E2E2E2E2E2E2E2E2E2E2E2E2E2E2E2E2E2E2E2E2E2E2E2E2E2E2E2E2E2E2E2E2E2E2E2E2E2E2E2E2E2E2E2E2E2E2E2E2E2E2E2E2E2E2E2E2E2E2E2E2E2E2E2E2E2E2E2E2E2E2E2E2E2E2E2E2E2E2E2E2E2E2E2E2E2E2E2E2E2E2E2E2E2E2E2E2E2E2E2E2E2E2E2E2E2E2E2E2E2E2
310
E2E2E2E2E2E2E2E2E2E2E2E2E2E2E2E2E2E2E2E2E2E2E2E2E2E2E2E2E2E2E2E2E2E2E2E2E2E2E2E2E2E2E2E2E2E2E2E2E2E2E2E2E2E2E2E2E2E2E2E2E2E2E2E2E2E2E2E2E2E2E2E2E2E2E2E2E2E2E2E2E2E2E2E2E2E2E2E2E2E2E2E2E2E2E2E2E2E2E2E2E2E2E2E2E2E2E2E2E2E2E2E2E2E2E2E2E2E2E2E2E2E2E2E2E2E2E2
310
E2E2E2E2E2E2E2E2E2E2E2E2E2E2E2E2E2E2E2E2E2E2E2E2E2E2E2E2E2E2E2E2E2E2E2E2E2E2E2E2E2E2E2E2E2E2E2E2E2E2E2E2E2E2E2E2E2E2E2E2E2E2E2E2E2E2E2E2E2E2E2E2E2E2E2E2E2E2E2E2E2E2E2E2E2E2E2E2E2E2E2E2E2E2E2E2E2E2E2E2E2E2E2E2E2E2E2E2E2E2E2E2E2E2E2E2E2E2E2E2E2E2E2E2E2E2E2
310
E2E2E2E2E2E2E2E2E2E2E2E2E2E2E2E2E2E2E2E2E2E2E2E2E2E2E2E2E2E2E2E2E2E2E2E2E2E2E2E2E2E2E2E2E2E2E2E2E2E2E2E2E2E2E2E2E2E2E2E2E2E2E2E2E2E2E2E2E2E2E2E2E2E2E2E2E2E2E2E2E2E2E2E2E2E2E2E2E2E2E2E2E2E2E2E2E2E2E2E2E2E2E2E2E2E2E2E2E2E2E2E2E2E2E2E2E2E2E2E2E2E2E2E2E2E2E2
310
E2E2E2E2E2E2E2E2E2E2E2E2E2E2E2E2E2E2E2E2E2E2E2E2E2E2E2E2E2E2E2E2E2E2E2E2E2E2E2E2E2E2E2E2E2E2E2E2E2E2E2E2E2E2E2E2E2E2E2E2E2E2E2E2E2E2E2E2E2E2E2E2E2E2E2E2E2E2E2E2E2E2E2E2E2E2E2E2E2E2E2E2E2E2E2E2E2E2E2E2E2E2E2E2E2E2E2E2E2E2E2E2E2E2E2E2E2E2E2E2E2E2E2E2E2E2E2
310
E2E2E2E2E2E2E2E2E2E2E2E2E2E2E2E2E2E2E2E2E2E2E2E2E2E2E2E2E2E2E2E2E2E2E2E2E2E2E2E2E2E2E2E2E2E2E2E2E2E2E2E2E2E2E2E2E2E2E2E2E2E2E2E2E2E2E2E2E2E2E2E2E2E2E2E2E2E2E2E2E2E2E2E2E2E2E2E2E2E2E2E2E2E2E2E2E2E2E2E2E2E2E2E2E2E2E2E2E2E2E2E2E2E2E2E2E2E2E2E2E2E2E2E2E2E2E2
310
E2E2E2E2E2E2E2E2E2E2E2E2E2E2E2E2E2E2E2E2E2E2E2E2E2E2E2E2E2E2E2E2E2E2E2E2E2E2E2E2E2E2E2E2E2E2E2E2E2E2E2E2E2E2E2E2E2E2E2E2E2E2E2E2E2E2E2E2E2E2E2E2E2E2E2E2E2E2E2E2E2E2E2E2E2E2E2E2E2E2E2E2E2E2E2E2E2E2E2E2E2E2E2E2E2E2E2E2E2E2E2E2E2E2E2E2E2E2E2E2E2E2E2E2E2E2E2
310
E2E2E2E2E2E2E2E2E2E2E2E2E2E2E2E2E2E2E2E2E2E2E2E2E2E2E2E2E2E2E2E2E2E2E2E2E2E2E2E2E2E2E2E2E2E2E2E2E2E2E2E2E2E2E2E2E2E2E2E2E2E2E2E2E2E2E2E2E2E2E2E2E2E2E2E2E2E2E2E2E2E2E2E2E2E2E2E2E2E2E2E2E2E2E2E2E2E2E2E2E2E2E2E2E2E2E2E2E2E2E2E2E2E2E2E2E2E2E2E2E2E2E2E2E2E2E2
310
E2E2E2E2E2E2E2E2E2E2E2E2E2E2E2E2E2E2E2E2E2E2E2E2E2E2E2E2E2E2E2E2E2E2E2E2E2E2E2E2E2E2E2E2E2E2E2E2E2E2E2E2E2E2E2E2E2E2E2E2E2E2E2E2E2E2E2E2E2E2E2E2E2E2E2E2E2E2E2E2E2E2E2E2E2E2E2E2E2E2E2E2E2E2E2E2E2E2E2E2E2E2E2E2E2E2E2E2E2E2E2E2E2E2E2E2E2E2E2E2E2E2E2E2E2E2E2
310
E2E2E2E2E2E2E2E2E2E2E2E2E2E2E2E2E2E2E2E2E2E2E2E2E2E2E2E2E2E2E2E2E2E2E2E2E2E2E2E2E2E2E2E2E2E2E2E2E2E2E2E2E2E2E2E2E2E2E2E2E2E2E2E2E2E2E2E2E2E2E2E2E2E2E2E2E2E2E2E2E2E2E2E2E2E2E2E2E2E2E2E2E2E2E2E2E2E2E2E2E2E2E2E2E2E2E2E2E2E2E2E2E2E2E2E2E2E2E2E2E2E2E2E2E2E2E2
310
E2E2E2E2E2E2E2E2E2E2E2E2E2E2E2E2E2E2E2E2E2E2E2E2E2E2E2E2E2E2E2E2E2E2E2E2E2E2E2E2E2E2E2E2E2E2E2E2E2E2E2E2E2E2E2E2E2E2E2E2E2E2E2E2E2E2E2E2E2E2E2E2E2E2E2E2E2E2E2E2E2E2E2E2E2E2E2E2E2E2E2E2E2E2E2E2E2E2E2E2E2E2E2E2E2E2E2E2E2E2E2E2E2E2E2E2E2E2E2E2E2E2E2E2E2E2E2
310
E2E2E2E2E2E2E2E2E2E2E2E2E2E2E2E2E2E2E2E2E2E2E2E2E2E2E2E2E2E2E2E2E2E2E2E2E2E2E2E2E2E2E2E2E2E2E2E2E2E2E2E2E2E2E2E2E2E2E2E2E2E2E2E2E2E2E2E2E2E2E2E2E2E2E2E2E2E2E2E2E2E2E2E2E2E2E2E2E2E2E2E2E2E2E2E2E2E2E2E2E2E2E2E2E2E2E2E2E2E2E2E2E2E2E2E2E2E2E2E2E2E2E2E2E2E2E2
310
E2E2E2E2E2E2E2E2E2E2E2E2E2E2E2E2E2E2E2E2E2E2E2E2E2E2E2E2E2E2E2E2E2E2E2E2E2E2E2E2E2E2E2E2E2E2E2E2E2E2E2E2E2E2E2E2E2E2E2E2E2E2E2E2E2E2E2E2E2E2E2E2E2E2E2E2E2E2E2E2E2E2E2E2E2E2E2E2E2E2E2E2E2E2E2E2E2E2E2E2E2E2E2E2E2E2E2E2E2E2E2E2E2E2E2E2E2E2E2E2E2E2E2E2E2E2E2
310
E2E2E2E2E2E2E2E2E2E2E2E2E2E2E2E2E2E2E2E2E2E2E2E2E2E2E2E2E2E2E2E2E2E2E2E2E2E2E2E2E2E2E2E2E2E2E2E2E2E2E2E2E2E2E2E2E2E2E2E2E2E2E2E2E2E2E2E2E2E2E2E2E2E2E2E2E2E2E2E2E2E2E2E2E2E2E2E2E2E2E2E2E2E2E2E2E2E2E2E2E2E2E2E2E2E2E2E2E2E2E2E2E2E2E2E2E2E2E2E2E2E2E2E2E2E2E2
310
E2E2E2E2E2E2E2E2E2E2E2E2E2E2E2E2E2E2E2E2E2E2E2E2E2E2E2E2E2E2E2E2E2E2E2E2E2E2E2E2E2E2E2E2E2E2E2E2E2E2E2E2E2E2E2E2E2E2E2E2E2E2E2E2E2E2E2E2E2E2E2E2E2E2E2E2E2E2E2E2E2E2E2E2E2E2E2E2E2E2E2E2E2E2E2E2E2E2E2E2E2E2E2E2E2E2E2E2E2E2E2E2E2E2E2E2E2E2E2E2E2E2E2E2E2E2E2
310
E2E2E2E2E2E2E2E2E2E2E2E2E2E2E2E2E2E2E2E2E2E2E2E2E2E2E2E2E2E2E2E2E2E2E2E2E2E2E2E2E2E2E2E2E2E2E2E2E2E2E2E2E2E2E2E2E2E2E2E2E2E2E2E2E2E2E2E2E2E2E2E2E2E2E2E2E2E2E2E2E2E2E2E2E2E2E2E2E2E2E2E2E2E2E2E2E2E2E2E2E2E2E2E2E2E2E2E2E2E2E2E2E2E2E2E2E2E2E2E2E2E2E2E2E2E2E2
310
E2E2E2E2E2E2E2E2E2E2E2E2E2E2E2E2E2E2E2E2E2E2E2E2E2E2E2E2E2E2E2E2E2E2E2E2E2E2E2E2E2E2E2E2E2E2E2E2E2E2E2E2E2E2E2E2E2E2E2E2E2E2E2E2E2E2E2E2E2E2E2E2E2E2E2E2E2E2E2E2E2E2E2E2E2E2E2E2E2E2E2E2E2E2E2E2E2E2E2E2E2E2E2E2E2E2E2E2E2E2E2E2E2E2E2E2E2E2E2E2E2E2E2E2E2E2E2
310
E2E2E2E2E2E2E2E2E2E2E2E2E2E2E2E2E2E2E2E2E2E2E2E2E2E2E2E2E2E2E2E2E2E2E2E2E2E2E2E2E2E2E2E2E2E2E2E2E2E2E2E2E2E2E2E2E2E2E2E2E2E2E2E2E2E2E2E2E2E2E2E2E2E2E2E2E2E2E2E2E2E2E2E2E2E2E2E2E2E2E2E2E2E2E2E2E2E2E2E2E2E2E2E2E2E2E2E2E2E2E2E2E2E2E2E2E2E2E2E2E2E2E2E2E2E2E2
310
E2E2E2E2E2E2E2E2E2E2E2E2E2E2E2E2E2E2E2E2E2E2E2E2E2E2E2E2E2E2E2E2E2E2E2E2E2E2E2E2E2E2E2E2E2E2E2E2E2E2E2E2E2E2E2E2E2E2E2E2E2E2E2E2E2E2E2E2E2E2E2E2E2E2E2E2E2E2E2E2E2E2E2E2E2E2E2E2E2E2E2E2E2E2E2E2E2E2E2E2E2E2E2E2E2E2E2E2E2E2E2E2E2E2E2E2E2E2E2E2E2E2E2E2E2E2E2
310
E2E2E2E2E2E2E2E2E2E2E2E2E2E2E2E2E2E2E2E2E2E2E2E2E2E2E2E2E2E2E2E2E2E2E2E2E2E2E2E2E2E2E2E2E2E2E2E2E2E2E2E2E2E2E2E2E2E2E2E2E2E2E2E2E2E2E2E2E2E2E2E2E2E2E2E2E2E2E2E2E2E2E2E2E2E2E2E2E2E2E2E2E2E2E2E2E2E2E2E2E2E2E2E2E2E2E2E2E2E2E2E2E2E2E2E2E2E2E2E2E2E2E2E2E2E2E2
310
E2E2E2E2E2E2E2E2E2E2E2E2E2E2E2E2E2E2E2E2E2E2E2E2E2E2E2E2E2E2E2E2E2E2E2E2E2E2E2E2E2E2E2E2E2E2E2E2E2E2E2E2E2E2E2E2E2E2E2E2E2E2E2E2E2E2E2E2E2E2E2E2E2E2E2E2E2E2E2E2E2E2E2E2E2E2E2E2E2E2E2E2E2E2E2E2E2E2E2E2E2E2E2E2E2E2E2E2E2E2E2E2E2E2E2E2E2E2E2E2E2E2E2E2E2E2E2
310
E2E2E2E2E2E2E2E2E2E2E2E2E2E2E2E2E2E2E2E2E2E2E2E2E2E2E2E2E2E2E2E2E2E2E2E2E2E2E2E2E2E2E2E2E2E2E2E2E2E2E2E2E2E2E2E2E2E2E2E2E2E2E2E2E2E2E2E2E2E2E2E2E2E2E2E2E2E2E2E2E2E2E2E2E2E2E2E2E2E2E2E2E2E2E2E2E2E2E2E2E2E2E2E2E2E2E2E2E2E2E2E2E2E2E2E2E2E2E2E2E2E2E2E2E2E2E2
310
E2E2E2E2E2E2E2E2E2E2E2E2E2E2E2E2E2E2E2E2E2E2E2E2E2E2E2E2E2E2E2E2E2E2E2E2E2E2E2E2E2E2E2E2E2E2E2E2E2E2E2E2E2E2E2E2E2E2E2E2E2E2E2E2E2E2E2E2E2E2E2E2E2E2E2E2E2E2E2E2E2E2E2E2E2E2E2E2E2E2E2E2E2E2E2E2E2E2E2E2E2E2E2E2E2E2E2E2E2E2E2E2E2E2E2E2E2E2E2E2E2E2E2E2E2E2E2
310
E2E2E2E2E2E2E2E2E2E2E2E2E2E2E2E2E2E2E2E2E2E2E2E2E2E2E2E2E2E2E2E2E2E2E2E2E2E2E2E2E2E2E2E2E2E2E2E2E2E2E2E2E2E2E2E2E2E2E2E2E2E2E2E2E2E2E2E2E2E2E2E2E2E2E2E2E2E2E2E2E2E2E2E2E2E2E2E2E2E2E2E2E2E2E2E2E2E2E2E2E2E2E2E2E2E2E2E2E2E2E2E2E2E2E2E2E2E2E2E2E2E2E2E2E2E2E2
310
E2E2E2E2E2E2E2E2E2E2E2E2E2E2E2E2E2E2E2E2E2E2E2E2E2E2E2E2E2E2E2E2E2E2E2E2E2E2E2E2E2E2E2E2E2E2E2E2E2E2E2E2E2E2E2E2E2E2E2E2E2E2E2E2E2E2E2E2E2E2E2E2E2E2E2E2E2E2E2E2E2E2E2E2E2E2E2E2E2E2E2E2E2E2E2E2E2E2E2E2E2E2E2E2E2E2E2E2E2E2E2E2E2E2E2E2E2E2E2E2E2E2E2E2E2E2E2
310
E2E2E2E2E2E2E2E2E2E2E2E2E2E2E2E2E2E2E2E2E2E2E2E2E2E2E2E2E2E2E2E2E2E2E2E2E2E2E2E2E2E2E2E2E2E2E2E2E2E2E2E2E2E2E2E2E2E2E2E2E2E2E2E2E2E2E2E2E2E2E2E2E2E2E2E2E2E2E2E2E2E2E2E2E2E2E2E2E2E2E2E2E2E2E2E2E2E2E2E2E2E2E2E2E2E2E2E2E2E2E2E2E2E2E2E2E2E2E2E2E2E2E2E2E2E2E2
310
E2E2E2E2E2E2E2E2E2E2E2E2E2E2E2E2E2E2E2E2E2E2E2E2E2E2E2E2E2E2E2E2E2E2E2E2E2E2E2E2E2E2E2E2E2E2E2E2E2E2E2E2E2E2E2E2E2E2E2E2E2E2E2E2E2E2E2E2E2E2E2E2E2E2E2E2E2E2E2E2E2E2E2E2E2E2E2E2E2E2E2E2E2E2E2E2E2E2E2E2E2E2E2E2E2E2E2E2E2E2E2E2E2E2E2E2E2E2E2E2E2E2E2E2E2E2E2
310
E2E2E2E2E2E2E2E2E2E2E2E2E2E2E2E2E2E2E2E2E2E2E2E2E2E2E2E2E2E2E2E2E2E2E2E2E2E2E2E2E2E2E2E2E2E2E2E2E2E2E2E2E2E2E2E2E2E2E2E2E2E2E2E2E2E2E2E2E2E2E2E2E2E2E2E2E2E2E2E2E2E2E2E2E2E2E2E2E2E2E2E2E2E2E2E2E2E2E2E2E2E2E2E2E2E2E2E2E2E2E2E2E2E2E2E2E2E2E2E2E2E2E2E2E2E2E2
310
E2E2E2E2E2E2E2E2E2E2E2E2E2E2E2E2E2E2E2E2E2E2E2E2E2E2E2E2E2E2E2E2E2E2E2E2E2E2E2E2E2E2E2E2E2E2E2E2E2E2E2E2E2E2E2E2E2E2E2E2E2E2E2E2E2E2E2E2E2E2E2E2E2E2E2E2E2E2E2E2E2E2E2E2E2E2E2E2E2E2E2E2E2E2E2E2E2E2E2E2E2E2E2E2E2E2E2E2E2E2E2E2E2E2E2E2E2E2E2E2E2E2E2E2E2E2E2
310
E2E2E2E2E2E2E2E2E2E2E2E2E2E2E2E2E2E2E2E2E2E2E2E2E2E2E2E2E2E2E2E2E2E2E2E2E2E2E2E2E2E2E2E2E2E2E2E2E2E2E2E2E2E2E2E2E2E2E2E2E2E2E2E2E2E2E2E2E2E2E2E2E2E2E2E2E2E2E2E2E2E2E2E2E2E2E2E2E2E2E2E2E2E2E2E2E2E2E2E2E2E2E2E2E2E2E2E2E2E2E2E2E2E2E2E2E2E2E2E2E2E2E2E2E2E2E2
310
E2E2E2E2E2E2E2E2E2E2E2E2E2E2E2E2E2E2E2E2E2E2E2E2E2E2E2E2E2E2E2E2E2E2E2E2E2E2E2E2E2E2E2E2E2E2E2E2E2E2E2E2E2E2E2E2E2E2E2E2E2E2E2E2E2E2E2E2E2E2E2E2E2E2E2E2E2E2E2E2E2E2E2E2E2E2E2E2E2E2E2E2E2E2E2E2E2E2E2E2E2E2E2E2E2E2E2E2E2E2E2E2E2E2E2E2E2E2E2E2E2E2E2E2E2E2E2
310
E2E2E2E2E2E2E2E2E2E2E2E2E2E2E2E2E2E2E2E2E2E2E2E2E2E2E2E2E2E2E2E2E2E2E2E2E2E2E2E2E2E2E2E2E2E2E2E2E2E2E2E2E2E2E2E2E2E2E2E2E2E2E2E2E2E2E2E2E2E2E2E2E2E2E2E2E2E2E2E2E2E2E2E2E2E2E2E2E2E2E2E2E2E2E2E2E2E2E2E2E2E2E2E2E2E2E2E2E2E2E2E2E2E2E2E2E2E2E2E2E2E2E2E2E2E2E2
310
E2E2E2E2E2E2E2E2E2E2E2E2E2E2E2E2E2E2E2E2E2E2E2E2E2E2E2E2E2E2E2E2E2E2E2E2E2E2E2E2E2E2E2E2E2E2E2E2E2E2E2E2E2E2E2E2E2E2E2E2E2E2E2E2E2E2E2E2E2E2E2E2E2E2E2E2E2E2E2E2E2E2E2E2E2E2E2E2E2E2E2E2E2E2E2E2E2E2E2E2E2E2E2E2E2E2E2E2E2E2E2E2E2E2E2E2E2E2E2E2E2E2E2E2E2E2E2
310
E2E2E2E2E2E2E2E2E2E2E2E2E2E2E2E2E2E2E2E2E2E2E2E2E2E2E2E2E2E2E2E2E2E2E2E2E2E2E2E2E2E2E2E2E2E2E2E2E2E2E2E2E2E2E2E2E2E2E2E2E2E2E2E2E2E2E2E2E2E2E2E2E2E2E2E2E2E2E2E2E2E2E2E2E2E2E2E2E2E2E2E2E2E2E2E2E2E2E2E2E2E2E2E2E2E2E2E2E2E2E2E2E2E2E2E2E2E2E2E2E2E2E2E2E2E2E2
310
E2E2E2E2E2E2E2E2E2E2E2E2E2E2E2E2E2E2E2E2E2E2E2E2E2E2E2E2E2E2E2E2E2E2E2E2E2E2E2E2E2E2E2E2E2E2E2E2E2E2E2E2E2E2E2E2E2E2E2E2E2E2E2E2E2E2E2E2E2E2E2E2E2E2E2E2E2E2E2E2E2E2E2E2E2E2E2E2E2E2E2E2E2E2E2E2E2E2E2E2E2E2E2E2E2E2E2E2E2E2E2E2E2E2E2E2E2E2E2E2E2E2E2E2E2E2E2
310
E2E2E2E2E2E2E2E2E2E2E2E2E2E2E2E2E2E2E2E2E2E2E2E2E2E2E2E2E2E2E2E2E2E2E2E2E2E2E2E2E2E2E2E2E2E2E2E2E2E2E2E2E2E2E2E2E2E2E2E2E2E2E2E2E2E2E2E2E2E2E2E2E2E2E2E2E2E2E2E2E2E2E2E2E2E2E2E2E2E2E2E2E2E2E2E2E2E2E2E2E2E2E2E2E2E2E2E2E2E2E2E2E2E2E2E2E2E2E2E2E2E2E2E2E2E2E2
310
E2E2E2E2E2E2E2E2E2E2E2E2E2E2E2E2E2E2E2E2E2E2E2E2E2E2E2E2E2E2E2E2E2E2E2E2E2E2E2E2E2E2E2E2E2E2E2E2E2E2E2E2E2E2E2E2E2E2E2E2E2E2E2E2E2E2E2E2E2E2E2E2E2E2E2E2E2E2E2E2E2E2E2E2E2E2E2E2E2E2E2E2E2E2E2E2E2E2E2E2E2E2E2E2E2E2E2E2E2E2E2E2E2E2E2E2E2E2E2E2E2E2E2E2E2E2E2
310
E2E2E2E2E2E2E2E2E2E2E2E2E2E2E2E2E2E2E2E2E2E2E2E2E2E2E2E2E2E2E2E2E2E2E2E2E2E2E2E2E2E2E2E2E2E2E2E2E2E2E2E2E2E2E2E2E2E2E2E2E2E2E2E2E2E2E2E2E2E2E2E2E2E2E2E2E2E2E2E2E2E2E2E2E2E2E2E2E2E2E2E2E2E2E2E2E2E2E2E2E2E2E2E2E2E2E2E2E2E2E2E2E2E2E2E2E2E2E2E2E2E2E2E2E2E2E2
310
E2E2E2E2E2E2E2E2E2E2E2E2E2E2E2E2E2E2E2E2E2E2E2E2E2E2E2E2E2E2E2E2E2E2E2E2E2E2E2E2E2E2E2E2E2E2E2E2E2E2E2E2E2E2E2E2E2E2E2E2E2E2E2E2E2E2E2E2E2E2E2E2E2E2E2E2E2E2E2E2E2E2E2E2E2E2E2E2E2E2E2E2E2E2E2E2E2E2E2E2E2E2E2E2E2E2E2E2E2E2E2E2E2E2E2E2E2E2E2E2E2E2E2E2E2E2E2
310
E2E2E2E2E2E2E2E2E2E2E2E2E2E2E2E2E2E2E2E2E2E2E2E2E2E2E2E2E2E2E2E2E2E2E2E2E2E2E2E2E2E2E2E2E2E2E2E2E2E2E2E2E2E2E2E2E2E2E2E2E2E2E2E2E2E2E2E2E2E2E2E2E2E2E2E2E2E2E2E2E2E2E2E2E2E2E2E2E2E2E2E2E2E2E2E2E2E2E2E2E2E2E2E2E2E2E2E2E2E2E2E2E2E2E2E2E2E2E2E2E2E2E2E2E2E2E2
310
E2E2E2E2E2E2E2E2E2E2E2E2E2E2E2E2E2E2E2E2E2E2E2E2E2E2E2E2E2E2E2E2E2E2E2E2E2E2E2E2E2E2E2E2E2E2E2E2E2E2E2E2E2E2E2E2E2E2E2E2E2E2E2E2E2E2E2E2E2E2E2E2E2E2E2E2E2E2E2E2E2E2E2E2E2E2E2E2E2E2E2E2E2E2E2E2E2E2E2E2E2E2E2E2E2E2E2E2E2E2E2E2E2E2E2E2E2E2E2E2E2E2E2E2E2E2E2
310
E2E2E2E2E2E2E2E2E2E2E2E2E2E2E2E2E2E2E2E2E2E2E2E2E2E2E2E2E2E2E2E2E2E2E2E2E2E2E2E2E2E2E2E2E2E2E2E2E2E2E2E2E2E2E2E2E2E2E2E2E2E2E2E2E2E2E2E2E2E2E2E2E2E2E2E2E2E2E2E2E2E2E2E2E2E2E2E2E2E2E2E2E2E2E2E2E2E2E2E2E2E2E2E2E2E2E2E2E2E2E2E2E2E2E2E2E2E2E2E2E2E2E2E2E2E2E2
310
E2E2E2E2E2E2E2E2E2E2E2E2E2E2E2E2E2E2E2E2E2E2E2E2E2E2E2E2E2E2E2E2E2E2E2E2E2E2E2E2E2E2E2E2E2E2E2E2E2E2E2E2E2E2E2E2E2E2E2E2E2E2E2E2E2E2E2E2E2E2E2E2E2E2E2E2E2E2E2E2E2E2E2E2E2E2E2E2E2E2E2E2E2E2E2E2E2E2E2E2E2E2E2E2E2E2E2E2E2E2E2E2E2E2E2E2E2E2E2E2E2E2E2E2E2E2E2
310
E2E2E2E2E2E2E2E2E2E2E2E2E2E2E2E2E2E2E2E2E2E2E2E2E2E2E2E2E2E2E2E2E2E2E2E2E2E2E2E2E2E2E2E2E2E2E2E2E2E2E2E2E2E2E2E2E2E2E2E2E2E2E2E2E2E2E2E2E2E2E2E2E2E2E2E2E2E2E2E2E2E2E2E2E2E2E2E2E2E2E2E2E2E2E2E2E2E2E2E2E2E2E2E2E2E2E2E2E2E2E2E2E2E2E2E2E2E2E2E2E2E2E2E2E2E2E2
310
E2E2E2E2E2E2E2E2E2E2E2E2E2E2E2E2E2E2E2E2E2E2E2E2E2E2E2E2E2E2E2E2E2E2E2E2E2E2E2E2E2E2E2E2E2E2E2E2E2E2E2E2E2E2E2E2E2E2E2E2E2E2E2E2E2E2E2E2E2E2E2E2E2E2E2E2E2E2E2E2E2E2E2E2E2E2E2E2E2E2E2E2E2E2E2E2E2E2E2E2E2E2E2E2E2E2E2E2E2E2E2E2E2E2E2E2E2E2E2E2E2E2E2E2E2E2E2
310
E2E2E2E2E2E2E2E2E2E2E2E2E2E2E2E2E2E2E2E2E2E2E2E2E2E2E2E2E2E2E2E2E2E2E2E2E2E2E2E2E2E2E2E2E2E2E2E2E2
  0
XRECORD
  5
240A
102
{ACAD_REACTORS
330
2409
102
}
330
2409
100
AcDbXrecord
280
     1
102
SHADEPLOT
 70
     0
102
SHADEPLOTRESLEVEL
 70
     2
102
SHADEPLOTCUSTOMDPI
 70
   300
  0
XRECORD
  5
12D1
102
{ACAD_REACTORS
330
A40
102
}
330
A40
100
AcDbXrecord
280
     1
102
MATERIAL
148
0.0
149
0.0
149
0.0
 93
        0
 94
      127
282
     0
 72
     0
 77
     0
171
     0
175
     0
179
     0
273
     0
  0
XRECORD
  5
A42
102
{ACAD_REACTORS
330
A40
102
}
330
A40
100
AcDbXrecord
280
     1
270
     1
271
     1
  0
XRECORD
  5
A41
102
{ACAD_REACTORS
330
A40
102
}
330
A40
100
AcDbXrecord
280
     1
270
     1
271
     1
  0
XRECORD
  5
A45
102
{ACAD_REACTORS
330
A40
102
}
330
A40
100
AcDbXrecord
280
     1
270
     1
271
     1
  0
XRECORD
  5
A44
102
{ACAD_REACTORS
330
A40
102
}
330
A40
100
AcDbXrecord
280
     1
270
     1
271
     1
  0
XRECORD
  5
A46
102
{ACAD_REACTORS
330
A40
102
}
330
A40
100
AcDbXrecord
280
     1
270
     1
271
     1
  0
XRECORD
  5
A43
102
{ACAD_REACTORS
330
A40
102
}
330
A40
100
AcDbXrecord
280
     1
270
     1
271
     1
  0
XRECORD
  5
12D0
102
{ACAD_REACTORS
330
A38
102
}
330
A38
100
AcDbXrecord
280
     1
102
MATERIAL
148
0.0
149
0.0
149
0.0
 93
        0
 94
      127
282
     0
 72
     0
 77
     0
171
     0
175
     0
179
     0
273
     0
  0
XRECORD
  5
A3A
102
{ACAD_REACTORS
330
A38
102
}
330
A38
100
AcDbXrecord
280
     1
270
     1
271
     1
  0
XRECORD
  5
A39
102
{ACAD_REACTORS
330
A38
102
}
330
A38
100
AcDbXrecord
280
     1
270
     1
271
     1
  0
XRECORD
  5
A3D
102
{ACAD_REACTORS
330
A38
102
}
330
A38
100
AcDbXrecord
280
     1
270
     1
271
     1
  0
XRECORD
  5
A3C
102
{ACAD_REACTORS
330
A38
102
}
330
A38
100
AcDbXrecord
280
     1
270
     1
271
     1
  0
XRECORD
  5
A3E
102
{ACAD_REACTORS
330
A38
102
}
330
A38
100
AcDbXrecord
280
     1
270
     1
271
     1
  0
XRECORD
  5
A3B
102
{ACAD_REACTORS
330
A38
102
}
330
A38
100
AcDbXrecord
280
     1
270
     1
271
     1
  0
XRECORD
  5
12D2
102
{ACAD_REACTORS
330
A48
102
}
330
A48
100
AcDbXrecord
280
     1
102
MATERIAL
148
0.0
149
0.0
149
0.0
 93
        0
 94
      127
282
     0
 72
     0
 77
     0
171
     0
175
     0
179
     0
273
     0
  0
XRECORD
  5
A4A
102
{ACAD_REACTORS
330
A48
102
}
330
A48
100
AcDbXrecord
280
     1
270
     1
271
     1
  0
XRECORD
  5
A49
102
{ACAD_REACTORS
330
A48
102
}
330
A48
100
AcDbXrecord
280
     1
270
     1
271
     1
  0
XRECORD
  5
A4D
102
{ACAD_REACTORS
330
A48
102
}
330
A48
100
AcDbXrecord
280
     1
270
     1
271
     1
  0
XRECORD
  5
A4C
102
{ACAD_REACTORS
330
A48
102
}
330
A48
100
AcDbXrecord
280
     1
270
     1
271
     1
  0
XRECORD
  5
A4E
102
{ACAD_REACTORS
330
A48
102
}
330
A48
100
AcDbXrecord
280
     1
270
     1
271
     1
  0
XRECORD
  5
A4B
102
{ACAD_REACTORS
330
A48
102
}
330
A48
100
AcDbXrecord
280
     1
270
     1
271
     1
  0
CELLSTYLEMAP
  5
2400
102
{ACAD_REACTORS
330
AED
102
}
330
AED
100
AcDbCellStyleMap
 90
        3
300
CELLSTYLE
  1
TABLEFORMAT_BEGIN
 90
        5
170
     1
 91
        0
 92
    32768
 62
   257
 93
        1
300
CONTENTFORMAT
  1
CONTENTFORMAT_BEGIN
 90
        0
 91
        0
 92
        4
 93
        0
300

 40
0.0
140
1.0
 94
        5
 62
     0
340
10
144
6.0
309
CONTENTFORMAT_END
171
     1
301
MARGIN
  1
CELLMARGIN_BEGIN
 40
1.5
 40
1.5
 40
1.5
 40
1.5
 40
0.18
 40
0.18
309
CELLMARGIN_END
 94
        6
 95
        1
302
GRIDFORMAT
  1
GRIDFORMAT_BEGIN
 90
        0
 91
        1
 62
     0
 92
       -2
340
0
 93
        0
 40
0.045
309
GRIDFORMAT_END
 95
        2
302
GRIDFORMAT
  1
GRIDFORMAT_BEGIN
 90
        0
 91
        1
 62
     0
 92
       -2
340
0
 93
        0
 40
0.045
309
GRIDFORMAT_END
 95
        4
302
GRIDFORMAT
  1
GRIDFORMAT_BEGIN
 90
        0
 91
        1
 62
     0
 92
       -2
340
0
 93
        0
 40
0.045
309
GRIDFORMAT_END
 95
        8
302
GRIDFORMAT
  1
GRIDFORMAT_BEGIN
 90
        0
 91
        1
 62
     0
 92
       -2
340
0
 93
        0
 40
0.045
309
GRIDFORMAT_END
 95
       16
302
GRIDFORMAT
  1
GRIDFORMAT_BEGIN
 90
        0
 91
        1
 62
     0
 92
       -2
340
0
 93
        0
 40
0.045
309
GRIDFORMAT_END
 95
       32
302
GRIDFORMAT
  1
GRIDFORMAT_BEGIN
 90
        0
 91
        1
 62
     0
 92
       -2
340
0
 93
        0
 40
0.045
309
GRIDFORMAT_END
309
TABLEFORMAT_END
  1
CELLSTYLE_BEGIN
 90
        1
 91
        1
300
_TITLE
309
CELLSTYLE_END
300
CELLSTYLE
  1
TABLEFORMAT_BEGIN
 90
        5
170
     1
 91
        0
 92
        0
 62
   257
 93
        1
300
CONTENTFORMAT
  1
CONTENTFORMAT_BEGIN
 90
        0
 91
        0
 92
        4
 93
        0
300

 40
0.0
140
1.0
 94
        5
 62
     0
340
10
144
4.5
309
CONTENTFORMAT_END
171
     1
301
MARGIN
  1
CELLMARGIN_BEGIN
 40
1.5
 40
1.5
 40
1.5
 40
1.5
 40
0.18
 40
0.18
309
CELLMARGIN_END
 94
        6
 95
        1
302
GRIDFORMAT
  1
GRIDFORMAT_BEGIN
 90
        0
 91
        1
 62
     0
 92
       -2
340
0
 93
        0
 40
0.045
309
GRIDFORMAT_END
 95
        2
302
GRIDFORMAT
  1
GRIDFORMAT_BEGIN
 90
        0
 91
        1
 62
     0
 92
       -2
340
0
 93
        0
 40
0.045
309
GRIDFORMAT_END
 95
        4
302
GRIDFORMAT
  1
GRIDFORMAT_BEGIN
 90
        0
 91
        1
 62
     0
 92
       -2
340
0
 93
        0
 40
0.045
309
GRIDFORMAT_END
 95
        8
302
GRIDFORMAT
  1
GRIDFORMAT_BEGIN
 90
        0
 91
        1
 62
     0
 92
       -2
340
0
 93
        0
 40
0.045
309
GRIDFORMAT_END
 95
       16
302
GRIDFORMAT
  1
GRIDFORMAT_BEGIN
 90
        0
 91
        1
 62
     0
 92
       -2
340
0
 93
        0
 40
0.045
309
GRIDFORMAT_END
 95
       32
302
GRIDFORMAT
  1
GRIDFORMAT_BEGIN
 90
        0
 91
        1
 62
     0
 92
       -2
340
0
 93
        0
 40
0.045
309
GRIDFORMAT_END
309
TABLEFORMAT_END
  1
CELLSTYLE_BEGIN
 90
        2
 91
        1
300
_HEADER
309
CELLSTYLE_END
300
CELLSTYLE
  1
TABLEFORMAT_BEGIN
 90
        5
170
     1
 91
        0
 92
        0
 62
   257
 93
        1
300
CONTENTFORMAT
  1
CONTENTFORMAT_BEGIN
 90
        0
 91
        0
 92
        4
 93
        0
300

 40
0.0
140
1.0
 94
        2
 62
     0
340
10
144
4.5
309
CONTENTFORMAT_END
171
     1
301
MARGIN
  1
CELLMARGIN_BEGIN
 40
1.5
 40
1.5
 40
1.5
 40
1.5
 40
0.18
 40
0.18
309
CELLMARGIN_END
 94
        6
 95
        1
302
GRIDFORMAT
  1
GRIDFORMAT_BEGIN
 90
        0
 91
        1
 62
     0
 92
       -2
340
0
 93
        0
 40
0.045
309
GRIDFORMAT_END
 95
        2
302
GRIDFORMAT
  1
GRIDFORMAT_BEGIN
 90
        0
 91
        1
 62
     0
 92
       -2
340
0
 93
        0
 40
0.045
309
GRIDFORMAT_END
 95
        4
302
GRIDFORMAT
  1
GRIDFORMAT_BEGIN
 90
        0
 91
        1
 62
     0
 92
       -2
340
0
 93
        0
 40
0.045
309
GRIDFORMAT_END
 95
        8
302
GRIDFORMAT
  1
GRIDFORMAT_BEGIN
 90
        0
 91
        1
 62
     0
 92
       -2
340
0
 93
        0
 40
0.045
309
GRIDFORMAT_END
 95
       16
302
GRIDFORMAT
  1
GRIDFORMAT_BEGIN
 90
        0
 91
        1
 62
     0
 92
       -2
340
0
 93
        0
 40
0.045
309
GRIDFORMAT_END
 95
       32
302
GRIDFORMAT
  1
GRIDFORMAT_BEGIN
 90
        0
 91
        1
 62
     0
 92
       -2
340
0
 93
        0
 40
0.045
309
GRIDFORMAT_END
309
TABLEFORMAT_END
  1
CELLSTYLE_BEGIN
 90
        3
 91
        2
300
_DATA
309
CELLSTYLE_END
  0
XRECORD
  5
240C
102
{ACAD_REACTORS
330
AED
102
}
330
AED
100
AcDbXrecord
280
     1
102
ACAD_ROUNDTRIP_PRE2007_TABLESTYLE
 90
        4
 91
        0
  1

 92
        4
 93
        0
  2

 94
        4
 95
        0
  3

  0
ENDSEC
  0
EOF
