  0
SECTION
  2
HEADER
  9
$ACADVER
  1
AC1015
  9
$ACADMAINTVER
 70
    20
  9
$DWGCODEPAGE
  3
ANSI_1252
  9
$INSBASE
 10
0.0
 20
0.0
 30
0.0
  9
$EXTMIN
 10
1030.268261857436
 20
670.4318713307051
 30
0.0
  9
$EXTMAX
 10
1162.268261857436
 20
800.9728710532481
 30
0.0
  9
$LIMMIN
 10
0.0
 20
0.0
  9
$LIMMAX
 10
420.0
 20
297.0
  9
$ORTHOMODE
 70
     0
  9
$REGENMODE
 70
     1
  9
$FILLMODE
 70
     1
  9
$QTEXTMODE
 70
     0
  9
$MIRRTEXT
 70
     0
  9
$LTSCALE
 40
1.0
  9
$ATTMODE
 70
     1
  9
$TEXTSIZE
 40
3.5
  9
$TRACEWID
 40
1.0
  9
$TEXTSTYLE
  7
STANDARD
  9
$CLAYER
  8
AM_0
  9
$CELTYPE
  6
BYLAYER
  9
$CECOLOR
 62
   256
  9
$CELTSCALE
 40
1.0
  9
$DISPSILH
 70
     0
  9
$DIMSCALE
 40
1.0
  9
$DIMASZ
 40
3.5
  9
$DIMEXO
 40
1.0
  9
$DIMDLI
 40
10.0
  9
$DIMRND
 40
0.0
  9
$DIMDLE
 40
0.0
  9
$DIMEXE
 40
1.0
  9
$DIMTP
 40
0.1
  9
$DIMTM
 40
0.1
  9
$DIMTXT
 40
3.5
  9
$DIMCEN
 40
0.0
  9
$DIMTSZ
 40
0.0
  9
$DIMTOL
 70
     0
  9
$DIMLIM
 70
     0
  9
$DIMTIH
 70
     0
  9
$DIMTOH
 70
     0
  9
$DIMSE1
 70
     0
  9
$DIMSE2
 70
     0
  9
$DIMTAD
 70
     1
  9
$DIMZIN
 70
     8
  9
$DIMBLK
  1

  9
$DIMASO
 70
     1
  9
$DIMSHO
 70
     1
  9
$DIMPOST
  1

  9
$DIMAPOST
  1
"
  9
$DIMALT
 70
     0
  9
$DIMALTD
 70
     2
  9
$DIMALTF
 40
0.0393701
  9
$DIMLFAC
 40
1.0
  9
$DIMTOFL
 70
     1
  9
$DIMTVP
 40
0.0
  9
$DIMTIX
 70
     0
  9
$DIMSOXD
 70
     0
  9
$DIMSAH
 70
     0
  9
$DIMBLK1
  1

  9
$DIMBLK2
  1

  9
$DIMSTYLE
  2
AM_ISO
  9
$DIMCLRD
 70
   256
  9
$DIMCLRE
 70
   256
  9
$DIMCLRT
 70
     2
  9
$DIMTFAC
 40
0.71
  9
$DIMGAP
 40
1.5
  9
$DIMJUST
 70
     0
  9
$DIMSD1
 70
     0
  9
$DIMSD2
 70
     0
  9
$DIMTOLJ
 70
     0
  9
$DIMTZIN
 70
     8
  9
$DIMALTZ
 70
     0
  9
$DIMALTTZ
 70
     0
  9
$DIMUPT
 70
     0
  9
$DIMDEC
 70
     2
  9
$DIMTDEC
 70
     3
  9
$DIMALTU
 70
     2
  9
$DIMALTTD
 70
     4
  9
$DIMTXSTY
  7
STANDARD
  9
$DIMAUNIT
 70
     0
  9
$DIMADEC
 70
     0
  9
$DIMALTRND
 40
0.0
  9
$DIMAZIN
 70
     2
  9
$DIMDSEP
 70
    46
  9
$DIMATFIT
 70
     3
  9
$DIMFRAC
 70
     0
  9
$DIMLDRBLK
  1

  9
$DIMLUNIT
 70
     2
  9
$DIMLWD
 70
    -1
  9
$DIMLWE
 70
    -1
  9
$DIMTMOVE
 70
     0
  9
$LUNITS
 70
     2
  9
$LUPREC
 70
     2
  9
$SKETCHINC
 40
1.0
  9
$FILLETRAD
 40
0.0
  9
$AUNITS
 70
     0
  9
$AUPREC
 70
     0
  9
$MENU
  1
.
  9
$ELEVATION
 40
0.0
  9
$PELEVATION
 40
0.0
  9
$THICKNESS
 40
0.0
  9
$LIMCHECK
 70
     0
  9
$CHAMFERA
 40
2.5
  9
$CHAMFERB
 40
2.5
  9
$CHAMFERC
 40
20.0
  9
$CHAMFERD
 40
0.0
  9
$SKPOLY
 70
     1
  9
$TDCREATE
 40
2456346.581612859
  9
$TDUCREATE
 40
2456346.539946192
  9
$TDUPDATE
 40
2456359.642219746
  9
$TDUUPDATE
 40
2456359.600553079
  9
$TDINDWG
 40
0.0294199653
  9
$TDUSRTIMER
 40
0.0294193403
  9
$USRTIMER
 70
     1
  9
$ANGBASE
 50
0.0
  9
$ANGDIR
 70
     0
  9
$PDMODE
 70
     0
  9
$PDSIZE
 40
0.0
  9
$PLINEWID
 40
0.0
  9
$SPLFRAME
 70
     0
  9
$SPLINETYPE
 70
     6
  9
$SPLINESEGS
 70
     8
  9
$HANDSEED
  5
2468
  9
$SURFTAB1
 70
     6
  9
$SURFTAB2
 70
     6
  9
$SURFTYPE
 70
     6
  9
$SURFU
 70
     6
  9
$SURFV
 70
     6
  9
$UCSBASE
  2

  9
$UCSNAME
  2

  9
$UCSORG
 10
0.0
 20
0.0
 30
0.0
  9
$UCSXDIR
 10
1.0
 20
0.0
 30
0.0
  9
$UCSYDIR
 10
0.0
 20
1.0
 30
0.0
  9
$UCSORTHOREF
  2

  9
$UCSORTHOVIEW
 70
     0
  9
$UCSORGTOP
 10
0.0
 20
0.0
 30
0.0
  9
$UCSORGBOTTOM
 10
0.0
 20
0.0
 30
0.0
  9
$UCSORGLEFT
 10
0.0
 20
0.0
 30
0.0
  9
$UCSORGRIGHT
 10
0.0
 20
0.0
 30
0.0
  9
$UCSORGFRONT
 10
0.0
 20
0.0
 30
0.0
  9
$UCSORGBACK
 10
0.0
 20
0.0
 30
0.0
  9
$PUCSBASE
  2

  9
$PUCSNAME
  2

  9
$PUCSORG
 10
0.0
 20
0.0
 30
0.0
  9
$PUCSXDIR
 10
1.0
 20
0.0
 30
0.0
  9
$PUCSYDIR
 10
0.0
 20
1.0
 30
0.0
  9
$PUCSORTHOREF
  2

  9
$PUCSORTHOVIEW
 70
     0
  9
$PUCSORGTOP
 10
0.0
 20
0.0
 30
0.0
  9
$PUCSORGBOTTOM
 10
0.0
 20
0.0
 30
0.0
  9
$PUCSORGLEFT
 10
0.0
 20
0.0
 30
0.0
  9
$PUCSORGRIGHT
 10
0.0
 20
0.0
 30
0.0
  9
$PUCSORGFRONT
 10
0.0
 20
0.0
 30
0.0
  9
$PUCSORGBACK
 10
0.0
 20
0.0
 30
0.0
  9
$USERI1
 70
     0
  9
$USERI2
 70
     0
  9
$USERI3
 70
     0
  9
$USERI4
 70
     0
  9
$USERI5
 70
     0
  9
$USERR1
 40
0.0
  9
$USERR2
 40
0.0
  9
$USERR3
 40
0.0
  9
$USERR4
 40
0.0
  9
$USERR5
 40
0.0
  9
$WORLDVIEW
 70
     1
  9
$SHADEDGE
 70
     3
  9
$SHADEDIF
 70
    70
  9
$TILEMODE
 70
     1
  9
$MAXACTVP
 70
    48
  9
$PINSBASE
 10
0.0
 20
0.0
 30
0.0
  9
$PLIMCHECK
 70
     0
  9
$PEXTMIN
 10
1.000000000000000E+20
 20
1.000000000000000E+20
 30
1.000000000000000E+20
  9
$PEXTMAX
 10
-1.000000000000000E+20
 20
-1.000000000000000E+20
 30
-1.000000000000000E+20
  9
$PLIMMIN
 10
-0.2500002402958907
 20
-0.2499999962453767
  9
$PLIMMAX
 10
10.74999951940821
 20
8.249999763458731
  9
$UNITMODE
 70
     0
  9
$VISRETAIN
 70
     1
  9
$PLINEGEN
 70
     0
  9
$PSLTSCALE
 70
     1
  9
$TREEDEPTH
 70
  3020
  9
$CMLSTYLE
  2
STANDARD
  9
$CMLJUST
 70
     0
  9
$CMLSCALE
 40
1.0
  9
$PROXYGRAPHICS
 70
     1
  9
$MEASUREMENT
 70
     1
  9
$CELWEIGHT
370
    -1
  9
$ENDCAPS
280
     0
  9
$JOINSTYLE
280
     0
  9
$LWDISPLAY
290
     0
  9
$INSUNITS
 70
     4
  9
$HYPERLINKBASE
  1

  9
$STYLESHEET
  1
@LAYOUT.CTB
  9
$XEDIT
290
     1
  9
$CEPSNTYPE
380
     0
  9
$PSTYLEMODE
290
     1
  9
$FINGERPRINTGUID
  2
{CA768934-4D5D-4225-83F3-3C33ACFC75AF}
  9
$VERSIONGUID
  2
{CAA2CDFF-53B2-4EB6-B0F8-69412DA7F3B0}
  9
$EXTNAMES
290
     1
  9
$PSVPSCALE
 40
0.0
  9
$OLESTARTUP
290
     0
  0
ENDSEC
  0
SECTION
  2
CLASSES
  0
CLASS
  1
DICTIONARYVAR
  2
AcDbDictionaryVar
  3
ObjectDBX Classes
 90
        0
280
     0
281
     0
  0
CLASS
  1
ACMESTATEMGR
  2
AcMeStateMgr
  3
AcMeServices
 90
     1024
280
     0
281
     0
  0
CLASS
  1
ACMESCOPE
  2
AcMeScope
  3
AcMeServices
 90
     1024
280
     0
281
     0
  0
CLASS
  1
ACMECOMMANDHISTORY
  2
AcMeCommandHistory
  3
AcMeServices
 90
     1024
280
     0
281
     0
  0
CLASS
  1
ACRFINSADJUSTERMGR
  2
AcRfInsAdjusterMgr
  3
AcMeServices
 90
     1024
280
     0
281
     0
  0
CLASS
  1
ACMEDRAWINGMAN
  2
AcMeDrawingMan
  3
AcMeServices
 90
     1024
280
     0
281
     0
  0
CLASS
  1
AMATTR
  2
AcMeAttribute
  3
AcMeServices
 90
    33792
280
     0
281
     0
  0
CLASS
  1
ACMEBOMCOLUMN
  2
AcMeBOMColumn
  3
AcMeServices
 90
    33792
280
     0
281
     0
  0
CLASS
  1
ACMEBOMCONF
  2
AcMeBOMConf
  3
AcMeServices
 90
    33792
280
     0
281
     0
  0
CLASS
  1
ACMEBOMTABLE
  2
AcMeBOMTable
  3
AcMeServices
 90
    33792
280
     0
281
     0
  0
CLASS
  1
ACMEBOMENTRY
  2
AcMeBOMEntry
  3
AcMeServices
 90
    33792
280
     0
281
     0
  0
CLASS
  1
ACMEVIEW
  2
AcMeView
  3
AcMeServices
 90
     1024
280
     0
281
     0
  0
CLASS
  1
ACGREFMASTER
  2
AcGrefMaster
  3
AcAttribServices
 90
     1024
280
     0
281
     0
  0
CLASS
  1
AMIMASTER
  2
AmiMaster
  3
AmiServices
 90
     1024
280
     0
281
     0
  0
CLASS
  1
ACASGREFMASTER
  2
AcAsGrefMaster
  3
AutoSurfResolverServices
 90
     1024
280
     0
281
     0
  0
CLASS
  1
ADAPPL
  2
AcAdAppl
  3
DesignerServices
 90
     1024
280
     0
281
     0
  0
CLASS
  1
DEPMGR
  2
AcAdDepMgr
  3
DesignerServices
 90
     1024
280
     0
281
     0
  0
CLASS
  1
PARAMMGR
  2
AcAdParamMgr
  3
DesignerServices
 90
     1024
280
     0
281
     0
  0
CLASS
  1
PARAMSCOPE
  2
AcAdParamScope
  3
DesignerServices
 90
     1024
280
     0
281
     0
  0
CLASS
  1
ACIMSYSVARMAN
  2
AcImSysVarManager
  3
AcMeServices
 90
     1024
280
     0
281
     0
  0
CLASS
  1
ACIMINTSYSVAR
  2
AcImIntSysVar
  3
AcMeServices
 90
     1024
280
     0
281
     0
  0
CLASS
  1
ACIMREALSYSVAR
  2
AcImRealSysVar
  3
AcMeServices
 90
     1024
280
     0
281
     0
  0
CLASS
  1
ACIMSTRSYSVAR
  2
AcImStrSysVar
  3
AcMeServices
 90
     1024
280
     0
281
     0
  0
CLASS
  1
NAMEDAPPL
  2
AcAdNamedAppl
  3
DesignerServices
 90
     1024
280
     0
281
     0
  0
CLASS
  1
ADHNTMPLT
  2
AdHoleNoteTemplateMgr
  3
DesignerServices
 90
    33792
280
     0
281
     0
  0
CLASS
  1
AM_HNTEMPLATE_MGR_NAME
  2
AdHoleNoteTemplateMgrName
  3
DesignerServices
 90
    33792
280
     0
281
     0
  0
CLASS
  1
ACADGREFMODULE
  2
AcAdGrefModule
  3
AdGrefServices
 90
     1024
280
     0
281
     0
  0
CLASS
  1
AM_DRAWING_MGR
  2
AcDmDwgMgr
  3
AcMechDwgViewMgmt
 90
     1024
280
     0
281
     0
  0
CLASS
  1
AM_DWG_DOCUMENT
  2
AcDmDwgDocument
  3
AcMechDwgViewMgmt
 90
     1024
280
     0
281
     0
  0
CLASS
  1
AM_DWG_SHEET
  2
AcDmSheet
  3
AcMechDwgViewMgmt
 90
     1024
280
     0
281
     0
  0
CLASS
  1
AM_VIEWDIMPARMAP
  2
AcDmViewDimParMap
  3
AcMechDwgViewMgmt
 90
     1024
280
     0
281
     0
  0
CLASS
  1
AM_DWGMGR_NAME
  2
AcDmDwgMgrName
  3
AcMechDwgViewMgmt
 90
     1024
280
     0
281
     0
  0
CLASS
  1
ACAMPROJECT
  2
AcAmProject
  3
DesignerAssemblies
 90
     1024
280
     0
281
     0
  0
CLASS
  1
ACAMGRCOMPSET
  2
AcAmGrCompSet
  3
DesignerAssemblies
 90
    32768
280
     0
281
     0
  0
CLASS
  1
ACAMGRCOMPDEFSET
  2
AcAmGrCompDefSet
  3
DesignerAssemblies
 90
     1024
280
     0
281
     0
  0
CLASS
  1
ACAMGRCOMPDEF
  2
AcAmGrCompDef
  3
DesignerAssemblies
 90
     1024
280
     0
281
     0
  0
CLASS
  1
ACCMCONTEXT
  2
AcCmContext
  3
DesignerAssemblies
 90
     1024
280
     0
281
     0
  0
CLASS
  1
ACAMCOMPDEF
  2
AcAmCompDef
  3
DesignerAssemblies
 90
     1024
280
     0
281
     0
  0
CLASS
  1
ACAMCOMPDEFMGR
  2
AcAmCompDefMgr
  3
DesignerAssemblies
 90
     1024
280
     0
281
     0
  0
CLASS
  1
AMCONTEXTMGR
  2
AcAmContextMgr
  3
DesignerAssemblies
 90
     1024
280
     0
281
     0
  0
CLASS
  1
ACAMCONTEXTMODELER
  2
AcAmContextModeler
  3
DesignerAssemblies
 90
     1024
280
     0
281
     0
  0
CLASS
  1
ACDMVIEWGEOM
  2
AcDmViewGeometry
  3
AcMechDwgViewMgmt
 90
    33792
280
     0
281
     1
  0
CLASS
  1
CBROWSERAPPOBJECT
  2
CBrowserAppObject
  3
McadcomServices
 90
     1024
280
     0
281
     0
  0
CLASS
  1
IM_STATIC_MAN
  2
AcImStaticVarManager
  3
AcMeServices
 90
     1024
280
     0
281
     0
  0
CLASS
  1
ASAPP
  2
AcAsAppObject
  3
AutoSurfServices
 90
     1024
280
     0
281
     0
  0
CLASS
  1
ACIMDBLSTATICVAR
  2
AcImDblStaticVar
  3
AcMeServices
 90
     1024
280
     0
281
     0
  0
CLASS
  1
ACIMSTRSTATICVAR
  2
AcImStrStaticVar
  3
AcMeServices
 90
     1024
280
     0
281
     0
  0
CLASS
  1
ACIMINTSTATICVAR
  2
AcImIntStaticVar
  3
AcMeServices
 90
     1024
280
     0
281
     0
  0
CLASS
  1
CATALOGSTATE
  2
AcAmCatalogState
  3
DesignerAssemblies
 90
     1024
280
     0
281
     0
  0
CLASS
  1
DM_PLACEHOLDER
  2
AcDmSelsetPlaceholder
  3
AcMechDwgViewMgmt
 90
     1024
280
     0
281
     0
  0
CLASS
  1
LAYER_INDEX
  2
AcDbLayerIndex
  3
ObjectDBX Classes
 90
        0
280
     0
281
     0
  0
CLASS
  1
IDBUFFER
  2
AcDbIdBuffer
  3
ObjectDBX Classes
 90
        0
280
     0
281
     0
  0
CLASS
  1
ACMSTANDARDJIS
  2
AcmStandardJIS
  3
"Amdt_StdImp|Product Description: AutoCAD Mechanical|Company: Autodesk, Inc."
 90
    33792
280
     0
281
     0
  0
CLASS
  1
ACMSTANDARDANSI
  2
AcmStandardANSI
  3
"Amdt_StdImp|Product Description: AutoCAD Mechanical|Company: Autodesk, Inc."
 90
     1024
280
     0
281
     0
  0
CLASS
  1
ACMSTANDARDBSI
  2
AcmStandardBSI
  3
"Amdt_StdImp|Product Description: AutoCAD Mechanical|Company: Autodesk, Inc."
 90
    33792
280
     0
281
     0
  0
CLASS
  1
ACMSTANDARDDIN
  2
AcmStandardDIN
  3
"Amdt_StdImp|Product Description: AutoCAD Mechanical|Company: Autodesk, Inc."
 90
    33792
280
     0
281
     0
  0
CLASS
  1
ACMSTANDARDISO
  2
AcmStandardISO
  3
"Amdt_StdImp|Product Description: AutoCAD Mechanical|Company: Autodesk, Inc."
 90
     1024
280
     0
281
     0
  0
CLASS
  1
ACDBDICTIONARYWDFLT
  2
AcDbDictionaryWithDefault
  3
ObjectDBX Classes
 90
        0
280
     0
281
     0
  0
CLASS
  1
ACDBPLACEHOLDER
  2
AcDbPlaceHolder
  3
ObjectDBX Classes
 90
        0
280
     0
281
     0
  0
CLASS
  1
LAYOUT
  2
AcDbLayout
  3
ObjectDBX Classes
 90
        0
280
     0
281
     0
  0
CLASS
  1
ACME_DOCUMENT
  2
AcMeDbDoc
  3
AcMeServices
 90
     1024
280
     0
281
     0
  0
CLASS
  1
AMGSETTINGSOBJ
  2
AmgSettingsObj
  3
"AcadM|Product Description: AutoCAD Mechanical|Company: Autodesk, Inc."
 90
     1024
280
     0
281
     0
  0
CLASS
  1
AMGOBJPROPCFG
  2
AmgObjPropCfg
  3
"AmgLay|Product Description: AutoCAD Mechanical|Company: Autodesk, Inc."
 90
     1025
280
     0
281
     0
  0
CLASS
  1
ACDBENTITYCACHE
  2
AcMeEntityCache
  3
AcMeServices
 90
     1024
280
     0
281
     0
  0
CLASS
  1
GSMANAGER
  2
AcMeGSManager
  3
AcMeServices
 90
     1024
280
     0
281
     0
  0
CLASS
  1
AMDTINTERNALREACTOR
  2
AmdtInternalReactor
  3
AcMeServices
 90
     1024
280
     0
281
     0
  0
CLASS
  1
ACME_DATABASE
  2
AcMeDbDatabase
  3
AcMeServices
 90
     1024
280
     0
281
     0
  0
CLASS
  1
ACGREFACADMASTER
  2
AcGrefacadMaster
  3
AcGrefServices
 90
     1024
280
     0
281
     0
  0
CLASS
  1
AMDTMENUSTATEMGR
  2
AmdtMenuStateMgr
  3
McadcomServices
 90
     1024
280
     0
281
     0
  0
CLASS
  1
AMDTMCOMMENUSTATE
  2
AmdtMcomMenuState
  3
McadcomServices
 90
     1024
280
     0
281
     0
  0
CLASS
  1
MAPIADMODULE
  2
MApiAdModule
  3
MApiAdServices
 90
     1024
280
     0
281
     0
  0
CLASS
  1
AMDTDMMENUSTATE
  2
AmdtDmMenuState
  3
AcMechDwgViewMgmt
 90
     1024
280
     0
281
     0
  0
CLASS
  1
AMDTADMENUSTATE
  2
AmdtAdMenuState
  3
DesignerServices
 90
     1024
280
     0
281
     0
  0
CLASS
  1
AMDTAMMENUSTATE
  2
AmdtAmMenuState
  3
DesignerAssemblies
 90
     1024
280
     0
281
     0
  0
CLASS
  1
ACMDATADICTIONARY
  2
AcmDataDictionary
  3
"AcmSymBB|Product Description: AutoCAD Mechanical|Company: Autodesk, Inc."
 90
     1024
280
     0
281
     0
  0
CLASS
  1
ACMDATAENTRYBLOCK
  2
AcmDataEntryBlock
  3
AcmSymBB|Product Description: AutoCAD Mechanical|Company: Autodesk, Inc.
 90
     1024
280
     0
281
     0
  0
CLASS
  1
ACMSURFSTANDARDJIS
  2
AcmSurfTextStdJIS
  3
"Amdt_StdImp|Product Description: AutoCAD Mechanical|Company: Autodesk, Inc."
 90
    33792
280
     0
281
     0
  0
CLASS
  1
ACMFCFSTANDARDJIS
  2
AcmFCFStdJIS
  3
"Amdt_StdImp|Product Description: AutoCAD Mechanical|Company: Autodesk, Inc."
 90
    33792
280
     0
281
     0
  0
CLASS
  1
ACMWELDSTANDARDJIS
  2
AcmWeldingStdJIS
  3
"Amdt_StdImp|Product Description: AutoCAD Mechanical|Company: Autodesk, Inc."
 90
    33792
280
     0
281
     0
  0
CLASS
  1
ACMIDSTANDARDJIS
  2
AcmIdStdJIS
  3
"Amdt_StdImp|Product Description: AutoCAD Mechanical|Company: Autodesk, Inc."
 90
    33792
280
     0
281
     0
  0
CLASS
  1
ACMDATUMSTANDARDJIS
  2
AcmDatumStdJIS
  3
"Amdt_StdImp|Product Description: AutoCAD Mechanical|Company: Autodesk, Inc."
 90
    33792
280
     0
281
     0
  0
CLASS
  1
ACMBOMSTANDARDJIS
  2
AcmBOMStdJIS
  3
"Amdt_StdImp|Product Description: AutoCAD Mechanical|Company: Autodesk, Inc."
 90
    33792
280
     0
281
     0
  0
CLASS
  1
ACMSURFSTANDARDANSI
  2
AcmSurfTextStdANSI
  3
"Amdt_StdImp|Product Description: AutoCAD Mechanical|Company: Autodesk, Inc."
 90
     1024
280
     0
281
     0
  0
CLASS
  1
ACMFCFSTANDARDANSI
  2
AcmFCFStdANSI
  3
"Amdt_StdImp|Product Description: AutoCAD Mechanical|Company: Autodesk, Inc."
 90
     1024
280
     0
281
     0
  0
CLASS
  1
ACMWELDSTANDARDANSI
  2
AcmWeldingStdANSI
  3
"Amdt_StdImp|Product Description: AutoCAD Mechanical|Company: Autodesk, Inc."
 90
     1024
280
     0
281
     0
  0
CLASS
  1
ACMIDSTANDARDANSI
  2
AcmIdStdANSI
  3
"Amdt_StdImp|Product Description: AutoCAD Mechanical|Company: Autodesk, Inc."
 90
     1024
280
     0
281
     0
  0
CLASS
  1
ACMDATUMSTANDARDANSI
  2
AcmDatumStdANSI
  3
"Amdt_StdImp|Product Description: AutoCAD Mechanical|Company: Autodesk, Inc."
 90
     1024
280
     0
281
     0
  0
CLASS
  1
ACMBOMSTANDARDANSI
  2
AcmBOMStdANSI
  3
"Amdt_StdImp|Product Description: AutoCAD Mechanical|Company: Autodesk, Inc."
 90
     1024
280
     0
281
     0
  0
CLASS
  1
ACMSURFSTANDARDBSI
  2
AcmSurfTextStdBSI
  3
"Amdt_StdImp|Product Description: AutoCAD Mechanical|Company: Autodesk, Inc."
 90
    33792
280
     0
281
     0
  0
CLASS
  1
ACMFCFSTANDARDBSI
  2
AcmFCFStdBSI
  3
"Amdt_StdImp|Product Description: AutoCAD Mechanical|Company: Autodesk, Inc."
 90
    33792
280
     0
281
     0
  0
CLASS
  1
ACMWELDSTANDARDBSI
  2
AcmWeldingStdBSI
  3
"Amdt_StdImp|Product Description: AutoCAD Mechanical|Company: Autodesk, Inc."
 90
    33792
280
     0
281
     0
  0
CLASS
  1
ACMIDSTANDARDBSI
  2
AcmIdStdBSI
  3
"Amdt_StdImp|Product Description: AutoCAD Mechanical|Company: Autodesk, Inc."
 90
    33792
280
     0
281
     0
  0
CLASS
  1
ACMDATUMSTANDARDBSI
  2
AcmDatumStdBSI
  3
"Amdt_StdImp|Product Description: AutoCAD Mechanical|Company: Autodesk, Inc."
 90
    33792
280
     0
281
     0
  0
CLASS
  1
ACMBOMSTANDARDBSI
  2
AcmBOMStdBSI
  3
"Amdt_StdImp|Product Description: AutoCAD Mechanical|Company: Autodesk, Inc."
 90
    33792
280
     0
281
     0
  0
CLASS
  1
AMDTEDGESTANDARDDIN
  2
AmdtEdgeStdDIN
  3
"Amdt_StdImp|Product Description: AutoCAD Mechanical|Company: Autodesk, Inc."
 90
    33792
280
     0
281
     0
  0
CLASS
  1
ACMSURFSTANDARDDIN
  2
AcmSurfTextStdDIN
  3
"Amdt_StdImp|Product Description: AutoCAD Mechanical|Company: Autodesk, Inc."
 90
    33792
280
     0
281
     0
  0
CLASS
  1
ACMFCFSTANDARDDIN
  2
AcmFCFStdDIN
  3
"Amdt_StdImp|Product Description: AutoCAD Mechanical|Company: Autodesk, Inc."
 90
    33792
280
     0
281
     0
  0
CLASS
  1
ACMWELDSTANDARDDIN
  2
AcmWeldingStdDIN
  3
"Amdt_StdImp|Product Description: AutoCAD Mechanical|Company: Autodesk, Inc."
 90
    33792
280
     0
281
     0
  0
CLASS
  1
ACMIDSTANDARDDIN
  2
AcmIdStdDIN
  3
"Amdt_StdImp|Product Description: AutoCAD Mechanical|Company: Autodesk, Inc."
 90
    33792
280
     0
281
     0
  0
CLASS
  1
ACMDATUMSTANDARDDIN
  2
AcmDatumStdDIN
  3
"Amdt_StdImp|Product Description: AutoCAD Mechanical|Company: Autodesk, Inc."
 90
    33792
280
     0
281
     0
  0
CLASS
  1
ACMBOMSTANDARDDIN
  2
AcmBOMStdDIN
  3
"Amdt_StdImp|Product Description: AutoCAD Mechanical|Company: Autodesk, Inc."
 90
    33792
280
     0
281
     0
  0
CLASS
  1
ACMSURFSTANDARDISO
  2
AcmSurfTextStdISO
  3
"Amdt_StdImp|Product Description: AutoCAD Mechanical|Company: Autodesk, Inc."
 90
     1024
280
     0
281
     0
  0
CLASS
  1
ACMFCFSTANDARDISO
  2
AcmFCFStdISO
  3
"Amdt_StdImp|Product Description: AutoCAD Mechanical|Company: Autodesk, Inc."
 90
     1024
280
     0
281
     0
  0
CLASS
  1
ACMWELDSTANDARDISO
  2
AcmWeldingStdISO
  3
"Amdt_StdImp|Product Description: AutoCAD Mechanical|Company: Autodesk, Inc."
 90
     1024
280
     0
281
     0
  0
CLASS
  1
ACMIDSTANDARDISO
  2
AcmIdStdISO
  3
"Amdt_StdImp|Product Description: AutoCAD Mechanical|Company: Autodesk, Inc."
 90
     1024
280
     0
281
     0
  0
CLASS
  1
ACMDATUMSTANDARDISO
  2
AcmDatumStdISO
  3
"Amdt_StdImp|Product Description: AutoCAD Mechanical|Company: Autodesk, Inc."
 90
     1024
280
     0
281
     0
  0
CLASS
  1
ACMBOMSTANDARDISO
  2
AcmBOMStdISO
  3
"Amdt_StdImp|Product Description: AutoCAD Mechanical|Company: Autodesk, Inc."
 90
     1024
280
     0
281
     0
  0
CLASS
  1
AMDTBROWSERDBTAB
  2
AmdtBrowserDbTab
  3
McadcomServices
 90
     1024
280
     0
281
     0
  0
CLASS
  1
ACAMGFILTERDAT
  2
AcAmgFilterDat
  3
"AcadM|Product Description: AutoCAD Mechanical|Company: Autodesk, Inc."
 90
     1024
280
     0
281
     0
  0
CLASS
  1
MAPIAMMOUDLE
  2
MApiAmModule
  3
MApiAmServices
 90
     1024
280
     0
281
     0
  0
CLASS
  1
AMDTMAPISURFMOUDULE
  2
AmdtMApiSurfModule
  3
MApiSurfServices
 90
    33792
280
     0
281
     0
  0
CLASS
  1
ACAMGLAYSTD
  2
AcAmgLayStd
  3
"AmgLay|Product Description: AutoCAD Mechanical|Company: Autodesk, Inc."
 90
     1024
280
     0
281
     0
  0
CLASS
  1
ACAMGDIMSTD
  2
AcAmgDimStd
  3
"AmgDim|Product Description: AutoCAD Mechanical|Company: Autodesk, Inc."
 90
     1024
280
     0
281
     0
  0
CLASS
  1
ACAMGTITLESTD
  2
AcAmgTitleStd
  3
"AmgTitle|Product Description: AutoCAD Mechanical|Company: Autodesk, Inc."
 90
     4095
280
     0
281
     0
  0
CLASS
  1
ACMDETAILSTANDARDJIS
  2
AmdtDetailSymStdJIS
  3
"Amdt_StdImp|Product Description: AutoCAD Mechanical|Company: Autodesk, Inc."
 90
    33792
280
     0
281
     0
  0
CLASS
  1
ACMSECTIONSTANDARDJIS
  2
AmdtSectionSymStdJIS
  3
"Amdt_StdImp|Product Description: AutoCAD Mechanical|Company: Autodesk, Inc."
 90
    33792
280
     0
281
     0
  0
CLASS
  1
ACMCENTERLINESTANDARDJIS
  2
AmdtCenterLineStdJIS
  3
"Amdt_StdImp|Product Description: AutoCAD Mechanical|Company: Autodesk, Inc."
 90
    33792
280
     0
281
     0
  0
CLASS
  1
ACMTHREADLINESTANDARDJIS
  2
AmdtThreadLineStdJIS
  3
"Amdt_StdImp|Product Description: AutoCAD Mechanical|Company: Autodesk, Inc."
 90
    33792
280
     0
281
     0
  0
CLASS
  1
ACMDETAILSTANDARDANSI
  2
AmdtDetailSymStdANSI
  3
"Amdt_StdImp|Product Description: AutoCAD Mechanical|Company: Autodesk, Inc."
 90
     1024
280
     0
281
     0
  0
CLASS
  1
ACMSECTIONSTANDARDANSI
  2
AmdtSectionSymStdANSI
  3
"Amdt_StdImp|Product Description: AutoCAD Mechanical|Company: Autodesk, Inc."
 90
     1024
280
     0
281
     0
  0
CLASS
  1
ACMCENTERLINESTANDARDANSI
  2
AmdtCenterLineStdANSI
  3
"Amdt_StdImp|Product Description: AutoCAD Mechanical|Company: Autodesk, Inc."
 90
     1024
280
     0
281
     0
  0
CLASS
  1
ACMTHREADLINESTANDARDANSI
  2
AmdtThreadLineStdANSI
  3
"Amdt_StdImp|Product Description: AutoCAD Mechanical|Company: Autodesk, Inc."
 90
     1024
280
     0
281
     0
  0
CLASS
  1
ACMDETAILSTANDARDBSI
  2
AmdtDetailSymStdBSI
  3
"Amdt_StdImp|Product Description: AutoCAD Mechanical|Company: Autodesk, Inc."
 90
    33792
280
     0
281
     0
  0
CLASS
  1
ACMSECTIONSTANDARDBSI
  2
AmdtSectionSymStdBSI
  3
"Amdt_StdImp|Product Description: AutoCAD Mechanical|Company: Autodesk, Inc."
 90
    33792
280
     0
281
     0
  0
CLASS
  1
ACMCENTERLINESTANDARDBSI
  2
AmdtCenterLineStdBSI
  3
"Amdt_StdImp|Product Description: AutoCAD Mechanical|Company: Autodesk, Inc."
 90
    33792
280
     0
281
     0
  0
CLASS
  1
ACMTHREADLINESTANDARDBSI
  2
AmdtThreadLineStdBSI
  3
"Amdt_StdImp|Product Description: AutoCAD Mechanical|Company: Autodesk, Inc."
 90
    33792
280
     0
281
     0
  0
CLASS
  1
ACMDETAILSTANDARDDIN
  2
AmdtDetailSymStdDIN
  3
"Amdt_StdImp|Product Description: AutoCAD Mechanical|Company: Autodesk, Inc."
 90
    33792
280
     0
281
     0
  0
CLASS
  1
ACMSECTIONSTANDARDDIN
  2
AmdtSectionSymStdDIN
  3
"Amdt_StdImp|Product Description: AutoCAD Mechanical|Company: Autodesk, Inc."
 90
    33792
280
     0
281
     0
  0
CLASS
  1
ACMCENTERLINESTANDARDDIN
  2
AmdtCenterLineStdDIN
  3
"Amdt_StdImp|Product Description: AutoCAD Mechanical|Company: Autodesk, Inc."
 90
    33792
280
     0
281
     0
  0
CLASS
  1
ACMTHREADLINESTANDARDDIN
  2
AmdtThreadLineStdDIN
  3
"Amdt_StdImp|Product Description: AutoCAD Mechanical|Company: Autodesk, Inc."
 90
    33792
280
     0
281
     0
  0
CLASS
  1
AMDTEDGESTANDARDISO
  2
AmdtEdgeStdISO
  3
"Amdt_StdImp|Product Description: AutoCAD Mechanical|Company: Autodesk, Inc."
 90
     1024
280
     0
281
     0
  0
CLASS
  1
ACMDETAILSTANDARDISO
  2
AmdtDetailSymStdISO
  3
"Amdt_StdImp|Product Description: AutoCAD Mechanical|Company: Autodesk, Inc."
 90
     1024
280
     0
281
     0
  0
CLASS
  1
ACMSECTIONSTANDARDISO
  2
AmdtSectionSymStdISO
  3
"Amdt_StdImp|Product Description: AutoCAD Mechanical|Company: Autodesk, Inc."
 90
     1024
280
     0
281
     0
  0
CLASS
  1
ACMCENTERLINESTANDARDISO
  2
AmdtCenterLineStdISO
  3
"Amdt_StdImp|Product Description: AutoCAD Mechanical|Company: Autodesk, Inc."
 90
     1024
280
     0
281
     0
  0
CLASS
  1
ACMTHREADLINESTANDARDISO
  2
AmdtThreadLineStdISO
  3
"Amdt_StdImp|Product Description: AutoCAD Mechanical|Company: Autodesk, Inc."
 90
     1024
280
     0
281
     0
  0
CLASS
  1
ACMNOTESTANDARDISO
  2
AmdtNoteStdISO
  3
"Amdt_StdImp|Product Description: AutoCAD Mechanical|Company: Autodesk, Inc."
 90
     1024
280
     0
281
     0
  0
CLASS
  1
ACAMGHOLECHARTSTDISO
  2
AcAmgHoleChartStdISO
  3
AmgDim|Product Description: AutoCAD Mechanical|Company: Autodesk, Inc.
 90
     1024
280
     0
281
     0
  0
CLASS
  1
ACMNOTESTANDARDANSI
  2
AmdtNoteStdANSI
  3
"Amdt_StdImp|Product Description: AutoCAD Mechanical|Company: Autodesk, Inc."
 90
     1024
280
     0
281
     0
  0
CLASS
  1
AMDTNOTETEMPLATEDB
  2
AmdtNoteTemplateDB
  3
AcmSymBB|Product Description: AutoCAD Mechanical|Company: Autodesk, Inc.
 90
     1024
280
     0
281
     0
  0
CLASS
  1
ACAMGHOLECHARTSTDANSI
  2
AcAmgHoleChartStdANSI
  3
AmgDim|Product Description: AutoCAD Mechanical|Company: Autodesk, Inc.
 90
     1024
280
     0
281
     0
  0
CLASS
  1
TABLESTYLE
  2
AcDbTableStyle
  3
ObjectDBX Classes
 90
     4095
280
     0
281
     0
  0
CLASS
  1
ACAD_TABLE
  2
AcDbTable
  3
ObjectDBX Classes
 90
    33793
280
     0
281
     1
  0
CLASS
  1
MATERIAL
  2
AcDbMaterial
  3
ObjectDBX Classes
 90
     1153
280
     0
281
     0
  0
CLASS
  1
VISUALSTYLE
  2
AcDbVisualStyle
  3
ObjectDBX Classes
 90
     4095
280
     0
281
     0
  0
CLASS
  1
SCALE
  2
AcDbScale
  3
ObjectDBX Classes
 90
     1153
280
     0
281
     0
  0
CLASS
  1
MLEADERSTYLE
  2
AcDbMLeaderStyle
  3
ACDB_MLEADERSTYLE_CLASS
 90
     4095
280
     0
281
     0
  0
CLASS
  1
ACRFATTGENMGR
  2
AcRfAttGeneralMgr
  3
AcAttribServices
 90
     1024
280
     0
281
     0
  0
CLASS
  1
ACRFOBJATTMGR
  2
AcRfObjAttGroupMgr
  3
AcAttribServices
 90
     1024
280
     0
281
     0
  0
CLASS
  1
ACRFMCADAPIATTHOLDER
  2
AcRfMCADAPIAttHolder
  3
AcAttribServices
 90
     1024
280
     0
281
     0
  0
CLASS
  1
AMDTSYSATTR
  2
AmdtSystemAttribute
  3
AcAttribServices
 90
     1024
280
     0
281
     0
  0
CLASS
  1
ACMTAPERSTANDARDISO
  2
AcmTaperStdISO
  3
"Amdt_StdImp|Product Description: AutoCAD Mechanical|Company: Autodesk, Inc."
 90
     1024
280
     0
281
     0
  0
CLASS
  1
ACMANOOTATIONVIEWSTANDARDISO
  2
AmdtAnViewStdISO
  3
"Amdt_StdImp|Product Description: AutoCAD Mechanical|Company: Autodesk, Inc."
 90
     1024
280
     0
281
     0
  0
CLASS
  1
ACMTAPERSTANDARDANSI
  2
AcmTaperStdANSI
  3
"Amdt_StdImp|Product Description: AutoCAD Mechanical|Company: Autodesk, Inc."
 90
     1024
280
     0
281
     0
  0
CLASS
  1
ACMANOOTATIONVIEWSTANDARDANSI
  2
AmdtAnViewStdANSI
  3
"Amdt_StdImp|Product Description: AutoCAD Mechanical|Company: Autodesk, Inc."
 90
     1024
280
     0
281
     0
  0
CLASS
  1
CELLSTYLEMAP
  2
AcDbCellStyleMap
  3
ObjectDBX Classes
 90
     1152
280
     0
281
     0
  0
CLASS
  1
CAMSSTRUCTBTNSTATE
  2
StructBtnState
  3
DesignerAssemblies
 90
    33792
280
     0
281
     0
  0
CLASS
  1
AMDTEDGESTANDARDISO13715
  2
AmdtEdgeStdISO13715
  3
"Amdt_StdImp|Product Description: AutoCAD Mechanical|Company: Autodesk, Inc."
 90
    33792
280
     0
281
     0
  0
CLASS
  1
ACMSURFSTANDARDISO2002
  2
AcmSurfTextStdISO2002
  3
"Amdt_StdImp|Product Description: AutoCAD Mechanical|Company: Autodesk, Inc."
 90
    33792
280
     0
281
     0
  0
CLASS
  1
ACMSECTIONSTANDARDISO2001
  2
AmdtSectionSymStdISO2001
  3
"Amdt_StdImp|Product Description: AutoCAD Mechanical|Company: Autodesk, Inc."
 90
    33792
280
     0
281
     0
  0
CLASS
  1
SORTENTSTABLE
  2
AcDbSortentsTable
  3
ObjectDBX Classes
 90
        0
280
     0
281
     0
  0
CLASS
  1
DIMASSOC
  2
AcDbDimAssoc
  3
"AcDbDimAssoc|Product Desc:     AcDim ARX App For Dimension|Company:          Autodesk, Inc.|WEB Address:      www.autodesk.com"
 90
    32768
280
     0
281
     0
  0
CLASS
  1
AEC_REFEDIT_STATUS_TRACKER
  2
AecDbRefEditStatusTracker
  3
AecArchBase50|Product Desc: Autodesk Architectural Desktop 2007 |Company: Autodesk,Inc. |WEB Address: www.autodesk.com
 90
      129
280
     0
281
     0
  0
CLASS
  1
NPOCOLLECTION
  2
AcDbImpNonPersistentObjectsCollection
  3
ObjectDBX Classes
 90
     1153
280
     0
281
     0
  0
ENDSEC
  0
SECTION
  2
TABLES
  0
TABLE
  2
VPORT
  5
8
330
0
100
AcDbSymbolTable
 70
     1
  0
VPORT
  5
A35
330
8
100
AcDbSymbolTableRecord
100
AcDbViewportTableRecord
  2
*Active
 70
     0
 10
0.0
 20
0.0
 11
1.0
 21
1.0
 12
0.0
 22
0.0
 13
0.0
 23
0.0
 14
2.5
 24
2.5
 15
10.0
 25
10.0
 16
0.0
 26
0.0
 36
1.0
 17
1107.790907442496
 27
780.4859728702007
 37
0.0
 40
238.2417320616589
 41
1.71195652173913
 42
50.0
 43
0.0
 44
0.0
 50
0.0
 51
0.0
 71
     0
 72
   100
 73
     1
 74
     1
 75
     0
 76
     0
 77
     0
 78
     0
281
     0
 65
     0
110
0.0
120
0.0
130
0.0
111
1.0
121
0.0
131
0.0
112
0.0
122
1.0
132
0.0
 79
     0
146
0.0
  0
ENDTAB
  0
TABLE
  2
LTYPE
  5
5
330
0
100
AcDbSymbolTable
 70
    22
  0
LTYPE
  5
14
330
5
100
AcDbSymbolTableRecord
100
AcDbLinetypeTableRecord
  2
BYBLOCK
 70
     0
  3

 72
    65
 73
     0
 40
0.0
  0
LTYPE
  5
15
330
5
100
AcDbSymbolTableRecord
100
AcDbLinetypeTableRecord
  2
BYLAYER
 70
     0
  3

 72
    65
 73
     0
 40
0.0
  0
LTYPE
  5
16
330
5
100
AcDbSymbolTableRecord
100
AcDbLinetypeTableRecord
  2
CONTINUOUS
 70
     0
  3
Solid line
 72
    65
 73
     0
 40
0.0
  0
LTYPE
  5
BD
330
5
100
AcDbSymbolTableRecord
100
AcDbLinetypeTableRecord
  2
HIDDEN
 70
     0
  3
__ __ __ __ __ __ __ __ __ __ __ __ __ __ __ __
 72
    65
 73
     2
 40
0.375
 49
0.25
 74
     0
 49
-0.125
 74
     0
  0
LTYPE
  5
BF
330
5
100
AcDbSymbolTableRecord
100
AcDbLinetypeTableRecord
  2
PHANTOM2
 70
     0
  3
___ _ _ ___ _ _ ___ _ _ ___ _ _ ___ _ _ ___ _ _
 72
    65
 73
     6
 40
1.25
 49
0.625
 74
     0
 49
-0.125
 74
     0
 49
0.125
 74
     0
 49
-0.125
 74
     0
 49
0.125
 74
     0
 49
-0.125
 74
     0
  0
LTYPE
  5
CA
330
5
100
AcDbSymbolTableRecord
100
AcDbLinetypeTableRecord
  2
CENTER
 70
     0
  3
____ _ ____ _ ____ _ ____ _ ____ _ ____ _ ____ 
 72
    65
 73
     4
 40
2.0
 49
1.25
 74
     0
 49
-0.25
 74
     0
 49
0.25
 74
     0
 49
-0.25
 74
     0
  0
LTYPE
  5
15B
330
5
100
AcDbSymbolTableRecord
100
AcDbLinetypeTableRecord
  2
ACISOWELD
 70
     0
  3
_ _ _ _ _
 72
    65
 73
     2
 40
2.0
 49
2.0
 74
     0
 49
-1.0
 74
     0
  0
LTYPE
  5
15C
330
5
100
AcDbSymbolTableRecord
100
AcDbLinetypeTableRecord
  2
ACISOTGB
 70
     0
  3
__ . . __ . .
 72
    65
 73
     6
 40
9.0
 49
4.0
 74
     0
 49
-1.0
 74
     0
 49
1.0
 74
     0
 49
-1.0
 74
     0
 49
1.0
 74
     0
 49
-1.0
 74
     0
  0
LTYPE
  5
15D
330
5
100
AcDbSymbolTableRecord
100
AcDbLinetypeTableRecord
  2
ACISOTGL
 70
     0
  3
_ _ _ _ _
 72
    65
 73
     2
 40
3.0
 49
2.0
 74
     0
 49
-1.0
 74
     0
  0
LTYPE
  5
175
330
5
100
AcDbSymbolTableRecord
100
AcDbLinetypeTableRecord
  2
AM_ISO02W050
 70
     0
  3
__ __ __ __ __ __ __ __ __ __ __ __ __ __ __
 72
    65
 73
     2
 40
7.5
 49
6.0
 74
     0
 49
-1.5
 74
     0
  0
LTYPE
  5
176
330
5
100
AcDbSymbolTableRecord
100
AcDbLinetypeTableRecord
  2
AM_ISO08W050
 70
     0
  3
____ . ____ . ____ . ____ . ____ . ____ . ____
 72
    65
 73
     4
 40
18.0
 49
12.0
 74
     0
 49
-1.5
 74
     0
 49
3.0
 74
     0
 49
-1.5
 74
     0
  0
LTYPE
  5
177
330
5
100
AcDbSymbolTableRecord
100
AcDbLinetypeTableRecord
  2
AM_ISO09W050
 70
     0
  3
_____ . . _____ . . _____ . . ____ .. ____
 72
    65
 73
     6
 40
22.5
 49
12.0
 74
     0
 49
-1.5
 74
     0
 49
3.0
 74
     0
 49
-1.5
 74
     0
 49
3.0
 74
     0
 49
-1.5
 74
     0
  0
LTYPE
  5
178
330
5
100
AcDbSymbolTableRecord
100
AcDbLinetypeTableRecord
  2
AM_ISO02W050x2
 70
     0
  3
 _ _ _ _ _ _ _ _ _ _ _ _
 72
    65
 73
     2
 40
3.75
 49
3.0
 74
     0
 49
-0.75
 74
     0
  0
LTYPE
  5
179
330
5
100
AcDbSymbolTableRecord
100
AcDbLinetypeTableRecord
  2
AM_ISO08W050x2
 70
     0
  3
__ . __ . __ . __ . __ . __
 72
    65
 73
     4
 40
9.0
 49
6.0
 74
     0
 49
-0.75
 74
     0
 49
1.5
 74
     0
 49
-0.75
 74
     0
  0
LTYPE
  5
17C
330
5
100
AcDbSymbolTableRecord
100
AcDbLinetypeTableRecord
  2
Amzigzag
 70
     0
  3
/\/-/\/-/\/-/\/-/\/-/\/
 72
    65
 73
     2
 40
11.0001
 49
0.0001
 74
     4
 75
   135
340
17B
 46
0.04
 50
0.0
 44
0.0
 45
0.0
 49
-11.0
 74
     0
  0
LTYPE
  5
2ED
330
5
100
AcDbSymbolTableRecord
100
AcDbLinetypeTableRecord
  2
Amconstr
 70
     0
  3
_______________________
 72
    65
 73
     2
 40
9999.0
 49
9999.0
 74
     0
 49
0.0
 74
     0
  0
LTYPE
  5
1B6D
330
5
100
AcDbSymbolTableRecord
100
AcDbLinetypeTableRecord
  2
ASULTYPE
 70
     0
  3
Solid line
 72
    65
 73
     2
 40
3.0
 49
2.5
 74
     0
 49
0.5
 74
     0
  0
LTYPE
  5
1B6E
330
5
100
AcDbSymbolTableRecord
100
AcDbLinetypeTableRecord
  2
ASVLTYPE
 70
     0
  3
__ __ __ __ __ __ __ __ __ __ __ __ __ __ __ __ __ __ __ __ __
 72
    65
 73
     2
 40
0.75
 49
0.5
 74
     0
 49
-0.25
 74
     0
  0
LTYPE
  5
1B7B
330
5
100
AcDbSymbolTableRecord
100
AcDbLinetypeTableRecord
  2
ACANSTGB
 70
     0
  3
__ . . __ . .
 72
    65
 73
     6
 40
0.35433070866
 49
0.15748031496
 74
     0
 49
-0.03937007874
 74
     0
 49
0.03937007874
 74
     0
 49
-0.03937007874
 74
     0
 49
0.03937007874
 74
     0
 49
-0.03937007874
 74
     0
  0
LTYPE
  5
1B7C
330
5
100
AcDbSymbolTableRecord
100
AcDbLinetypeTableRecord
  2
ACANSTGL
 70
     0
  3
_ _ _ _ _
 72
    65
 73
     2
 40
0.11811023622
 49
0.07874015748
 74
     0
 49
-0.03937007874
 74
     0
  0
LTYPE
  5
1B93
330
5
100
AcDbSymbolTableRecord
100
AcDbLinetypeTableRecord
  2
CENTER2
 70
     0
  3
Center (.5x) ___ _ ___ _ ___ _ ___ _ ___ _ ___
 72
    65
 73
     4
 40
1.125
 49
0.75
 74
     0
 49
-0.125
 74
     0
 49
0.125
 74
     0
 49
-0.125
 74
     0
  0
LTYPE
  5
1B94
330
5
100
AcDbSymbolTableRecord
100
AcDbLinetypeTableRecord
  2
HIDDEN2
 70
     0
  3
Hidden (.5x) _ _ _ _ _ _ _ _ _ _ _ _ _ _ _ _ _
 72
    65
 73
     2
 40
0.1875
 49
0.125
 74
     0
 49
-0.0625
 74
     0
  0
LTYPE
  5
1B95
330
5
100
AcDbSymbolTableRecord
100
AcDbLinetypeTableRecord
  2
Amzigzag2
 70
     0
  3
/\/-/\/-/\/-/\/-/\/-/\/
 72
    65
 73
     2
 40
0.4401
 49
0.0001
 74
     4
 75
   135
340
17B
 46
0.0016
 50
0.0
 44
0.0
 45
0.0
 49
-0.4400000000000001
 74
     0
  0
ENDTAB
  0
TABLE
  2
LAYER
  5
2
102
{ACAD_XDICTIONARY
360
592
102
}
330
0
100
AcDbSymbolTable
 70
     6
  0
LAYER
  5
F
102
{ACAD_XDICTIONARY
360
AB7
102
}
330
2
100
AcDbSymbolTableRecord
100
AcDbLayerTableRecord
  2
0
 70
     0
 62
     7
  6
CONTINUOUS
370
    -3
390
166
  0
LAYER
  5
5CF
102
{ACAD_XDICTIONARY
360
AB9
102
}
330
2
100
AcDbSymbolTableRecord
100
AcDbLayerTableRecord
  2
AM_0
 70
     0
 62
     7
  6
CONTINUOUS
370
    50
390
166
  0
LAYER
  5
D2F
102
{ACAD_XDICTIONARY
360
12C3
102
}
330
2
100
AcDbSymbolTableRecord
100
AcDbLayerTableRecord
  2
Sketch Geometry(ISO)
 70
     0
 62
     7
  6
CONTINUOUS
370
    35
390
166
  0
LAYER
  5
D30
102
{ACAD_XDICTIONARY
360
12C5
102
}
330
2
100
AcDbSymbolTableRecord
100
AcDbLayerTableRecord
  2
Visible Edges(ISO)
 70
     0
 62
     7
  6
CONTINUOUS
370
    35
390
166
  0
LAYER
  5
15D4
330
2
100
AcDbSymbolTableRecord
100
AcDbLayerTableRecord
  2
AM_5
 70
     0
 62
     3
  6
CONTINUOUS
370
    25
390
166
1001
AcAecLayerStandard
1000

1000

  0
LAYER
  5
15D7
330
2
100
AcDbSymbolTableRecord
100
AcDbLayerTableRecord
  2
Defpoints
 70
     0
 62
     7
  6
CONTINUOUS
290
     0
370
    -3
390
166
  0
ENDTAB
  0
TABLE
  2
STYLE
  5
3
330
0
100
AcDbSymbolTable
 70
     6
  0
STYLE
  5
10
330
3
100
AcDbSymbolTableRecord
100
AcDbTextStyleTableRecord
  2
STANDARD
 70
     0
 40
0.0
 41
1.0
 50
0.0
 71
     0
 42
3.5
  3
ISOCP.SHX
  4

  0
STYLE
  5
159
330
3
100
AcDbSymbolTableRecord
100
AcDbTextStyleTableRecord
  2
ACISOTS
 70
     0
 40
1.0
 41
1.0
 50
0.0
 71
     0
 42
2.5
  3
isocp.shx
  4

  0
STYLE
  5
15A
330
3
100
AcDbSymbolTableRecord
100
AcDbTextStyleTableRecord
  2
ACISOGDT
 70
     0
 40
0.0
 41
1.0
 50
0.0
 71
     0
 42
2.5
  3
amgdt.shx
  4

  0
STYLE
  5
17B
330
3
100
AcDbSymbolTableRecord
100
AcDbTextStyleTableRecord
  2

 70
     1
 40
0.0
 41
1.0
 50
0.0
 71
     0
 42
3.5
  3
ltypeshp.shx
  4

  0
STYLE
  5
1B74
330
3
100
AcDbSymbolTableRecord
100
AcDbTextStyleTableRecord
  2
ACANSTS
 70
     0
 40
1.0
 41
1.0
 50
0.0
 71
     0
 42
3.5
  3
romans.shx
  4

  0
STYLE
  5
1B77
330
3
100
AcDbSymbolTableRecord
100
AcDbTextStyleTableRecord
  2
ACANSGDT
 70
     0
 40
0.0
 41
1.0
 50
0.0
 71
     0
 42
3.5
  3
amgdt.shx
  4

  0
ENDTAB
  0
TABLE
  2
VIEW
  5
6
330
0
100
AcDbSymbolTable
 70
     3
  0
VIEW
  5
1C8
330
6
100
AcDbSymbolTableRecord
100
AcDbViewTableRecord
  2
AMDTVIEW1
 70
     0
 40
329.0721649484536
 10
210.0
 20
164.5360824742268
 41
420.0
 11
0.0
 21
0.0
 31
1.0
 12
0.0
 22
0.0
 32
0.0
 42
50.0
 43
0.0
 44
0.0
 50
0.0
 71
     0
281
     0
 72
     0
  0
VIEW
  5
1C9
330
6
100
AcDbSymbolTableRecord
100
AcDbViewTableRecord
  2
AMDTVIEW2
 70
     0
 40
329.0721649484536
 10
210.0
 20
164.5360824742268
 41
420.0
 11
0.0
 21
0.0
 31
1.0
 12
0.0
 22
0.0
 32
0.0
 42
50.0
 43
0.0
 44
0.0
 50
0.0
 71
     0
281
     0
 72
     0
  0
VIEW
  5
1CA
330
6
100
AcDbSymbolTableRecord
100
AcDbViewTableRecord
  2
AMDTVIEW3
 70
     0
 40
329.0721649484536
 10
210.0
 20
164.5360824742268
 41
420.0
 11
0.0
 21
0.0
 31
1.0
 12
0.0
 22
0.0
 32
0.0
 42
50.0
 43
0.0
 44
0.0
 50
0.0
 71
     0
281
     0
 72
     0
  0
ENDTAB
  0
TABLE
  2
UCS
  5
7
330
0
100
AcDbSymbolTable
 70
     0
  0
ENDTAB
  0
TABLE
  2
APPID
  5
9
330
0
100
AcDbSymbolTable
 70
    28
  0
APPID
  5
11
330
9
100
AcDbSymbolTableRecord
100
AcDbRegAppTableRecord
  2
ACAD
 70
     0
  0
APPID
  5
CD
330
9
100
AcDbSymbolTableRecord
100
AcDbRegAppTableRecord
  2
AD_DRAW
 70
     0
  0
APPID
  5
E7
330
9
100
AcDbSymbolTableRecord
100
AcDbRegAppTableRecord
  2
DESIGNERASSEMBLIES
 70
     0
  0
APPID
  5
EB
330
9
100
AcDbSymbolTableRecord
100
AcDbRegAppTableRecord
  2
MCAD_NO_VIS
 70
     0
  0
APPID
  5
122
330
9
100
AcDbSymbolTableRecord
100
AcDbRegAppTableRecord
  2
ASURF_PCURVE_APPNAME
 70
     0
  0
APPID
  5
17F
330
9
100
AcDbSymbolTableRecord
100
AcDbRegAppTableRecord
  2
ACAD_TEMP_GRAPHIC
 70
     0
  0
APPID
  5
189
330
9
100
AcDbSymbolTableRecord
100
AcDbRegAppTableRecord
  2
ACATTRIBSERVICES
 70
     0
  0
APPID
  5
1C4
330
9
100
AcDbSymbolTableRecord
100
AcDbRegAppTableRecord
  2
ACADM_DIM_EDIT
 70
     0
  0
APPID
  5
1D5
330
9
100
AcDbSymbolTableRecord
100
AcDbRegAppTableRecord
  2
GENIUS_GENDIM_13
 70
     0
  0
APPID
  5
1D6
330
9
100
AcDbSymbolTableRecord
100
AcDbRegAppTableRecord
  2
GENIUS_GENDTOL_13
 70
     0
  0
APPID
  5
1D7
330
9
100
AcDbSymbolTableRecord
100
AcDbRegAppTableRecord
  2
GENIUS_GE3DTOL_13
 70
     0
  0
APPID
  5
2E9
330
9
100
AcDbSymbolTableRecord
100
AcDbRegAppTableRecord
  2
AMG_3D2D_5.0
 70
     0
  0
APPID
  5
3C0
330
9
100
AcDbSymbolTableRecord
100
AcDbRegAppTableRecord
  2
AMDT_DM_ADJ
 70
     0
  0
APPID
  5
82F
330
9
100
AcDbSymbolTableRecord
100
AcDbRegAppTableRecord
  2
ACAD_PSEXT
 70
     0
  0
APPID
  5
84A
330
9
100
AcDbSymbolTableRecord
100
AcDbRegAppTableRecord
  2
DCO15
 70
     0
  0
APPID
  5
892
330
9
100
AcDbSymbolTableRecord
100
AcDbRegAppTableRecord
  2
ACAD_DSTYLE_DIMTEXT_FILL
 70
     0
  0
APPID
  5
A74
330
9
100
AcDbSymbolTableRecord
100
AcDbRegAppTableRecord
  2
ACAD_MLEADERVER
 70
     0
  0
APPID
  5
AB1
330
9
100
AcDbSymbolTableRecord
100
AcDbRegAppTableRecord
  2
AcAecLayerStandard
 70
     0
  0
APPID
  5
D36
330
9
100
AcDbSymbolTableRecord
100
AcDbRegAppTableRecord
  2
ACAD_DSTYLE_DIMRADIAL_EXTENSION
 70
     0
  0
APPID
  5
13B4
330
9
100
AcDbSymbolTableRecord
100
AcDbRegAppTableRecord
  2
GENIUS_GENSCREG_15
 70
     0
  0
APPID
  5
13B5
330
9
100
AcDbSymbolTableRecord
100
AcDbRegAppTableRecord
  2
GENIUS_GENODEF_13
 70
     0
  0
APPID
  5
13B6
330
9
100
AcDbSymbolTableRecord
100
AcDbRegAppTableRecord
  2
GENIUS_GENOBJ-N-SDF_13
 70
     0
  0
APPID
  5
15E8
330
9
100
AcDbSymbolTableRecord
100
AcDbRegAppTableRecord
  2
ACAD_DSTYLE_DIMINSPECT
 70
     0
  0
APPID
  5
1631
330
9
100
AcDbSymbolTableRecord
100
AcDbRegAppTableRecord
  2
ACAD_EXEMPT_FROM_CAD_STANDARDS
 70
     0
  0
APPID
  5
1AE2
330
9
100
AcDbSymbolTableRecord
100
AcDbRegAppTableRecord
  2
ACAD_DSTYLE_DIMARC_LENGTH_SYMBOL
 70
     0
  0
APPID
  5
1AE3
330
9
100
AcDbSymbolTableRecord
100
AcDbRegAppTableRecord
  2
ACAD_DSTYLE_DIM_LINETYPE
 70
     0
  0
APPID
  5
1AE4
330
9
100
AcDbSymbolTableRecord
100
AcDbRegAppTableRecord
  2
ACAD_DSTYLE_DIM_EXT1_LINETYPE
 70
     0
  0
APPID
  5
1AE5
330
9
100
AcDbSymbolTableRecord
100
AcDbRegAppTableRecord
  2
ACAD_DSTYLE_DIM_EXT2_LINETYPE
 70
     0
  0
ENDTAB
  0
TABLE
  2
DIMSTYLE
  5
A
330
0
100
AcDbSymbolTable
 70
    13
100
AcDbDimStyleTable
 71
     1
340
344
  0
DIMSTYLE
105
344
330
A
100
AcDbSymbolTableRecord
100
AcDbDimStyleTableRecord
  2
AM_ISO
 70
     0
  4
"
 41
2.5
 42
1.0
 43
10.0
 44
1.0
 47
0.1
 48
0.1
 73
     0
 74
     0
 77
     1
 78
     8
 79
     2
140
3.5
141
0.0
143
0.0393701
146
0.71
147
1.5
171
     3
172
     1
176
   256
177
   256
178
     2
271
     2
272
     2
274
     3
283
     0
284
     8
340
10
371
    -1
372
    -1
  0
DIMSTYLE
105
345
330
A
100
AcDbSymbolTableRecord
100
AcDbDimStyleTableRecord
  2
AM_ISO$3
 70
     0
  4
"
 41
2.5
 42
1.0
 43
10.0
 44
1.0
 47
0.1
 48
0.1
 73
     0
 77
     1
 78
     8
 79
     2
140
3.5
141
0.0
143
0.0393701
146
0.71
147
1.5
176
   256
177
   256
178
     2
271
     2
272
     3
274
     4
283
     0
284
     8
288
     1
289
     0
340
10
371
    -1
372
    -1
  0
DIMSTYLE
105
346
330
A
100
AcDbSymbolTableRecord
100
AcDbDimStyleTableRecord
  2
AM_ISO$4
 70
     0
  4
"
 41
2.5
 42
1.0
 43
10.0
 44
1.0
 47
0.1
 48
0.1
 73
     0
 77
     1
 78
     8
 79
     2
140
3.5
141
0.0
143
0.0393701
146
0.71
147
1.5
176
   256
177
   256
178
     2
271
     2
272
     3
274
     4
283
     0
284
     8
288
     1
289
     0
340
10
371
    -1
372
    -1
  0
DIMSTYLE
105
347
330
A
100
AcDbSymbolTableRecord
100
AcDbDimStyleTableRecord
  2
AM_ISO$6
 70
     0
  4
"
 41
2.5
 42
1.0
 43
10.0
 44
1.0
 47
0.1
 48
0.1
 73
     0
 74
     0
 78
     8
 79
     2
140
3.5
141
0.0
143
0.0393701
146
0.71
147
1.5
172
     1
176
   256
177
   256
178
     2
271
     2
272
     3
274
     4
283
     0
284
     8
340
10
371
    -1
372
    -1
  0
DIMSTYLE
105
348
330
A
100
AcDbSymbolTableRecord
100
AcDbDimStyleTableRecord
  2
AM_ISO$7
 70
     0
  4
"
 41
2.5
 42
1.0
 43
10.0
 44
1.0
 47
0.1
 48
0.1
 73
     0
 74
     0
 77
     1
 78
     8
 79
     2
140
5.0
141
0.0
143
0.0393701
146
0.71
147
1.5
172
     1
176
   256
177
   256
178
     2
271
     2
272
     3
274
     4
283
     0
284
     8
340
10
371
    -1
372
    -1
  0
DIMSTYLE
105
349
330
A
100
AcDbSymbolTableRecord
100
AcDbDimStyleTableRecord
  2
AM_ISO$SF
 70
     0
  4
"
 41
2.5
 42
1.0
 43
10.0
 44
1.0
 47
0.1
 48
0.1
 73
     0
 74
     0
 75
     1
 76
     1
 77
     1
 78
     8
 79
     2
140
3.5
141
0.0
143
0.0393701
146
0.71
147
1.5
172
     1
176
   256
177
   256
178
     2
271
     2
272
     3
274
     4
283
     0
284
     8
340
10
371
    -1
372
    -1
  0
DIMSTYLE
105
34A
330
A
100
AcDbSymbolTableRecord
100
AcDbDimStyleTableRecord
  2
AM_ISO$SH
 70
     0
  4
"
 41
2.5
 42
1.0
 43
10.0
 44
1.0
 47
0.1
 48
0.1
 73
     0
 74
     0
 75
     1
 76
     1
 77
     1
 78
     8
 79
     2
140
3.5
141
0.0
143
0.0393701
144
2.0
146
0.71
147
1.5
172
     1
173
     1
176
   256
177
   256
178
     2
271
     2
272
     3
274
     4
283
     0
284
     8
340
10
343
2F4
371
    -1
372
    -1
  0
DIMSTYLE
105
15A0
330
A
100
AcDbSymbolTableRecord
100
AcDbDimStyleTableRecord
  2
AM_ANSI
 70
     0
  4
mm
 41
0.1
 42
0.05
 43
0.5
 44
0.1
 47
0.1
 48
0.1
 78
     7
 79
     2
140
0.12
141
0.0
146
0.71
147
0.06
176
   256
177
   256
178
     2
274
     4
284
     7
340
10
371
    -1
372
    -1
  0
DIMSTYLE
105
1B98
330
A
100
AcDbSymbolTableRecord
100
AcDbDimStyleTableRecord
  2
AM_ANSI$3
 70
     0
  4
mm
 41
0.1
 42
0.05
 43
0.5
 44
0.1
 47
0.1
 48
0.1
 78
     7
 79
     2
140
0.12
141
0.0
146
0.71
147
0.06
176
   256
177
   256
178
     2
274
     4
284
     7
288
     1
289
     0
340
10
371
    -1
372
    -1
  0
DIMSTYLE
105
1B99
330
A
100
AcDbSymbolTableRecord
100
AcDbDimStyleTableRecord
  2
AM_ANSI$4
 70
     0
  4
mm
 41
0.1
 42
0.05
 43
0.5
 44
0.1
 47
0.1
 48
0.1
 78
     7
 79
     2
140
0.12
141
0.0
146
0.71
147
0.06
176
   256
177
   256
178
     2
274
     4
284
     7
288
     1
289
     0
340
10
371
    -1
372
    -1
  0
DIMSTYLE
105
1B9A
330
A
100
AcDbSymbolTableRecord
100
AcDbDimStyleTableRecord
  2
AM_ANSI$7
 70
     0
  4
mm
 41
0.1
 42
0.05
 43
0.5
 44
0.1
 47
0.1
 48
0.1
 78
     7
 79
     2
140
0.24
141
0.0
146
0.71
147
0.06
176
   256
177
   256
178
     2
274
     4
284
     7
340
10
371
    -1
372
    -1
  0
DIMSTYLE
105
1B9B
330
A
100
AcDbSymbolTableRecord
100
AcDbDimStyleTableRecord
  2
AM_ANSI$SF
 70
     0
  4
mm
 41
0.1
 42
0.05
 43
0.5
 44
0.1
 47
0.1
 48
0.1
 75
     1
 76
     1
 78
     7
 79
     2
140
0.12
141
0.0
146
0.71
147
0.06
176
   256
177
   256
178
     2
274
     4
284
     7
340
10
371
    -1
372
    -1
  0
DIMSTYLE
105
1B9C
330
A
100
AcDbSymbolTableRecord
100
AcDbDimStyleTableRecord
  2
AM_ANSI$SH
 70
     0
  4
mm
 41
0.1
 42
0.05
 43
0.5
 44
0.1
 47
0.1
 48
0.1
 75
     1
 76
     1
 78
     7
 79
     2
140
0.12
141
0.0
146
0.71
147
0.06
173
     1
176
   256
177
   256
178
     2
274
     4
284
     7
340
10
343
2F4
371
    -1
372
    -1
  0
ENDTAB
  0
TABLE
  2
BLOCK_RECORD
  5
1
330
0
100
AcDbSymbolTable
 70
     4
  0
BLOCK_RECORD
  5
1A
102
{ACAD_XDICTIONARY
360
12A
102
}
330
1
100
AcDbSymbolTableRecord
100
AcDbBlockTableRecord
  2
*MODEL_SPACE
340
169
  0
BLOCK_RECORD
  5
17
330
1
100
AcDbSymbolTableRecord
100
AcDbBlockTableRecord
  2
*PAPER_SPACE
340
16A
  0
BLOCK_RECORD
  5
2F4
330
1
100
AcDbSymbolTableRecord
100
AcDbBlockTableRecord
  2
GENAXEH
340
0
  0
BLOCK_RECORD
  5
1DD0
330
1
100
AcDbSymbolTableRecord
100
AcDbBlockTableRecord
  2
SleeveIT_FC20
340
0
310
2800000020000000200000000100080000000000000400000000000000000000000000000000000000000000000080000080000000808000800000008000800080800000C0C0C000C0DCC000F0CAA6000020400000206000002080000020A0000020C0000020E00000400000004020000040400000406000004080000040A0
310
000040C0000040E00000600000006020000060400000606000006080000060A0000060C0000060E00000800000008020000080400000806000008080000080A0000080C0000080E00000A0000000A0200000A0400000A0600000A0800000A0A00000A0C00000A0E00000C0000000C0200000C0400000C0600000C0800000C0
310
A00000C0C00000C0E00000E0000000E0200000E0400000E0600000E0800000E0A00000E0C00000E0E00040000000400020004000400040006000400080004000A0004000C0004000E00040200000402020004020400040206000402080004020A0004020C0004020E000404000004040200040404000404060004040800040
310
40A0004040C0004040E00040600000406020004060400040606000406080004060A0004060C0004060E00040800000408020004080400040806000408080004080A0004080C0004080E00040A0000040A0200040A0400040A0600040A0800040A0A00040A0C00040A0E00040C0000040C0200040C0400040C0600040C08000
310
40C0A00040C0C00040C0E00040E0000040E0200040E0400040E0600040E0800040E0A00040E0C00040E0E00080000000800020008000400080006000800080008000A0008000C0008000E00080200000802020008020400080206000802080008020A0008020C0008020E00080400000804020008040400080406000804080
310
008040A0008040C0008040E00080600000806020008060400080606000806080008060A0008060C0008060E00080800000808020008080400080806000808080008080A0008080C0008080E00080A0000080A0200080A0400080A0600080A0800080A0A00080A0C00080A0E00080C0000080C0200080C0400080C0600080C0
310
800080C0A00080C0C00080C0E00080E0000080E0200080E0400080E0600080E0800080E0A00080E0C00080E0E000C0000000C0002000C0004000C0006000C0008000C000A000C000C000C000E000C0200000C0202000C0204000C0206000C0208000C020A000C020C000C020E000C0400000C0402000C0404000C0406000C0
310
408000C040A000C040C000C040E000C0600000C0602000C0604000C0606000C0608000C060A000C060C000C060E000C0800000C0802000C0804000C0806000C0808000C080A000C080C000C080E000C0A00000C0A02000C0A04000C0A06000C0A08000C0A0A000C0A0C000C0A0E000C0C00000C0C02000C0C04000C0C06000
310
C0C08000C0C0A000F0FBFF00A4A0A000808080000000FF0000FF000000FFFF00FF000000FF00FF00FFFF0000FFFFFF0000000000000000000000000000000000000000000000000000000000000000000000000000000000000000000000000000000000000000000000000000000000000000000000000000000000FFFF00
310
000000FFFF000000000000000000000000000000000000000000FFFFFF00FF00000000FF00FFFFFF00000000000000000000000000000000FFFF0000000000FF0000FF0000000000FFFF00000000000000000000000000FF00000000000000FF0000FF00000000000000FF0000000000000000000000FF0000000000000000
310
00FFFF000000000000000000FF000000000000000000FF0000000000000000FFFFFFFFFFFF0000000000000000FF00000000000000FF00000000000000FFFFFFFFFFFFFFFFFFFF00000000000000FF000000000000FF000000000000FFFFFFFFFFFFFFFFFFFFFFFF000000000000FF0000000000FF0000000000FFFFFFFFFF
310
FF00000000FFFFFFFFFFFF0000000000FF00000000FF0000000000FFFFFFFF0000000000000000FFFFFFFF0000000000FF00000000FF0000000000FFFFFF00000000000000000000FFFFFF0000000000FF00000000FF00000000FFFFFFFF0000000000000000000000FFFFFF00000000FF00000000FF00000000FFFFFF0000
310
00000000000000000000FFFFFF00000000FF00000000FF00000000FFFFFAFAFAFAFAFAFAFAFAFAFAFAFAFAFFFF0000000000FF0000FF0000000000FFFFFF0000000000FBFB0000000000FFFFFF0000000000FF0000FF0000000000FFFFFFFF0000000000000000000000FFFFFF0000000000FF0000FF0000000000FFFFFFFF
310
0000000000000000000000FFFFFF0000000000FF000000FF00000000FFFFFFFFFF000000000000000000FFFFFFFF00000000FF00000000FF0000000000FFFFFFFF0000000000000000FFFFFFFF0000000000FF0000000000FF0000000000FFFFFFFFFFFF0000FFFFFFFFFFFF0000000000FF000000000000FF0000000000FF
310
FFFFFFFFFFFFFFFFFFFFFFFFFF0000000000FF00000000000000FF000000000000FFFF00FFFFFFFFFFFFFFFF0000000000FF000000000000000000FF00000000000000FFFFFFFFFFFFFFFFFF00000000FF00000000000000000000FF0000000000000000FFFFFFFFFFFFFF00FFFFFF00FF0000000000000000000000FF0000
310
0000000000FFFFFFFFFF00FFFF000000FF00000000000000000000000000FFFF000000000000FFFFFFFFFF000000FAFF00000000000000000000000000000000FFFF00000000FFFF00000000FFFFFAFAFA0000000000000000000000000000000000FFFFFFFFFFFFFFFFFFFF000000FBFB0000000000000000000000000000
310
0000000000000000000000000000000000000000000000000000000000000000000000000000000000000000000000000000000000000000
1001
ACAD
1000
DesignCenter Data
1002
{
1070
     1
1070
     4
1002
}
  0
BLOCK_RECORD
  5
228C
330
1
100
AcDbSymbolTableRecord
100
AcDbBlockTableRecord
  2
Sleev-IT_FC20
340
0
310
2800000020000000200000000100080000000000000400000000000000000000000000000000000000000000000080000080000000808000800000008000800080800000C0C0C000C0DCC000F0CAA6000020400000206000002080000020A0000020C0000020E00000400000004020000040400000406000004080000040A0
310
000040C0000040E00000600000006020000060400000606000006080000060A0000060C0000060E00000800000008020000080400000806000008080000080A0000080C0000080E00000A0000000A0200000A0400000A0600000A0800000A0A00000A0C00000A0E00000C0000000C0200000C0400000C0600000C0800000C0
310
A00000C0C00000C0E00000E0000000E0200000E0400000E0600000E0800000E0A00000E0C00000E0E00040000000400020004000400040006000400080004000A0004000C0004000E00040200000402020004020400040206000402080004020A0004020C0004020E000404000004040200040404000404060004040800040
310
40A0004040C0004040E00040600000406020004060400040606000406080004060A0004060C0004060E00040800000408020004080400040806000408080004080A0004080C0004080E00040A0000040A0200040A0400040A0600040A0800040A0A00040A0C00040A0E00040C0000040C0200040C0400040C0600040C08000
310
40C0A00040C0C00040C0E00040E0000040E0200040E0400040E0600040E0800040E0A00040E0C00040E0E00080000000800020008000400080006000800080008000A0008000C0008000E00080200000802020008020400080206000802080008020A0008020C0008020E00080400000804020008040400080406000804080
310
008040A0008040C0008040E00080600000806020008060400080606000806080008060A0008060C0008060E00080800000808020008080400080806000808080008080A0008080C0008080E00080A0000080A0200080A0400080A0600080A0800080A0A00080A0C00080A0E00080C0000080C0200080C0400080C0600080C0
310
800080C0A00080C0C00080C0E00080E0000080E0200080E0400080E0600080E0800080E0A00080E0C00080E0E000C0000000C0002000C0004000C0006000C0008000C000A000C000C000C000E000C0200000C0202000C0204000C0206000C0208000C020A000C020C000C020E000C0400000C0402000C0404000C0406000C0
310
408000C040A000C040C000C040E000C0600000C0602000C0604000C0606000C0608000C060A000C060C000C060E000C0800000C0802000C0804000C0806000C0808000C080A000C080C000C080E000C0A00000C0A02000C0A04000C0A06000C0A08000C0A0A000C0A0C000C0A0E000C0C00000C0C02000C0C04000C0C06000
310
C0C08000C0C0A000F0FBFF00A4A0A000808080000000FF0000FF000000FFFF00FF000000FF00FF00FFFF0000FFFFFF0000000000000000000000000000000000000000000000000000000000000000000000000000000000000000000000000000000000000000000000000000000000000000000000000000000000FFFF00
310
000000FFFF000000000000000000000000000000000000000000FFFFFF00FF00000000FF00FFFFFF00000000000000000000000000000000FFFF0000000000FF0000FF0000000000FFFF00000000000000000000000000FF00000000000000FF0000FF00000000000000FF0000000000000000000000FF0000000000000000
310
00FFFF000000000000000000FF000000000000000000FF0000000000000000FFFFFFFFFFFF0000000000000000FF00000000000000FF00000000000000FFFFFFFFFFFFFFFFFFFF00000000000000FF000000000000FF000000000000FFFFFFFFFFFFFFFFFFFFFFFF000000000000FF0000000000FF0000000000FFFFFFFFFF
310
FF00000000FFFFFFFFFFFF0000000000FF00000000FF0000000000FFFFFFFF0000000000000000FFFFFFFF0000000000FF00000000FF0000000000FFFFFF00000000000000000000FFFFFF0000000000FF00000000FF00000000FFFFFFFF0000000000000000000000FFFFFF00000000FF00000000FF00000000FFFFFF0000
310
00000000000000000000FFFFFF00000000FF00000000FF00000000FFFFFAFAFAFAFAFAFAFAFAFAFAFAFAFAFFFF0000000000FF0000FF0000000000FFFFFF000000FBFBFBFBFBFB000000FFFFFF0000000000FF0000FF0000000000FFFFFFFF0000000000000000000000FFFFFF0000000000FF0000FF0000000000FFFFFFFF
310
0000000000000000000000FFFFFF0000000000FF000000FF00000000FFFFFFFFFF000000000000000000FFFFFFFF00000000FF00000000FF0000000000FFFFFFFF0000000000000000FFFFFFFF0000000000FF0000000000FF0000000000FFFFFFFFFFFF0000FFFFFFFFFFFF0000000000FF000000000000FF0000000000FF
310
FFFFFFFFFFFFFFFFFFFFFFFFFF0000000000FF00000000000000FF000000000000FFFF00FFFFFFFFFFFFFFFF0000000000FF000000000000000000FF00000000000000FFFFFFFFFFFFFFFFFF00000000FF00000000000000000000FF0000000000000000FFFFFFFFFFFFFF00FFFFFF00FF0000000000000000000000FF0000
310
0000000000FFFFFFFFFF00FFFF000000FF00000000000000000000000000FFFF000000000000FFFFFFFFFF000000FAFF00000000000000000000000000000000FFFF00000000FFFF00000000FFFFFAFAFB0000000000000000000000000000000000FFFFFFFFFFFFFFFFFFFF00FBFBFBFBFBFB000000000000000000000000
310
0000000000000000000000000000000000000000000000000000000000000000000000000000000000000000000000000000000000000000
102
{BLKREFS
331
2458
102
}
1001
ACAD
1000
DesignCenter Data
1002
{
1070
     1
1070
     4
1002
}
  0
ENDTAB
  0
ENDSEC
  0
SECTION
  2
BLOCKS
  0
BLOCK
  5
1B
330
1A
100
AcDbEntity
  8
0
100
AcDbBlockBegin
  2
*MODEL_SPACE
 70
     0
 10
0.0
 20
0.0
 30
0.0
  3
*MODEL_SPACE
  1

  0
ENDBLK
  5
1C
330
1A
100
AcDbEntity
  8
0
100
AcDbBlockEnd
  0
BLOCK
  5
18
330
17
100
AcDbEntity
 67
     1
  8
0
100
AcDbBlockBegin
  2
*PAPER_SPACE
 70
     0
 10
0.0
 20
0.0
 30
0.0
  3
*PAPER_SPACE
  1

  0
ENDBLK
  5
19
330
17
100
AcDbEntity
 67
     1
  8
0
100
AcDbBlockEnd
  0
BLOCK
  5
2060
330
2F4
100
AcDbEntity
  8
0
100
AcDbBlockBegin
  2
GENAXEH
 70
     0
 10
0.0
 20
0.0
 30
0.0
  3
GENAXEH
  1

  0
LINE
  5
2061
330
2F4
100
AcDbEntity
  8
0
100
AcDbLine
 10
-1.0
 20
0.0
 30
0.0
 11
1.0
 21
0.0
 31
0.0
  0
ENDBLK
  5
2062
330
2F4
100
AcDbEntity
  8
0
100
AcDbBlockEnd
  0
BLOCK
  5
1DD1
330
1DD0
100
AcDbEntity
  8
0
100
AcDbBlockBegin
  2
SleeveIT_FC20
 70
     0
 10
0.0
 20
0.0
 30
0.0
  3
SleeveIT_FC20
  1

  0
LINE
  5
1DD3
330
1DD0
100
AcDbEntity
  8
Visible Edges(ISO)
100
AcDbLine
 10
-1.41835305433642
 20
31.14445399111207
 30
0.0
 11
-0.4177885769672686
 21
40.98380770435347
 31
0.0
  0
LINE
  5
1DD4
330
1DD0
100
AcDbEntity
  8
Visible Edges(ISO)
100
AcDbLine
 10
5.551427363383709
 20
40.3767977724292
 30
0.0
 11
4.550862886015693
 21
30.53744405918747
 31
0.0
  0
LINE
  5
1DD5
330
1DD0
100
AcDbEntity
  8
Visible Edges(ISO)
100
AcDbLine
 10
4.550862886015693
 20
30.53744405918747
 30
0.0
 11
-1.41835305433642
 21
31.14445399111207
 31
0.0
  0
ARC
  5
1DD6
330
1DD0
100
AcDbEntity
  8
Visible Edges(ISO)
100
AcDbCircle
 10
-1.569963065770252
 20
-0.0000000000012506
 30
0.0
 40
41.00000000000235
100
AcDbArc
 50
79.99742427012472
 51
88.38967250407916
  0
LINE
  5
1DD7
330
1DD0
100
AcDbEntity
  8
Visible Edges(ISO)
100
AcDbLine
 10
4.847875977203783
 20
30.47640631732281
 30
0.0
 11
7.808606182043603
 21
39.91293573346911
 31
0.0
  0
LINE
  5
1DD8
330
1DD0
100
AcDbEntity
  8
Visible Edges(ISO)
100
AcDbLine
 10
13.53344172044376
 20
38.11675699562897
 30
0.0
 11
10.57271151560371
 21
28.68022757948256
 31
0.0
  0
LINE
  5
1DD9
330
1DD0
100
AcDbEntity
  8
Visible Edges(ISO)
100
AcDbLine
 10
10.57271151560371
 20
28.68022757948256
 30
0.0
 11
4.847875977203783
 21
30.47640631732281
 31
0.0
  0
ARC
  5
1DDA
330
1DD0
100
AcDbEntity
  8
Visible Edges(ISO)
100
AcDbCircle
 10
-1.569963065770252
 20
0.0000000000017053
 30
0.0
 40
40.99999999999932
100
AcDbArc
 50
68.38452104431199
 51
76.77676927826436
  0
LINE
  5
1DDB
330
1DD0
100
AcDbEntity
  8
Visible Edges(ISO)
100
AcDbLine
 10
10.85135792425967
 20
28.56065098807631
 30
0.0
 11
15.65104121411468
 21
37.20802348408563
 31
0.0
  0
LINE
  5
1DDC
330
1DD0
100
AcDbEntity
  8
Visible Edges(ISO)
100
AcDbLine
 10
20.89712091098158
 20
34.29621170889925
 30
0.0
 11
16.0974376211268
 21
25.6488392128897
 31
0.0
  0
LINE
  5
1DDD
330
1DD0
100
AcDbEntity
  8
Visible Edges(ISO)
100
AcDbLine
 10
16.0974376211268
 20
25.6488392128897
 30
0.0
 11
10.85135792425967
 21
28.56065098807631
 31
0.0
  0
ARC
  5
1DDE
330
1DD0
100
AcDbEntity
  8
Visible Edges(ISO)
100
AcDbCircle
 10
-1.569963065771389
 20
-0.0000000000001137
 30
0.0
 40
41.00000000000109
100
AcDbArc
 50
56.77161781850394
 51
65.1638660524568
  0
LINE
  5
1DDF
330
1DD0
100
AcDbEntity
  8
Visible Edges(ISO)
100
AcDbLine
 10
16.34630953053965
 20
25.47561925164429
 30
0.0
 11
22.78844630758476
 21
32.97981038150636
 31
0.0
  0
LINE
  5
1DE0
330
1DD0
100
AcDbEntity
  8
Visible Edges(ISO)
100
AcDbLine
 10
27.34099504374081
 20
29.07157548517318
 30
0.0
 11
20.89885826669661
 21
21.56738435531099
 31
0.0
  0
LINE
  5
1DE1
330
1DD0
100
AcDbEntity
  8
Visible Edges(ISO)
100
AcDbLine
 10
20.89885826669661
 20
21.56738435531099
 30
0.0
 11
16.34630953053965
 21
25.47561925164429
 31
0.0
  0
ARC
  5
1DE2
330
1DD0
100
AcDbEntity
  8
Visible Edges(ISO)
100
AcDbCircle
 10
-1.569963065772299
 20
-0.0000000000003411
 30
0.0
 40
41.00000000000187
100
AcDbArc
 50
45.15871459269922
 51
53.5509628266615
  0
LINE
  5
1DE3
330
1DD0
100
AcDbEntity
  8
Visible Edges(ISO)
100
AcDbLine
 10
21.10776683165477
 20
21.34761266979172
 30
0.0
 11
28.92861525931767
 21
27.40139996694529
 31
0.0
  0
LINE
  5
1DE4
330
1DD0
100
AcDbEntity
  8
Visible Edges(ISO)
100
AcDbLine
 10
32.60125115460369
 20
22.65674554531916
 30
0.0
 11
24.78040272694057
 21
16.60295824816557
 31
0.0
  0
LINE
  5
1DE5
330
1DD0
100
AcDbEntity
  8
Visible Edges(ISO)
100
AcDbLine
 10
24.78040272694057
 20
16.60295824816557
 30
0.0
 11
21.10776683165477
 21
21.34761266979172
 31
0.0
  0
ARC
  5
1DE6
330
1DD0
100
AcDbEntity
  8
Visible Edges(ISO)
100
AcDbCircle
 10
-1.569963065770252
 20
0.0000000000012506
 30
0.0
 40
40.9999999999995
100
AcDbArc
 50
33.54581136689417
 51
41.93805960085831
  0
LINE
  5
1DE7
330
1DD0
100
AcDbEntity
  8
Visible Edges(ISO)
100
AcDbLine
 10
24.94079520624973
 20
16.34563231699997
 30
0.0
 11
33.8201688309905
 21
20.70117301820983
 31
0.0
  0
LINE
  5
1DE8
330
1DD0
100
AcDbEntity
  8
Visible Edges(ISO)
100
AcDbLine
 10
36.46253374033654
 20
15.31434578078517
 30
0.0
 11
27.58316011559577
 21
10.95880507957554
 31
0.0
  0
LINE
  5
1DE9
330
1DD0
100
AcDbEntity
  8
Visible Edges(ISO)
100
AcDbLine
 10
27.58316011559577
 20
10.95880507957554
 30
0.0
 11
24.94079520624973
 21
16.34563231699997
 31
0.0
  0
ARC
  5
1DEA
330
1DD0
100
AcDbEntity
  8
Visible Edges(ISO)
100
AcDbCircle
 10
-1.569963065771389
 20
0.0000000000007958
 30
0.0
 40
41.00000000000028
100
AcDbArc
 50
21.93290814108733
 51
30.3251563750376
  0
LINE
  5
1DEB
330
1DD0
100
AcDbEntity
  8
Visible Edges(ISO)
100
AcDbLine
 10
27.68847002230564
 20
10.67445985662004
 30
0.0
 11
37.26284624464665
 21
13.15343761382417
 31
0.0
  0
LINE
  5
1DEC
330
1DD0
100
AcDbEntity
  8
Visible Edges(ISO)
100
AcDbLine
 10
38.76676143819964
 20
7.344974900626766
 30
0.0
 11
29.19238521585771
 21
4.865997143422872
 31
0.0
  0
LINE
  5
1DED
330
1DD0
100
AcDbEntity
  8
Visible Edges(ISO)
100
AcDbLine
 10
29.19238521585771
 20
4.865997143422872
 30
0.0
 11
27.68847002230564
 21
10.67445985662004
 31
0.0
  0
ARC
  5
1DEE
330
1DD0
100
AcDbEntity
  8
Visible Edges(ISO)
100
AcDbCircle
 10
-1.569963065773208
 20
0.0000000000003411
 30
0.0
 40
41.0000000000027
100
AcDbArc
 50
10.32000491528323
 51
18.71225314923426
  0
LINE
  5
1DEF
330
1DD0
100
AcDbEntity
  8
Visible Edges(ISO)
100
AcDbLine
 10
29.23830115001578
 20
4.566273755514203
 30
0.0
 11
39.11570388247378
 21
5.067198928065295
 31
0.0
  0
LINE
  5
1DF0
330
1DD0
100
AcDbEntity
  8
Visible Edges(ISO)
100
AcDbLine
 10
39.41959889550572
 20
-0.9251001149613101
 30
0.0
 11
29.54219616304863
 21
-1.426025287511946
 31
0.0
  0
LINE
  5
1DF1
330
1DD0
100
AcDbEntity
  8
Visible Edges(ISO)
100
AcDbLine
 10
29.54219616304863
 20
-1.426025287511946
 30
0.0
 11
29.23830115001578
 21
4.566273755514203
 31
0.0
  0
ARC
  5
1DF2
330
1DD0
100
AcDbEntity
  8
Visible Edges(ISO)
100
AcDbCircle
 10
-1.569963065773208
 20
0.0000000000010232
 30
0.0
 40
41.00000000000227
100
AcDbArc
 50
358.7071016894753
 51
7.099349923427494
  0
LINE
  5
1DF3
330
1DD0
100
AcDbEntity
  8
Visible Edges(ISO)
100
AcDbLine
 10
29.52683832091452
 20
-1.728856129656491
 30
0.0
 11
39.30288553507558
 21
-3.226491477179251
 31
0.0
  0
LINE
  5
1DF4
330
1DD0
100
AcDbEntity
  8
Visible Edges(ISO)
100
AcDbLine
 10
38.39431887004753
 20
-9.157301423147712
 30
0.0
 11
28.6182716558867
 21
-7.659666075625182
 31
0.0
  0
LINE
  5
1DF5
330
1DD0
100
AcDbEntity
  8
Visible Edges(ISO)
100
AcDbLine
 10
28.6182716558867
 20
-7.659666075625182
 30
0.0
 11
29.52683832091452
 21
-1.728856129656491
 31
0.0
  0
ARC
  5
1DF6
330
1DD0
100
AcDbEntity
  8
Visible Edges(ISO)
100
AcDbCircle
 10
-1.569963065771389
 20
0.0000000000012506
 30
0.0
 40
41.00000000000028
100
AcDbArc
 50
347.094198463667
 51
355.4864466976239
  0
LINE
  5
1DF7
330
1DD0
100
AcDbEntity
  8
Visible Edges(ISO)
100
AcDbLine
 10
28.54226878932377
 20
-7.953206441747282
 30
0.0
 11
37.81672796360363
 21
-11.38808894225099
 31
0.0
  0
LINE
  5
1DF8
330
1DD0
100
AcDbEntity
  8
Visible Edges(ISO)
100
AcDbLine
 10
35.73289644653482
 20
-17.01460173513362
 30
0.0
 11
26.45843727225474
 21
-13.57971923462969
 31
0.0
  0
LINE
  5
1DF9
330
1DD0
100
AcDbEntity
  8
Visible Edges(ISO)
100
AcDbLine
 10
26.45843727225474
 20
-13.57971923462969
 30
0.0
 11
28.54226878932377
 21
-7.953206441747282
 31
0.0
  0
ARC
  5
1DFA
330
1DD0
100
AcDbEntity
  8
Visible Edges(ISO)
100
AcDbCircle
 10
-1.569963065772299
 20
0.0000000000014779
 30
0.0
 40
41.00000000000131
100
AcDbArc
 50
335.4812952378602
 51
343.873543471814
  0
LINE
  5
1DFB
330
1DD0
100
AcDbEntity
  8
Visible Edges(ISO)
100
AcDbLine
 10
26.32490094754758
 20
-13.85195154765074
 30
0.0
 11
34.71807463364871
 21
-19.08345670798371
 31
0.0
  0
LINE
  5
1DFC
330
1DD0
100
AcDbEntity
  8
Visible Edges(ISO)
100
AcDbLine
 10
31.54429057168683
 20
-24.17532225295224
 30
0.0
 11
23.15111688558568
 21
-18.94381709261904
 31
0.0
  0
LINE
  5
1DFD
330
1DD0
100
AcDbEntity
  8
Visible Edges(ISO)
100
AcDbLine
 10
23.15111688558568
 20
-18.94381709261904
 30
0.0
 11
26.32490094754758
 21
-13.85195154765074
 31
0.0
  0
ARC
  5
1DFE
330
1DD0
100
AcDbEntity
  8
Visible Edges(ISO)
100
AcDbCircle
 10
-1.569963065770252
 20
0.0000000000007958
 30
0.0
 40
40.9999999999996
100
AcDbArc
 50
323.8683920120504
 51
332.2606402460089
  0
LINE
  5
1DFF
330
1DD0
100
AcDbEntity
  8
Visible Edges(ISO)
100
AcDbLine
 10
22.96551409555855
 20
-19.18359612965787
 30
0.0
 11
30.13378477661672
 21
-25.99754551388014
 31
0.0
  0
LINE
  5
1E00
330
1DD0
100
AcDbEntity
  8
Visible Edges(ISO)
100
AcDbLine
 10
25.99998326216269
 20
-30.34630223725492
 30
0.0
 11
18.83171258110474
 21
-23.53235285303254
 31
0.0
  0
LINE
  5
1E01
330
1DD0
100
AcDbEntity
  8
Visible Edges(ISO)
100
AcDbLine
 10
18.83171258110474
 20
-23.53235285303254
 30
0.0
 11
22.96551409555855
 21
-19.18359612965787
 31
0.0
  0
ARC
  5
1E02
330
1DD0
100
AcDbEntity
  8
Visible Edges(ISO)
100
AcDbCircle
 10
-1.569963065771389
 20
0.000000000001819
 30
0.0
 40
41.00000000000108
100
AcDbArc
 50
312.2554887862473
 51
320.6477370202039
  0
LINE
  5
1E03
330
1DD0
100
AcDbEntity
  8
Visible Edges(ISO)
100
AcDbLine
 10
18.60164192578963
 20
-23.72986203214009
 30
0.0
 11
24.25153975788476
 21
-31.84729175185669
 31
0.0
  0
LINE
  5
1E04
330
1DD0
100
AcDbEntity
  8
Visible Edges(ISO)
100
AcDbLine
 10
19.3269591106407
 20
-35.27490104242554
 30
0.0
 11
13.67706127854558
 21
-27.15747132270895
 31
0.0
  0
LINE
  5
1E05
330
1DD0
100
AcDbEntity
  8
Visible Edges(ISO)
100
AcDbLine
 10
13.67706127854558
 20
-27.15747132270895
 30
0.0
 11
18.60164192578963
 21
-23.72986203214009
 31
0.0
  0
ARC
  5
1E06
330
1DD0
100
AcDbEntity
  8
Visible Edges(ISO)
100
AcDbCircle
 10
-1.569963065771389
 20
0.0000000000022737
 30
0.0
 40
41.00000000000154
100
AcDbArc
 50
300.6425855604415
 51
309.0348337943972
  0
LINE
  5
1E07
330
1DD0
100
AcDbEntity
  8
Visible Edges(ISO)
100
AcDbLine
 10
13.41194187760265
 20
-27.30462459488615
 30
0.0
 11
17.31215937965476
 21
-36.39320612361416
 31
0.0
  0
LINE
  5
1E08
330
1DD0
100
AcDbEntity
  8
Visible Edges(ISO)
100
AcDbLine
 10
11.79841250993377
 20
-38.75934125429433
 30
0.0
 11
7.898195007881667
 21
-29.67075972556597
 31
0.0
  0
LINE
  5
1E09
330
1DD0
100
AcDbEntity
  8
Visible Edges(ISO)
100
AcDbLine
 10
7.898195007881667
 20
-29.67075972556597
 30
0.0
 11
13.41194187760265
 21
-27.30462459488615
 31
0.0
  0
ARC
  5
1E0A
330
1DD0
100
AcDbEntity
  8
Visible Edges(ISO)
100
AcDbCircle
 10
-1.569963065771389
 20
0.0000000000017053
 30
0.0
 40
41.00000000000075
100
AcDbArc
 50
289.0296823346369
 51
297.4219305685953
  0
LINE
  5
1E0B
330
1DD0
100
AcDbEntity
  8
Visible Edges(ISO)
100
AcDbLine
 10
7.608880880735568
 20
-29.7615326185603
 30
0.0
 11
9.599742689954608
 21
-39.44917836065076
 31
0.0
  0
LINE
  5
1E0C
330
1DD0
100
AcDbEntity
  8
Visible Edges(ISO)
100
AcDbLine
 10
3.722563042439787
 20
-40.65696948118284
 30
0.0
 11
1.731701233220745
 21
-30.96932373909226
 31
0.0
  0
LINE
  5
1E0D
330
1DD0
100
AcDbEntity
  8
Visible Edges(ISO)
100
AcDbLine
 10
1.731701233220745
 20
-30.96932373909226
 30
0.0
 11
7.608880880735568
 21
-29.7615326185603
 31
0.0
  0
ARC
  5
1E0E
330
1DD0
100
AcDbEntity
  8
Visible Edges(ISO)
100
AcDbCircle
 10
-1.569963065771389
 20
0.0000000000026148
 30
0.0
 40
41.00000000000152
100
AcDbArc
 50
277.416779108828
 51
285.8090273427953
  0
LINE
  5
1E0F
330
1DD0
100
AcDbEntity
  8
Visible Edges(ISO)
100
AcDbLine
 10
1.430036934229746
 20
-30.99999999999898
 30
0.0
 11
1.430036934229746
 21
-40.89009660052078
 31
0.0
  0
LINE
  5
1E10
330
1DD0
100
AcDbEntity
  8
Visible Edges(ISO)
100
AcDbLine
 10
-4.569963065770251
 20
-40.89009660052078
 30
0.0
 11
-4.569963065770251
 21
-30.99999999999898
 31
0.0
  0
LINE
  5
1E11
330
1DD0
100
AcDbEntity
  8
Visible Edges(ISO)
100
AcDbLine
 10
-4.569963065770251
 20
-30.99999999999898
 30
0.0
 11
1.430036934229746
 21
-30.99999999999898
 31
0.0
  0
ARC
  5
1E12
330
1DD0
100
AcDbEntity
  8
Visible Edges(ISO)
100
AcDbCircle
 10
-1.569963065770252
 20
0.0000000000026148
 30
0.0
 40
41.00000000000149
100
AcDbArc
 50
265.8038758830117
 51
274.1961241169883
  0
LINE
  5
1E13
330
1DD0
100
AcDbEntity
  8
Visible Edges(ISO)
100
AcDbLine
 10
-4.871627364761251
 20
-30.96932373909226
 30
0.0
 11
-6.862489173980293
 21
-40.65696948118271
 31
0.0
  0
LINE
  5
1E14
330
1DD0
100
AcDbEntity
  8
Visible Edges(ISO)
100
AcDbLine
 10
-12.73966882149534
 20
-39.44917836065076
 30
0.0
 11
-10.7488070122763
 21
-29.7615326185603
 31
0.0
  0
LINE
  5
1E15
330
1DD0
100
AcDbEntity
  8
Visible Edges(ISO)
100
AcDbLine
 10
-10.7488070122763
 20
-29.7615326185603
 30
0.0
 11
-4.871627364761251
 21
-30.96932373909226
 31
0.0
  0
ARC
  5
1E16
330
1DD0
100
AcDbEntity
  8
Visible Edges(ISO)
100
AcDbCircle
 10
-1.569963065770252
 20
0.000000000001819
 30
0.0
 40
41.00000000000076
100
AcDbArc
 50
254.1909726572047
 51
262.5832208911719
  0
LINE
  5
1E17
330
1DD0
100
AcDbEntity
  8
Visible Edges(ISO)
100
AcDbLine
 10
-11.03812113942331
 20
-29.67075972556609
 30
0.0
 11
-14.93833864147541
 21
-38.75934125429433
 31
0.0
  0
LINE
  5
1E18
330
1DD0
100
AcDbEntity
  8
Visible Edges(ISO)
100
AcDbLine
 10
-20.4520855111964
 20
-36.39320612361416
 30
0.0
 11
-16.5518680091443
 21
-27.30462459488615
 31
0.0
  0
LINE
  5
1E19
330
1DD0
100
AcDbEntity
  8
Visible Edges(ISO)
100
AcDbLine
 10
-16.5518680091443
 20
-27.30462459488615
 30
0.0
 11
-11.03812113942331
 21
-29.67075972556609
 31
0.0
  0
ARC
  5
1E1A
330
1DD0
100
AcDbEntity
  8
Visible Edges(ISO)
100
AcDbCircle
 10
-1.569963065770252
 20
0.000000000001819
 30
0.0
 40
41.00000000000096
100
AcDbArc
 50
242.5780694314048
 51
250.9703176653632
  0
LINE
  5
1E1B
330
1DD0
100
AcDbEntity
  8
Visible Edges(ISO)
100
AcDbLine
 10
-16.81698741008722
 20
-27.15747132270895
 30
0.0
 11
-22.46688524218234
 21
-35.27490104242554
 31
0.0
  0
LINE
  5
1E1C
330
1DD0
100
AcDbEntity
  8
Visible Edges(ISO)
100
AcDbLine
 10
-27.39146588942618
 20
-31.84729175185669
 30
0.0
 11
-21.74156805733128
 21
-23.72986203214009
 31
0.0
  0
LINE
  5
1E1D
330
1DD0
100
AcDbEntity
  8
Visible Edges(ISO)
100
AcDbLine
 10
-21.74156805733128
 20
-23.72986203214009
 30
0.0
 11
-16.81698741008722
 21
-27.15747132270895
 31
0.0
  0
ARC
  5
1E1E
330
1DD0
100
AcDbEntity
  8
Visible Edges(ISO)
100
AcDbCircle
 10
-1.569963065770252
 20
0.0000000000012506
 30
0.0
 40
41.0000000000002
100
AcDbArc
 50
230.9651662056028
 51
239.3574144395584
  0
LINE
  5
1E1F
330
1DD0
100
AcDbEntity
  8
Visible Edges(ISO)
100
AcDbLine
 10
-21.97163871264638
 20
-23.53235285303265
 30
0.0
 11
-29.13990939370319
 21
-30.34630223725492
 31
0.0
  0
LINE
  5
1E20
330
1DD0
100
AcDbEntity
  8
Visible Edges(ISO)
100
AcDbLine
 10
-33.27371090815745
 20
-25.99754551388014
 30
0.0
 11
-26.10544022710042
 21
-19.18359612965787
 31
0.0
  0
LINE
  5
1E21
330
1DD0
100
AcDbEntity
  8
Visible Edges(ISO)
100
AcDbLine
 10
-26.10544022710042
 20
-19.18359612965787
 30
0.0
 11
-21.97163871264638
 21
-23.53235285303265
 31
0.0
  0
ARC
  5
1E22
330
1DD0
100
AcDbEntity
  8
Visible Edges(ISO)
100
AcDbCircle
 10
-1.569963065770252
 20
0.0000000000007958
 30
0.0
 40
40.99999999999981
100
AcDbArc
 50
219.3522629797961
 51
227.7445112137527
  0
LINE
  5
1E23
330
1DD0
100
AcDbEntity
  8
Visible Edges(ISO)
100
AcDbLine
 10
-26.29104301712732
 20
-18.94381709261904
 30
0.0
 11
-34.68421670322823
 21
-24.17532225295224
 31
0.0
  0
LINE
  5
1E24
330
1DD0
100
AcDbEntity
  8
Visible Edges(ISO)
100
AcDbLine
 10
-37.85800076519036
 20
-19.08345670798371
 30
0.0
 11
-29.46482707908831
 21
-13.85195154765074
 31
0.0
  0
LINE
  5
1E25
330
1DD0
100
AcDbEntity
  8
Visible Edges(ISO)
100
AcDbLine
 10
-29.46482707908831
 20
-13.85195154765074
 30
0.0
 11
-26.29104301712732
 21
-18.94381709261904
 31
0.0
  0
ARC
  5
1E26
330
1DD0
100
AcDbEntity
  8
Visible Edges(ISO)
100
AcDbCircle
 10
-1.569963065770252
 20
0.0000000000012506
 30
0.0
 40
41.00000000000028
100
AcDbArc
 50
207.7393597539912
 51
216.1316079879496
  0
LINE
  5
1E27
330
1DD0
100
AcDbEntity
  8
Visible Edges(ISO)
100
AcDbLine
 10
-29.59836340379525
 20
-13.57971923462969
 30
0.0
 11
-38.87282257807533
 21
-17.01460173513362
 31
0.0
  0
LINE
  5
1E28
330
1DD0
100
AcDbEntity
  8
Visible Edges(ISO)
100
AcDbLine
 10
-40.95665409514436
 20
-11.3880889422511
 30
0.0
 11
-31.68219492086428
 21
-7.953206441747282
 31
0.0
  0
LINE
  5
1E29
330
1DD0
100
AcDbEntity
  8
Visible Edges(ISO)
100
AcDbLine
 10
-31.68219492086428
 20
-7.953206441747282
 30
0.0
 11
-29.59836340379525
 21
-13.57971923462969
 31
0.0
  0
ARC
  5
1E2A
330
1DD0
100
AcDbEntity
  8
Visible Edges(ISO)
100
AcDbCircle
 10
-1.569963065769343
 20
0.000000000001819
 30
0.0
 40
41.00000000000195
100
AcDbArc
 50
196.126456528186
 51
204.5187047621398
  0
LINE
  5
1E2B
330
1DD0
100
AcDbEntity
  8
Visible Edges(ISO)
100
AcDbLine
 10
-31.75819778742834
 20
-7.659666075625182
 30
0.0
 11
-41.5342450015894
 21
-9.157301423147712
 31
0.0
  0
LINE
  5
1E2C
330
1DD0
100
AcDbEntity
  8
Visible Edges(ISO)
100
AcDbLine
 10
-42.44281166661631
 20
-3.226491477179251
 30
0.0
 11
-32.66676445245526
 21
-1.728856129656491
 31
0.0
  0
LINE
  5
1E2D
330
1DD0
100
AcDbEntity
  8
Visible Edges(ISO)
100
AcDbLine
 10
-32.66676445245526
 20
-1.728856129656491
 30
0.0
 11
-31.75819778742834
 21
-7.659666075625182
 31
0.0
  0
ARC
  5
1E2E
330
1DD0
100
AcDbEntity
  8
Visible Edges(ISO)
100
AcDbCircle
 10
-1.569963065768206
 20
0.0000000000014779
 30
0.0
 40
41.00000000000258
100
AcDbArc
 50
184.5135533023761
 51
192.905801536333
  0
LINE
  5
1E2F
330
1DD0
100
AcDbEntity
  8
Visible Edges(ISO)
100
AcDbLine
 10
-32.68212229458935
 20
-1.426025287512175
 30
0.0
 11
-42.55952502704643
 21
-0.9251001149613101
 31
0.0
  0
LINE
  5
1E30
330
1DD0
100
AcDbEntity
  8
Visible Edges(ISO)
100
AcDbLine
 10
-42.25563001401428
 20
5.067198928065295
 30
0.0
 11
-32.3782272815572
 21
4.566273755514203
 31
0.0
  0
LINE
  5
1E31
330
1DD0
100
AcDbEntity
  8
Visible Edges(ISO)
100
AcDbLine
 10
-32.3782272815572
 20
4.566273755514203
 30
0.0
 11
-32.68212229458935
 21
-1.426025287512175
 31
0.0
  0
ARC
  5
1E32
330
1DD0
100
AcDbEntity
  8
Visible Edges(ISO)
100
AcDbCircle
 10
-1.569963065771389
 20
0.0000000000012506
 30
0.0
 40
40.99999999999901
100
AcDbArc
 50
172.9006500765725
 51
181.2928983105246
  0
LINE
  5
1E33
330
1DD0
100
AcDbEntity
  8
Visible Edges(ISO)
100
AcDbLine
 10
-32.33231134739936
 20
4.865997143422872
 30
0.0
 11
-41.90668756974035
 21
7.344974900626766
 31
0.0
  0
LINE
  5
1E34
330
1DD0
100
AcDbEntity
  8
Visible Edges(ISO)
100
AcDbLine
 10
-40.4027723761883
 20
13.15343761382417
 30
0.0
 11
-30.82839615384637
 21
10.67445985662004
 31
0.0
  0
LINE
  5
1E35
330
1DD0
100
AcDbEntity
  8
Visible Edges(ISO)
100
AcDbLine
 10
-30.82839615384637
 20
10.67445985662004
 30
0.0
 11
-32.33231134739936
 21
4.865997143422872
 31
0.0
  0
ARC
  5
1E36
330
1DD0
100
AcDbEntity
  8
Visible Edges(ISO)
100
AcDbCircle
 10
-1.569963065768206
 20
0.0000000000004547
 30
0.0
 40
41.0000000000024
100
AcDbArc
 50
161.2877468507657
 51
169.6799950847232
  0
LINE
  5
1E37
330
1DD0
100
AcDbEntity
  8
Visible Edges(ISO)
100
AcDbLine
 10
-30.72308624713628
 20
10.95880507957554
 30
0.0
 11
-39.6024598718784
 21
15.31434578078517
 31
0.0
  0
LINE
  5
1E38
330
1DD0
100
AcDbEntity
  8
Visible Edges(ISO)
100
AcDbLine
 10
-36.96009496253237
 20
20.70117301820983
 30
0.0
 11
-28.08072133779047
 21
16.34563231699997
 31
0.0
  0
LINE
  5
1E39
330
1DD0
100
AcDbEntity
  8
Visible Edges(ISO)
100
AcDbLine
 10
-28.08072133779047
 20
16.34563231699997
 30
0.0
 11
-30.72308624713628
 21
10.95880507957554
 31
0.0
  0
ARC
  5
1E3A
330
1DD0
100
AcDbEntity
  8
Visible Edges(ISO)
100
AcDbCircle
 10
-1.569963065769343
 20
0.0000000000007958
 30
0.0
 40
41.00000000000091
100
AcDbArc
 50
149.6748436249624
 51
158.0670918589127
  0
LINE
  5
1E3B
330
1DD0
100
AcDbEntity
  8
Visible Edges(ISO)
100
AcDbLine
 10
-27.92032885848243
 20
16.60295824816546
 30
0.0
 11
-35.74117728614533
 21
22.65674554531916
 31
0.0
  0
LINE
  5
1E3C
330
1DD0
100
AcDbEntity
  8
Visible Edges(ISO)
100
AcDbLine
 10
-32.0685413908584
 20
27.40139996694529
 30
0.0
 11
-24.24769296319642
 21
21.34761266979172
 31
0.0
  0
LINE
  5
1E3D
330
1DD0
100
AcDbEntity
  8
Visible Edges(ISO)
100
AcDbLine
 10
-24.24769296319642
 20
21.34761266979172
 30
0.0
 11
-27.92032885848243
 21
16.60295824816546
 31
0.0
  0
ARC
  5
1E3E
330
1DD0
100
AcDbEntity
  8
Visible Edges(ISO)
100
AcDbCircle
 10
-1.569963065769343
 20
-0.0000000000001137
 30
0.0
 40
41.00000000000179
100
AcDbArc
 50
138.0619403991552
 51
146.4541886331058
  0
LINE
  5
1E3F
330
1DD0
100
AcDbEntity
  8
Visible Edges(ISO)
100
AcDbLine
 10
-24.03878439823734
 20
21.56738435531076
 30
0.0
 11
-30.48092117528222
 21
29.07157548517318
 31
0.0
  0
LINE
  5
1E40
330
1DD0
100
AcDbEntity
  8
Visible Edges(ISO)
100
AcDbLine
 10
-25.92837243912527
 20
32.97981038150636
 30
0.0
 11
-19.4862356620813
 21
25.47561925164429
 31
0.0
  0
LINE
  5
1E41
330
1DD0
100
AcDbEntity
  8
Visible Edges(ISO)
100
AcDbLine
 10
-19.4862356620813
 20
25.47561925164429
 30
0.0
 11
-24.03878439823734
 21
21.56738435531076
 31
0.0
  0
ARC
  5
1E42
330
1DD0
100
AcDbEntity
  8
Visible Edges(ISO)
100
AcDbCircle
 10
-1.569963065770252
 20
0.0000000000003411
 30
0.0
 40
41.00000000000085
100
AcDbArc
 50
126.4490371733385
 51
134.8412854073008
  0
LINE
  5
1E43
330
1DD0
100
AcDbEntity
  8
Visible Edges(ISO)
100
AcDbLine
 10
-19.23736375266821
 20
25.6488392128897
 30
0.0
 11
-24.03704704252346
 21
34.29621170889925
 31
0.0
  0
LINE
  5
1E44
330
1DD0
100
AcDbEntity
  8
Visible Edges(ISO)
100
AcDbLine
 10
-18.79096734565542
 20
37.20802348408563
 30
0.0
 11
-13.99128405580041
 21
28.56065098807631
 31
0.0
  0
LINE
  5
1E45
330
1DD0
100
AcDbEntity
  8
Visible Edges(ISO)
100
AcDbLine
 10
-13.99128405580041
 20
28.56065098807631
 30
0.0
 11
-19.23736375266821
 21
25.6488392128897
 31
0.0
  0
ARC
  5
1E46
330
1DD0
100
AcDbEntity
  8
Visible Edges(ISO)
100
AcDbCircle
 10
-1.569963065770252
 20
0.0000000000007958
 30
0.0
 40
41.00000000000013
100
AcDbArc
 50
114.8361339475432
 51
123.228382181496
  0
LINE
  5
1E47
330
1DD0
100
AcDbEntity
  8
Visible Edges(ISO)
100
AcDbLine
 10
-13.71263764714536
 20
28.68022757948245
 30
0.0
 11
-16.6733678519854
 21
38.11675699562897
 31
0.0
  0
LINE
  5
1E48
330
1DD0
100
AcDbEntity
  8
Visible Edges(ISO)
100
AcDbLine
 10
-10.94853231358524
 20
39.91293573346911
 30
0.0
 11
-7.98780210874429
 21
30.47640631732281
 31
0.0
  0
LINE
  5
1E49
330
1DD0
100
AcDbEntity
  8
Visible Edges(ISO)
100
AcDbLine
 10
-7.98780210874429
 20
30.47640631732281
 30
0.0
 11
-13.71263764714536
 21
28.68022757948245
 31
0.0
  0
ARC
  5
1E4A
330
1DD0
100
AcDbEntity
  8
Visible Edges(ISO)
100
AcDbCircle
 10
-1.569963065770252
 20
0.0000000000004547
 30
0.0
 40
41.00000000000057
100
AcDbArc
 50
103.2232307217356
 51
111.615478955688
  0
ARC
  5
1E4B
330
1DD0
100
AcDbEntity
  8
Visible Edges(ISO)
100
AcDbCircle
 10
-1.569963065771389
 20
0.0000000000062528
 30
0.0
 40
39.99999999999455
100
AcDbArc
 50
100.1076739175709
 51
103.1181325340471
  0
ARC
  5
1E4C
330
1DD0
100
AcDbEntity
  8
Visible Edges(ISO)
100
AcDbCircle
 10
-1.569963065772299
 20
0.0000000000105729
 30
0.0
 40
40.99999999999034
100
AcDbArc
 50
100.0025757298752
 51
103.2232307217356
  0
ARC
  5
1E4D
330
1DD0
100
AcDbEntity
  8
Visible Edges(ISO)
100
AcDbCircle
 10
-1.569963065770252
 20
0.0000000000010232
 30
0.0
 40
40.00000000000015
100
AcDbArc
 50
111.7205771433804
 51
114.7310357598425
  0
ARC
  5
1E4E
330
1DD0
100
AcDbEntity
  8
Visible Edges(ISO)
100
AcDbCircle
 10
-1.569963065771389
 20
0.0000000000026148
 30
0.0
 40
40.99999999999832
100
AcDbArc
 50
111.615478955688
 51
114.8361339475432
  0
ARC
  5
1E4F
330
1DD0
100
AcDbEntity
  8
Visible Edges(ISO)
100
AcDbCircle
 10
-1.569963065770252
 20
0.0000000000004547
 30
0.0
 40
40.0000000000007
100
AcDbArc
 50
123.3334803691897
 51
126.3439389856534
  0
ARC
  5
1E50
330
1DD0
100
AcDbEntity
  8
Visible Edges(ISO)
100
AcDbCircle
 10
-1.569963065774345
 20
0.0000000000067075
 30
0.0
 40
40.99999999999312
100
AcDbArc
 50
123.228382181496
 51
126.4490371733385
  0
ARC
  5
1E51
330
1DD0
100
AcDbEntity
  8
Visible Edges(ISO)
100
AcDbCircle
 10
-1.569963065766387
 20
-0.0000000000031832
 30
0.0
 40
40.00000000000599
100
AcDbArc
 50
134.9463835949903
 51
137.9568422114627
  0
ARC
  5
1E52
330
1DD0
100
AcDbEntity
  8
Visible Edges(ISO)
100
AcDbCircle
 10
-1.569963065770252
 20
0.0000000000007958
 30
0.0
 40
41.00000000000052
100
AcDbArc
 50
134.8412854073008
 51
138.0619403991552
  0
ARC
  5
1E53
330
1DD0
100
AcDbEntity
  8
Visible Edges(ISO)
100
AcDbCircle
 10
-1.569963065776163
 20
0.0000000000047748
 30
0.0
 40
39.99999999999287
100
AcDbArc
 50
146.559286820798
 51
149.569745437268
  0
ARC
  5
1E54
330
1DD0
100
AcDbEntity
  8
Visible Edges(ISO)
100
AcDbCircle
 10
-1.569963065769343
 20
-0.0000000000001137
 30
0.0
 40
41.00000000000206
100
AcDbArc
 50
146.4541886331058
 51
149.6748436249502
  0
ARC
  5
1E55
330
1DD0
100
AcDbEntity
  8
Visible Edges(ISO)
100
AcDbCircle
 10
-1.569963065769343
 20
0.0000000000007958
 30
0.0
 40
40.00000000000087
100
AcDbArc
 50
158.1721900466086
 51
161.1826486630714
  0
ARC
  5
1E56
330
1DD0
100
AcDbEntity
  8
Visible Edges(ISO)
100
AcDbCircle
 10
-1.569963065772299
 20
0.0000000000017053
 30
0.0
 40
40.9999999999979
100
AcDbArc
 50
158.0670918589127
 51
161.2877468507657
  0
ARC
  5
1E57
330
1DD0
100
AcDbEntity
  8
Visible Edges(ISO)
100
AcDbCircle
 10
-1.569963065779346
 20
0.0000000000022737
 30
0.0
 40
39.99999999999112
100
AcDbArc
 50
169.7850932724082
 51
172.7955518888776
  0
ARC
  5
1E58
330
1DD0
100
AcDbEntity
  8
Visible Edges(ISO)
100
AcDbCircle
 10
-1.569963065766387
 20
0.0000000000003411
 30
0.0
 40
41.00000000000418
100
AcDbArc
 50
169.6799950847232
 51
172.9006500765725
  0
ARC
  5
1E59
330
1DD0
100
AcDbEntity
  8
Visible Edges(ISO)
100
AcDbCircle
 10
-1.569963065779346
 20
0.0000000000004547
 30
0.0
 40
39.99999999999128
100
AcDbArc
 50
181.3979964982201
 51
184.4084551146844
  0
ARC
  5
1E5A
330
1DD0
100
AcDbEntity
  8
Visible Edges(ISO)
100
AcDbCircle
 10
-1.569963065761156
 20
0.0000000000017053
 30
0.0
 40
41.00000000000895
100
AcDbArc
 50
181.2928983105246
 51
184.5135533023761
  0
ARC
  5
1E5B
330
1DD0
100
AcDbEntity
  8
Visible Edges(ISO)
100
AcDbCircle
 10
-1.569963065772299
 20
0.0000000000007958
 30
0.0
 40
39.99999999999829
100
AcDbArc
 50
193.010899724023
 51
196.0213583404943
  0
ARC
  5
1E5C
330
1DD0
100
AcDbEntity
  8
Visible Edges(ISO)
100
AcDbCircle
 10
-1.569963065774345
 20
0.0000000000003411
 30
0.0
 40
40.99999999999631
100
AcDbArc
 50
192.905801536333
 51
196.126456528186
  0
ARC
  5
1E5D
330
1DD0
100
AcDbEntity
  8
Visible Edges(ISO)
100
AcDbCircle
 10
-1.569963065768206
 20
0.0000000000022737
 30
0.0
 40
40.00000000000308
100
AcDbArc
 50
204.6238029498276
 51
207.6342615662978
  0
ARC
  5
1E5E
330
1DD0
100
AcDbEntity
  8
Visible Edges(ISO)
100
AcDbCircle
 10
-1.569963065783439
 20
-0.0000000000048885
 30
0.0
 40
40.99999999998646
100
AcDbArc
 50
204.5187047621398
 51
207.7393597539912
  0
ARC
  5
1E5F
330
1DD0
100
AcDbEntity
  8
Visible Edges(ISO)
100
AcDbCircle
 10
-1.56996306576434
 20
0.0000000000061391
 30
0.0
 40
40.0000000000083
100
AcDbArc
 50
216.2367061756404
 51
219.2471647921038
  0
ARC
  5
1E60
330
1DD0
100
AcDbEntity
  8
Visible Edges(ISO)
100
AcDbCircle
 10
-1.569963065767296
 20
0.0000000000037517
 30
0.0
 40
41.00000000000431
100
AcDbArc
 50
216.1316079879496
 51
219.3522629797911
  0
ARC
  5
1E61
330
1DD0
100
AcDbEntity
  8
Visible Edges(ISO)
100
AcDbCircle
 10
-1.569963065773208
 20
-0.0000000000017053
 30
0.0
 40
39.99999999999662
100
AcDbArc
 50
227.8496094014442
 51
230.8600680179093
  0
ARC
  5
1E62
330
1DD0
100
AcDbEntity
  8
Visible Edges(ISO)
100
AcDbCircle
 10
-1.569963065766387
 20
0.0000000000062528
 30
0.0
 40
41.00000000000714
100
AcDbArc
 50
227.7445112137527
 51
230.9651662056028
  0
ARC
  5
1E63
330
1DD0
100
AcDbEntity
  8
Visible Edges(ISO)
100
AcDbCircle
 10
-1.569963065769343
 20
0.0000000000027285
 30
0.0
 40
40.0000000000019
100
AcDbArc
 50
239.4625126272564
 51
242.4729712437175
  0
ARC
  5
1E64
330
1DD0
100
AcDbEntity
  8
Visible Edges(ISO)
100
AcDbCircle
 10
-1.569963065769343
 20
0.0000000000026148
 30
0.0
 40
41.00000000000171
100
AcDbArc
 50
239.3574144395584
 51
242.5780694314048
  0
ARC
  5
1E65
330
1DD0
100
AcDbEntity
  8
Visible Edges(ISO)
100
AcDbCircle
 10
-1.569963065768206
 20
0.0000000000100044
 30
0.0
 40
40.00000000000935
100
AcDbArc
 50
251.0754158530544
 51
254.0858744695246
  0
ARC
  5
1E66
330
1DD0
100
AcDbEntity
  8
Visible Edges(ISO)
100
AcDbCircle
 10
-1.569963065767296
 20
0.000000000011255
 30
0.0
 40
41.00000000001067
100
AcDbArc
 50
250.9703176653632
 51
254.1909726572047
  0
ARC
  5
1E67
330
1DD0
100
AcDbEntity
  8
Visible Edges(ISO)
100
AcDbCircle
 10
-1.569963065769343
 20
0.0000000000106866
 30
0.0
 40
40.00000000000963
100
AcDbArc
 50
262.6883190788637
 51
265.6987776953271
  0
ARC
  5
1E68
330
1DD0
100
AcDbEntity
  8
Visible Edges(ISO)
100
AcDbCircle
 10
-1.569963065772299
 20
-0.0000000000196678
 30
0.0
 40
40.99999999997918
100
AcDbArc
 50
262.5832208911719
 51
265.8038758830246
  0
ARC
  5
1E69
330
1DD0
100
AcDbEntity
  8
Visible Edges(ISO)
100
AcDbCircle
 10
-1.569963065769343
 20
-0.000000000011255
 30
0.0
 40
39.99999999998781
100
AcDbArc
 50
274.3012223046729
 51
277.3116809211363
  0
ARC
  5
1E6A
330
1DD0
100
AcDbEntity
  8
Visible Edges(ISO)
100
AcDbCircle
 10
-1.569963065773208
 20
0.00000000002467
 30
0.0
 40
41.00000000002387
100
AcDbArc
 50
274.1961241169883
 51
277.416779108828
  0
ARC
  5
1E6B
330
1DD0
100
AcDbEntity
  8
Visible Edges(ISO)
100
AcDbCircle
 10
-1.569963065769343
 20
-0.0000000000029559
 30
0.0
 40
39.99999999999575
100
AcDbArc
 50
285.9141255304754
 51
288.9245841469456
  0
ARC
  5
1E6C
330
1DD0
100
AcDbEntity
  8
Visible Edges(ISO)
100
AcDbCircle
 10
-1.569963065772299
 20
0.0000000000061391
 30
0.0
 40
41.00000000000533
100
AcDbArc
 50
285.8090273427953
 51
289.0296823346369
  0
ARC
  5
1E6D
330
1DD0
100
AcDbEntity
  8
Visible Edges(ISO)
100
AcDbCircle
 10
-1.569963065775255
 20
0.0000000000093223
 30
0.0
 40
40.00000000000951
100
AcDbArc
 50
297.5270287562826
 51
300.5374873727436
  0
ARC
  5
1E6E
330
1DD0
100
AcDbEntity
  8
Visible Edges(ISO)
100
AcDbCircle
 10
-1.569963065769343
 20
-0.0000000000004547
 30
0.0
 40
40.99999999999821
100
AcDbArc
 50
297.4219305685953
 51
300.6425855604415
  0
ARC
  5
1E6F
330
1DD0
100
AcDbEntity
  8
Visible Edges(ISO)
100
AcDbCircle
 10
-1.569963065774345
 20
0.0000000000047748
 30
0.0
 40
40.00000000000496
100
AcDbArc
 50
309.1399319820907
 51
312.1503905985558
  0
ARC
  5
1E70
330
1DD0
100
AcDbEntity
  8
Visible Edges(ISO)
100
AcDbCircle
 10
-1.569963065771389
 20
0.0000000000017053
 30
0.0
 40
41.00000000000082
100
AcDbArc
 50
309.0348337943972
 51
312.2554887862473
  0
ARC
  5
1E71
330
1DD0
100
AcDbEntity
  8
Visible Edges(ISO)
100
AcDbCircle
 10
-1.569963065772299
 20
0.0000000000022737
 30
0.0
 40
40.00000000000222
100
AcDbArc
 50
320.7528352078963
 51
323.7632938243596
  0
ARC
  5
1E72
330
1DD0
100
AcDbEntity
  8
Visible Edges(ISO)
100
AcDbCircle
 10
-1.569963065772299
 20
0.00000000000216
 30
0.0
 40
41.00000000000178
100
AcDbArc
 50
320.6477370202089
 51
323.8683920120504
  0
ARC
  5
1E73
330
1DD0
100
AcDbEntity
  8
Visible Edges(ISO)
100
AcDbCircle
 10
-1.569963065766387
 20
-0.0000000000010232
 30
0.0
 40
39.99999999999502
100
AcDbArc
 50
332.3657384337022
 51
335.3761970501724
  0
ARC
  5
1E74
330
1DD0
100
AcDbEntity
  8
Visible Edges(ISO)
100
AcDbCircle
 10
-1.569963065776163
 20
0.000000000003979
 30
0.0
 40
41.00000000000677
100
AcDbArc
 50
332.2606402460089
 51
335.4812952378602
  0
ARC
  5
1E75
330
1DD0
100
AcDbEntity
  8
Visible Edges(ISO)
100
AcDbCircle
 10
-1.569963065767296
 20
-0.0000000000001137
 30
0.0
 40
39.99999999999608
100
AcDbArc
 50
343.9786416595056
 51
346.989100275977
  0
ARC
  5
1E76
330
1DD0
100
AcDbEntity
  8
Visible Edges(ISO)
100
AcDbCircle
 10
-1.569963065775255
 20
0.00000000000216
 30
0.0
 40
41.00000000000479
100
AcDbArc
 50
343.873543471814
 51
347.094198463667
  0
ARC
  5
1E77
330
1DD0
100
AcDbEntity
  8
Visible Edges(ISO)
100
AcDbCircle
 10
-1.569963065774345
 20
0.0000000000012506
 30
0.0
 40
40.00000000000389
100
AcDbArc
 50
355.5915448853155
 51
358.6020035017798
  0
ARC
  5
1E78
330
1DD0
100
AcDbEntity
  8
Visible Edges(ISO)
100
AcDbCircle
 10
-1.569963065765476
 20
0.0000000000007958
 30
0.0
 40
40.99999999999417
100
AcDbArc
 50
355.4864466976239
 51
358.7071016894753
  0
ARC
  5
1E79
330
1DD0
100
AcDbEntity
  8
Visible Edges(ISO)
100
AcDbCircle
 10
-1.569963065772299
 20
0.0000000000007958
 30
0.0
 40
40.00000000000135
100
AcDbArc
 50
7.204448111122387
 51
10.21490672758534
  0
ARC
  5
1E7A
330
1DD0
100
AcDbEntity
  8
Visible Edges(ISO)
100
AcDbCircle
 10
-1.56996306576343
 20
0.00000000000216
 30
0.0
 40
40.9999999999924
100
AcDbArc
 50
7.099349923427494
 51
10.32000491528323
  0
ARC
  5
1E7B
330
1DD0
100
AcDbEntity
  8
Visible Edges(ISO)
100
AcDbCircle
 10
-1.569963065780256
 20
-0.0000000000026148
 30
0.0
 40
40.00000000001084
100
AcDbArc
 50
18.81735133692856
 51
21.82780995339136
  0
ARC
  5
1E7C
330
1DD0
100
AcDbEntity
  8
Visible Edges(ISO)
100
AcDbCircle
 10
-1.569963065761156
 20
0.0000000000047748
 30
0.0
 40
40.99999999998988
100
AcDbArc
 50
18.71225314923426
 51
21.93290814108733
  0
ARC
  5
1E7D
330
1DD0
100
AcDbEntity
  8
Visible Edges(ISO)
100
AcDbCircle
 10
-1.569963065773208
 20
-0.0000000000003411
 30
0.0
 40
40.00000000000254
100
AcDbArc
 50
30.43025456273193
 51
33.44071317920197
  0
ARC
  5
1E7E
330
1DD0
100
AcDbEntity
  8
Visible Edges(ISO)
100
AcDbCircle
 10
-1.569963065771389
 20
0.0000000000007958
 30
0.0
 40
41.00000000000057
100
AcDbArc
 50
30.3251563750498
 51
33.54581136689417
  0
ARC
  5
1E7F
330
1DD0
100
AcDbEntity
  8
Visible Edges(ISO)
100
AcDbCircle
 10
-1.569963065776163
 20
-0.0000000000044338
 30
0.0
 40
40.00000000000802
100
AcDbArc
 50
42.04315778853731
 51
45.05361640500971
  0
ARC
  5
1E80
330
1DD0
100
AcDbEntity
  8
Visible Edges(ISO)
100
AcDbCircle
 10
-1.569963065772299
 20
-0.0000000000001137
 30
0.0
 40
41.00000000000163
100
AcDbArc
 50
41.93805960085831
 51
45.15871459269922
  0
ARC
  5
1E81
330
1DD0
100
AcDbEntity
  8
Visible Edges(ISO)
100
AcDbCircle
 10
-1.569963065765476
 20
0.0000000000126192
 30
0.0
 40
39.99999999998747
100
AcDbArc
 50
65.26896424015752
 51
68.27942285661956
  0
ARC
  5
1E82
330
1DD0
100
AcDbEntity
  8
Visible Edges(ISO)
100
AcDbCircle
 10
-1.569963065771389
 20
-0.0000000000001137
 30
0.0
 40
41.0000000000011
100
AcDbArc
 50
65.1638660524568
 51
68.38452104431199
  0
ARC
  5
1E83
330
1DD0
100
AcDbEntity
  8
Visible Edges(ISO)
100
AcDbCircle
 10
-1.569963065772299
 20
-0.0000000000017053
 30
0.0
 40
40.00000000000318
100
AcDbArc
 50
53.65606101434654
 51
56.66651963081022
  0
ARC
  5
1E84
330
1DD0
100
AcDbEntity
  8
Visible Edges(ISO)
100
AcDbCircle
 10
-1.569963065776163
 20
-0.0000000000073896
 30
0.0
 40
41.00000000001021
100
AcDbArc
 50
53.5509628266615
 51
56.77161781850394
  0
ARC
  5
1E85
330
1DD0
100
AcDbEntity
  8
Visible Edges(ISO)
100
AcDbCircle
 10
-1.569963065769343
 20
0.0000000000578666
 30
0.0
 40
40.99999999994309
100
AcDbArc
 50
88.38967250407916
 51
89.86025405775507
  0
LINE
  5
1E86
330
1DD0
100
AcDbEntity
  8
Visible Edges(ISO)
100
AcDbLine
 10
-1.200586106192303
 20
33.28593120552945
 30
0.0
 11
-1.469963065770342
 21
40.99987804860018
 31
0.0
  0
LINE
  5
1E87
330
1DD0
100
AcDbEntity
  8
Visible Edges(ISO)
100
AcDbLine
 10
-1.66996306577016
 20
40.99987804860018
 30
0.0
 11
-1.939340025349338
 21
33.28593120552898
 31
0.0
  0
ARC
  5
1E88
330
1DD0
100
AcDbEntity
  8
Visible Edges(ISO)
100
AcDbCircle
 10
-1.569963065769343
 20
-0.0000000000596856
 30
0.0
 40
41.00000000006047
100
AcDbArc
 50
90.13974594224492
 51
91.61032749592084
  0
ARC
  5
1E89
330
1DD0
100
AcDbEntity
  8
Visible Edges(ISO)
100
AcDbCircle
 10
-1.569963065770252
 20
0.0000000000014779
 30
0.0
 40
39.99999999999956
100
AcDbArc
 50
76.88186746595285
 51
79.89232608242905
  0
ARC
  5
1E8A
330
1DD0
100
AcDbEntity
  8
Visible Edges(ISO)
100
AcDbCircle
 10
-1.569963065771389
 20
-0.0000000000029559
 30
0.0
 40
41.00000000000417
100
AcDbArc
 50
76.77676927826436
 51
79.99742427012472
  0
LINE
  5
1E8B
330
1DD0
100
AcDbEntity
  8
Visible Edges(ISO)
100
AcDbLine
 10
-7.690789017556197
 20
30.53744405918747
 30
0.0
 11
-8.691353494925351
 21
40.3767977724292
 31
0.0
  0
LINE
  5
1E8C
330
1DD0
100
AcDbEntity
  8
Visible Edges(ISO)
100
AcDbLine
 10
-2.722137554573463
 20
40.98380770435347
 30
0.0
 11
-1.721573077205448
 21
31.14445399111207
 31
0.0
  0
LINE
  5
1E8D
330
1DD0
100
AcDbEntity
  8
Visible Edges(ISO)
100
AcDbLine
 10
-1.721573077205448
 20
31.14445399111207
 30
0.0
 11
-7.690789017556197
 21
30.53744405918747
 31
0.0
  0
ARC
  5
1E8E
330
1DD0
100
AcDbEntity
  8
Visible Edges(ISO)
100
AcDbCircle
 10
-1.569963065770252
 20
0.0000000000004547
 30
0.0
 40
41.00000000000066
100
AcDbArc
 50
91.61032749592084
 51
100.0025757298752
  0
LINE
  5
1E8F
330
1DD0
100
AcDbEntity
  8
Visible Edges(ISO)
100
AcDbLine
 10
12.19525932077386
 20
-64.54857591495624
 30
0.0
 11
0.4300369342297472
 21
-40.95119045888565
 31
0.0
  0
LINE
  5
1E90
330
1DD0
100
AcDbEntity
  8
Visible Edges(ISO)
100
AcDbLine
 10
-0.5699630657702528
 20
40.98780306383956
 30
0.0
 11
-0.5699630657702528
 21
42.88164102565473
 31
0.0
  0
LINE
  5
1E91
330
1DD0
100
AcDbEntity
  8
Visible Edges(ISO)
100
AcDbLine
 10
-0.5699630657702528
 20
46.08165585967482
 30
0.0
 11
-0.5699630657702528
 21
65.99242380758664
 31
0.0
  0
ARC
  5
1E92
330
1DD0
100
AcDbEntity
  8
Visible Edges(ISO)
100
AcDbCircle
 10
-1.569963065770252
 20
0.0000000000010232
 30
0.0
 40
66.00000000000007
100
AcDbArc
 50
282.0382108122093
 51
89.13184890975191
  0
LINE
  5
1E93
330
1DD0
100
AcDbEntity
  8
Visible Edges(ISO)
100
AcDbLine
 10
-15.33518545231527
 20
-64.54857591495613
 30
0.0
 11
-3.569963065770251
 21
-40.95119045888565
 31
0.0
  0
LINE
  5
1E94
330
1DD0
100
AcDbEntity
  8
Visible Edges(ISO)
100
AcDbLine
 10
-2.569963065770251
 20
40.98780306383924
 30
0.0
 11
-2.569963065770251
 21
42.88773078235829
 31
0.0
  0
LINE
  5
1E95
330
1DD0
100
AcDbEntity
  8
Visible Edges(ISO)
100
AcDbLine
 10
-2.569963065770251
 20
46.08774561637857
 30
0.0
 11
-2.569963065770251
 21
65.99242380758664
 31
0.0
  0
ARC
  5
1E96
330
1DD0
100
AcDbEntity
  8
Visible Edges(ISO)
100
AcDbCircle
 10
-1.569963065770252
 20
0.0000000000010232
 30
0.0
 40
65.99999999999988
100
AcDbArc
 50
90.8681510902481
 51
257.9617891877908
  0
LINE
  5
1E97
330
1DD0
100
AcDbEntity
  8
Visible Edges(ISO)
100
AcDbLine
 10
-4.569963065770251
 20
41.16506407137115
 30
0.0
 11
-13.90241635456937
 21
39.38874326352232
 31
0.0
  0
LINE
  5
1E98
330
1DD0
100
AcDbEntity
  8
Visible Edges(ISO)
100
AcDbLine
 10
-4.869132886039324
 20
42.73684567790541
 30
0.0
 11
-14.20158617483821
 21
40.96052487005692
 31
0.0
  0
LINE
  5
1E99
330
1DD0
100
AcDbEntity
  8
Visible Edges(ISO)
100
AcDbLine
 10
-14.20158617483821
 20
40.96052487005692
 30
0.0
 11
-13.90241635456937
 21
39.38874326352232
 31
0.0
  0
LINE
  5
1E9A
330
1DD0
100
AcDbEntity
  8
Visible Edges(ISO)
100
AcDbLine
 10
-4.869132886039324
 20
42.73684567790541
 30
0.0
 11
-4.569963065770251
 21
41.16506407137115
 31
0.0
  0
ARC
  5
1E9B
330
1DD0
100
AcDbEntity
  8
Visible Edges(ISO)
100
AcDbCircle
 10
-8.412332654308329
 20
44.505527504052
 30
0.0
 40
4.000000000000004
100
AcDbArc
 50
23.40372033866367
 51
100.7766590086726
  0
ARC
  5
1E9C
330
1DD0
100
AcDbEntity
  8
Visible Edges(ISO)
100
AcDbCircle
 10
-8.412332654309466
 20
44.50552750405246
 30
0.0
 40
4.000000000000662
100
AcDbArc
 50
332.7291515550547
 51
336.2473633822528
  0
ARC
  5
1E9D
330
1DD0
100
AcDbEntity
  8
Visible Edges(ISO)
100
AcDbCircle
 10
-8.412332654308329
 20
44.505527504052
 30
0.0
 40
2.400000000000003
100
AcDbArc
 50
280.7766590086727
 51
318.01522696468
  0
ARC
  5
1E9E
330
1DD0
100
AcDbEntity
  8
Visible Edges(ISO)
100
AcDbCircle
 10
-8.412332654308329
 20
44.505527504052
 30
0.0
 40
2.400000000000006
100
AcDbArc
 50
41.63585675624004
 51
100.7766590086726
  0
LINE
  5
1E9F
330
1DD0
100
AcDbEntity
  8
Visible Edges(ISO)
100
AcDbLine
 10
-10.83027516192419
 20
48.11711358635228
 30
0.0
 11
-9.160257204981462
 21
48.43498152038829
 31
0.0
  0
LINE
  5
1EA0
330
1DD0
100
AcDbEntity
  8
Visible Edges(ISO)
100
AcDbLine
 10
-10.53110534165535
 20
46.545331979818
 30
0.0
 11
-10.83027516192419
 21
48.11711358635228
 31
0.0
  0
LINE
  5
1EA1
330
1DD0
100
AcDbEntity
  8
Visible Edges(ISO)
100
AcDbLine
 10
-8.861087384712391
 20
46.8631999138539
 30
0.0
 11
-10.53110534165535
 21
46.545331979818
 31
0.0
  0
ARC
  5
1EA2
330
1DD0
100
AcDbEntity
  8
Visible Edges(ISO)
100
AcDbCircle
 10
-8.412332654307419
 20
44.505527504052
 30
0.0
 40
1.600000000000003
100
AcDbArc
 50
89.82554186044737
 51
269.8255418604474
  0
LINE
  5
1EA3
330
1DD0
100
AcDbEntity
  8
Visible Edges(ISO)
100
AcDbLine
 10
-8.417204437086411
 20
42.90553492102799
 30
0.0
 11
-5.217219271037264
 21
42.89579135546967
 31
0.0
  0
LINE
  5
1EA4
330
1DD0
100
AcDbEntity
  8
Visible Edges(ISO)
100
AcDbLine
 10
-5.207475705479281
 20
46.09577652151813
 30
0.0
 11
-8.407460871528428
 21
46.10552008707645
 31
0.0
  0
LINE
  5
1EA5
330
1DD0
100
AcDbEntity
  8
Visible Edges(ISO)
100
AcDbLine
 10
10.58270748632662
 20
42.84768250052525
 30
0.0
 11
-5.217219271037264
 21
42.89579135546967
 31
0.0
  0
LINE
  5
1EA6
330
1DD0
100
AcDbEntity
  8
Visible Edges(ISO)
100
AcDbLine
 10
10.59245105188461
 20
46.04766766657383
 30
0.0
 11
-5.207475705479281
 21
46.09577652151813
 31
0.0
  0
LINE
  5
1EA7
330
1DD0
100
AcDbEntity
  8
Visible Edges(ISO)
100
AcDbLine
 10
10.58270748632662
 20
42.84768250052525
 30
0.0
 11
13.76349452708473
 21
42.83799739092319
 31
0.0
  0
LINE
  5
1EA8
330
1DD0
100
AcDbEntity
  8
Visible Edges(ISO)
100
AcDbLine
 10
13.77323809264271
 20
46.03798255697154
 30
0.0
 11
10.59245105188461
 21
46.04766766657383
 31
0.0
  0
ARC
  5
1EA9
330
1DD0
100
AcDbEntity
  8
Visible Edges(ISO)
100
AcDbCircle
 10
7.059958135983832
 20
47.95777717985379
 30
0.0
 40
2.050000000000026
100
AcDbArc
 50
291.928438627848
 51
247.7226450930696
  0
LINE
  5
1EAA
330
1DD0
100
AcDbEntity
  8
Visible Edges(ISO)
100
AcDbLine
 10
35.34779447000665
 20
46.23262678242098
 30
0.0
 11
12.2264784150866
 21
52.28987461859356
 31
0.0
  0
LINE
  5
1EAB
330
1DD0
100
AcDbEntity
  8
Visible Edges(ISO)
100
AcDbLine
 10
35.34779447000665
 20
46.23262678242098
 30
0.0
 11
36.12015055189272
 21
46.03028742623121
 31
0.0
  0
LINE
  5
1EAC
330
1DD0
100
AcDbEntity
  8
Visible Edges(ISO)
100
AcDbLine
 10
34.94231513778277
 20
44.68485854681886
 30
0.0
 11
35.71467121966975
 21
44.48251919062896
 31
0.0
  0
LINE
  5
1EAD
330
1DD0
100
AcDbEntity
  8
Visible Edges(ISO)
100
AcDbLine
 10
35.15833706562466
 20
45.50944281422061
 30
0.0
 11
35.34779447042979
 21
46.23262678403569
 31
0.0
  0
LINE
  5
1EAE
330
1DD0
100
AcDbEntity
  8
Visible Edges(ISO)
100
AcDbLine
 10
34.94231513826572
 20
44.68485854866377
 30
0.0
 11
35.15833706562466
 21
45.50944281422061
 31
0.0
  0
LINE
  5
1EAF
330
1DD0
100
AcDbEntity
  8
Visible Edges(ISO)
100
AcDbLine
 10
12.22647841575076
 20
52.28987462113082
 30
0.0
 11
11.74497170776771
 21
50.45189983766285
 31
0.0
  0
SPLINE
  5
1EB0
330
1DD0
100
AcDbEntity
  8
Visible Edges(ISO)
100
AcDbSpline
210
0.0
220
0.0
230
1.0
 70
     8
 71
     3
 72
    14
 73
    10
 74
     0
 42
0.0000000001
 43
0.0000000001
 40
-0.2286651747759609
 40
-0.2286651747759609
 40
-0.2286651747759609
 40
-0.2286651747759609
 40
-0.2096556653767674
 40
-0.2096556653767674
 40
-0.1906461559775739
 40
-0.1906461559775739
 40
-0.1718063443396231
 40
-0.1718063443396231
 40
-0.1529665327016723
 40
-0.1529665327016723
 40
-0.1529665327016723
 40
-0.1529665327016723
 10
11.74497170776771
 20
50.45189983766285
 30
0.0
 10
11.72926580329567
 20
50.39194832319163
 30
0.0
 10
11.7004958310606
 20
50.33050733455581
 30
0.0
 10
11.62004583871567
 20
50.22399777733244
 30
0.0
 10
11.56835373719172
 20
50.17895973185819
 30
0.0
 10
11.45954750830265
 20
50.11532819332444
 30
0.0
 10
11.39541673710368
 20
50.09234399929868
 30
0.0
 10
11.26330804260965
 20
50.07419017076994
 30
0.0
 10
11.19533113869261
 20
50.07901965068572
 30
0.0
 10
11.13458184282261
 20
50.09493455535711
 30
0.0
  0
ELLIPSE
  5
1EB1
330
1DD0
100
AcDbEntity
  8
Visible Edges(ISO)
100
AcDbEllipse
 10
33.83711457913273
 20
44.15703423742614
 30
0.0
 11
1.276410919919219
 21
1.934473692341813
 31
0.0
210
0.0
220
0.0
230
0.9999999999999998
 40
0.0066029868388586
 41
1.525382940362588
 42
1.57728319731281
  0
SPLINE
  5
1EB2
330
1DD0
100
AcDbEntity
  8
Visible Edges(ISO)
100
AcDbSpline
210
0.0
220
0.0
230
1.0
 70
     8
 71
     3
 72
    17
 73
    13
 74
     0
 42
0.0000000001
 43
0.0000000001
 40
0.0
 40
0.0
 40
0.0
 40
0.0
 40
0.25
 40
0.25
 40
0.25
 40
0.5
 40
0.5
 40
0.5
 40
0.75
 40
0.75
 40
0.75
 40
1.0
 40
1.0
 40
1.0
 40
1.0
 10
33.88230066395863
 20
44.25327447992843
 30
0.0
 10
34.07324244166057
 20
44.57918697129332
 30
0.0
 10
34.25277878476754
 20
44.88699297184586
 30
0.0
 10
34.4140962986437
 20
45.15068485318319
 30
0.0
 10
34.57541381251963
 20
45.41437673452025
 30
0.0
 10
34.71856964463768
 20
45.63417263610733
 30
0.0
 10
34.8414065563868
 20
45.8018380928719
 30
0.0
 10
34.96424346813569
 20
45.96950354963575
 30
0.0
 10
35.06686555651868
 20
46.08543591360626
 30
0.0
 10
35.15050120949172
 20
46.15432410406436
 30
0.0
 10
35.23413686246454
 20
46.22321229452256
 30
0.0
 10
35.29888647815255
 20
46.24543954438673
 30
0.0
 10
35.3477944709739
 20
46.23262678611125
 30
0.0
  0
SPLINE
  5
1EB3
330
1DD0
100
AcDbEntity
  8
Visible Edges(ISO)
100
AcDbSpline
210
0.0
220
0.0
230
1.0
 70
     8
 71
     3
 72
    18
 73
    14
 74
     0
 42
0.0000000001
 43
0.0000000001
 40
-0.1525407850974777
 40
-0.1525407850974777
 40
-0.1525407850974777
 40
-0.1525407850974777
 40
-0.1181950956146801
 40
-0.1181950956146801
 40
-0.0865338679253085
 40
-0.0865338679253085
 40
-0.0669010067910081
 40
-0.0669010067910081
 40
-0.0484579910555542
 40
-0.0484579910555542
 40
-0.0229355347966384
 40
-0.0229355347966384
 40
0.0
 40
0.0
 40
0.0
 40
0.0
 10
33.86306215545369
 20
44.17983854867521
 30
0.0
 10
33.95673909574066
 20
44.245943753535
 30
0.0
 10
34.04921594082384
 20
44.31169331540128
 30
0.0
 10
34.22383018034679
 20
44.43042975256378
 30
0.0
 10
34.30554562114867
 20
44.48331415399672
 30
0.0
 10
34.43370506715678
 20
44.55772821218966
 30
0.0
 10
34.48148426724879
 20
44.58339538440339
 30
0.0
 10
34.57172462206154
 20
44.62641791281078
 30
0.0
 10
34.61416665893376
 20
44.64410431440933
 30
0.0
 10
34.71189778324174
 20
44.67763022871247
 30
0.0
 10
34.76558155609655
 20
44.69002132496347
 30
0.0
 10
34.86117054051465
 20
44.69793123338411
 30
0.0
 10
34.90341631398474
 20
44.69504913920775
 30
0.0
 10
34.94231513874865
 20
44.68485855050913
 30
0.0
  0
ELLIPSE
  5
1EB4
330
1DD0
100
AcDbEntity
  8
Visible Edges(ISO)
100
AcDbEllipse
 10
33.82460480637565
 20
44.1092827821908
 30
0.0
 11
-1.746094981367764
 21
-1.001275660584272
 31
0.0
210
0.0
220
0.0
230
1.0
 40
0.0209161467731797
 41
4.678370489106811
 42
4.705287827320871
  0
LINE
  5
1EB5
330
1DD0
100
AcDbEntity
  8
Visible Edges(ISO)
100
AcDbLine
 10
33.86306215545369
 20
44.17983854867475
 30
0.0
 11
33.88230066395863
 21
44.25327447992843
 31
0.0
  0
LINE
  5
1EB6
330
1DD0
100
AcDbEntity
  8
Visible Edges(ISO)
100
AcDbLine
 10
11.13458184282261
 20
50.09493455535711
 30
0.0
 11
7.071690224366647
 21
51.15931780244522
 31
0.0
  0
ARC
  5
1EB7
330
1DD0
100
AcDbEntity
  8
Visible Edges(ISO)
100
AcDbCircle
 10
6.463471226030832
 20
48.83766544904176
 30
0.0
 40
2.400000000000023
100
AcDbArc
 50
75.31974569028058
 51
165.3197456902789
  0
LINE
  5
1EB8
330
1DD0
100
AcDbEntity
  8
Visible Edges(ISO)
100
AcDbLine
 10
3.432230041234788
 20
46.73729003507411
 30
0.0
 11
4.141818872626571
 21
49.44588444737803
 31
0.0
  0
ARC
  5
1EB9
330
1DD0
100
AcDbEntity
  8
Visible Edges(ISO)
100
AcDbCircle
 10
6.52776651243971
 20
45.92633137062603
 30
0.0
 40
3.199999999999877
100
AcDbArc
 50
165.3197456902789
 51
177.4307378691111
  0
ARC
  5
1EBA
330
1DD0
100
AcDbEntity
  8
Visible Edges(ISO)
100
AcDbCircle
 10
6.52776651243971
 20
45.92633137062772
 30
0.0
 40
3.200000000001836
100
AcDbArc
 50
253.2039718979792
 51
255.3197456902806
  0
LINE
  5
1EBB
330
1DD0
100
AcDbEntity
  8
Visible Edges(ISO)
100
AcDbLine
 10
21.09939439205255
 20
38.80091447140126
 30
0.0
 11
5.716807847991731
 21
42.83079489942156
 31
0.0
  0
ARC
  5
1EBC
330
1DD0
100
AcDbEntity
  8
Visible Edges(ISO)
100
AcDbCircle
 10
31.32144988844675
 20
31.26436476821073
 30
0.0
 40
12.70000000000014
100
AcDbArc
 50
82.54991629590639
 51
143.5992722168695
  0
ARC
  5
1EBD
330
1DD0
100
AcDbEntity
  8
Visible Edges(ISO)
100
AcDbCircle
 10
33.09782466363572
 20
44.84871210836955
 30
0.0
 40
1.000000000000007
100
AcDbArc
 50
262.5499162959064
 51
315.9091171760239
  0
CIRCLE
  5
1EBE
330
1DD0
100
AcDbEntity
  8
Visible Edges(ISO)
100
AcDbCircle
 10
19.69769947005056
 20
43.71661059821486
 30
0.0
 40
1.400000000000015
  0
LINE
  5
1EBF
330
1DD0
100
AcDbEntity
  8
Visible Edges(ISO)
100
AcDbLine
 10
36.12015055189272
 20
46.03028742623121
 30
0.0
 11
35.71467121966975
 21
44.48251919062896
 31
0.0
  0
LINE
  5
1EC0
330
1DD0
100
AcDbEntity
  8
Visible Edges(ISO)
100
AcDbLine
 10
11.18990107768172
 20
50.70069010197176
 30
0.0
 11
4.90209262054759
 21
52.34794988913222
 31
0.0
  0
LINE
  5
1EC1
330
1DD0
100
AcDbEntity
  8
Visible Edges(ISO)
100
AcDbLine
 10
4.90209262054759
 20
52.34794988913222
 30
0.0
 11
4.369900997003696
 21
50.31650407990436
 31
0.0
  0
LINE
  5
1EC2
330
1DD0
100
AcDbEntity
  8
Visible Edges(ISO)
100
AcDbLine
 10
11.03784632809652
 20
50.12027701362114
 30
0.0
 11
11.18990107768172
 21
50.70069010197176
 31
0.0
  0
LINE
  5
1EC3
330
1DD0
100
AcDbEntity
  8
Visible Edges(ISO)
100
AcDbLine
 10
3.257416061627735
 20
46.07000195582577
 30
0.0
 11
3.432230041234788
 21
46.73729003507411
 31
0.0
  0
LINE
  5
1EC4
330
1DD0
100
AcDbEntity
  8
Visible Edges(ISO)
100
AcDbLine
 10
4.141818872627708
 20
49.44588444737803
 30
0.0
 11
4.369900997003696
 21
50.31650407990436
 31
0.0
  0
LINE
  5
1EC5
330
1DD0
100
AcDbEntity
  8
Visible Edges(ISO)
100
AcDbLine
 10
8.909079833920712
 20
41.99449377670942
 30
0.0
 11
8.833052459128793
 21
41.70428723253404
 31
0.0
  0
LINE
  5
1EC6
330
1DD0
100
AcDbEntity
  8
Visible Edges(ISO)
100
AcDbLine
 10
2.026723150841688
 20
41.37228435663883
 30
0.0
 11
2.419754684474582
 21
42.87253769879884
 31
0.0
  0
SPLINE
  5
1EC7
330
1DD0
100
AcDbEntity
  8
Visible Edges(ISO)
100
AcDbSpline
210
0.0
220
0.0
230
1.0
 70
     8
 71
     3
 72
     8
 73
     4
 74
     0
 42
0.0000000001
 43
0.0000000001
 40
-0.2386057459238637
 40
-0.2386057459238637
 40
-0.2386057459238637
 40
-0.2386057459238637
 40
-0.2284121227312375
 40
-0.2284121227312375
 40
-0.2284121227312375
 40
-0.2284121227312375
 10
2.443463193313618
 20
42.8725838175668
 30
0.0
 10
2.445785789399677
 20
42.86444064226794
 30
0.0
 10
2.449636025771723
 20
42.85972083788272
 30
0.0
 10
2.454817600237674
 20
42.85836338570982
 30
0.0
  0
LINE
  5
1EC8
330
1DD0
100
AcDbEntity
  8
Visible Edges(ISO)
100
AcDbLine
 10
22.0558411998777
 20
37.72335041847565
 30
0.0
 11
22.18255349119772
 21
38.20702799210142
 31
0.0
  0
LINE
  5
1EC9
330
1DD0
100
AcDbEntity
  8
Visible Edges(ISO)
100
AcDbLine
 10
14.89773676921663
 20
39.5999277792165
 30
0.0
 11
15.02412540153773
 21
40.08236990363764
 31
0.0
  0
LINE
  5
1ECA
330
1DD0
100
AcDbEntity
  8
Visible Edges(ISO)
100
AcDbLine
 10
14.89773676921663
 20
39.5999277792165
 30
0.0
 11
8.706663826808608
 21
41.22184510811279
 31
0.0
  0
LINE
  5
1ECB
330
1DD0
100
AcDbEntity
  8
Visible Edges(ISO)
100
AcDbLine
 10
8.833052459128793
 20
41.70428723253404
 30
0.0
 11
8.706663826808608
 21
41.22184510811279
 31
0.0
  0
SPLINE
  5
1ECC
330
1DD0
100
AcDbEntity
  8
Visible Edges(ISO)
100
AcDbSpline
210
0.0
220
0.0
230
1.0
 70
     8
 71
     3
 72
     8
 73
     4
 74
     0
 42
0.0000000001
 43
0.0000000001
 40
-0.3229320565119527
 40
-0.3229320565119527
 40
-0.3229320565119527
 40
-0.3229320565119527
 40
-0.2761446812655437
 40
-0.2761446812655437
 40
-0.2761446812655437
 40
-0.2761446812655437
 10
2.04933826801266
 20
41.3105951501077
 30
0.0
 10
2.025555530087784
 20
41.31682567511188
 30
0.0
 10
2.018339363944733
 20
41.3374356473207
 30
0.0
 10
2.026723150841688
 20
41.37228435663883
 30
0.0
  0
LINE
  5
1ECD
330
1DD0
100
AcDbEntity
  8
Visible Edges(ISO)
100
AcDbLine
 10
2.04933826801266
 20
41.3105951501077
 30
0.0
 11
3.049706111745535
 21
41.04852200767925
 31
0.0
  0
LINE
  5
1ECE
330
1DD0
100
AcDbEntity
  8
Visible Edges(ISO)
100
AcDbLine
 10
3.455185443969639
 20
42.59629024328126
 30
0.0
 11
2.454817600237674
 21
42.85836338570982
 31
0.0
  0
LINE
  5
1ECF
330
1DD0
100
AcDbEntity
  8
Visible Edges(ISO)
100
AcDbLine
 10
14.52461327426158
 20
39.69635722909686
 30
0.0
 11
3.455185443969639
 21
42.59629024328126
 31
0.0
  0
LINE
  5
1ED0
330
1DD0
100
AcDbEntity
  8
Visible Edges(ISO)
100
AcDbLine
 10
14.52461327426158
 20
39.69635722909686
 30
0.0
 11
16.8408163017948
 21
39.08956582758288
 31
0.0
  0
LINE
  5
1ED1
330
1DD0
100
AcDbEntity
  8
Visible Edges(ISO)
100
AcDbLine
 10
18.17772771379873
 20
38.73932608618486
 30
0.0
 11
16.8408163017948
 21
39.08956582758288
 31
0.0
  0
LINE
  5
1ED2
330
1DD0
100
AcDbEntity
  8
Visible Edges(ISO)
100
AcDbLine
 10
22.0558411998777
 20
37.72335041847578
 30
0.0
 11
18.17772771379873
 21
38.73932608618486
 31
0.0
  0
LINE
  5
1ED3
330
1DD0
100
AcDbEntity
  8
Visible Edges(ISO)
100
AcDbLine
 10
15.02412540153773
 20
40.08236990363785
 30
0.0
 11
15.10015277632965
 21
40.37257644781312
 31
0.0
  0
LINE
  5
1ED4
330
1DD0
100
AcDbEntity
  8
Visible Edges(ISO)
100
AcDbLine
 10
22.18255349119772
 20
38.20702799210142
 30
0.0
 11
22.84018983028159
 21
40.717312870564
 31
0.0
  0
ARC
  5
1ED5
330
1DD0
100
AcDbEntity
  8
Visible Edges(ISO)
100
AcDbCircle
 10
19.67235701178674
 20
43.61987508349
 30
0.0
 40
1.400000000000019
100
AcDbArc
 50
347.3664587879645
 51
163.273032592623
  0
LINE
  5
1ED6
330
1DD0
100
AcDbEntity
  8
Visible Edges(ISO)
100
AcDbLine
 10
14.1191339420377
 20
38.1485889934943
 30
0.0
 11
11.83170712303763
 21
38.74784169667373
 31
0.0
  0
LINE
  5
1ED7
330
1DD0
100
AcDbEntity
  8
Visible Edges(ISO)
100
AcDbLine
 10
5.747973786899818
 20
40.34163854159134
 30
0.0
 11
3.049706111745535
 21
41.04852200767925
 31
0.0
  0
LINE
  5
1ED8
330
1DD0
100
AcDbEntity
  8
Visible Edges(ISO)
100
AcDbLine
 10
21.65036186765361
 20
36.17558218287354
 30
0.0
 11
17.77224838157463
 21
37.1915578505824
 31
0.0
  0
LINE
  5
1ED9
330
1DD0
100
AcDbEntity
  8
Visible Edges(ISO)
100
AcDbLine
 10
17.77224838157463
 20
37.1915578505824
 30
0.0
 11
16.4353369695707
 21
37.54179759198076
 31
0.0
  0
LINE
  5
1EDA
330
1DD0
100
AcDbEntity
  8
Visible Edges(ISO)
100
AcDbLine
 10
14.1191339420377
 20
38.1485889934943
 30
0.0
 11
16.4353369695707
 21
37.54179759198076
 31
0.0
  0
LINE
  5
1EDB
330
1DD0
100
AcDbEntity
  8
Visible Edges(ISO)
100
AcDbLine
 10
18.17772771379873
 20
38.73932608618486
 30
0.0
 11
17.77224838157463
 21
37.1915578505824
 31
0.0
  0
LINE
  5
1EDC
330
1DD0
100
AcDbEntity
  8
Visible Edges(ISO)
100
AcDbLine
 10
16.4353369695707
 20
37.54179759198076
 30
0.0
 11
16.8408163017948
 21
39.08956582758288
 31
0.0
  0
LINE
  5
1EDD
330
1DD0
100
AcDbEntity
  8
Visible Edges(ISO)
100
AcDbLine
 10
22.0558411998777
 20
37.72335041847565
 30
0.0
 11
21.65036186765361
 21
36.17558218287343
 31
0.0
  0
ARC
  5
1EDE
330
1DD0
100
AcDbEntity
  8
Visible Edges(ISO)
100
AcDbCircle
 10
-1.569963065768206
 20
-0.0000000000119371
 30
0.0
 40
38.45000000001327
100
AcDbArc
 50
100.2814117277795
 51
102.944394723844
  0
ARC
  5
1EDF
330
1DD0
100
AcDbEntity
  8
Visible Edges(ISO)
100
AcDbCircle
 10
-1.569963065771389
 20
0.0000000000022737
 30
0.0
 40
38.44999999999847
100
AcDbArc
 50
111.8943149535783
 51
114.5572979496505
  0
ARC
  5
1EE0
330
1DD0
100
AcDbEntity
  8
Visible Edges(ISO)
100
AcDbCircle
 10
-1.5699630657773
 20
0.0000000000097771
 30
0.0
 40
38.44999999998928
100
AcDbArc
 50
123.5072181793938
 51
126.1702011754546
  0
ARC
  5
1EE1
330
1DD0
100
AcDbEntity
  8
Visible Edges(ISO)
100
AcDbCircle
 10
-1.569963065769343
 20
-0.0000000000001137
 30
0.0
 40
38.45000000000153
100
AcDbArc
 50
135.1201214052018
 51
137.7831044012623
  0
ARC
  5
1EE2
330
1DD0
100
AcDbEntity
  8
Visible Edges(ISO)
100
AcDbCircle
 10
-1.569963065780256
 20
0.0000000000070486
 30
0.0
 40
38.44999999998876
100
AcDbArc
 50
146.7330246309993
 51
149.3960076270678
  0
ARC
  5
1EE3
330
1DD0
100
AcDbEntity
  8
Visible Edges(ISO)
100
AcDbCircle
 10
-1.569963065770252
 20
0.0000000000012506
 30
0.0
 40
38.44999999999983
100
AcDbArc
 50
158.3459278568054
 51
161.0089108528749
  0
ARC
  5
1EE4
330
1DD0
100
AcDbEntity
  8
Visible Edges(ISO)
100
AcDbCircle
 10
-1.569963065775255
 20
0.000000000001819
 30
0.0
 40
38.44999999999532
100
AcDbArc
 50
169.9588310826108
 51
172.6218140786815
  0
ARC
  5
1EE5
330
1DD0
100
AcDbEntity
  8
Visible Edges(ISO)
100
AcDbCircle
 10
-1.569963065753426
 20
0.000000000001819
 30
0.0
 40
38.45000000001697
100
AcDbArc
 50
181.571734308421
 51
184.2347173044822
  0
ARC
  5
1EE6
330
1DD0
100
AcDbEntity
  8
Visible Edges(ISO)
100
AcDbCircle
 10
-1.569963065774345
 20
-0.0000000000001137
 30
0.0
 40
38.44999999999642
100
AcDbArc
 50
193.1846375342258
 51
195.847620530291
  0
ARC
  5
1EE7
330
1DD0
100
AcDbEntity
  8
Visible Edges(ISO)
100
AcDbCircle
 10
-1.569963065770252
 20
0.0000000000012506
 30
0.0
 40
38.4500000000005
100
AcDbArc
 50
204.7975407600365
 51
207.4605237561015
  0
ARC
  5
1EE8
330
1DD0
100
AcDbEntity
  8
Visible Edges(ISO)
100
AcDbCircle
 10
-1.569963065776163
 20
-0.0000000000034106
 30
0.0
 40
38.44999999999259
100
AcDbArc
 50
216.4104439858393
 51
219.0734269819018
  0
ARC
  5
1EE9
330
1DD0
100
AcDbEntity
  8
Visible Edges(ISO)
100
AcDbCircle
 10
-1.569963065775255
 20
-0.0000000000048885
 30
0.0
 40
38.44999999999231
100
AcDbArc
 50
228.0233472116409
 51
230.6863302077119
  0
ARC
  5
1EEA
330
1DD0
100
AcDbEntity
  8
Visible Edges(ISO)
100
AcDbCircle
 10
-1.569963065767296
 20
0.000000000007617
 30
0.0
 40
38.45000000000732
100
AcDbArc
 50
239.6362504374549
 51
242.2992334335265
  0
ARC
  5
1EEB
330
1DD0
100
AcDbEntity
  8
Visible Edges(ISO)
100
AcDbCircle
 10
-1.569963065773208
 20
-0.0000000000070486
 30
0.0
 40
38.44999999999149
100
AcDbArc
 50
251.249153663261
 51
253.9121366593212
  0
ARC
  5
1EEC
330
1DD0
100
AcDbEntity
  8
Visible Edges(ISO)
100
AcDbCircle
 10
-1.569963065771389
 20
-0.0000000000022737
 30
0.0
 40
38.44999999999675
100
AcDbArc
 50
262.8620568890577
 51
265.52503988513
  0
ARC
  5
1EED
330
1DD0
100
AcDbEntity
  8
Visible Edges(ISO)
100
AcDbCircle
 10
-1.569963065770252
 20
-0.0000000000009095
 30
0.0
 40
38.44999999999826
100
AcDbArc
 50
274.4749601148701
 51
277.1379431109422
  0
ARC
  5
1EEE
330
1DD0
100
AcDbEntity
  8
Visible Edges(ISO)
100
AcDbCircle
 10
-1.569963065766387
 20
-0.0000000000117097
 30
0.0
 40
38.44999999998665
100
AcDbArc
 50
286.0878633406788
 51
288.7508463367391
  0
ARC
  5
1EEF
330
1DD0
100
AcDbEntity
  8
Visible Edges(ISO)
100
AcDbCircle
 10
-1.569963065771389
 20
0.000000000001819
 30
0.0
 40
38.45000000000111
100
AcDbArc
 50
297.7007665664736
 51
300.3637495625451
  0
ARC
  5
1EF0
330
1DD0
100
AcDbEntity
  8
Visible Edges(ISO)
100
AcDbCircle
 10
-1.569963065759338
 20
-0.0000000000120508
 30
0.0
 40
38.44999999998267
100
AcDbArc
 50
309.3136697922881
 51
311.9766527883591
  0
ARC
  5
1EF1
330
1DD0
100
AcDbEntity
  8
Visible Edges(ISO)
100
AcDbCircle
 10
-1.569963065780256
 20
0.0000000000088676
 30
0.0
 40
38.45000000001244
100
AcDbArc
 50
320.9265730180982
 51
323.5895560141607
  0
ARC
  5
1EF2
330
1DD0
100
AcDbEntity
  8
Visible Edges(ISO)
100
AcDbCircle
 10
-1.569963065771389
 20
0.0000000000012506
 30
0.0
 40
38.45000000000048
100
AcDbArc
 50
332.5394762438985
 51
335.2024592399635
  0
ARC
  5
1EF3
330
1DD0
100
AcDbEntity
  8
Visible Edges(ISO)
100
AcDbCircle
 10
-1.569963065754335
 20
-0.0000000000031832
 30
0.0
 40
38.4499999999832
100
AcDbArc
 50
344.152379469709
 51
346.8153624657742
  0
ARC
  5
1EF4
330
1DD0
100
AcDbEntity
  8
Visible Edges(ISO)
100
AcDbCircle
 10
-1.569963065766387
 20
0.0000000000007958
 30
0.0
 40
38.44999999999526
100
AcDbArc
 50
355.7652826955178
 51
358.4282656915791
  0
ARC
  5
1EF5
330
1DD0
100
AcDbEntity
  8
Visible Edges(ISO)
100
AcDbCircle
 10
-1.569963065786395
 20
-0.0000000000013642
 30
0.0
 40
38.45000000001557
100
AcDbArc
 50
7.378185921324948
 51
10.04116891738916
  0
ARC
  5
1EF6
330
1DD0
100
AcDbEntity
  8
Visible Edges(ISO)
100
AcDbCircle
 10
-1.569963065776163
 20
-0.0000000000009095
 30
0.0
 40
38.45000000000583
100
AcDbArc
 50
18.99108914713122
 51
21.6540721431946
  0
ARC
  5
1EF7
330
1DD0
100
AcDbEntity
  8
Visible Edges(ISO)
100
AcDbCircle
 10
-1.569963065787304
 20
-0.0000000000092086
 30
0.0
 40
38.45000000001952
100
AcDbArc
 50
30.60399237293219
 51
33.26697536900072
  0
ARC
  5
1EF8
330
1DD0
100
AcDbEntity
  8
Visible Edges(ISO)
100
AcDbCircle
 10
-1.569963065766387
 20
0.0000000000053433
 30
0.0
 40
38.44999999999347
100
AcDbArc
 50
42.2168955987377
 51
44.87987859481193
  0
ARC
  5
1EF9
330
1DD0
100
AcDbEntity
  8
Visible Edges(ISO)
100
AcDbCircle
 10
-1.569963065762293
 20
0.0000000000126192
 30
0.0
 40
38.44999999998578
100
AcDbArc
 50
53.82979882454535
 51
56.49278182060613
  0
ARC
  5
1EFA
330
1DD0
100
AcDbEntity
  8
Visible Edges(ISO)
100
AcDbCircle
 10
-1.569963065776163
 20
-0.0000000000127329
 30
0.0
 40
38.45000000001486
100
AcDbArc
 50
65.44270205034944
 51
68.10568504642167
  0
ARC
  5
1EFB
330
1DD0
100
AcDbEntity
  8
Visible Edges(ISO)
100
AcDbCircle
 10
-1.569963065765476
 20
0.0000000000254659
 30
0.0
 40
38.44999999997492
100
AcDbArc
 50
77.05560527615594
 51
79.71858827222051
  0
ARC
  5
1EFC
330
1DD0
100
AcDbEntity
  8
Visible Edges(ISO)
100
AcDbCircle
 10
-1.569963065771389
 20
-0.0000000000009095
 30
0.0
 40
40.95000000000202
100
AcDbArc
 50
76.78190194749099
 51
79.99229160090443
  0
ARC
  5
1EFD
330
1DD0
100
AcDbEntity
  8
Visible Edges(ISO)
100
AcDbCircle
 10
-1.569963065770252
 20
0.000000000001819
 30
0.0
 40
40.94999999999914
100
AcDbArc
 50
65.16899872168727
 51
68.37938837509232
  0
ARC
  5
1EFE
330
1DD0
100
AcDbEntity
  8
Visible Edges(ISO)
100
AcDbCircle
 10
-1.56996306576434
 20
0.0000000000102318
 30
0.0
 40
40.94999999998878
100
AcDbArc
 50
53.55609549587879
 51
56.76648514927754
  0
ARC
  5
1EFF
330
1DD0
100
AcDbEntity
  8
Visible Edges(ISO)
100
AcDbCircle
 10
-1.569963065768206
 20
0.0000000000027285
 30
0.0
 40
40.94999999999742
100
AcDbArc
 50
41.94319227006695
 51
45.15358192348251
  0
ARC
  5
1F00
330
1DD0
100
AcDbEntity
  8
Visible Edges(ISO)
100
AcDbCircle
 10
-1.569963065771389
 20
0.0000000000004547
 30
0.0
 40
40.95000000000104
100
AcDbArc
 50
30.33028904426711
 51
33.54067869767428
  0
ARC
  5
1F01
330
1DD0
100
AcDbEntity
  8
Visible Edges(ISO)
100
AcDbCircle
 10
-1.5699630657773
 20
-0.0000000000012506
 30
0.0
 40
40.95000000000658
100
AcDbArc
 50
18.71738581846102
 51
21.92777547186688
  0
ARC
  5
1F02
330
1DD0
100
AcDbEntity
  8
Visible Edges(ISO)
100
AcDbCircle
 10
-1.56996306576434
 20
0.0000000000022737
 30
0.0
 40
40.9499999999934
100
AcDbArc
 50
7.104482592650017
 51
10.31487224605755
  0
ARC
  5
1F03
330
1DD0
100
AcDbEntity
  8
Visible Edges(ISO)
100
AcDbCircle
 10
-1.56996306576343
 20
0.0000000000004547
 30
0.0
 40
40.9499999999929
100
AcDbArc
 50
355.491579366845
 51
358.7019690202512
  0
ARC
  5
1F04
330
1DD0
100
AcDbEntity
  8
Visible Edges(ISO)
100
AcDbCircle
 10
-1.569963065769343
 20
0.0000000000007958
 30
0.0
 40
40.94999999999902
100
AcDbArc
 50
343.8786761410407
 51
347.0890657944468
  0
ARC
  5
1F05
330
1DD0
100
AcDbEntity
  8
Visible Edges(ISO)
100
AcDbCircle
 10
-1.569963065761156
 20
-0.0000000000034106
 30
0.0
 40
40.94999999998973
100
AcDbArc
 50
332.265772915228
 51
335.4761625686383
  0
ARC
  5
1F06
330
1DD0
100
AcDbEntity
  8
Visible Edges(ISO)
100
AcDbCircle
 10
-1.569963065779346
 20
0.0000000000079581
 30
0.0
 40
40.95000000001132
100
AcDbArc
 50
320.6528696894184
 51
323.8632593428369
  0
ARC
  5
1F07
330
1DD0
100
AcDbEntity
  8
Visible Edges(ISO)
100
AcDbCircle
 10
-1.569963065774345
 20
0.0000000000053433
 30
0.0
 40
40.95000000000534
100
AcDbArc
 50
309.0399664636147
 51
312.2503561170262
  0
ARC
  5
1F08
330
1DD0
100
AcDbEntity
  8
Visible Edges(ISO)
100
AcDbCircle
 10
-1.569963065774345
 20
0.0000000000077307
 30
0.0
 40
40.95000000000765
100
AcDbArc
 50
297.4270632378161
 51
300.637452891213
  0
ARC
  5
1F09
330
1DD0
100
AcDbEntity
  8
Visible Edges(ISO)
100
AcDbCircle
 10
-1.569963065768206
 20
-0.0000000000062528
 30
0.0
 40
40.94999999999243
100
AcDbArc
 50
285.8141600120052
 51
289.0245496654238
  0
ARC
  5
1F0A
330
1DD0
100
AcDbEntity
  8
Visible Edges(ISO)
100
AcDbCircle
 10
-1.569963065772299
 20
0.0000000000190994
 30
0.0
 40
40.95000000001802
100
AcDbArc
 50
274.2012567861895
 51
277.4116464396099
  0
ARC
  5
1F0B
330
1DD0
100
AcDbEntity
  8
Visible Edges(ISO)
100
AcDbCircle
 10
-1.569963065771389
 20
-0.00000000000216
 30
0.0
 40
40.94999999999695
100
AcDbArc
 50
262.5883535603902
 51
265.7987432138106
  0
ARC
  5
1F0C
330
1DD0
100
AcDbEntity
  8
Visible Edges(ISO)
100
AcDbCircle
 10
-1.569963065770252
 20
0.000000000001819
 30
0.0
 40
40.95000000000071
100
AcDbArc
 50
250.9754503345762
 51
254.1858399879948
  0
ARC
  5
1F0D
330
1DD0
100
AcDbEntity
  8
Visible Edges(ISO)
100
AcDbCircle
 10
-1.569963065774345
 20
-0.0000000000056843
 30
0.0
 40
40.94999999999243
100
AcDbArc
 50
239.362547108787
 51
242.5729367621839
  0
ARC
  5
1F0E
330
1DD0
100
AcDbEntity
  8
Visible Edges(ISO)
100
AcDbCircle
 10
-1.569963065771389
 20
0.0000000000003411
 30
0.0
 40
40.94999999999894
100
AcDbArc
 50
227.7496438829738
 51
230.9600335363853
  0
ARC
  5
1F0F
330
1DD0
100
AcDbEntity
  8
Visible Edges(ISO)
100
AcDbCircle
 10
-1.569963065779346
 20
-0.0000000000056843
 30
0.0
 40
40.94999999998868
100
AcDbArc
 50
216.1367406571632
 51
219.3471303105816
  0
ARC
  5
1F10
330
1DD0
100
AcDbEntity
  8
Visible Edges(ISO)
100
AcDbCircle
 10
-1.569963065770252
 20
0.0000000000014779
 30
0.0
 40
40.95000000000065
100
AcDbArc
 50
204.5238374313617
 51
207.734227084772
  0
ARC
  5
1F11
330
1DD0
100
AcDbEntity
  8
Visible Edges(ISO)
100
AcDbCircle
 10
-1.569963065788215
 20
-0.000000000003638
 30
0.0
 40
40.94999999998207
100
AcDbArc
 50
192.9109342055531
 51
196.1213238589594
  0
ARC
  5
1F12
330
1DD0
100
AcDbEntity
  8
Visible Edges(ISO)
100
AcDbCircle
 10
-1.569963065758428
 20
0.0000000000017053
 30
0.0
 40
40.95000000001257
100
AcDbArc
 50
181.2980309797488
 51
184.5084206331549
  0
ARC
  5
1F13
330
1DD0
100
AcDbEntity
  8
Visible Edges(ISO)
100
AcDbCircle
 10
-1.569963065748196
 20
-0.0000000000025011
 30
0.0
 40
40.95000000002264
100
AcDbArc
 50
169.6851277539424
 51
172.89551740735
  0
ARC
  5
1F14
330
1DD0
100
AcDbEntity
  8
Visible Edges(ISO)
100
AcDbCircle
 10
-1.569963065779346
 20
0.0000000000040927
 30
0.0
 40
40.94999999999067
100
AcDbArc
 50
158.0722245281331
 51
161.2826141815451
  0
ARC
  5
1F15
330
1DD0
100
AcDbEntity
  8
Visible Edges(ISO)
100
AcDbCircle
 10
-1.569963065769343
 20
0.0000000000004547
 30
0.0
 40
40.95000000000108
100
AcDbArc
 50
146.4593213023257
 51
149.6697109557329
  0
ARC
  5
1F16
330
1DD0
100
AcDbEntity
  8
Visible Edges(ISO)
100
AcDbCircle
 10
-1.569963065760247
 20
-0.0000000000082991
 30
0.0
 40
40.95000000001359
100
AcDbArc
 50
134.8464180765175
 51
138.056807729933
  0
ARC
  5
1F17
330
1DD0
100
AcDbEntity
  8
Visible Edges(ISO)
100
AcDbCircle
 10
-1.56996306576434
 20
-0.0000000000080718
 30
0.0
 40
40.95000000001122
100
AcDbArc
 50
123.2335148507224
 51
126.4439045041212
  0
ARC
  5
1F18
330
1DD0
100
AcDbEntity
  8
Visible Edges(ISO)
100
AcDbCircle
 10
-1.569963065776163
 20
0.0000000000133014
 30
0.0
 40
40.94999999998669
100
AcDbArc
 50
111.6206116249077
 51
114.8310012783127
  0
ARC
  5
1F19
330
1DD0
100
AcDbEntity
  8
Visible Edges(ISO)
100
AcDbCircle
 10
-1.569963065770252
 20
-0.0000000000017053
 30
0.0
 40
40.9500000000026
100
AcDbArc
 50
100.0077083990956
 51
103.218098052509
  0
ARC
  5
1F1A
330
1DD0
100
AcDbEntity
  8
Visible Edges(ISO)
100
AcDbCircle
 10
-1.569963065768206
 20
0.0000000000117097
 30
0.0
 40
38.4499999999889
100
AcDbArc
 50
77.05560527615594
 51
79.71858827222051
  0
ARC
  5
1F1B
330
1DD0
100
AcDbEntity
  8
Visible Edges(ISO)
100
AcDbCircle
 10
-1.569963065769343
 20
0.0000000000044338
 30
0.0
 40
38.44999999999645
100
AcDbArc
 50
65.44270205034944
 51
68.10568504642167
  0
ARC
  5
1F1C
330
1DD0
100
AcDbEntity
  8
Visible Edges(ISO)
100
AcDbCircle
 10
-1.569963065759338
 20
0.0000000000165983
 30
0.0
 40
38.44999999998093
100
AcDbArc
 50
53.82979882454535
 51
56.49278182060613
  0
ARC
  5
1F1D
330
1DD0
100
AcDbEntity
  8
Visible Edges(ISO)
100
AcDbCircle
 10
-1.569963065761156
 20
0.0000000000100044
 30
0.0
 40
38.44999999998708
100
AcDbArc
 50
42.2168955987377
 51
44.87987859481193
  0
ARC
  5
1F1E
330
1DD0
100
AcDbEntity
  8
Visible Edges(ISO)
100
AcDbCircle
 10
-1.569963065775255
 20
-0.0000000000022737
 30
0.0
 40
38.45000000000587
100
AcDbArc
 50
30.60399237293219
 51
33.26697536900072
  0
ARC
  5
1F1F
330
1DD0
100
AcDbEntity
  8
Visible Edges(ISO)
100
AcDbCircle
 10
-1.569963065783439
 20
-0.000000000003638
 30
0.0
 40
38.45000000001375
100
AcDbArc
 50
18.99108914713122
 51
21.6540721431946
  0
ARC
  5
1F20
330
1DD0
100
AcDbEntity
  8
Visible Edges(ISO)
100
AcDbCircle
 10
-1.569963065786395
 20
-0.0000000000013642
 30
0.0
 40
38.45000000001551
100
AcDbArc
 50
7.378185921324948
 51
10.04116891738916
  0
ARC
  5
1F21
330
1DD0
100
AcDbEntity
  8
Visible Edges(ISO)
100
AcDbCircle
 10
-1.56996306576434
 20
0.0000000000007958
 30
0.0
 40
38.44999999999352
100
AcDbArc
 50
355.7652826955178
 51
358.4282656915791
  0
ARC
  5
1F22
330
1DD0
100
AcDbEntity
  8
Visible Edges(ISO)
100
AcDbCircle
 10
-1.569963065767296
 20
-0.0000000000001137
 30
0.0
 40
38.44999999999629
100
AcDbArc
 50
344.152379469709
 51
346.8153624657742
  0
ARC
  5
1F23
330
1DD0
100
AcDbEntity
  8
Visible Edges(ISO)
100
AcDbCircle
 10
-1.569963065770252
 20
0.0000000000007958
 30
0.0
 40
38.44999999999937
100
AcDbArc
 50
332.5394762439043
 51
335.2024592399635
  0
ARC
  5
1F24
330
1DD0
100
AcDbEntity
  8
Visible Edges(ISO)
100
AcDbCircle
 10
-1.569963065769343
 20
0.0000000000003411
 30
0.0
 40
38.44999999999897
100
AcDbArc
 50
320.9265730180982
 51
323.5895560141659
  0
ARC
  5
1F25
330
1DD0
100
AcDbEntity
  8
Visible Edges(ISO)
100
AcDbCircle
 10
-1.569963065756383
 20
-0.0000000000154614
 30
0.0
 40
38.44999999997839
100
AcDbArc
 50
309.3136697922881
 51
311.9766527883591
  0
ARC
  5
1F26
330
1DD0
100
AcDbEntity
  8
Visible Edges(ISO)
100
AcDbCircle
 10
-1.569963065768206
 20
-0.0000000000025011
 30
0.0
 40
38.449999999996
100
AcDbArc
 50
297.7007665664736
 51
300.3637495625451
  0
ARC
  5
1F27
330
1DD0
100
AcDbEntity
  8
Visible Edges(ISO)
100
AcDbCircle
 10
-1.569963065769343
 20
-0.0000000000017053
 30
0.0
 40
38.44999999999725
100
AcDbArc
 50
286.0878633406788
 51
288.7508463367391
  0
ARC
  5
1F28
330
1DD0
100
AcDbEntity
  8
Visible Edges(ISO)
100
AcDbCircle
 10
-1.569963065769343
 20
-0.0000000000048885
 30
0.0
 40
38.44999999999423
100
AcDbArc
 50
274.4749601148701
 51
277.1379431109422
  0
ARC
  5
1F29
330
1DD0
100
AcDbEntity
  8
Visible Edges(ISO)
100
AcDbCircle
 10
-1.569963065772299
 20
-0.0000000000146656
 30
0.0
 40
38.44999999998434
100
AcDbArc
 50
262.8620568890577
 51
265.52503988513
  0
ARC
  5
1F2A
330
1DD0
100
AcDbEntity
  8
Visible Edges(ISO)
100
AcDbCircle
 10
-1.569963065771389
 20
0.0000000000003411
 30
0.0
 40
38.44999999999919
100
AcDbArc
 50
251.249153663261
 51
253.9121366593212
  0
ARC
  5
1F2B
330
1DD0
100
AcDbEntity
  8
Visible Edges(ISO)
100
AcDbCircle
 10
-1.569963065768206
 20
0.0000000000047748
 30
0.0
 40
38.45000000000418
100
AcDbArc
 50
239.6362504374549
 51
242.2992334335265
  0
ARC
  5
1F2C
330
1DD0
100
AcDbEntity
  8
Visible Edges(ISO)
100
AcDbCircle
 10
-1.56996306576434
 20
0.0000000000088676
 30
0.0
 40
38.45000000001012
100
AcDbArc
 50
228.0233472116409
 51
230.6863302077119
  0
ARC
  5
1F2D
330
1DD0
100
AcDbEntity
  8
Visible Edges(ISO)
100
AcDbCircle
 10
-1.569963065776163
 20
-0.0000000000031832
 30
0.0
 40
38.44999999999334
100
AcDbArc
 50
216.4104439858393
 51
219.0734269819018
  0
ARC
  5
1F2E
330
1DD0
100
AcDbEntity
  8
Visible Edges(ISO)
100
AcDbCircle
 10
-1.569963065765476
 20
0.000000000003979
 30
0.0
 40
38.45000000000656
100
AcDbArc
 50
204.7975407600365
 51
207.4605237561015
  0
ARC
  5
1F2F
330
1DD0
100
AcDbEntity
  8
Visible Edges(ISO)
100
AcDbCircle
 10
-1.569963065775255
 20
-0.0000000000001137
 30
0.0
 40
38.4499999999955
100
AcDbArc
 50
193.1846375342258
 51
195.847620530291
  0
ARC
  5
1F30
330
1DD0
100
AcDbEntity
  8
Visible Edges(ISO)
100
AcDbCircle
 10
-1.569963065757291
 20
0.000000000001819
 30
0.0
 40
38.45000000001356
100
AcDbArc
 50
181.571734308421
 51
184.2347173044822
  0
ARC
  5
1F31
330
1DD0
100
AcDbEntity
  8
Visible Edges(ISO)
100
AcDbCircle
 10
-1.5699630657773
 20
0.000000000001819
 30
0.0
 40
38.44999999999338
100
AcDbArc
 50
169.9588310826108
 51
172.6218140786815
  0
ARC
  5
1F32
330
1DD0
100
AcDbEntity
  8
Visible Edges(ISO)
100
AcDbCircle
 10
-1.569963065788215
 20
0.000000000007276
 30
0.0
 40
38.44999999998159
100
AcDbArc
 50
158.3459278568054
 51
161.0089108528749
  0
ARC
  5
1F33
330
1DD0
100
AcDbEntity
  8
Visible Edges(ISO)
100
AcDbCircle
 10
-1.569963065772299
 20
0.000000000001819
 30
0.0
 40
38.44999999999828
100
AcDbArc
 50
146.7330246309993
 51
149.3960076270678
  0
ARC
  5
1F34
330
1DD0
100
AcDbEntity
  8
Visible Edges(ISO)
100
AcDbCircle
 10
-1.569963065776163
 20
0.0000000000062528
 30
0.0
 40
38.4499999999924
100
AcDbArc
 50
135.1201214051881
 51
137.7831044012623
  0
ARC
  5
1F35
330
1DD0
100
AcDbEntity
  8
Visible Edges(ISO)
100
AcDbCircle
 10
-1.569963065778438
 20
0.000000000011255
 30
0.0
 40
38.44999999998741
100
AcDbArc
 50
123.5072181793938
 51
126.1702011754546
  0
ARC
  5
1F36
330
1DD0
100
AcDbEntity
  8
Visible Edges(ISO)
100
AcDbCircle
 10
-1.569963065773208
 20
0.0000000000067075
 30
0.0
 40
38.44999999999387
100
AcDbArc
 50
111.8943149535783
 51
114.5572979496505
  0
ARC
  5
1F37
330
1DD0
100
AcDbEntity
  8
Visible Edges(ISO)
100
AcDbCircle
 10
-1.569963065767296
 20
-0.0000000000133014
 30
0.0
 40
38.45000000001446
100
AcDbArc
 50
100.2814117277795
 51
102.944394723844
  0
ARC
  5
1F38
330
1DD0
100
AcDbEntity
  8
Visible Edges(ISO)
100
AcDbCircle
 10
-1.56996306576434
 20
-0.0000000000291038
 30
0.0
 40
35.95000000003091
100
AcDbArc
 50
100.5933073503546
 51
102.6324991012526
  0
ARC
  5
1F39
330
1DD0
100
AcDbEntity
  8
Visible Edges(ISO)
100
AcDbCircle
 10
-1.569963065770252
 20
0.0000000000007958
 30
0.0
 40
35.95000000000048
100
AcDbArc
 50
112.206210576164
 51
114.2454023270655
  0
ARC
  5
1F3A
330
1DD0
100
AcDbEntity
  8
Visible Edges(ISO)
100
AcDbCircle
 10
-1.569963065791398
 20
0.0000000000302407
 30
0.0
 40
35.94999999996435
100
AcDbArc
 50
123.8191138019613
 51
125.8583055528711
  0
ARC
  5
1F3B
330
1DD0
100
AcDbEntity
  8
Visible Edges(ISO)
100
AcDbCircle
 10
-1.569963065795263
 20
0.0000000000244427
 30
0.0
 40
35.94999999996614
100
AcDbArc
 50
135.4320170277747
 51
137.4712087786718
  0
ARC
  5
1F3C
330
1DD0
100
AcDbEntity
  8
Visible Edges(ISO)
100
AcDbCircle
 10
-1.569963065775255
 20
0.000000000003979
 30
0.0
 40
35.9499999999944
100
AcDbArc
 50
147.0449202535843
 51
149.0841120044865
  0
ARC
  5
1F3D
330
1DD0
100
AcDbEntity
  8
Visible Edges(ISO)
100
AcDbCircle
 10
-1.569963065762293
 20
-0.0000000000022737
 30
0.0
 40
35.950000000009
100
AcDbArc
 50
158.6578234793894
 51
160.6970152302841
  0
ARC
  5
1F3E
330
1DD0
100
AcDbEntity
  8
Visible Edges(ISO)
100
AcDbCircle
 10
-1.569963065755245
 20
-0.0000000000012506
 30
0.0
 40
35.9500000000159
100
AcDbArc
 50
170.270726705194
 51
172.3099184560921
  0
ARC
  5
1F3F
330
1DD0
100
AcDbEntity
  8
Visible Edges(ISO)
100
AcDbCircle
 10
-1.569963065745469
 20
0.00000000000216
 30
0.0
 40
35.9500000000249
100
AcDbArc
 50
181.8836299310016
 51
183.9228216818972
  0
ARC
  5
1F40
330
1DD0
100
AcDbEntity
  8
Visible Edges(ISO)
100
AcDbCircle
 10
-1.569963065761156
 20
0.0000000000032969
 30
0.0
 40
35.95000000000914
100
AcDbArc
 50
193.4965331568126
 51
195.5357249077041
  0
ARC
  5
1F41
330
1DD0
100
AcDbEntity
  8
Visible Edges(ISO)
100
AcDbCircle
 10
-1.569963065788215
 20
-0.0000000000078444
 30
0.0
 40
35.94999999998016
100
AcDbArc
 50
205.109436382615
 51
207.148628133516
  0
ARC
  5
1F42
330
1DD0
100
AcDbEntity
  8
Visible Edges(ISO)
100
AcDbCircle
 10
-1.5699630657773
 20
-0.0000000000043201
 30
0.0
 40
35.94999999999115
100
AcDbArc
 50
216.7223396084229
 51
218.7615313593256
  0
ARC
  5
1F43
330
1DD0
100
AcDbEntity
  8
Visible Edges(ISO)
100
AcDbCircle
 10
-1.569963065775255
 20
-0.0000000000045475
 30
0.0
 40
35.94999999999262
100
AcDbArc
 50
228.3352428342297
 51
230.374434585128
  0
ARC
  5
1F44
330
1DD0
100
AcDbEntity
  8
Visible Edges(ISO)
100
AcDbCircle
 10
-1.5699630657773
 20
-0.000000000011255
 30
0.0
 40
35.94999999998612
100
AcDbArc
 50
239.9481460600339
 51
241.9873378109366
  0
ARC
  5
1F45
330
1DD0
100
AcDbEntity
  8
Visible Edges(ISO)
100
AcDbCircle
 10
-1.569963065767296
 20
0.0000000000117097
 30
0.0
 40
35.95000000001125
100
AcDbArc
 50
251.5610492858364
 51
253.6002410367397
  0
ARC
  5
1F46
330
1DD0
100
AcDbEntity
  8
Visible Edges(ISO)
100
AcDbCircle
 10
-1.569963065768206
 20
0.0000000000262617
 30
0.0
 40
35.95000000002547
100
AcDbArc
 50
263.1739525116554
 51
265.213144262547
  0
ARC
  5
1F47
330
1DD0
100
AcDbEntity
  8
Visible Edges(ISO)
100
AcDbCircle
 10
-1.569963065770252
 20
-0.0000000000013642
 30
0.0
 40
35.94999999999757
100
AcDbArc
 50
274.786855737453
 51
276.8260474883446
  0
ARC
  5
1F48
330
1DD0
100
AcDbEntity
  8
Visible Edges(ISO)
100
AcDbCircle
 10
-1.569963065770252
 20
-0.0000000000001137
 30
0.0
 40
35.94999999999879
100
AcDbArc
 50
286.3997589632603
 51
288.4389507141636
  0
ARC
  5
1F49
330
1DD0
100
AcDbEntity
  8
Visible Edges(ISO)
100
AcDbCircle
 10
-1.569963065762293
 20
-0.0000000000143245
 30
0.0
 40
35.94999999998235
100
AcDbArc
 50
298.0126621890633
 51
300.0518539399661
  0
ARC
  5
1F4A
330
1DD0
100
AcDbEntity
  8
Visible Edges(ISO)
100
AcDbCircle
 10
-1.569963065759338
 20
-0.0000000000119371
 30
0.0
 40
35.94999999998285
100
AcDbArc
 50
309.6255654148718
 51
311.6647571657703
  0
ARC
  5
1F4B
330
1DD0
100
AcDbEntity
  8
Visible Edges(ISO)
100
AcDbCircle
 10
-1.569963065773208
 20
0.0000000000027285
 30
0.0
 40
35.95000000000285
100
AcDbArc
 50
321.2384686406744
 51
323.2776603915771
  0
ARC
  5
1F4C
330
1DD0
100
AcDbEntity
  8
Visible Edges(ISO)
100
AcDbCircle
 10
-1.569963065786395
 20
0.0000000000088676
 30
0.0
 40
35.95000000001734
100
AcDbArc
 50
332.851371866484
 51
334.8905636173851
  0
ARC
  5
1F4D
330
1DD0
100
AcDbEntity
  8
Visible Edges(ISO)
100
AcDbCircle
 10
-1.569963065788215
 20
0.0000000000056843
 30
0.0
 40
35.95000000001798
100
AcDbArc
 50
344.4642750922958
 51
346.5034668431874
  0
ARC
  5
1F4E
330
1DD0
100
AcDbEntity
  8
Visible Edges(ISO)
100
AcDbCircle
 10
-1.569963065765476
 20
0.0000000000007958
 30
0.0
 40
35.94999999999446
100
AcDbArc
 50
356.0771783181027
 51
358.1163700689984
  0
ARC
  5
1F4F
330
1DD0
100
AcDbEntity
  8
Visible Edges(ISO)
100
AcDbCircle
 10
-1.569963065773208
 20
0.0000000000004547
 30
0.0
 40
35.95000000000316
100
AcDbArc
 50
7.690081543907908
 51
9.729273294805825
  0
ARC
  5
1F50
330
1DD0
100
AcDbEntity
  8
Visible Edges(ISO)
100
AcDbCircle
 10
-1.569963065773208
 20
-0.0000000000001137
 30
0.0
 40
35.95000000000299
100
AcDbArc
 50
19.30298476971582
 51
21.34217652061062
  0
ARC
  5
1F51
330
1DD0
100
AcDbEntity
  8
Visible Edges(ISO)
100
AcDbCircle
 10
-1.569963065770252
 20
0.0000000000014779
 30
0.0
 40
35.94999999999922
100
AcDbArc
 50
30.91588799551352
 51
32.95507974641569
  0
ARC
  5
1F52
330
1DD0
100
AcDbEntity
  8
Visible Edges(ISO)
100
AcDbCircle
 10
-1.569963065806176
 20
-0.0000000000328555
 30
0.0
 40
35.95000000004934
100
AcDbArc
 50
42.52879122132817
 51
44.56798297222524
  0
ARC
  5
1F53
330
1DD0
100
AcDbEntity
  8
Visible Edges(ISO)
100
AcDbCircle
 10
-1.569963065775255
 20
-0.0000000000063665
 30
0.0
 40
35.95000000000908
100
AcDbArc
 50
54.14169444712888
 51
56.1808861980387
  0
ARC
  5
1F54
330
1DD0
100
AcDbEntity
  8
Visible Edges(ISO)
100
AcDbCircle
 10
-1.569963065779346
 20
-0.0000000000203499
 30
0.0
 40
35.95000000002339
100
AcDbArc
 50
65.75459767293441
 51
67.793789423836
  0
ARC
  5
1F55
330
1DD0
100
AcDbEntity
  8
Visible Edges(ISO)
100
AcDbCircle
 10
-1.569963065770252
 20
0.0000000000017053
 30
0.0
 40
35.94999999999944
100
AcDbArc
 50
77.36750089874738
 51
79.40669264964542
  0
ARC
  5
1F56
330
1DD0
100
AcDbEntity
  8
Visible Edges(ISO)
100
AcDbCircle
 10
-1.569963065780256
 20
0.000000000050818
 30
0.0
 40
33.44999999994916
100
AcDbArc
 50
100.9520004526902
 51
102.2738059989323
  0
ARC
  5
1F57
330
1DD0
100
AcDbEntity
  8
Visible Edges(ISO)
100
AcDbCircle
 10
-1.569963065743195
 20
-0.0000000000610498
 30
0.0
 40
33.45000000006741
100
AcDbArc
 50
112.5649036784831
 51
113.8867092247288
  0
ARC
  5
1F58
330
1DD0
100
AcDbEntity
  8
Visible Edges(ISO)
100
AcDbCircle
 10
-1.569963065784349
 20
0.0000000000205773
 30
0.0
 40
33.44999999997603
100
AcDbArc
 50
124.1778069042932
 51
125.4996124505501
  0
ARC
  5
1F59
330
1DD0
100
AcDbEntity
  8
Visible Edges(ISO)
100
AcDbCircle
 10
-1.569963065755245
 20
-0.0000000000146656
 30
0.0
 40
33.45000000002213
100
AcDbArc
 50
135.7907101301019
 51
137.1125156763548
  0
ARC
  5
1F5A
330
1DD0
100
AcDbEntity
  8
Visible Edges(ISO)
100
AcDbCircle
 10
-1.569963065783439
 20
0.0000000000088676
 30
0.0
 40
33.44999999998505
100
AcDbArc
 50
147.4036133559046
 51
148.7254189021615
  0
ARC
  5
1F5B
330
1DD0
100
AcDbEntity
  8
Visible Edges(ISO)
100
AcDbCircle
 10
-1.569963065800265
 20
0.0000000000121645
 30
0.0
 40
33.44999999996857
100
AcDbArc
 50
159.0165165817112
 51
160.3383221279619
  0
ARC
  5
1F5C
330
1DD0
100
AcDbEntity
  8
Visible Edges(ISO)
100
AcDbCircle
 10
-1.569963065702268
 20
-0.0000000000093223
 30
0.0
 40
33.45000000006943
100
AcDbArc
 50
170.6294198075253
 51
171.9512253537706
  0
ARC
  5
1F5D
330
1DD0
100
AcDbEntity
  8
Visible Edges(ISO)
100
AcDbCircle
 10
-1.569963065752289
 20
0.000000000001819
 30
0.0
 40
33.45000000001864
100
AcDbArc
 50
182.2423230333244
 51
183.5641285795735
  0
ARC
  5
1F5E
330
1DD0
100
AcDbEntity
  8
Visible Edges(ISO)
100
AcDbCircle
 10
-1.569963065767296
 20
0.000000000001819
 30
0.0
 40
33.4500000000031
100
AcDbArc
 50
193.8552262591306
 51
195.1770318053851
  0
ARC
  5
1F5F
330
1DD0
100
AcDbEntity
  8
Visible Edges(ISO)
100
AcDbCircle
 10
-1.569963065702268
 20
0.0000000000343334
 30
0.0
 40
33.45000000007568
100
AcDbArc
 50
205.4681294849372
 51
206.7899350311871
  0
ARC
  5
1F60
330
1DD0
100
AcDbEntity
  8
Visible Edges(ISO)
100
AcDbCircle
 10
-1.569963065722276
 20
0.0000000000379714
 30
0.0
 40
33.45000000006046
100
AcDbArc
 50
217.0810327107504
 51
218.4028382569886
  0
ARC
  5
1F61
330
1DD0
100
AcDbEntity
  8
Visible Edges(ISO)
100
AcDbCircle
 10
-1.569963065804358
 20
-0.0000000000381988
 30
0.0
 40
33.44999999994853
100
AcDbArc
 50
228.6939359365493
 51
230.0157414828092
  0
ARC
  5
1F62
330
1DD0
100
AcDbEntity
  8
Visible Edges(ISO)
100
AcDbCircle
 10
-1.569963065749334
 20
0.000000000039222
 30
0.0
 40
33.45000000004365
100
AcDbArc
 50
240.3068391623655
 51
241.6286447086113
  0
ARC
  5
1F63
330
1DD0
100
AcDbEntity
  8
Visible Edges(ISO)
100
AcDbCircle
 10
-1.569963065776163
 20
-0.0000000000161435
 30
0.0
 40
33.44999999998178
100
AcDbArc
 50
251.9197423881644
 51
253.2415479344161
  0
ARC
  5
1F64
330
1DD0
100
AcDbEntity
  8
Visible Edges(ISO)
100
AcDbCircle
 10
-1.569963065775255
 20
-0.0000000000451337
 30
0.0
 40
33.4499999999535
100
AcDbArc
 50
263.5326456139738
 51
264.8544511602194
  0
ARC
  5
1F65
330
1DD0
100
AcDbEntity
  8
Visible Edges(ISO)
100
AcDbCircle
 10
-1.569963065769343
 20
-0.0000000000102318
 30
0.0
 40
33.4499999999887
100
AcDbArc
 50
275.1455488397806
 51
276.4673543860261
  0
ARC
  5
1F66
330
1DD0
100
AcDbEntity
  8
Visible Edges(ISO)
100
AcDbCircle
 10
-1.5699630657773
 20
0.0000000000239879
 30
0.0
 40
33.45000000002402
100
AcDbArc
 50
286.758452065584
 51
288.0802576118356
  0
ARC
  5
1F67
330
1DD0
100
AcDbEntity
  8
Visible Edges(ISO)
100
AcDbCircle
 10
-1.569963065769343
 20
-0.0000000000022737
 30
0.0
 40
33.44999999999629
100
AcDbArc
 50
298.3713552913887
 51
299.6931608376345
  0
ARC
  5
1F68
330
1DD0
100
AcDbEntity
  8
Visible Edges(ISO)
100
AcDbCircle
 10
-1.569963065759338
 20
-0.0000000000117097
 30
0.0
 40
33.44999999998294
100
AcDbArc
 50
309.9842585171908
 51
311.3060640634507
  0
ARC
  5
1F69
330
1DD0
100
AcDbEntity
  8
Visible Edges(ISO)
100
AcDbCircle
 10
-1.569963065761156
 20
-0.0000000000063665
 30
0.0
 40
33.4499999999879
100
AcDbArc
 50
321.5971617430113
 51
322.9189672892549
  0
ARC
  5
1F6A
330
1DD0
100
AcDbEntity
  8
Visible Edges(ISO)
100
AcDbCircle
 10
-1.569963065748196
 20
-0.0000000000102318
 30
0.0
 40
33.44999999997522
100
AcDbArc
 50
333.2100649688129
 51
334.5318705150628
  0
ARC
  5
1F6B
330
1DD0
100
AcDbEntity
  8
Visible Edges(ISO)
100
AcDbCircle
 10
-1.569963065726368
 20
-0.0000000000105729
 30
0.0
 40
33.44999999995407
100
AcDbArc
 50
344.8229681946149
 51
346.1447737408694
  0
ARC
  5
1F6C
330
1DD0
100
AcDbEntity
  8
Visible Edges(ISO)
100
AcDbCircle
 10
-1.569963065801401
 20
0.0000000000026148
 30
0.0
 40
33.45000000003063
100
AcDbArc
 50
356.4358714204264
 51
357.7576769666692
  0
ARC
  5
1F6D
330
1DD0
100
AcDbEntity
  8
Visible Edges(ISO)
100
AcDbCircle
 10
-1.569963065735236
 20
0.0000000000061391
 30
0.0
 40
33.44999999996487
100
AcDbArc
 50
8.048774646229391
 51
9.370580192481019
  0
ARC
  5
1F6E
330
1DD0
100
AcDbEntity
  8
Visible Edges(ISO)
100
AcDbCircle
 10
-1.56996306582141
 20
-0.0000000000175078
 30
0.0
 40
33.45000000005418
100
AcDbArc
 50
19.66167787203804
 51
20.9834834182888
  0
ARC
  5
1F6F
330
1DD0
100
AcDbEntity
  8
Visible Edges(ISO)
100
AcDbCircle
 10
-1.569963065808224
 20
-0.0000000000227374
 30
0.0
 40
33.45000000004467
100
AcDbArc
 50
31.27458109784405
 51
32.59638664408985
  0
ARC
  5
1F70
330
1DD0
100
AcDbEntity
  8
Visible Edges(ISO)
100
AcDbCircle
 10
-1.569963065736373
 20
0.0000000000339924
 30
0.0
 40
33.44999999995244
100
AcDbArc
 50
42.88748432364513
 51
44.20928986989809
  0
ARC
  5
1F71
330
1DD0
100
AcDbEntity
  8
Visible Edges(ISO)
100
AcDbCircle
 10
-1.569963065807313
 20
-0.0000000000525233
 30
0.0
 40
33.45000000006507
100
AcDbArc
 50
54.50038754944992
 51
55.82219309570302
  0
ARC
  5
1F72
330
1DD0
100
AcDbEntity
  8
Visible Edges(ISO)
100
AcDbCircle
 10
-1.569963065768206
 20
0.0000000000067075
 30
0.0
 40
33.44999999999398
100
AcDbArc
 50
66.11329077527118
 51
67.43509632151682
  0
ARC
  5
1F73
330
1DD0
100
AcDbEntity
  8
Visible Edges(ISO)
100
AcDbCircle
 10
-1.569963065780256
 20
-0.00000000004718
 30
0.0
 40
33.45000000004915
100
AcDbArc
 50
77.72619400106771
 51
79.04799954730975
  0
ARC
  5
1F74
330
1DD0
100
AcDbEntity
  8
Visible Edges(ISO)
100
AcDbCircle
 10
-1.569963065773208
 20
-0.0000000000103455
 30
0.0
 40
35.95000000001172
100
AcDbArc
 50
77.36750089874738
 51
79.40669264964542
  0
ARC
  5
1F75
330
1DD0
100
AcDbEntity
  8
Visible Edges(ISO)
100
AcDbCircle
 10
-1.569963065765476
 20
0.0000000000129603
 30
0.0
 40
35.9499999999871
100
AcDbArc
 50
65.75459767293441
 51
67.793789423836
  0
ARC
  5
1F76
330
1DD0
100
AcDbEntity
  8
Visible Edges(ISO)
100
AcDbCircle
 10
-1.569963065761156
 20
0.000000000014893
 30
0.0
 40
35.94999999998311
100
AcDbArc
 50
54.14169444712888
 51
56.1808861980387
  0
ARC
  5
1F77
330
1DD0
100
AcDbEntity
  8
Visible Edges(ISO)
100
AcDbCircle
 10
-1.569963065780256
 20
-0.0000000000080718
 30
0.0
 40
35.95000000001314
100
AcDbArc
 50
42.52879122132817
 51
44.56798297222524
  0
ARC
  5
1F78
330
1DD0
100
AcDbEntity
  8
Visible Edges(ISO)
100
AcDbCircle
 10
-1.569963065750243
 20
0.0000000000137561
 30
0.0
 40
35.94999999997597
100
AcDbArc
 50
30.91588799551352
 51
32.95507974641569
  0
ARC
  5
1F79
330
1DD0
100
AcDbEntity
  8
Visible Edges(ISO)
100
AcDbCircle
 10
-1.569963065791398
 20
-0.0000000000063665
 30
0.0
 40
35.95000000002168
100
AcDbArc
 50
19.30298476971582
 51
21.34217652061062
  0
ARC
  5
1F7A
330
1DD0
100
AcDbEntity
  8
Visible Edges(ISO)
100
AcDbCircle
 10
-1.569963065791398
 20
-0.0000000000022737
 30
0.0
 40
35.95000000002097
100
AcDbArc
 50
7.690081543907908
 51
9.729273294805825
  0
ARC
  5
1F7B
330
1DD0
100
AcDbEntity
  8
Visible Edges(ISO)
100
AcDbCircle
 10
-1.569963065761156
 20
0.0000000000004547
 30
0.0
 40
35.9499999999906
100
AcDbArc
 50
356.0771783181027
 51
358.1163700689984
  0
ARC
  5
1F7C
330
1DD0
100
AcDbEntity
  8
Visible Edges(ISO)
100
AcDbCircle
 10
-1.569963065795263
 20
0.000000000007617
 30
0.0
 40
35.95000000002575
100
AcDbArc
 50
344.4642750922958
 51
346.5034668431874
  0
ARC
  5
1F7D
330
1DD0
100
AcDbEntity
  8
Visible Edges(ISO)
100
AcDbCircle
 10
-1.569963065769343
 20
0.0000000000003411
 30
0.0
 40
35.9499999999983
100
AcDbArc
 50
332.851371866484
 51
334.8905636173851
  0
ARC
  5
1F7E
330
1DD0
100
AcDbEntity
  8
Visible Edges(ISO)
100
AcDbCircle
 10
-1.569963065783439
 20
0.0000000000105729
 30
0.0
 40
35.95000000001558
100
AcDbArc
 50
321.2384686406744
 51
323.2776603915771
  0
ARC
  5
1F7F
330
1DD0
100
AcDbEntity
  8
Visible Edges(ISO)
100
AcDbCircle
 10
-1.569963065755245
 20
-0.0000000000173941
 30
0.0
 40
35.94999999997563
100
AcDbArc
 50
309.6255654148718
 51
311.6647571657703
  0
ARC
  5
1F80
330
1DD0
100
AcDbEntity
  8
Visible Edges(ISO)
100
AcDbCircle
 10
-1.569963065778438
 20
0.0000000000143245
 30
0.0
 40
35.95000000001504
100
AcDbArc
 50
298.0126621890633
 51
300.0518539399661
  0
ARC
  5
1F81
330
1DD0
100
AcDbEntity
  8
Visible Edges(ISO)
100
AcDbCircle
 10
-1.569963065772299
 20
0.0000000000059117
 30
0.0
 40
35.95000000000508
100
AcDbArc
 50
286.3997589632603
 51
288.4389507141636
  0
ARC
  5
1F82
330
1DD0
100
AcDbEntity
  8
Visible Edges(ISO)
100
AcDbCircle
 10
-1.569963065769343
 20
-0.0000000000133014
 30
0.0
 40
35.94999999998578
100
AcDbArc
 50
274.786855737453
 51
276.8260474883446
  0
ARC
  5
1F83
330
1DD0
100
AcDbEntity
  8
Visible Edges(ISO)
100
AcDbCircle
 10
-1.569963065769343
 20
0.0000000000123919
 30
0.0
 40
35.95000000001141
100
AcDbArc
 50
263.1739525116554
 51
265.213144262547
  0
ARC
  5
1F84
330
1DD0
100
AcDbEntity
  8
Visible Edges(ISO)
100
AcDbCircle
 10
-1.569963065765476
 20
0.0000000000192131
 30
0.0
 40
35.95000000001911
100
AcDbArc
 50
251.5610492858364
 51
253.6002410367397
  0
ARC
  5
1F85
330
1DD0
100
AcDbEntity
  8
Visible Edges(ISO)
100
AcDbCircle
 10
-1.569963065757291
 20
0.0000000000245564
 30
0.0
 40
35.95000000002679
100
AcDbArc
 50
239.9481460600339
 51
241.9873378109366
  0
ARC
  5
1F86
330
1DD0
100
AcDbEntity
  8
Visible Edges(ISO)
100
AcDbCircle
 10
-1.569963065794354
 20
-0.0000000000268301
 30
0.0
 40
35.94999999996328
100
AcDbArc
 50
228.3352428342297
 51
230.374434585128
  0
ARC
  5
1F87
330
1DD0
100
AcDbEntity
  8
Visible Edges(ISO)
100
AcDbCircle
 10
-1.569963065766387
 20
0.000000000003979
 30
0.0
 40
35.95000000000496
100
AcDbArc
 50
216.7223396084229
 51
218.7615313593256
  0
ARC
  5
1F88
330
1DD0
100
AcDbEntity
  8
Visible Edges(ISO)
100
AcDbCircle
 10
-1.569963065766387
 20
0.0000000000032969
 30
0.0
 40
35.95000000000503
100
AcDbArc
 50
205.109436382615
 51
207.148628133516
  0
ARC
  5
1F89
330
1DD0
100
AcDbEntity
  8
Visible Edges(ISO)
100
AcDbCircle
 10
-1.56996306575138
 20
0.0000000000059117
 30
0.0
 40
35.95000000001964
100
AcDbArc
 50
193.4965331568126
 51
195.5357249077041
  0
ARC
  5
1F8A
330
1DD0
100
AcDbEntity
  8
Visible Edges(ISO)
100
AcDbCircle
 10
-1.569963065757291
 20
0.0000000000014779
 30
0.0
 40
35.95000000001301
100
AcDbArc
 50
181.8836299310016
 51
183.9228216818972
  0
ARC
  5
1F8B
330
1DD0
100
AcDbEntity
  8
Visible Edges(ISO)
100
AcDbCircle
 10
-1.569963065771389
 20
0.0000000000012506
 30
0.0
 40
35.94999999999914
100
AcDbArc
 50
170.270726705194
 51
172.3099184560921
  0
ARC
  5
1F8C
330
1DD0
100
AcDbEntity
  8
Visible Edges(ISO)
100
AcDbCircle
 10
-1.569963065771389
 20
0.0000000000014779
 30
0.0
 40
35.94999999999899
100
AcDbArc
 50
158.6578234793894
 51
160.6970152302841
  0
ARC
  5
1F8D
330
1DD0
100
AcDbEntity
  8
Visible Edges(ISO)
100
AcDbCircle
 10
-1.56996306576343
 20
-0.0000000000031832
 30
0.0
 40
35.95000000000843
100
AcDbArc
 50
147.0449202535843
 51
149.0841120044865
  0
ARC
  5
1F8E
330
1DD0
100
AcDbEntity
  8
Visible Edges(ISO)
100
AcDbCircle
 10
-1.569963065762293
 20
-0.0000000000063665
 30
0.0
 40
35.95000000001097
100
AcDbArc
 50
135.4320170277747
 51
137.4712087786718
  0
ARC
  5
1F8F
330
1DD0
100
AcDbEntity
  8
Visible Edges(ISO)
100
AcDbCircle
 10
-1.56996306576434
 20
-0.0000000000082991
 30
0.0
 40
35.95000000001127
100
AcDbArc
 50
123.8191138019613
 51
125.8583055528711
  0
ARC
  5
1F90
330
1DD0
100
AcDbEntity
  8
Visible Edges(ISO)
100
AcDbCircle
 10
-1.569963065782303
 20
0.0000000000285354
 30
0.0
 40
35.94999999997011
100
AcDbArc
 50
112.206210576164
 51
114.2454023270655
  0
ARC
  5
1F91
330
1DD0
100
AcDbEntity
  8
Visible Edges(ISO)
100
AcDbCircle
 10
-1.569963065766387
 20
-0.0000000000222826
 30
0.0
 40
35.95000000002396
100
AcDbArc
 50
100.5933073503546
 51
102.6324991012526
  0
CIRCLE
  5
1F92
330
1DD0
100
AcDbEntity
  8
Sketch Geometry(ISO)
100
AcDbCircle
 10
-1.569963065769343
 20
-0.0000000000001137
 30
0.0
 40
30.15000000000001
  0
CIRCLE
  5
1F93
330
1DD0
100
AcDbEntity
  8
Sketch Geometry(ISO)
100
AcDbCircle
 10
-1.569963065769343
 20
-0.0000000000001137
 30
0.0
 40
31.0
  0
LINE
  5
1F94
330
1DD0
100
AcDbEntity
  8
AM_5
100
AcDbLine
 10
34.82696361326361
 20
58.0302828557734
 30
0.0
 11
36.15531860154965
 21
60.14817639065586
 31
0.0
  0
LINE
  5
1F95
330
1DD0
100
AcDbEntity
  8
AM_5
100
AcDbLine
 10
36.15531860154965
 20
60.14817639065586
 30
0.0
 11
44.47894064879371
 21
60.14817639065586
 31
0.0
  0
SOLID
  5
1F96
330
1DD0
100
AcDbEntity
  8
AM_5
100
AcDbTrace
 10
34.47398135744972
 20
58.25167535382104
 30
0.0
 11
35.17994586907753
 21
57.80889035772577
 31
0.0
 12
33.49860862497781
 22
55.9123893208914
 32
0.0
 13
33.49860862497781
 23
55.9123893208914
 33
0.0
  0
MTEXT
  5
1F97
330
1DD0
100
AcDbEntity
  8
AM_5
 62
     2
100
AcDbMText
 10
41.06712962517167
 20
63.39817639065586
 30
0.0
 40
3.5
 41
0.0
 71
     5
 72
     1
  1
%%C66
 73
     1
 44
1.0
1001
ACAD
1000
MTEXTBEGIN
1070
    73
1070
     1
1070
    44
1040
1.0
1070
    74
1070
     0
1000
MTEXTEND
  0
LINE
  5
1F98
330
1DD0
100
AcDbEntity
  8
AM_5
100
AcDbLine
 10
-29.21996306577034
 20
-0.0000000000001137
 30
0.0
 11
26.08003693423075
 21
-0.0000000000001137
 31
0.0
  0
SOLID
  5
1F99
330
1DD0
100
AcDbEntity
  8
AM_5
100
AcDbTrace
 10
-29.21996306577034
 20
0.4166666666667426
 30
0.0
 11
-29.21996306577034
 21
-0.4166666666667426
 31
0.0
 12
-31.71996306577034
 22
-0.0000000000001137
 32
0.0
 13
-31.71996306577034
 23
-0.0000000000001137
 33
0.0
  0
SOLID
  5
1F9A
330
1DD0
100
AcDbEntity
  8
AM_5
100
AcDbTrace
 10
26.08003693423075
 20
0.4166666666667426
 30
0.0
 11
26.08003693423075
 21
-0.4166666666667426
 31
0.0
 12
28.58003693423075
 22
-0.0000000000001137
 32
0.0
 13
28.58003693423075
 23
-0.0000000000001137
 33
0.0
  0
MTEXT
  5
1F9B
330
1DD0
100
AcDbEntity
  8
AM_5
 62
     2
100
AcDbMText
 10
-1.569963065769343
 20
3.250344488189056
 30
0.0
 40
3.5
 41
0.0
 71
     5
 72
     1
  1
%%C20
 73
     1
 44
1.0
1001
ACAD
1000
MTEXTBEGIN
1070
    73
1070
     1
1070
    44
1040
1.0
1070
    74
1070
     0
1000
MTEXTEND
  0
ENDBLK
  5
1DD2
330
1DD0
100
AcDbEntity
  8
0
100
AcDbBlockEnd
  0
BLOCK
  5
228D
330
228C
100
AcDbEntity
  8
0
100
AcDbBlockBegin
  2
Sleev-IT_FC20
 70
     0
 10
0.0
 20
0.0
 30
0.0
  3
Sleev-IT_FC20
  1

  0
LINE
  5
228F
330
228C
100
AcDbEntity
  8
Visible Edges(ISO)
100
AcDbLine
 10
0.1516100114170058
 20
31.14445399111025
 30
0.0
 11
1.152174488786158
 21
40.98380770435165
 31
0.0
  0
LINE
  5
2290
330
228C
100
AcDbEntity
  8
Visible Edges(ISO)
100
AcDbLine
 10
7.121390429137136
 20
40.37679777242738
 30
0.0
 11
6.12082595176912
 21
30.53744405918564
 31
0.0
  0
LINE
  5
2291
330
228C
100
AcDbEntity
  8
Visible Edges(ISO)
100
AcDbLine
 10
6.12082595176912
 20
30.53744405918564
 30
0.0
 11
0.1516100114170058
 21
31.14445399111025
 31
0.0
  0
ARC
  5
2292
330
228C
100
AcDbEntity
  8
Visible Edges(ISO)
100
AcDbCircle
 10
-0.0000000000168257
 20
-0.0000000000030695
 30
0.0
 40
41.00000000000235
100
AcDbArc
 50
79.99742427012474
 51
88.38967250407916
  0
LINE
  5
2293
330
228C
100
AcDbEntity
  8
Visible Edges(ISO)
100
AcDbLine
 10
6.417839042957211
 20
30.47640631732099
 30
0.0
 11
9.378569247797031
 21
39.91293573346729
 31
0.0
  0
LINE
  5
2294
330
228C
100
AcDbEntity
  8
Visible Edges(ISO)
100
AcDbLine
 10
15.10340478619719
 20
38.11675699562716
 30
0.0
 11
12.14267458135714
 21
28.68022757948074
 31
0.0
  0
LINE
  5
2295
330
228C
100
AcDbEntity
  8
Visible Edges(ISO)
100
AcDbLine
 10
12.14267458135714
 20
28.68022757948074
 30
0.0
 11
6.417839042957211
 21
30.47640631732099
 31
0.0
  0
ARC
  5
2296
330
228C
100
AcDbEntity
  8
Visible Edges(ISO)
100
AcDbCircle
 10
-0.0000000000168257
 20
-0.0000000000001137
 30
0.0
 40
40.99999999999932
100
AcDbArc
 50
68.38452104431199
 51
76.77676927826436
  0
LINE
  5
2297
330
228C
100
AcDbEntity
  8
Visible Edges(ISO)
100
AcDbLine
 10
12.4213209900131
 20
28.56065098807448
 30
0.0
 11
17.22100427986811
 21
37.20802348408381
 31
0.0
  0
LINE
  5
2298
330
228C
100
AcDbEntity
  8
Visible Edges(ISO)
100
AcDbLine
 10
22.46708397673501
 20
34.29621170889743
 30
0.0
 11
17.66740068688022
 21
25.64883921288788
 31
0.0
  0
LINE
  5
2299
330
228C
100
AcDbEntity
  8
Visible Edges(ISO)
100
AcDbLine
 10
17.66740068688022
 20
25.64883921288788
 30
0.0
 11
12.4213209900131
 21
28.56065098807448
 31
0.0
  0
ARC
  5
229A
330
228C
100
AcDbEntity
  8
Visible Edges(ISO)
100
AcDbCircle
 10
-0.0000000000179625
 20
-0.0000000000019327
 30
0.0
 40
41.00000000000109
100
AcDbArc
 50
56.77161781850394
 51
65.1638660524568
  0
LINE
  5
229B
330
228C
100
AcDbEntity
  8
Visible Edges(ISO)
100
AcDbLine
 10
17.91627259629308
 20
25.47561925164246
 30
0.0
 11
24.35840937333819
 21
32.97981038150453
 31
0.0
  0
LINE
  5
229C
330
228C
100
AcDbEntity
  8
Visible Edges(ISO)
100
AcDbLine
 10
28.91095810949423
 20
29.07157548517137
 30
0.0
 11
22.46882133245003
 21
21.56738435530917
 31
0.0
  0
LINE
  5
229D
330
228C
100
AcDbEntity
  8
Visible Edges(ISO)
100
AcDbLine
 10
22.46882133245003
 20
21.56738435530917
 30
0.0
 11
17.91627259629308
 21
25.47561925164246
 31
0.0
  0
ARC
  5
229E
330
228C
100
AcDbEntity
  8
Visible Edges(ISO)
100
AcDbCircle
 10
-0.000000000018872
 20
-0.00000000000216
 30
0.0
 40
41.00000000000187
100
AcDbArc
 50
45.15871459269923
 51
53.5509628266615
  0
LINE
  5
229F
330
228C
100
AcDbEntity
  8
Visible Edges(ISO)
100
AcDbLine
 10
22.6777298974082
 20
21.3476126697899
 30
0.0
 11
30.4985783250711
 21
27.40139996694348
 31
0.0
  0
LINE
  5
22A0
330
228C
100
AcDbEntity
  8
Visible Edges(ISO)
100
AcDbLine
 10
34.17121422035712
 20
22.65674554531734
 30
0.0
 11
26.35036579269399
 21
16.60295824816376
 31
0.0
  0
LINE
  5
22A1
330
228C
100
AcDbEntity
  8
Visible Edges(ISO)
100
AcDbLine
 10
26.35036579269399
 20
16.60295824816376
 30
0.0
 11
22.6777298974082
 21
21.3476126697899
 31
0.0
  0
ARC
  5
22A2
330
228C
100
AcDbEntity
  8
Visible Edges(ISO)
100
AcDbCircle
 10
-0.0000000000168257
 20
-0.0000000000005684
 30
0.0
 40
40.9999999999995
100
AcDbArc
 50
33.54581136689417
 51
41.93805960085831
  0
LINE
  5
22A3
330
228C
100
AcDbEntity
  8
Visible Edges(ISO)
100
AcDbLine
 10
26.51075827200316
 20
16.34563231699815
 30
0.0
 11
35.39013189674392
 21
20.70117301820801
 31
0.0
  0
LINE
  5
22A4
330
228C
100
AcDbEntity
  8
Visible Edges(ISO)
100
AcDbLine
 10
38.03249680608997
 20
15.31434578078335
 30
0.0
 11
29.1531231813492
 21
10.95880507957372
 31
0.0
  0
LINE
  5
22A5
330
228C
100
AcDbEntity
  8
Visible Edges(ISO)
100
AcDbLine
 10
29.1531231813492
 20
10.95880507957372
 30
0.0
 11
26.51075827200316
 21
16.34563231699815
 31
0.0
  0
ARC
  5
22A6
330
228C
100
AcDbEntity
  8
Visible Edges(ISO)
100
AcDbCircle
 10
-0.0000000000179625
 20
-0.0000000000010232
 30
0.0
 40
41.00000000000028
100
AcDbArc
 50
21.93290814108733
 51
30.3251563750376
  0
LINE
  5
22A7
330
228C
100
AcDbEntity
  8
Visible Edges(ISO)
100
AcDbLine
 10
29.25843308805907
 20
10.67445985661823
 30
0.0
 11
38.83280931040008
 21
13.15343761382235
 31
0.0
  0
LINE
  5
22A8
330
228C
100
AcDbEntity
  8
Visible Edges(ISO)
100
AcDbLine
 10
40.33672450395306
 20
7.344974900624947
 30
0.0
 11
30.76234828161114
 21
4.865997143421054
 31
0.0
  0
LINE
  5
22A9
330
228C
100
AcDbEntity
  8
Visible Edges(ISO)
100
AcDbLine
 10
30.76234828161114
 20
4.865997143421054
 30
0.0
 11
29.25843308805907
 21
10.67445985661823
 31
0.0
  0
ARC
  5
22AA
330
228C
100
AcDbEntity
  8
Visible Edges(ISO)
100
AcDbCircle
 10
-0.0000000000197815
 20
-0.0000000000014779
 30
0.0
 40
41.0000000000027
100
AcDbArc
 50
10.32000491528323
 51
18.71225314923426
  0
LINE
  5
22AB
330
228C
100
AcDbEntity
  8
Visible Edges(ISO)
100
AcDbLine
 10
30.80826421576921
 20
4.566273755512384
 30
0.0
 11
40.6856669482272
 21
5.067198928063476
 31
0.0
  0
LINE
  5
22AC
330
228C
100
AcDbEntity
  8
Visible Edges(ISO)
100
AcDbLine
 10
40.98956196125913
 20
-0.9251001149631292
 30
0.0
 11
31.11215922880206
 21
-1.426025287513766
 31
0.0
  0
LINE
  5
22AD
330
228C
100
AcDbEntity
  8
Visible Edges(ISO)
100
AcDbLine
 10
31.11215922880206
 20
-1.426025287513766
 30
0.0
 11
30.80826421576921
 21
4.566273755512384
 31
0.0
  0
ARC
  5
22AE
330
228C
100
AcDbEntity
  8
Visible Edges(ISO)
100
AcDbCircle
 10
-0.0000000000197815
 20
-0.0000000000007958
 30
0.0
 40
41.00000000000227
100
AcDbArc
 50
358.7071016894753
 51
7.099349923427495
  0
LINE
  5
22AF
330
228C
100
AcDbEntity
  8
Visible Edges(ISO)
100
AcDbLine
 10
31.09680138666795
 20
-1.728856129658311
 30
0.0
 11
40.872848600829
 21
-3.22649147718107
 31
0.0
  0
LINE
  5
22B0
330
228C
100
AcDbEntity
  8
Visible Edges(ISO)
100
AcDbLine
 10
39.96428193580096
 20
-9.157301423149533
 30
0.0
 11
30.18823472164013
 21
-7.659666075627001
 31
0.0
  0
LINE
  5
22B1
330
228C
100
AcDbEntity
  8
Visible Edges(ISO)
100
AcDbLine
 10
30.18823472164013
 20
-7.659666075627001
 30
0.0
 11
31.09680138666795
 21
-1.728856129658311
 31
0.0
  0
ARC
  5
22B2
330
228C
100
AcDbEntity
  8
Visible Edges(ISO)
100
AcDbCircle
 10
-0.0000000000179625
 20
-0.0000000000005684
 30
0.0
 40
41.00000000000028
100
AcDbArc
 50
347.094198463667
 51
355.4864466976239
  0
LINE
  5
22B3
330
228C
100
AcDbEntity
  8
Visible Edges(ISO)
100
AcDbLine
 10
30.1122318550772
 20
-7.953206441749102
 30
0.0
 11
39.38669102935705
 21
-11.3880889422528
 31
0.0
  0
LINE
  5
22B4
330
228C
100
AcDbEntity
  8
Visible Edges(ISO)
100
AcDbLine
 10
37.30285951228825
 20
-17.01460173513544
 30
0.0
 11
28.02840033800817
 21
-13.57971923463151
 31
0.0
  0
LINE
  5
22B5
330
228C
100
AcDbEntity
  8
Visible Edges(ISO)
100
AcDbLine
 10
28.02840033800817
 20
-13.57971923463151
 30
0.0
 11
30.1122318550772
 21
-7.953206441749102
 31
0.0
  0
ARC
  5
22B6
330
228C
100
AcDbEntity
  8
Visible Edges(ISO)
100
AcDbCircle
 10
-0.000000000018872
 20
-0.0000000000003411
 30
0.0
 40
41.00000000000131
100
AcDbArc
 50
335.4812952378602
 51
343.873543471814
  0
LINE
  5
22B7
330
228C
100
AcDbEntity
  8
Visible Edges(ISO)
100
AcDbLine
 10
27.894864013301
 20
-13.85195154765256
 30
0.0
 11
36.28803769940214
 21
-19.08345670798553
 31
0.0
  0
LINE
  5
22B8
330
228C
100
AcDbEntity
  8
Visible Edges(ISO)
100
AcDbLine
 10
33.11425363744024
 20
-24.17532225295406
 30
0.0
 11
24.72107995133911
 21
-18.94381709262086
 31
0.0
  0
LINE
  5
22B9
330
228C
100
AcDbEntity
  8
Visible Edges(ISO)
100
AcDbLine
 10
24.72107995133911
 20
-18.94381709262086
 30
0.0
 11
27.894864013301
 21
-13.85195154765256
 31
0.0
  0
ARC
  5
22BA
330
228C
100
AcDbEntity
  8
Visible Edges(ISO)
100
AcDbCircle
 10
-0.0000000000168257
 20
-0.0000000000010232
 30
0.0
 40
40.9999999999996
100
AcDbArc
 50
323.8683920120504
 51
332.2606402460089
  0
LINE
  5
22BB
330
228C
100
AcDbEntity
  8
Visible Edges(ISO)
100
AcDbLine
 10
24.53547716131197
 20
-19.18359612965969
 30
0.0
 11
31.70374784237015
 21
-25.99754551388196
 31
0.0
  0
LINE
  5
22BC
330
228C
100
AcDbEntity
  8
Visible Edges(ISO)
100
AcDbLine
 10
27.56994632791612
 20
-30.34630223725674
 30
0.0
 11
20.40167564685817
 21
-23.53235285303435
 31
0.0
  0
LINE
  5
22BD
330
228C
100
AcDbEntity
  8
Visible Edges(ISO)
100
AcDbLine
 10
20.40167564685817
 20
-23.53235285303435
 30
0.0
 11
24.53547716131197
 21
-19.18359612965969
 31
0.0
  0
ARC
  5
22BE
330
228C
100
AcDbEntity
  8
Visible Edges(ISO)
100
AcDbCircle
 10
-0.0000000000179625
 20
0.0
 30
0.0
 40
41.00000000000108
100
AcDbArc
 50
312.2554887862473
 51
320.6477370202039
  0
LINE
  5
22BF
330
228C
100
AcDbEntity
  8
Visible Edges(ISO)
100
AcDbLine
 10
20.17160499154306
 20
-23.72986203214191
 30
0.0
 11
25.82150282363818
 21
-31.84729175185851
 31
0.0
  0
LINE
  5
22C0
330
228C
100
AcDbEntity
  8
Visible Edges(ISO)
100
AcDbLine
 10
20.89692217639413
 20
-35.27490104242736
 30
0.0
 11
15.247024344299
 21
-27.15747132271076
 31
0.0
  0
LINE
  5
22C1
330
228C
100
AcDbEntity
  8
Visible Edges(ISO)
100
AcDbLine
 10
15.247024344299
 20
-27.15747132271076
 30
0.0
 11
20.17160499154306
 21
-23.72986203214191
 31
0.0
  0
ARC
  5
22C2
330
228C
100
AcDbEntity
  8
Visible Edges(ISO)
100
AcDbCircle
 10
-0.0000000000179625
 20
0.0000000000004547
 30
0.0
 40
41.00000000000154
100
AcDbArc
 50
300.6425855604415
 51
309.0348337943972
  0
LINE
  5
22C3
330
228C
100
AcDbEntity
  8
Visible Edges(ISO)
100
AcDbLine
 10
14.98190494335608
 20
-27.30462459488797
 30
0.0
 11
18.88212244540818
 21
-36.39320612361598
 31
0.0
  0
LINE
  5
22C4
330
228C
100
AcDbEntity
  8
Visible Edges(ISO)
100
AcDbLine
 10
13.36837557568719
 20
-38.75934125429615
 30
0.0
 11
9.468158073635095
 21
-29.67075972556779
 31
0.0
  0
LINE
  5
22C5
330
228C
100
AcDbEntity
  8
Visible Edges(ISO)
100
AcDbLine
 10
9.468158073635095
 20
-29.67075972556779
 30
0.0
 11
14.98190494335608
 21
-27.30462459488797
 31
0.0
  0
ARC
  5
22C6
330
228C
100
AcDbEntity
  8
Visible Edges(ISO)
100
AcDbCircle
 10
-0.0000000000179625
 20
-0.0000000000001137
 30
0.0
 40
41.00000000000075
100
AcDbArc
 50
289.0296823346369
 51
297.4219305685953
  0
LINE
  5
22C7
330
228C
100
AcDbEntity
  8
Visible Edges(ISO)
100
AcDbLine
 10
9.178843946488996
 20
-29.76153261856211
 30
0.0
 11
11.16970575570803
 21
-39.44917836065258
 31
0.0
  0
LINE
  5
22C8
330
228C
100
AcDbEntity
  8
Visible Edges(ISO)
100
AcDbLine
 10
5.292526108193214
 20
-40.65696948118466
 30
0.0
 11
3.301664298974174
 21
-30.96932373909408
 31
0.0
  0
LINE
  5
22C9
330
228C
100
AcDbEntity
  8
Visible Edges(ISO)
100
AcDbLine
 10
3.301664298974174
 20
-30.96932373909408
 30
0.0
 11
9.178843946488996
 21
-29.76153261856211
 31
0.0
  0
ARC
  5
22CA
330
228C
100
AcDbEntity
  8
Visible Edges(ISO)
100
AcDbCircle
 10
-0.0000000000179625
 20
0.0000000000007958
 30
0.0
 40
41.00000000000152
100
AcDbArc
 50
277.416779108828
 51
285.8090273427953
  0
LINE
  5
22CB
330
228C
100
AcDbEntity
  8
Visible Edges(ISO)
100
AcDbLine
 10
2.999999999983174
 20
-31.0000000000008
 30
0.0
 11
2.999999999983174
 21
-40.89009660052261
 31
0.0
  0
LINE
  5
22CC
330
228C
100
AcDbEntity
  8
Visible Edges(ISO)
100
AcDbLine
 10
-3.000000000016825
 20
-40.89009660052261
 30
0.0
 11
-3.000000000016825
 21
-31.0000000000008
 31
0.0
  0
LINE
  5
22CD
330
228C
100
AcDbEntity
  8
Visible Edges(ISO)
100
AcDbLine
 10
-3.000000000016825
 20
-31.0000000000008
 30
0.0
 11
2.999999999983174
 21
-31.0000000000008
 31
0.0
  0
ARC
  5
22CE
330
228C
100
AcDbEntity
  8
Visible Edges(ISO)
100
AcDbCircle
 10
-0.0000000000168257
 20
0.0000000000007958
 30
0.0
 40
41.00000000000149
100
AcDbArc
 50
265.8038758830117
 51
274.1961241169883
  0
LINE
  5
22CF
330
228C
100
AcDbEntity
  8
Visible Edges(ISO)
100
AcDbLine
 10
-3.301664299007825
 20
-30.96932373909408
 30
0.0
 11
-5.292526108226866
 21
-40.65696948118454
 31
0.0
  0
LINE
  5
22D0
330
228C
100
AcDbEntity
  8
Visible Edges(ISO)
100
AcDbLine
 10
-11.16970575574191
 20
-39.44917836065258
 30
0.0
 11
-9.178843946522874
 21
-29.76153261856211
 31
0.0
  0
LINE
  5
22D1
330
228C
100
AcDbEntity
  8
Visible Edges(ISO)
100
AcDbLine
 10
-9.178843946522874
 20
-29.76153261856211
 30
0.0
 11
-3.301664299007825
 21
-30.96932373909408
 31
0.0
  0
ARC
  5
22D2
330
228C
100
AcDbEntity
  8
Visible Edges(ISO)
100
AcDbCircle
 10
-0.0000000000168257
 20
0.0
 30
0.0
 40
41.00000000000076
100
AcDbArc
 50
254.1909726572047
 51
262.5832208911719
  0
LINE
  5
22D3
330
228C
100
AcDbEntity
  8
Visible Edges(ISO)
100
AcDbLine
 10
-9.468158073669883
 20
-29.67075972556791
 30
0.0
 11
-13.36837557572198
 21
-38.75934125429615
 31
0.0
  0
LINE
  5
22D4
330
228C
100
AcDbEntity
  8
Visible Edges(ISO)
100
AcDbLine
 10
-18.88212244544297
 20
-36.39320612361598
 30
0.0
 11
-14.98190494339087
 21
-27.30462459488797
 31
0.0
  0
LINE
  5
22D5
330
228C
100
AcDbEntity
  8
Visible Edges(ISO)
100
AcDbLine
 10
-14.98190494339087
 20
-27.30462459488797
 30
0.0
 11
-9.468158073669883
 21
-29.67075972556791
 31
0.0
  0
ARC
  5
22D6
330
228C
100
AcDbEntity
  8
Visible Edges(ISO)
100
AcDbCircle
 10
-0.0000000000168257
 20
0.0
 30
0.0
 40
41.00000000000096
100
AcDbArc
 50
242.5780694314048
 51
250.9703176653632
  0
LINE
  5
22D7
330
228C
100
AcDbEntity
  8
Visible Edges(ISO)
100
AcDbLine
 10
-15.24702434433379
 20
-27.15747132271076
 30
0.0
 11
-20.89692217642892
 21
-35.27490104242736
 31
0.0
  0
LINE
  5
22D8
330
228C
100
AcDbEntity
  8
Visible Edges(ISO)
100
AcDbLine
 10
-25.82150282367275
 20
-31.84729175185851
 30
0.0
 11
-20.17160499157785
 21
-23.72986203214191
 31
0.0
  0
LINE
  5
22D9
330
228C
100
AcDbEntity
  8
Visible Edges(ISO)
100
AcDbLine
 10
-20.17160499157785
 20
-23.72986203214191
 30
0.0
 11
-15.24702434433379
 21
-27.15747132271076
 31
0.0
  0
ARC
  5
22DA
330
228C
100
AcDbEntity
  8
Visible Edges(ISO)
100
AcDbCircle
 10
-0.0000000000168257
 20
-0.0000000000005684
 30
0.0
 40
41.0000000000002
100
AcDbArc
 50
230.9651662056028
 51
239.3574144395584
  0
LINE
  5
22DB
330
228C
100
AcDbEntity
  8
Visible Edges(ISO)
100
AcDbLine
 10
-20.40167564689296
 20
-23.53235285303447
 30
0.0
 11
-27.56994632794977
 21
-30.34630223725674
 31
0.0
  0
LINE
  5
22DC
330
228C
100
AcDbEntity
  8
Visible Edges(ISO)
100
AcDbLine
 10
-31.70374784240403
 20
-25.99754551388196
 30
0.0
 11
-24.53547716134699
 21
-19.18359612965969
 31
0.0
  0
LINE
  5
22DD
330
228C
100
AcDbEntity
  8
Visible Edges(ISO)
100
AcDbLine
 10
-24.53547716134699
 20
-19.18359612965969
 30
0.0
 11
-20.40167564689296
 21
-23.53235285303447
 31
0.0
  0
ARC
  5
22DE
330
228C
100
AcDbEntity
  8
Visible Edges(ISO)
100
AcDbCircle
 10
-0.0000000000168257
 20
-0.0000000000010232
 30
0.0
 40
40.99999999999981
100
AcDbArc
 50
219.3522629797961
 51
227.7445112137527
  0
LINE
  5
22DF
330
228C
100
AcDbEntity
  8
Visible Edges(ISO)
100
AcDbLine
 10
-24.7210799513739
 20
-18.94381709262086
 30
0.0
 11
-33.1142536374748
 21
-24.17532225295406
 31
0.0
  0
LINE
  5
22E0
330
228C
100
AcDbEntity
  8
Visible Edges(ISO)
100
AcDbLine
 10
-36.28803769943693
 20
-19.08345670798553
 30
0.0
 11
-27.89486401333488
 21
-13.85195154765256
 31
0.0
  0
LINE
  5
22E1
330
228C
100
AcDbEntity
  8
Visible Edges(ISO)
100
AcDbLine
 10
-27.89486401333488
 20
-13.85195154765256
 30
0.0
 11
-24.7210799513739
 21
-18.94381709262086
 31
0.0
  0
ARC
  5
22E2
330
228C
100
AcDbEntity
  8
Visible Edges(ISO)
100
AcDbCircle
 10
-0.0000000000168257
 20
-0.0000000000005684
 30
0.0
 40
41.00000000000028
100
AcDbArc
 50
207.7393597539912
 51
216.1316079879496
  0
LINE
  5
22E3
330
228C
100
AcDbEntity
  8
Visible Edges(ISO)
100
AcDbLine
 10
-28.02840033804182
 20
-13.57971923463151
 30
0.0
 11
-37.3028595123219
 21
-17.01460173513544
 31
0.0
  0
LINE
  5
22E4
330
228C
100
AcDbEntity
  8
Visible Edges(ISO)
100
AcDbLine
 10
-39.38669102939093
 20
-11.38808894225292
 30
0.0
 11
-30.11223185511085
 21
-7.953206441749102
 31
0.0
  0
LINE
  5
22E5
330
228C
100
AcDbEntity
  8
Visible Edges(ISO)
100
AcDbLine
 10
-30.11223185511085
 20
-7.953206441749102
 30
0.0
 11
-28.02840033804182
 21
-13.57971923463151
 31
0.0
  0
ARC
  5
22E6
330
228C
100
AcDbEntity
  8
Visible Edges(ISO)
100
AcDbCircle
 10
-0.0000000000159162
 20
0.0
 30
0.0
 40
41.00000000000195
100
AcDbArc
 50
196.126456528186
 51
204.5187047621398
  0
LINE
  5
22E7
330
228C
100
AcDbEntity
  8
Visible Edges(ISO)
100
AcDbLine
 10
-30.18823472167492
 20
-7.659666075627001
 30
0.0
 11
-39.96428193583597
 21
-9.157301423149533
 31
0.0
  0
LINE
  5
22E8
330
228C
100
AcDbEntity
  8
Visible Edges(ISO)
100
AcDbLine
 10
-40.87284860086287
 20
-3.22649147718107
 30
0.0
 11
-31.09680138670183
 21
-1.728856129658311
 31
0.0
  0
LINE
  5
22E9
330
228C
100
AcDbEntity
  8
Visible Edges(ISO)
100
AcDbLine
 10
-31.09680138670183
 20
-1.728856129658311
 30
0.0
 11
-30.18823472167492
 21
-7.659666075627001
 31
0.0
  0
ARC
  5
22EA
330
228C
100
AcDbEntity
  8
Visible Edges(ISO)
100
AcDbCircle
 10
-0.0000000000147793
 20
-0.0000000000003411
 30
0.0
 40
41.00000000000258
100
AcDbArc
 50
184.5135533023761
 51
192.905801536333
  0
LINE
  5
22EB
330
228C
100
AcDbEntity
  8
Visible Edges(ISO)
100
AcDbLine
 10
-31.11215922883594
 20
-1.426025287513994
 30
0.0
 11
-40.98956196129302
 21
-0.9251001149631292
 31
0.0
  0
LINE
  5
22EC
330
228C
100
AcDbEntity
  8
Visible Edges(ISO)
100
AcDbLine
 10
-40.68566694826086
 20
5.067198928063476
 30
0.0
 11
-30.80826421580378
 21
4.566273755512384
 31
0.0
  0
LINE
  5
22ED
330
228C
100
AcDbEntity
  8
Visible Edges(ISO)
100
AcDbLine
 10
-30.80826421580378
 20
4.566273755512384
 30
0.0
 11
-31.11215922883594
 21
-1.426025287513994
 31
0.0
  0
ARC
  5
22EE
330
228C
100
AcDbEntity
  8
Visible Edges(ISO)
100
AcDbCircle
 10
-0.0000000000179625
 20
-0.0000000000005684
 30
0.0
 40
40.99999999999901
100
AcDbArc
 50
172.9006500765725
 51
181.2928983105246
  0
LINE
  5
22EF
330
228C
100
AcDbEntity
  8
Visible Edges(ISO)
100
AcDbLine
 10
-30.76234828164593
 20
4.865997143421054
 30
0.0
 11
-40.33672450398694
 21
7.344974900624947
 31
0.0
  0
LINE
  5
22F0
330
228C
100
AcDbEntity
  8
Visible Edges(ISO)
100
AcDbLine
 10
-38.83280931043487
 20
13.15343761382235
 30
0.0
 11
-29.25843308809294
 21
10.67445985661823
 31
0.0
  0
LINE
  5
22F1
330
228C
100
AcDbEntity
  8
Visible Edges(ISO)
100
AcDbLine
 10
-29.25843308809294
 20
10.67445985661823
 30
0.0
 11
-30.76234828164593
 21
4.865997143421054
 31
0.0
  0
ARC
  5
22F2
330
228C
100
AcDbEntity
  8
Visible Edges(ISO)
100
AcDbCircle
 10
-0.0000000000147793
 20
-0.0000000000013642
 30
0.0
 40
41.0000000000024
100
AcDbArc
 50
161.2877468507657
 51
169.6799950847232
  0
LINE
  5
22F3
330
228C
100
AcDbEntity
  8
Visible Edges(ISO)
100
AcDbLine
 10
-29.15312318138285
 20
10.95880507957372
 30
0.0
 11
-38.03249680612498
 21
15.31434578078335
 31
0.0
  0
LINE
  5
22F4
330
228C
100
AcDbEntity
  8
Visible Edges(ISO)
100
AcDbLine
 10
-35.39013189677894
 20
20.70117301820801
 30
0.0
 11
-26.51075827203704
 21
16.34563231699815
 31
0.0
  0
LINE
  5
22F5
330
228C
100
AcDbEntity
  8
Visible Edges(ISO)
100
AcDbLine
 10
-26.51075827203704
 20
16.34563231699815
 30
0.0
 11
-29.15312318138285
 21
10.95880507957372
 31
0.0
  0
ARC
  5
22F6
330
228C
100
AcDbEntity
  8
Visible Edges(ISO)
100
AcDbCircle
 10
-0.0000000000159162
 20
-0.0000000000010232
 30
0.0
 40
41.00000000000091
100
AcDbArc
 50
149.6748436249624
 51
158.0670918589127
  0
LINE
  5
22F7
330
228C
100
AcDbEntity
  8
Visible Edges(ISO)
100
AcDbLine
 10
-26.35036579272901
 20
16.60295824816364
 30
0.0
 11
-34.17121422039191
 21
22.65674554531734
 31
0.0
  0
LINE
  5
22F8
330
228C
100
AcDbEntity
  8
Visible Edges(ISO)
100
AcDbLine
 10
-30.49857832510497
 20
27.40139996694348
 30
0.0
 11
-22.67772989744299
 21
21.3476126697899
 31
0.0
  0
LINE
  5
22F9
330
228C
100
AcDbEntity
  8
Visible Edges(ISO)
100
AcDbLine
 10
-22.67772989744299
 20
21.3476126697899
 30
0.0
 11
-26.35036579272901
 21
16.60295824816364
 31
0.0
  0
ARC
  5
22FA
330
228C
100
AcDbEntity
  8
Visible Edges(ISO)
100
AcDbCircle
 10
-0.0000000000159162
 20
-0.0000000000019327
 30
0.0
 40
41.00000000000179
100
AcDbArc
 50
138.0619403991552
 51
146.4541886331058
  0
LINE
  5
22FB
330
228C
100
AcDbEntity
  8
Visible Edges(ISO)
100
AcDbLine
 10
-22.46882133248391
 20
21.56738435530895
 30
0.0
 11
-28.91095810952879
 21
29.07157548517137
 31
0.0
  0
LINE
  5
22FC
330
228C
100
AcDbEntity
  8
Visible Edges(ISO)
100
AcDbLine
 10
-24.35840937337184
 20
32.97981038150453
 30
0.0
 11
-17.91627259632787
 21
25.47561925164246
 31
0.0
  0
LINE
  5
22FD
330
228C
100
AcDbEntity
  8
Visible Edges(ISO)
100
AcDbLine
 10
-17.91627259632787
 20
25.47561925164246
 30
0.0
 11
-22.46882133248391
 21
21.56738435530895
 31
0.0
  0
ARC
  5
22FE
330
228C
100
AcDbEntity
  8
Visible Edges(ISO)
100
AcDbCircle
 10
-0.0000000000168257
 20
-0.0000000000014779
 30
0.0
 40
41.00000000000085
100
AcDbArc
 50
126.4490371733385
 51
134.8412854073008
  0
LINE
  5
22FF
330
228C
100
AcDbEntity
  8
Visible Edges(ISO)
100
AcDbLine
 10
-17.66740068691479
 20
25.64883921288788
 30
0.0
 11
-22.46708397677003
 21
34.29621170889743
 31
0.0
  0
LINE
  5
2300
330
228C
100
AcDbEntity
  8
Visible Edges(ISO)
100
AcDbLine
 10
-17.22100427990199
 20
37.20802348408381
 30
0.0
 11
-12.42132099004698
 21
28.56065098807448
 31
0.0
  0
LINE
  5
2301
330
228C
100
AcDbEntity
  8
Visible Edges(ISO)
100
AcDbLine
 10
-12.42132099004698
 20
28.56065098807448
 30
0.0
 11
-17.66740068691479
 21
25.64883921288788
 31
0.0
  0
ARC
  5
2302
330
228C
100
AcDbEntity
  8
Visible Edges(ISO)
100
AcDbCircle
 10
-0.0000000000168257
 20
-0.0000000000010232
 30
0.0
 40
41.00000000000013
100
AcDbArc
 50
114.8361339475432
 51
123.228382181496
  0
LINE
  5
2303
330
228C
100
AcDbEntity
  8
Visible Edges(ISO)
100
AcDbLine
 10
-12.14267458139193
 20
28.68022757948063
 30
0.0
 11
-15.10340478623198
 21
38.11675699562716
 31
0.0
  0
LINE
  5
2304
330
228C
100
AcDbEntity
  8
Visible Edges(ISO)
100
AcDbLine
 10
-9.378569247831819
 20
39.91293573346729
 30
0.0
 11
-6.417839042990863
 21
30.47640631732099
 31
0.0
  0
LINE
  5
2305
330
228C
100
AcDbEntity
  8
Visible Edges(ISO)
100
AcDbLine
 10
-6.417839042990863
 20
30.47640631732099
 30
0.0
 11
-12.14267458139193
 21
28.68022757948063
 31
0.0
  0
ARC
  5
2306
330
228C
100
AcDbEntity
  8
Visible Edges(ISO)
100
AcDbCircle
 10
-0.0000000000168257
 20
-0.0000000000013642
 30
0.0
 40
41.00000000000057
100
AcDbArc
 50
103.2232307217356
 51
111.615478955688
  0
ARC
  5
2307
330
228C
100
AcDbEntity
  8
Visible Edges(ISO)
100
AcDbCircle
 10
-0.0000000000179625
 20
0.0000000000044338
 30
0.0
 40
39.99999999999455
100
AcDbArc
 50
100.1076739175709
 51
103.1181325340471
  0
ARC
  5
2308
330
228C
100
AcDbEntity
  8
Visible Edges(ISO)
100
AcDbCircle
 10
-0.000000000018872
 20
0.0000000000087539
 30
0.0
 40
40.99999999999034
100
AcDbArc
 50
100.0025757298752
 51
103.2232307217356
  0
ARC
  5
2309
330
228C
100
AcDbEntity
  8
Visible Edges(ISO)
100
AcDbCircle
 10
-0.0000000000168257
 20
-0.0000000000007958
 30
0.0
 40
40.00000000000015
100
AcDbArc
 50
111.7205771433804
 51
114.7310357598425
  0
ARC
  5
230A
330
228C
100
AcDbEntity
  8
Visible Edges(ISO)
100
AcDbCircle
 10
-0.0000000000179625
 20
0.0000000000007958
 30
0.0
 40
40.99999999999832
100
AcDbArc
 50
111.615478955688
 51
114.8361339475432
  0
ARC
  5
230B
330
228C
100
AcDbEntity
  8
Visible Edges(ISO)
100
AcDbCircle
 10
-0.0000000000168257
 20
-0.0000000000013642
 30
0.0
 40
40.0000000000007
100
AcDbArc
 50
123.3334803691897
 51
126.3439389856534
  0
ARC
  5
230C
330
228C
100
AcDbEntity
  8
Visible Edges(ISO)
100
AcDbCircle
 10
-0.0000000000209184
 20
0.0000000000048885
 30
0.0
 40
40.99999999999312
100
AcDbArc
 50
123.228382181496
 51
126.4490371733385
  0
ARC
  5
230D
330
228C
100
AcDbEntity
  8
Visible Edges(ISO)
100
AcDbCircle
 10
-0.0000000000129603
 20
-0.0000000000050022
 30
0.0
 40
40.00000000000599
100
AcDbArc
 50
134.9463835949903
 51
137.9568422114627
  0
ARC
  5
230E
330
228C
100
AcDbEntity
  8
Visible Edges(ISO)
100
AcDbCircle
 10
-0.0000000000168257
 20
-0.0000000000010232
 30
0.0
 40
41.00000000000052
100
AcDbArc
 50
134.8412854073008
 51
138.0619403991552
  0
ARC
  5
230F
330
228C
100
AcDbEntity
  8
Visible Edges(ISO)
100
AcDbCircle
 10
-0.0000000000227374
 20
0.0000000000029559
 30
0.0
 40
39.99999999999287
100
AcDbArc
 50
146.559286820798
 51
149.569745437268
  0
ARC
  5
2310
330
228C
100
AcDbEntity
  8
Visible Edges(ISO)
100
AcDbCircle
 10
-0.0000000000159162
 20
-0.0000000000019327
 30
0.0
 40
41.00000000000206
100
AcDbArc
 50
146.4541886331058
 51
149.6748436249502
  0
ARC
  5
2311
330
228C
100
AcDbEntity
  8
Visible Edges(ISO)
100
AcDbCircle
 10
-0.0000000000159162
 20
-0.0000000000010232
 30
0.0
 40
40.00000000000087
100
AcDbArc
 50
158.1721900466086
 51
161.1826486630714
  0
ARC
  5
2312
330
228C
100
AcDbEntity
  8
Visible Edges(ISO)
100
AcDbCircle
 10
-0.000000000018872
 20
-0.0000000000001137
 30
0.0
 40
40.9999999999979
100
AcDbArc
 50
158.0670918589127
 51
161.2877468507657
  0
ARC
  5
2313
330
228C
100
AcDbEntity
  8
Visible Edges(ISO)
100
AcDbCircle
 10
-0.0000000000259206
 20
0.0000000000004547
 30
0.0
 40
39.99999999999112
100
AcDbArc
 50
169.7850932724082
 51
172.7955518888776
  0
ARC
  5
2314
330
228C
100
AcDbEntity
  8
Visible Edges(ISO)
100
AcDbCircle
 10
-0.0000000000129603
 20
-0.0000000000014779
 30
0.0
 40
41.00000000000418
100
AcDbArc
 50
169.6799950847232
 51
172.9006500765725
  0
ARC
  5
2315
330
228C
100
AcDbEntity
  8
Visible Edges(ISO)
100
AcDbCircle
 10
-0.0000000000259206
 20
-0.0000000000013642
 30
0.0
 40
39.99999999999128
100
AcDbArc
 50
181.3979964982201
 51
184.4084551146844
  0
ARC
  5
2316
330
228C
100
AcDbEntity
  8
Visible Edges(ISO)
100
AcDbCircle
 10
-0.0000000000077307
 20
-0.0000000000001137
 30
0.0
 40
41.00000000000895
100
AcDbArc
 50
181.2928983105246
 51
184.5135533023761
  0
ARC
  5
2317
330
228C
100
AcDbEntity
  8
Visible Edges(ISO)
100
AcDbCircle
 10
-0.000000000018872
 20
-0.0000000000010232
 30
0.0
 40
39.99999999999829
100
AcDbArc
 50
193.010899724023
 51
196.0213583404943
  0
ARC
  5
2318
330
228C
100
AcDbEntity
  8
Visible Edges(ISO)
100
AcDbCircle
 10
-0.0000000000209184
 20
-0.0000000000014779
 30
0.0
 40
40.99999999999631
100
AcDbArc
 50
192.905801536333
 51
196.126456528186
  0
ARC
  5
2319
330
228C
100
AcDbEntity
  8
Visible Edges(ISO)
100
AcDbCircle
 10
-0.0000000000147793
 20
0.0000000000004547
 30
0.0
 40
40.00000000000308
100
AcDbArc
 50
204.6238029498276
 51
207.6342615662978
  0
ARC
  5
231A
330
228C
100
AcDbEntity
  8
Visible Edges(ISO)
100
AcDbCircle
 10
-0.0000000000300133
 20
-0.0000000000067075
 30
0.0
 40
40.99999999998646
100
AcDbArc
 50
204.5187047621398
 51
207.7393597539912
  0
ARC
  5
231B
330
228C
100
AcDbEntity
  8
Visible Edges(ISO)
100
AcDbCircle
 10
-0.0000000000109139
 20
0.0000000000043201
 30
0.0
 40
40.0000000000083
100
AcDbArc
 50
216.2367061756404
 51
219.2471647921038
  0
ARC
  5
231C
330
228C
100
AcDbEntity
  8
Visible Edges(ISO)
100
AcDbCircle
 10
-0.0000000000138698
 20
0.0000000000019327
 30
0.0
 40
41.00000000000431
100
AcDbArc
 50
216.1316079879496
 51
219.3522629797911
  0
ARC
  5
231D
330
228C
100
AcDbEntity
  8
Visible Edges(ISO)
100
AcDbCircle
 10
-0.0000000000197815
 20
-0.0000000000035243
 30
0.0
 40
39.99999999999662
100
AcDbArc
 50
227.8496094014442
 51
230.8600680179093
  0
ARC
  5
231E
330
228C
100
AcDbEntity
  8
Visible Edges(ISO)
100
AcDbCircle
 10
-0.0000000000129603
 20
0.0000000000044338
 30
0.0
 40
41.00000000000714
100
AcDbArc
 50
227.7445112137527
 51
230.9651662056028
  0
ARC
  5
231F
330
228C
100
AcDbEntity
  8
Visible Edges(ISO)
100
AcDbCircle
 10
-0.0000000000159162
 20
0.0000000000009095
 30
0.0
 40
40.0000000000019
100
AcDbArc
 50
239.4625126272564
 51
242.4729712437175
  0
ARC
  5
2320
330
228C
100
AcDbEntity
  8
Visible Edges(ISO)
100
AcDbCircle
 10
-0.0000000000159162
 20
0.0000000000007958
 30
0.0
 40
41.00000000000171
100
AcDbArc
 50
239.3574144395584
 51
242.5780694314048
  0
ARC
  5
2321
330
228C
100
AcDbEntity
  8
Visible Edges(ISO)
100
AcDbCircle
 10
-0.0000000000147793
 20
0.0000000000081855
 30
0.0
 40
40.00000000000935
100
AcDbArc
 50
251.0754158530544
 51
254.0858744695246
  0
ARC
  5
2322
330
228C
100
AcDbEntity
  8
Visible Edges(ISO)
100
AcDbCircle
 10
-0.0000000000138698
 20
0.000000000009436
 30
0.0
 40
41.00000000001067
100
AcDbArc
 50
250.9703176653632
 51
254.1909726572047
  0
ARC
  5
2323
330
228C
100
AcDbEntity
  8
Visible Edges(ISO)
100
AcDbCircle
 10
-0.0000000000159162
 20
0.0000000000088676
 30
0.0
 40
40.00000000000963
100
AcDbArc
 50
262.6883190788637
 51
265.6987776953271
  0
ARC
  5
2324
330
228C
100
AcDbEntity
  8
Visible Edges(ISO)
100
AcDbCircle
 10
-0.000000000018872
 20
-0.0000000000214868
 30
0.0
 40
40.99999999997918
100
AcDbArc
 50
262.5832208911719
 51
265.8038758830246
  0
ARC
  5
2325
330
228C
100
AcDbEntity
  8
Visible Edges(ISO)
100
AcDbCircle
 10
-0.0000000000159162
 20
-0.000000000013074
 30
0.0
 40
39.99999999998781
100
AcDbArc
 50
274.3012223046729
 51
277.3116809211363
  0
ARC
  5
2326
330
228C
100
AcDbEntity
  8
Visible Edges(ISO)
100
AcDbCircle
 10
-0.0000000000197815
 20
0.0000000000228511
 30
0.0
 40
41.00000000002387
100
AcDbArc
 50
274.1961241169883
 51
277.416779108828
  0
ARC
  5
2327
330
228C
100
AcDbEntity
  8
Visible Edges(ISO)
100
AcDbCircle
 10
-0.0000000000159162
 20
-0.0000000000047748
 30
0.0
 40
39.99999999999575
100
AcDbArc
 50
285.9141255304754
 51
288.9245841469456
  0
ARC
  5
2328
330
228C
100
AcDbEntity
  8
Visible Edges(ISO)
100
AcDbCircle
 10
-0.000000000018872
 20
0.0000000000043201
 30
0.0
 40
41.00000000000533
100
AcDbArc
 50
285.8090273427953
 51
289.0296823346369
  0
ARC
  5
2329
330
228C
100
AcDbEntity
  8
Visible Edges(ISO)
100
AcDbCircle
 10
-0.0000000000218279
 20
0.0000000000075033
 30
0.0
 40
40.00000000000951
100
AcDbArc
 50
297.5270287562826
 51
300.5374873727436
  0
ARC
  5
232A
330
228C
100
AcDbEntity
  8
Visible Edges(ISO)
100
AcDbCircle
 10
-0.0000000000159162
 20
-0.0000000000022737
 30
0.0
 40
40.99999999999821
100
AcDbArc
 50
297.4219305685953
 51
300.6425855604415
  0
ARC
  5
232B
330
228C
100
AcDbEntity
  8
Visible Edges(ISO)
100
AcDbCircle
 10
-0.0000000000209184
 20
0.0000000000029559
 30
0.0
 40
40.00000000000496
100
AcDbArc
 50
309.1399319820907
 51
312.1503905985558
  0
ARC
  5
232C
330
228C
100
AcDbEntity
  8
Visible Edges(ISO)
100
AcDbCircle
 10
-0.0000000000179625
 20
-0.0000000000001137
 30
0.0
 40
41.00000000000082
100
AcDbArc
 50
309.0348337943972
 51
312.2554887862473
  0
ARC
  5
232D
330
228C
100
AcDbEntity
  8
Visible Edges(ISO)
100
AcDbCircle
 10
-0.000000000018872
 20
0.0000000000004547
 30
0.0
 40
40.00000000000222
100
AcDbArc
 50
320.7528352078963
 51
323.7632938243596
  0
ARC
  5
232E
330
228C
100
AcDbEntity
  8
Visible Edges(ISO)
100
AcDbCircle
 10
-0.000000000018872
 20
0.0000000000003411
 30
0.0
 40
41.00000000000178
100
AcDbArc
 50
320.6477370202089
 51
323.8683920120504
  0
ARC
  5
232F
330
228C
100
AcDbEntity
  8
Visible Edges(ISO)
100
AcDbCircle
 10
-0.0000000000129603
 20
-0.0000000000028422
 30
0.0
 40
39.99999999999502
100
AcDbArc
 50
332.3657384337022
 51
335.3761970501724
  0
ARC
  5
2330
330
228C
100
AcDbEntity
  8
Visible Edges(ISO)
100
AcDbCircle
 10
-0.0000000000227374
 20
0.00000000000216
 30
0.0
 40
41.00000000000677
100
AcDbArc
 50
332.2606402460089
 51
335.4812952378602
  0
ARC
  5
2331
330
228C
100
AcDbEntity
  8
Visible Edges(ISO)
100
AcDbCircle
 10
-0.0000000000138698
 20
-0.0000000000019327
 30
0.0
 40
39.99999999999608
100
AcDbArc
 50
343.9786416595056
 51
346.989100275977
  0
ARC
  5
2332
330
228C
100
AcDbEntity
  8
Visible Edges(ISO)
100
AcDbCircle
 10
-0.0000000000218279
 20
0.0000000000003411
 30
0.0
 40
41.00000000000479
100
AcDbArc
 50
343.873543471814
 51
347.094198463667
  0
ARC
  5
2333
330
228C
100
AcDbEntity
  8
Visible Edges(ISO)
100
AcDbCircle
 10
-0.0000000000209184
 20
-0.0000000000005684
 30
0.0
 40
40.00000000000389
100
AcDbArc
 50
355.5915448853155
 51
358.6020035017798
  0
ARC
  5
2334
330
228C
100
AcDbEntity
  8
Visible Edges(ISO)
100
AcDbCircle
 10
-0.0000000000120508
 20
-0.0000000000010232
 30
0.0
 40
40.99999999999417
100
AcDbArc
 50
355.4864466976239
 51
358.7071016894753
  0
ARC
  5
2335
330
228C
100
AcDbEntity
  8
Visible Edges(ISO)
100
AcDbCircle
 10
-0.000000000018872
 20
-0.0000000000010232
 30
0.0
 40
40.00000000000135
100
AcDbArc
 50
7.204448111122388
 51
10.21490672758534
  0
ARC
  5
2336
330
228C
100
AcDbEntity
  8
Visible Edges(ISO)
100
AcDbCircle
 10
-0.0000000000100044
 20
0.0000000000003411
 30
0.0
 40
40.9999999999924
100
AcDbArc
 50
7.099349923427495
 51
10.32000491528323
  0
ARC
  5
2337
330
228C
100
AcDbEntity
  8
Visible Edges(ISO)
100
AcDbCircle
 10
-0.0000000000268301
 20
-0.0000000000044338
 30
0.0
 40
40.00000000001084
100
AcDbArc
 50
18.81735133692856
 51
21.82780995339136
  0
ARC
  5
2338
330
228C
100
AcDbEntity
  8
Visible Edges(ISO)
100
AcDbCircle
 10
-0.0000000000077307
 20
0.0000000000029559
 30
0.0
 40
40.99999999998988
100
AcDbArc
 50
18.71225314923426
 51
21.93290814108733
  0
ARC
  5
2339
330
228C
100
AcDbEntity
  8
Visible Edges(ISO)
100
AcDbCircle
 10
-0.0000000000197815
 20
-0.00000000000216
 30
0.0
 40
40.00000000000254
100
AcDbArc
 50
30.43025456273193
 51
33.44071317920197
  0
ARC
  5
233A
330
228C
100
AcDbEntity
  8
Visible Edges(ISO)
100
AcDbCircle
 10
-0.0000000000179625
 20
-0.0000000000010232
 30
0.0
 40
41.00000000000057
100
AcDbArc
 50
30.3251563750498
 51
33.54581136689417
  0
ARC
  5
233B
330
228C
100
AcDbEntity
  8
Visible Edges(ISO)
100
AcDbCircle
 10
-0.0000000000227374
 20
-0.0000000000062528
 30
0.0
 40
40.00000000000802
100
AcDbArc
 50
42.04315778853731
 51
45.05361640500971
  0
ARC
  5
233C
330
228C
100
AcDbEntity
  8
Visible Edges(ISO)
100
AcDbCircle
 10
-0.000000000018872
 20
-0.0000000000019327
 30
0.0
 40
41.00000000000163
100
AcDbArc
 50
41.93805960085831
 51
45.15871459269923
  0
ARC
  5
233D
330
228C
100
AcDbEntity
  8
Visible Edges(ISO)
100
AcDbCircle
 10
-0.0000000000120508
 20
0.0000000000108002
 30
0.0
 40
39.99999999998747
100
AcDbArc
 50
65.26896424015752
 51
68.27942285661956
  0
ARC
  5
233E
330
228C
100
AcDbEntity
  8
Visible Edges(ISO)
100
AcDbCircle
 10
-0.0000000000179625
 20
-0.0000000000019327
 30
0.0
 40
41.0000000000011
100
AcDbArc
 50
65.1638660524568
 51
68.38452104431199
  0
ARC
  5
233F
330
228C
100
AcDbEntity
  8
Visible Edges(ISO)
100
AcDbCircle
 10
-0.000000000018872
 20
-0.0000000000035243
 30
0.0
 40
40.00000000000318
100
AcDbArc
 50
53.65606101434654
 51
56.66651963081023
  0
ARC
  5
2340
330
228C
100
AcDbEntity
  8
Visible Edges(ISO)
100
AcDbCircle
 10
-0.0000000000227374
 20
-0.0000000000092086
 30
0.0
 40
41.00000000001021
100
AcDbArc
 50
53.5509628266615
 51
56.77161781850394
  0
ARC
  5
2341
330
228C
100
AcDbEntity
  8
Visible Edges(ISO)
100
AcDbCircle
 10
-0.0000000000159162
 20
0.0000000000560476
 30
0.0
 40
40.99999999994309
100
AcDbArc
 50
88.38967250407916
 51
89.86025405775507
  0
LINE
  5
2342
330
228C
100
AcDbEntity
  8
Visible Edges(ISO)
100
AcDbLine
 10
0.3693769595611229
 20
33.28593120552762
 30
0.0
 11
0.0999999999830834
 21
40.99987804859836
 31
0.0
  0
LINE
  5
2343
330
228C
100
AcDbEntity
  8
Visible Edges(ISO)
100
AcDbLine
 10
-0.1000000000167347
 20
40.99987804859836
 30
0.0
 11
-0.3693769595959111
 21
33.28593120552716
 31
0.0
  0
ARC
  5
2344
330
228C
100
AcDbEntity
  8
Visible Edges(ISO)
100
AcDbCircle
 10
-0.0000000000159162
 20
-0.0000000000615046
 30
0.0
 40
41.00000000006047
100
AcDbArc
 50
90.13974594224492
 51
91.61032749592083
  0
ARC
  5
2345
330
228C
100
AcDbEntity
  8
Visible Edges(ISO)
100
AcDbCircle
 10
-0.0000000000168257
 20
-0.0000000000003411
 30
0.0
 40
39.99999999999956
100
AcDbArc
 50
76.88186746595285
 51
79.89232608242904
  0
ARC
  5
2346
330
228C
100
AcDbEntity
  8
Visible Edges(ISO)
100
AcDbCircle
 10
-0.0000000000179625
 20
-0.0000000000047748
 30
0.0
 40
41.00000000000417
100
AcDbArc
 50
76.77676927826436
 51
79.99742427012474
  0
LINE
  5
2347
330
228C
100
AcDbEntity
  8
Visible Edges(ISO)
100
AcDbLine
 10
-6.120825951802771
 20
30.53744405918564
 30
0.0
 11
-7.121390429171924
 21
40.37679777242738
 31
0.0
  0
LINE
  5
2348
330
228C
100
AcDbEntity
  8
Visible Edges(ISO)
100
AcDbLine
 10
-1.152174488820037
 20
40.98380770435165
 30
0.0
 11
-0.1516100114520213
 21
31.14445399111025
 31
0.0
  0
LINE
  5
2349
330
228C
100
AcDbEntity
  8
Visible Edges(ISO)
100
AcDbLine
 10
-0.1516100114520213
 20
31.14445399111025
 30
0.0
 11
-6.120825951802771
 21
30.53744405918564
 31
0.0
  0
ARC
  5
234A
330
228C
100
AcDbEntity
  8
Visible Edges(ISO)
100
AcDbCircle
 10
-0.0000000000168257
 20
-0.0000000000013642
 30
0.0
 40
41.00000000000066
100
AcDbArc
 50
91.61032749592083
 51
100.0025757298752
  0
LINE
  5
234B
330
228C
100
AcDbEntity
  8
Visible Edges(ISO)
100
AcDbLine
 10
13.76522238652728
 20
-64.54857591495806
 30
0.0
 11
1.999999999983174
 21
-40.95119045888748
 31
0.0
  0
LINE
  5
234C
330
228C
100
AcDbEntity
  8
Visible Edges(ISO)
100
AcDbLine
 10
0.9999999999831743
 20
40.98780306383775
 30
0.0
 11
0.9999999999831743
 21
42.88164102565292
 31
0.0
  0
LINE
  5
234D
330
228C
100
AcDbEntity
  8
Visible Edges(ISO)
100
AcDbLine
 10
0.9999999999831743
 20
46.08165585967299
 30
0.0
 11
0.9999999999831743
 21
65.99242380758482
 31
0.0
  0
ARC
  5
234E
330
228C
100
AcDbEntity
  8
Visible Edges(ISO)
100
AcDbCircle
 10
-0.0000000000168257
 20
-0.0000000000007958
 30
0.0
 40
66.00000000000007
100
AcDbArc
 50
282.0382108122093
 51
89.13184890975191
  0
LINE
  5
234F
330
228C
100
AcDbEntity
  8
Visible Edges(ISO)
100
AcDbLine
 10
-13.76522238656184
 20
-64.54857591495795
 30
0.0
 11
-2.000000000016825
 21
-40.95119045888748
 31
0.0
  0
LINE
  5
2350
330
228C
100
AcDbEntity
  8
Visible Edges(ISO)
100
AcDbLine
 10
-1.000000000016825
 20
40.98780306383742
 30
0.0
 11
-1.000000000016825
 21
42.88773078235647
 31
0.0
  0
LINE
  5
2351
330
228C
100
AcDbEntity
  8
Visible Edges(ISO)
100
AcDbLine
 10
-1.000000000016825
 20
46.08774561637676
 30
0.0
 11
-1.000000000016825
 21
65.99242380758482
 31
0.0
  0
ARC
  5
2352
330
228C
100
AcDbEntity
  8
Visible Edges(ISO)
100
AcDbCircle
 10
-0.0000000000168257
 20
-0.0000000000007958
 30
0.0
 40
65.99999999999988
100
AcDbArc
 50
90.8681510902481
 51
257.9617891877908
  0
LINE
  5
2353
330
228C
100
AcDbEntity
  8
Visible Edges(ISO)
100
AcDbLine
 10
-3.000000000016825
 20
41.16506407136933
 30
0.0
 11
-12.33245328881594
 21
39.38874326352049
 31
0.0
  0
LINE
  5
2354
330
228C
100
AcDbEntity
  8
Visible Edges(ISO)
100
AcDbLine
 10
-3.299169820285897
 20
42.7368456779036
 30
0.0
 11
-12.63162310908478
 21
40.9605248700551
 31
0.0
  0
LINE
  5
2355
330
228C
100
AcDbEntity
  8
Visible Edges(ISO)
100
AcDbLine
 10
-12.63162310908478
 20
40.9605248700551
 30
0.0
 11
-12.33245328881594
 21
39.38874326352049
 31
0.0
  0
LINE
  5
2356
330
228C
100
AcDbEntity
  8
Visible Edges(ISO)
100
AcDbLine
 10
-3.299169820285897
 20
42.7368456779036
 30
0.0
 11
-3.000000000016825
 21
41.16506407136933
 31
0.0
  0
ARC
  5
2357
330
228C
100
AcDbEntity
  8
Visible Edges(ISO)
100
AcDbCircle
 10
-6.842369588554902
 20
44.50552750405018
 30
0.0
 40
4.000000000000004
100
AcDbArc
 50
23.40372033866367
 51
100.7766590086726
  0
ARC
  5
2358
330
228C
100
AcDbEntity
  8
Visible Edges(ISO)
100
AcDbCircle
 10
-6.842369588556039
 20
44.50552750405063
 30
0.0
 40
4.000000000000662
100
AcDbArc
 50
332.7291515550547
 51
336.2473633822528
  0
ARC
  5
2359
330
228C
100
AcDbEntity
  8
Visible Edges(ISO)
100
AcDbCircle
 10
-6.842369588554902
 20
44.50552750405018
 30
0.0
 40
2.400000000000003
100
AcDbArc
 50
280.7766590086727
 51
318.01522696468
  0
ARC
  5
235A
330
228C
100
AcDbEntity
  8
Visible Edges(ISO)
100
AcDbCircle
 10
-6.842369588554902
 20
44.50552750405018
 30
0.0
 40
2.400000000000006
100
AcDbArc
 50
41.63585675624004
 51
100.7766590086726
  0
LINE
  5
235B
330
228C
100
AcDbEntity
  8
Visible Edges(ISO)
100
AcDbLine
 10
-9.260312096170764
 20
48.11711358635045
 30
0.0
 11
-7.590294139228035
 21
48.43498152038648
 31
0.0
  0
LINE
  5
235C
330
228C
100
AcDbEntity
  8
Visible Edges(ISO)
100
AcDbLine
 10
-8.96114227590192
 20
46.54533197981618
 30
0.0
 11
-9.260312096170764
 21
48.11711358635045
 31
0.0
  0
LINE
  5
235D
330
228C
100
AcDbEntity
  8
Visible Edges(ISO)
100
AcDbLine
 10
-7.291124318958964
 20
46.8631999138521
 30
0.0
 11
-8.96114227590192
 21
46.54533197981618
 31
0.0
  0
ARC
  5
235E
330
228C
100
AcDbEntity
  8
Visible Edges(ISO)
100
AcDbCircle
 10
-6.842369588553992
 20
44.50552750405018
 30
0.0
 40
1.600000000000003
100
AcDbArc
 50
89.82554186044737
 51
269.8255418604474
  0
LINE
  5
235F
330
228C
100
AcDbEntity
  8
Visible Edges(ISO)
100
AcDbLine
 10
-6.847241371332984
 20
42.90553492102617
 30
0.0
 11
-3.647256205283838
 21
42.89579135546785
 31
0.0
  0
LINE
  5
2360
330
228C
100
AcDbEntity
  8
Visible Edges(ISO)
100
AcDbLine
 10
-3.637512639725855
 20
46.09577652151631
 30
0.0
 11
-6.837497805775001
 21
46.10552008707464
 31
0.0
  0
LINE
  5
2361
330
228C
100
AcDbEntity
  8
Visible Edges(ISO)
100
AcDbLine
 10
12.15267055208005
 20
42.84768250052343
 30
0.0
 11
-3.647256205283838
 21
42.89579135546785
 31
0.0
  0
LINE
  5
2362
330
228C
100
AcDbEntity
  8
Visible Edges(ISO)
100
AcDbLine
 10
12.16241411763803
 20
46.04766766657201
 30
0.0
 11
-3.637512639725855
 21
46.09577652151631
 31
0.0
  0
LINE
  5
2363
330
228C
100
AcDbEntity
  8
Visible Edges(ISO)
100
AcDbLine
 10
12.15267055208005
 20
42.84768250052343
 30
0.0
 11
15.33345759283816
 21
42.83799739092137
 31
0.0
  0
LINE
  5
2364
330
228C
100
AcDbEntity
  8
Visible Edges(ISO)
100
AcDbLine
 10
15.34320115839614
 20
46.03798255696972
 30
0.0
 11
12.16241411763803
 21
46.04766766657201
 31
0.0
  0
ARC
  5
2365
330
228C
100
AcDbEntity
  8
Visible Edges(ISO)
100
AcDbCircle
 10
8.629921201737261
 20
47.95777717985197
 30
0.0
 40
2.050000000000026
100
AcDbArc
 50
291.928438627848
 51
247.7226450930696
  0
LINE
  5
2366
330
228C
100
AcDbEntity
  8
Visible Edges(ISO)
100
AcDbLine
 10
36.91775753576008
 20
46.23262678241917
 30
0.0
 11
13.79644148084003
 21
52.28987461859174
 31
0.0
  0
LINE
  5
2367
330
228C
100
AcDbEntity
  8
Visible Edges(ISO)
100
AcDbLine
 10
36.91775753576008
 20
46.23262678241917
 30
0.0
 11
37.69011361764615
 21
46.03028742622939
 31
0.0
  0
LINE
  5
2368
330
228C
100
AcDbEntity
  8
Visible Edges(ISO)
100
AcDbLine
 10
36.5122782035362
 20
44.68485854681705
 30
0.0
 11
37.28463428542318
 21
44.48251919062715
 31
0.0
  0
LINE
  5
2369
330
228C
100
AcDbEntity
  8
Visible Edges(ISO)
100
AcDbLine
 10
36.72830013137809
 20
45.50944281421879
 30
0.0
 11
36.91775753618322
 21
46.23262678403387
 31
0.0
  0
LINE
  5
236A
330
228C
100
AcDbEntity
  8
Visible Edges(ISO)
100
AcDbLine
 10
36.51227820401914
 20
44.68485854866196
 30
0.0
 11
36.72830013137809
 21
45.50944281421879
 31
0.0
  0
LINE
  5
236B
330
228C
100
AcDbEntity
  8
Visible Edges(ISO)
100
AcDbLine
 10
13.79644148150419
 20
52.289874621129
 30
0.0
 11
13.31493477352114
 21
50.45189983766102
 31
0.0
  0
SPLINE
  5
236C
330
228C
100
AcDbEntity
  8
Visible Edges(ISO)
100
AcDbSpline
210
0.0
220
0.0
230
1.0
 70
     8
 71
     3
 72
    14
 73
    10
 74
     0
 42
0.0000000001
 43
0.0000000001
 40
-0.2286651747759609
 40
-0.2286651747759609
 40
-0.2286651747759609
 40
-0.2286651747759609
 40
-0.2096556653767674
 40
-0.2096556653767674
 40
-0.1906461559775739
 40
-0.1906461559775739
 40
-0.1718063443396231
 40
-0.1718063443396231
 40
-0.1529665327016723
 40
-0.1529665327016723
 40
-0.1529665327016723
 40
-0.1529665327016723
 10
13.31493477352114
 20
50.45189983766102
 30
0.0
 10
13.2992288690491
 20
50.39194832318981
 30
0.0
 10
13.27045889681403
 20
50.330507334554
 30
0.0
 10
13.19000890446909
 20
50.22399777733062
 30
0.0
 10
13.13831680294515
 20
50.17895973185637
 30
0.0
 10
13.02951057405607
 20
50.11532819332263
 30
0.0
 10
12.96537980285711
 20
50.09234399929687
 30
0.0
 10
12.83327110836308
 20
50.07419017076813
 30
0.0
 10
12.76529420444603
 20
50.0790196506839
 30
0.0
 10
12.70454490857605
 20
50.09493455535528
 30
0.0
  0
ELLIPSE
  5
236D
330
228C
100
AcDbEntity
  8
Visible Edges(ISO)
100
AcDbEllipse
 10
35.40707764488616
 20
44.15703423742434
 30
0.0
 11
1.276410919919219
 21
1.934473692341813
 31
0.0
210
0.0
220
0.0
230
1.0
 40
0.0066029868388586
 41
1.525382940362588
 42
1.57728319731281
  0
SPLINE
  5
236E
330
228C
100
AcDbEntity
  8
Visible Edges(ISO)
100
AcDbSpline
210
0.0
220
0.0
230
1.0
 70
     8
 71
     3
 72
    17
 73
    13
 74
     0
 42
0.0000000001
 43
0.0000000001
 40
0.0
 40
0.0
 40
0.0
 40
0.0
 40
0.25
 40
0.25
 40
0.25
 40
0.5
 40
0.5
 40
0.5
 40
0.75
 40
0.75
 40
0.75
 40
1.0
 40
1.0
 40
1.0
 40
1.0
 10
35.45226372971206
 20
44.25327447992663
 30
0.0
 10
35.64320550741399
 20
44.57918697129151
 30
0.0
 10
35.82274185052097
 20
44.88699297184405
 30
0.0
 10
35.98405936439713
 20
45.15068485318136
 30
0.0
 10
36.14537687827306
 20
45.41437673451844
 30
0.0
 10
36.28853271039111
 20
45.63417263610552
 30
0.0
 10
36.41136962214023
 20
45.80183809287007
 30
0.0
 10
36.53420653388912
 20
45.96950354963394
 30
0.0
 10
36.63682862227211
 20
46.08543591360444
 30
0.0
 10
36.72046427524515
 20
46.15432410406254
 30
0.0
 10
36.80409992821797
 20
46.22321229452075
 30
0.0
 10
36.86884954390598
 20
46.2454395443849
 30
0.0
 10
36.91775753672732
 20
46.23262678610944
 30
0.0
  0
SPLINE
  5
236F
330
228C
100
AcDbEntity
  8
Visible Edges(ISO)
100
AcDbSpline
210
0.0
220
0.0
230
1.0
 70
     8
 71
     3
 72
    18
 73
    14
 74
     0
 42
0.0000000001
 43
0.0000000001
 40
-0.1525407850974777
 40
-0.1525407850974777
 40
-0.1525407850974777
 40
-0.1525407850974777
 40
-0.1181950956146801
 40
-0.1181950956146801
 40
-0.0865338679253085
 40
-0.0865338679253085
 40
-0.0669010067910081
 40
-0.0669010067910081
 40
-0.0484579910555542
 40
-0.0484579910555542
 40
-0.0229355347966384
 40
-0.0229355347966384
 40
0.0
 40
0.0
 40
0.0
 40
0.0
 10
35.43302522120712
 20
44.17983854867339
 30
0.0
 10
35.52670216149409
 20
44.24594375353319
 30
0.0
 10
35.61917900657727
 20
44.31169331539945
 30
0.0
 10
35.79379324610022
 20
44.43042975256196
 30
0.0
 10
35.8755086869021
 20
44.48331415399491
 30
0.0
 10
36.00366813291021
 20
44.55772821218784
 30
0.0
 10
36.05144733300222
 20
44.58339538440156
 30
0.0
 10
36.14168768781496
 20
44.62641791280896
 30
0.0
 10
36.18412972468718
 20
44.64410431440751
 30
0.0
 10
36.28186084899517
 20
44.67763022871065
 30
0.0
 10
36.33554462184998
 20
44.69002132496166
 30
0.0
 10
36.43113360626808
 20
44.69793123338229
 30
0.0
 10
36.47337937973816
 20
44.69504913920594
 30
0.0
 10
36.51227820450208
 20
44.68485855050732
 30
0.0
  0
ELLIPSE
  5
2370
330
228C
100
AcDbEntity
  8
Visible Edges(ISO)
100
AcDbEllipse
 10
35.39456787212908
 20
44.10928278218898
 30
0.0
 11
-1.746094981367764
 21
-1.001275660584272
 31
0.0
210
0.0
220
0.0
230
1.0
 40
0.0209161467731797
 41
4.678370489106811
 42
4.705287827320871
  0
LINE
  5
2371
330
228C
100
AcDbEntity
  8
Visible Edges(ISO)
100
AcDbLine
 10
35.43302522120712
 20
44.17983854867293
 30
0.0
 11
35.45226372971206
 21
44.25327447992663
 31
0.0
  0
LINE
  5
2372
330
228C
100
AcDbEntity
  8
Visible Edges(ISO)
100
AcDbLine
 10
12.70454490857605
 20
50.09493455535528
 30
0.0
 11
8.641653290120075
 21
51.15931780244341
 31
0.0
  0
ARC
  5
2373
330
228C
100
AcDbEntity
  8
Visible Edges(ISO)
100
AcDbCircle
 10
8.03343429178426
 20
48.83766544903995
 30
0.0
 40
2.400000000000023
100
AcDbArc
 50
75.3197456902806
 51
165.3197456902789
  0
LINE
  5
2374
330
228C
100
AcDbEntity
  8
Visible Edges(ISO)
100
AcDbLine
 10
5.002193106988215
 20
46.7372900350723
 30
0.0
 11
5.711781938379999
 21
49.44588444737622
 31
0.0
  0
ARC
  5
2375
330
228C
100
AcDbEntity
  8
Visible Edges(ISO)
100
AcDbCircle
 10
8.097729578193138
 20
45.92633137062421
 30
0.0
 40
3.199999999999877
100
AcDbArc
 50
165.3197456902789
 51
177.4307378691111
  0
ARC
  5
2376
330
228C
100
AcDbEntity
  8
Visible Edges(ISO)
100
AcDbCircle
 10
8.097729578193138
 20
45.92633137062591
 30
0.0
 40
3.200000000001836
100
AcDbArc
 50
253.2039718979792
 51
255.3197456902806
  0
LINE
  5
2377
330
228C
100
AcDbEntity
  8
Visible Edges(ISO)
100
AcDbLine
 10
22.66935745780597
 20
38.80091447139944
 30
0.0
 11
7.286770913745158
 21
42.83079489941974
 31
0.0
  0
ARC
  5
2378
330
228C
100
AcDbEntity
  8
Visible Edges(ISO)
100
AcDbCircle
 10
32.89141295420018
 20
31.26436476820891
 30
0.0
 40
12.70000000000014
100
AcDbArc
 50
82.54991629590639
 51
143.5992722168695
  0
ARC
  5
2379
330
228C
100
AcDbEntity
  8
Visible Edges(ISO)
100
AcDbCircle
 10
34.66778772938915
 20
44.84871210836774
 30
0.0
 40
1.000000000000007
100
AcDbArc
 50
262.5499162959064
 51
315.9091171760239
  0
CIRCLE
  5
237A
330
228C
100
AcDbEntity
  8
Visible Edges(ISO)
100
AcDbCircle
 10
21.26766253580399
 20
43.71661059821303
 30
0.0
 40
1.400000000000015
  0
LINE
  5
237B
330
228C
100
AcDbEntity
  8
Visible Edges(ISO)
100
AcDbLine
 10
37.69011361764615
 20
46.03028742622939
 30
0.0
 11
37.28463428542318
 21
44.48251919062715
 31
0.0
  0
LINE
  5
237C
330
228C
100
AcDbEntity
  8
Visible Edges(ISO)
100
AcDbLine
 10
12.75986414343515
 20
50.70069010196994
 30
0.0
 11
6.472055686301018
 21
52.34794988913041
 31
0.0
  0
LINE
  5
237D
330
228C
100
AcDbEntity
  8
Visible Edges(ISO)
100
AcDbLine
 10
6.472055686301018
 20
52.34794988913041
 30
0.0
 11
5.939864062757123
 21
50.31650407990253
 31
0.0
  0
LINE
  5
237E
330
228C
100
AcDbEntity
  8
Visible Edges(ISO)
100
AcDbLine
 10
12.60780939384995
 20
50.12027701361933
 30
0.0
 11
12.75986414343515
 21
50.70069010196994
 31
0.0
  0
LINE
  5
237F
330
228C
100
AcDbEntity
  8
Visible Edges(ISO)
100
AcDbLine
 10
4.827379127381163
 20
46.07000195582395
 30
0.0
 11
5.002193106988215
 21
46.7372900350723
 31
0.0
  0
LINE
  5
2380
330
228C
100
AcDbEntity
  8
Visible Edges(ISO)
100
AcDbLine
 10
5.711781938381136
 20
49.44588444737622
 30
0.0
 11
5.939864062757123
 21
50.31650407990253
 31
0.0
  0
LINE
  5
2381
330
228C
100
AcDbEntity
  8
Visible Edges(ISO)
100
AcDbLine
 10
10.47904289967414
 20
41.99449377670759
 30
0.0
 11
10.40301552488222
 21
41.70428723253223
 31
0.0
  0
LINE
  5
2382
330
228C
100
AcDbEntity
  8
Visible Edges(ISO)
100
AcDbLine
 10
3.596686216595117
 20
41.37228435663701
 30
0.0
 11
3.98971775022801
 21
42.87253769879703
 31
0.0
  0
SPLINE
  5
2383
330
228C
100
AcDbEntity
  8
Visible Edges(ISO)
100
AcDbSpline
210
0.0
220
0.0
230
1.0
 70
     8
 71
     3
 72
     8
 73
     4
 74
     0
 42
0.0000000001
 43
0.0000000001
 40
-0.2386057459238637
 40
-0.2386057459238637
 40
-0.2386057459238637
 40
-0.2386057459238637
 40
-0.2284121227312375
 40
-0.2284121227312375
 40
-0.2284121227312375
 40
-0.2284121227312375
 10
4.013426259067045
 20
42.87258381756498
 30
0.0
 10
4.015748855153105
 20
42.86444064226611
 30
0.0
 10
4.019599091525151
 20
42.8597208378809
 30
0.0
 10
4.024780665991102
 20
42.858363385708
 30
0.0
  0
LINE
  5
2384
330
228C
100
AcDbEntity
  8
Visible Edges(ISO)
100
AcDbLine
 10
23.62580426563113
 20
37.72335041847384
 30
0.0
 11
23.75251655695115
 21
38.2070279920996
 31
0.0
  0
LINE
  5
2385
330
228C
100
AcDbEntity
  8
Visible Edges(ISO)
100
AcDbLine
 10
16.46769983497006
 20
39.59992777921468
 30
0.0
 11
16.59408846729116
 21
40.08236990363582
 31
0.0
  0
LINE
  5
2386
330
228C
100
AcDbEntity
  8
Visible Edges(ISO)
100
AcDbLine
 10
16.46769983497006
 20
39.59992777921468
 30
0.0
 11
10.27662689256203
 21
41.22184510811098
 31
0.0
  0
LINE
  5
2387
330
228C
100
AcDbEntity
  8
Visible Edges(ISO)
100
AcDbLine
 10
10.40301552488222
 20
41.70428723253223
 30
0.0
 11
10.27662689256203
 21
41.22184510811098
 31
0.0
  0
SPLINE
  5
2388
330
228C
100
AcDbEntity
  8
Visible Edges(ISO)
100
AcDbSpline
210
0.0
220
0.0
230
1.0
 70
     8
 71
     3
 72
     8
 73
     4
 74
     0
 42
0.0000000001
 43
0.0000000001
 40
-0.3229320565119527
 40
-0.3229320565119527
 40
-0.3229320565119527
 40
-0.3229320565119527
 40
-0.2761446812655437
 40
-0.2761446812655437
 40
-0.2761446812655437
 40
-0.2761446812655437
 10
3.619301333766088
 20
41.31059515010588
 30
0.0
 10
3.595518595841213
 20
41.31682567511006
 30
0.0
 10
3.58830242969816
 20
41.33743564731889
 30
0.0
 10
3.596686216595117
 20
41.37228435663701
 30
0.0
  0
LINE
  5
2389
330
228C
100
AcDbEntity
  8
Visible Edges(ISO)
100
AcDbLine
 10
3.619301333766088
 20
41.31059515010588
 30
0.0
 11
4.619669177498963
 21
41.04852200767743
 31
0.0
  0
LINE
  5
238A
330
228C
100
AcDbEntity
  8
Visible Edges(ISO)
100
AcDbLine
 10
5.025148509723067
 20
42.59629024327944
 30
0.0
 11
4.024780665991102
 21
42.858363385708
 31
0.0
  0
LINE
  5
238B
330
228C
100
AcDbEntity
  8
Visible Edges(ISO)
100
AcDbLine
 10
16.09457634001501
 20
39.69635722909504
 30
0.0
 11
5.025148509723067
 21
42.59629024327944
 31
0.0
  0
LINE
  5
238C
330
228C
100
AcDbEntity
  8
Visible Edges(ISO)
100
AcDbLine
 10
16.09457634001501
 20
39.69635722909504
 30
0.0
 11
18.41077936754823
 21
39.08956582758106
 31
0.0
  0
LINE
  5
238D
330
228C
100
AcDbEntity
  8
Visible Edges(ISO)
100
AcDbLine
 10
19.74769077955216
 20
38.73932608618304
 30
0.0
 11
18.41077936754823
 21
39.08956582758106
 31
0.0
  0
LINE
  5
238E
330
228C
100
AcDbEntity
  8
Visible Edges(ISO)
100
AcDbLine
 10
23.62580426563113
 20
37.72335041847396
 30
0.0
 11
19.74769077955216
 21
38.73932608618304
 31
0.0
  0
LINE
  5
238F
330
228C
100
AcDbEntity
  8
Visible Edges(ISO)
100
AcDbLine
 10
16.59408846729116
 20
40.08236990363605
 30
0.0
 11
16.67011584208308
 21
40.3725764478113
 31
0.0
  0
LINE
  5
2390
330
228C
100
AcDbEntity
  8
Visible Edges(ISO)
100
AcDbLine
 10
23.75251655695115
 20
38.2070279920996
 30
0.0
 11
24.41015289603502
 21
40.71731287056218
 31
0.0
  0
ARC
  5
2391
330
228C
100
AcDbEntity
  8
Visible Edges(ISO)
100
AcDbCircle
 10
21.24232007754017
 20
43.61987508348818
 30
0.0
 40
1.400000000000019
100
AcDbArc
 50
347.3664587879645
 51
163.273032592623
  0
LINE
  5
2392
330
228C
100
AcDbEntity
  8
Visible Edges(ISO)
100
AcDbLine
 10
15.68909700779113
 20
38.14858899349247
 30
0.0
 11
13.40167018879106
 21
38.74784169667191
 31
0.0
  0
LINE
  5
2393
330
228C
100
AcDbEntity
  8
Visible Edges(ISO)
100
AcDbLine
 10
7.317936852653247
 20
40.34163854158953
 30
0.0
 11
4.619669177498963
 21
41.04852200767743
 31
0.0
  0
LINE
  5
2394
330
228C
100
AcDbEntity
  8
Visible Edges(ISO)
100
AcDbLine
 10
23.22032493340703
 20
36.17558218287172
 30
0.0
 11
19.34221144732805
 21
37.19155785058058
 31
0.0
  0
LINE
  5
2395
330
228C
100
AcDbEntity
  8
Visible Edges(ISO)
100
AcDbLine
 10
19.34221144732805
 20
37.19155785058058
 30
0.0
 11
18.00530003532412
 21
37.54179759197894
 31
0.0
  0
LINE
  5
2396
330
228C
100
AcDbEntity
  8
Visible Edges(ISO)
100
AcDbLine
 10
15.68909700779113
 20
38.14858899349247
 30
0.0
 11
18.00530003532412
 21
37.54179759197894
 31
0.0
  0
LINE
  5
2397
330
228C
100
AcDbEntity
  8
Visible Edges(ISO)
100
AcDbLine
 10
19.74769077955216
 20
38.73932608618304
 30
0.0
 11
19.34221144732805
 21
37.19155785058058
 31
0.0
  0
LINE
  5
2398
330
228C
100
AcDbEntity
  8
Visible Edges(ISO)
100
AcDbLine
 10
18.00530003532412
 20
37.54179759197894
 30
0.0
 11
18.41077936754823
 21
39.08956582758106
 31
0.0
  0
LINE
  5
2399
330
228C
100
AcDbEntity
  8
Visible Edges(ISO)
100
AcDbLine
 10
23.62580426563113
 20
37.72335041847384
 30
0.0
 11
23.22032493340703
 21
36.17558218287161
 31
0.0
  0
ARC
  5
239A
330
228C
100
AcDbEntity
  8
Visible Edges(ISO)
100
AcDbCircle
 10
-0.0000000000147793
 20
-0.0000000000137561
 30
0.0
 40
38.45000000001327
100
AcDbArc
 50
100.2814117277795
 51
102.944394723844
  0
ARC
  5
239B
330
228C
100
AcDbEntity
  8
Visible Edges(ISO)
100
AcDbCircle
 10
-0.0000000000179625
 20
0.0000000000004547
 30
0.0
 40
38.44999999999847
100
AcDbArc
 50
111.8943149535783
 51
114.5572979496505
  0
ARC
  5
239C
330
228C
100
AcDbEntity
  8
Visible Edges(ISO)
100
AcDbCircle
 10
-0.0000000000238742
 20
0.0000000000079581
 30
0.0
 40
38.44999999998928
100
AcDbArc
 50
123.5072181793938
 51
126.1702011754546
  0
ARC
  5
239D
330
228C
100
AcDbEntity
  8
Visible Edges(ISO)
100
AcDbCircle
 10
-0.0000000000159162
 20
-0.0000000000019327
 30
0.0
 40
38.45000000000153
100
AcDbArc
 50
135.1201214052018
 51
137.7831044012623
  0
ARC
  5
239E
330
228C
100
AcDbEntity
  8
Visible Edges(ISO)
100
AcDbCircle
 10
-0.0000000000268301
 20
0.0000000000052296
 30
0.0
 40
38.44999999998876
100
AcDbArc
 50
146.7330246309993
 51
149.3960076270678
  0
ARC
  5
239F
330
228C
100
AcDbEntity
  8
Visible Edges(ISO)
100
AcDbCircle
 10
-0.0000000000168257
 20
-0.0000000000005684
 30
0.0
 40
38.44999999999983
100
AcDbArc
 50
158.3459278568054
 51
161.0089108528749
  0
ARC
  5
23A0
330
228C
100
AcDbEntity
  8
Visible Edges(ISO)
100
AcDbCircle
 10
-0.0000000000218279
 20
0.0
 30
0.0
 40
38.44999999999532
100
AcDbArc
 50
169.9588310826108
 51
172.6218140786815
  0
ARC
  5
23A1
330
228C
100
AcDbEntity
  8
Visible Edges(ISO)
100
AcDbCircle
 10
0.0
 20
0.0
 30
0.0
 40
38.45000000001697
100
AcDbArc
 50
181.571734308421
 51
184.2347173044822
  0
ARC
  5
23A2
330
228C
100
AcDbEntity
  8
Visible Edges(ISO)
100
AcDbCircle
 10
-0.0000000000209184
 20
-0.0000000000019327
 30
0.0
 40
38.44999999999642
100
AcDbArc
 50
193.1846375342258
 51
195.847620530291
  0
ARC
  5
23A3
330
228C
100
AcDbEntity
  8
Visible Edges(ISO)
100
AcDbCircle
 10
-0.0000000000168257
 20
-0.0000000000005684
 30
0.0
 40
38.4500000000005
100
AcDbArc
 50
204.7975407600365
 51
207.4605237561015
  0
ARC
  5
23A4
330
228C
100
AcDbEntity
  8
Visible Edges(ISO)
100
AcDbCircle
 10
-0.0000000000227374
 20
-0.0000000000052296
 30
0.0
 40
38.44999999999259
100
AcDbArc
 50
216.4104439858393
 51
219.0734269819018
  0
ARC
  5
23A5
330
228C
100
AcDbEntity
  8
Visible Edges(ISO)
100
AcDbCircle
 10
-0.0000000000218279
 20
-0.0000000000067075
 30
0.0
 40
38.44999999999231
100
AcDbArc
 50
228.0233472116409
 51
230.6863302077119
  0
ARC
  5
23A6
330
228C
100
AcDbEntity
  8
Visible Edges(ISO)
100
AcDbCircle
 10
-0.0000000000138698
 20
0.000000000005798
 30
0.0
 40
38.45000000000732
100
AcDbArc
 50
239.6362504374549
 51
242.2992334335265
  0
ARC
  5
23A7
330
228C
100
AcDbEntity
  8
Visible Edges(ISO)
100
AcDbCircle
 10
-0.0000000000197815
 20
-0.0000000000088676
 30
0.0
 40
38.44999999999149
100
AcDbArc
 50
251.249153663261
 51
253.9121366593212
  0
ARC
  5
23A8
330
228C
100
AcDbEntity
  8
Visible Edges(ISO)
100
AcDbCircle
 10
-0.0000000000179625
 20
-0.0000000000040927
 30
0.0
 40
38.44999999999675
100
AcDbArc
 50
262.8620568890577
 51
265.52503988513
  0
ARC
  5
23A9
330
228C
100
AcDbEntity
  8
Visible Edges(ISO)
100
AcDbCircle
 10
-0.0000000000168257
 20
-0.0000000000027285
 30
0.0
 40
38.44999999999826
100
AcDbArc
 50
274.47496011487
 51
277.1379431109422
  0
ARC
  5
23AA
330
228C
100
AcDbEntity
  8
Visible Edges(ISO)
100
AcDbCircle
 10
-0.0000000000129603
 20
-0.0000000000135287
 30
0.0
 40
38.44999999998665
100
AcDbArc
 50
286.0878633406788
 51
288.7508463367391
  0
ARC
  5
23AB
330
228C
100
AcDbEntity
  8
Visible Edges(ISO)
100
AcDbCircle
 10
-0.0000000000179625
 20
0.0
 30
0.0
 40
38.45000000000111
100
AcDbArc
 50
297.7007665664736
 51
300.3637495625451
  0
ARC
  5
23AC
330
228C
100
AcDbEntity
  8
Visible Edges(ISO)
100
AcDbCircle
 10
-0.0000000000059117
 20
-0.0000000000138698
 30
0.0
 40
38.44999999998267
100
AcDbArc
 50
309.3136697922881
 51
311.9766527883591
  0
ARC
  5
23AD
330
228C
100
AcDbEntity
  8
Visible Edges(ISO)
100
AcDbCircle
 10
-0.0000000000268301
 20
0.0000000000070486
 30
0.0
 40
38.45000000001244
100
AcDbArc
 50
320.9265730180982
 51
323.5895560141607
  0
ARC
  5
23AE
330
228C
100
AcDbEntity
  8
Visible Edges(ISO)
100
AcDbCircle
 10
-0.0000000000179625
 20
-0.0000000000005684
 30
0.0
 40
38.45000000000048
100
AcDbArc
 50
332.5394762438985
 51
335.2024592399635
  0
ARC
  5
23AF
330
228C
100
AcDbEntity
  8
Visible Edges(ISO)
100
AcDbCircle
 10
-0.0000000000009095
 20
-0.0000000000050022
 30
0.0
 40
38.4499999999832
100
AcDbArc
 50
344.152379469709
 51
346.8153624657742
  0
ARC
  5
23B0
330
228C
100
AcDbEntity
  8
Visible Edges(ISO)
100
AcDbCircle
 10
-0.0000000000129603
 20
-0.0000000000010232
 30
0.0
 40
38.44999999999526
100
AcDbArc
 50
355.7652826955178
 51
358.4282656915791
  0
ARC
  5
23B1
330
228C
100
AcDbEntity
  8
Visible Edges(ISO)
100
AcDbCircle
 10
-0.0000000000329692
 20
-0.0000000000031832
 30
0.0
 40
38.45000000001557
100
AcDbArc
 50
7.378185921324949
 51
10.04116891738916
  0
ARC
  5
23B2
330
228C
100
AcDbEntity
  8
Visible Edges(ISO)
100
AcDbCircle
 10
-0.0000000000227374
 20
-0.0000000000027285
 30
0.0
 40
38.45000000000583
100
AcDbArc
 50
18.99108914713122
 51
21.6540721431946
  0
ARC
  5
23B3
330
228C
100
AcDbEntity
  8
Visible Edges(ISO)
100
AcDbCircle
 10
-0.0000000000338787
 20
-0.0000000000110276
 30
0.0
 40
38.45000000001952
100
AcDbArc
 50
30.60399237293219
 51
33.26697536900072
  0
ARC
  5
23B4
330
228C
100
AcDbEntity
  8
Visible Edges(ISO)
100
AcDbCircle
 10
-0.0000000000129603
 20
0.0000000000035243
 30
0.0
 40
38.44999999999347
100
AcDbArc
 50
42.2168955987377
 51
44.87987859481193
  0
ARC
  5
23B5
330
228C
100
AcDbEntity
  8
Visible Edges(ISO)
100
AcDbCircle
 10
-0.0000000000088676
 20
0.0000000000108002
 30
0.0
 40
38.44999999998578
100
AcDbArc
 50
53.82979882454536
 51
56.49278182060614
  0
ARC
  5
23B6
330
228C
100
AcDbEntity
  8
Visible Edges(ISO)
100
AcDbCircle
 10
-0.0000000000227374
 20
-0.0000000000145519
 30
0.0
 40
38.45000000001486
100
AcDbArc
 50
65.44270205034944
 51
68.10568504642167
  0
ARC
  5
23B7
330
228C
100
AcDbEntity
  8
Visible Edges(ISO)
100
AcDbCircle
 10
-0.0000000000120508
 20
0.0000000000236469
 30
0.0
 40
38.44999999997492
100
AcDbArc
 50
77.05560527615594
 51
79.71858827222051
  0
ARC
  5
23B8
330
228C
100
AcDbEntity
  8
Visible Edges(ISO)
100
AcDbCircle
 10
-0.0000000000179625
 20
-0.0000000000027285
 30
0.0
 40
40.95000000000202
100
AcDbArc
 50
76.78190194749098
 51
79.99229160090443
  0
ARC
  5
23B9
330
228C
100
AcDbEntity
  8
Visible Edges(ISO)
100
AcDbCircle
 10
-0.0000000000168257
 20
0.0
 30
0.0
 40
40.94999999999914
100
AcDbArc
 50
65.16899872168727
 51
68.37938837509231
  0
ARC
  5
23BA
330
228C
100
AcDbEntity
  8
Visible Edges(ISO)
100
AcDbCircle
 10
-0.0000000000109139
 20
0.0000000000084128
 30
0.0
 40
40.94999999998878
100
AcDbArc
 50
53.55609549587879
 51
56.76648514927755
  0
ARC
  5
23BB
330
228C
100
AcDbEntity
  8
Visible Edges(ISO)
100
AcDbCircle
 10
-0.0000000000147793
 20
0.0000000000009095
 30
0.0
 40
40.94999999999742
100
AcDbArc
 50
41.94319227006695
 51
45.1535819234825
  0
ARC
  5
23BC
330
228C
100
AcDbEntity
  8
Visible Edges(ISO)
100
AcDbCircle
 10
-0.0000000000179625
 20
-0.0000000000013642
 30
0.0
 40
40.95000000000104
100
AcDbArc
 50
30.33028904426711
 51
33.54067869767428
  0
ARC
  5
23BD
330
228C
100
AcDbEntity
  8
Visible Edges(ISO)
100
AcDbCircle
 10
-0.0000000000238742
 20
-0.0000000000030695
 30
0.0
 40
40.95000000000658
100
AcDbArc
 50
18.71738581846102
 51
21.92777547186688
  0
ARC
  5
23BE
330
228C
100
AcDbEntity
  8
Visible Edges(ISO)
100
AcDbCircle
 10
-0.0000000000109139
 20
0.0000000000004547
 30
0.0
 40
40.9499999999934
100
AcDbArc
 50
7.104482592650018
 51
10.31487224605755
  0
ARC
  5
23BF
330
228C
100
AcDbEntity
  8
Visible Edges(ISO)
100
AcDbCircle
 10
-0.0000000000100044
 20
-0.0000000000013642
 30
0.0
 40
40.9499999999929
100
AcDbArc
 50
355.491579366845
 51
358.7019690202512
  0
ARC
  5
23C0
330
228C
100
AcDbEntity
  8
Visible Edges(ISO)
100
AcDbCircle
 10
-0.0000000000159162
 20
-0.0000000000010232
 30
0.0
 40
40.94999999999902
100
AcDbArc
 50
343.8786761410406
 51
347.0890657944468
  0
ARC
  5
23C1
330
228C
100
AcDbEntity
  8
Visible Edges(ISO)
100
AcDbCircle
 10
-0.0000000000077307
 20
-0.0000000000052296
 30
0.0
 40
40.94999999998973
100
AcDbArc
 50
332.265772915228
 51
335.4761625686383
  0
ARC
  5
23C2
330
228C
100
AcDbEntity
  8
Visible Edges(ISO)
100
AcDbCircle
 10
-0.0000000000259206
 20
0.0000000000061391
 30
0.0
 40
40.95000000001132
100
AcDbArc
 50
320.6528696894184
 51
323.8632593428369
  0
ARC
  5
23C3
330
228C
100
AcDbEntity
  8
Visible Edges(ISO)
100
AcDbCircle
 10
-0.0000000000209184
 20
0.0000000000035243
 30
0.0
 40
40.95000000000534
100
AcDbArc
 50
309.0399664636147
 51
312.2503561170262
  0
ARC
  5
23C4
330
228C
100
AcDbEntity
  8
Visible Edges(ISO)
100
AcDbCircle
 10
-0.0000000000209184
 20
0.0000000000059117
 30
0.0
 40
40.95000000000765
100
AcDbArc
 50
297.4270632378161
 51
300.637452891213
  0
ARC
  5
23C5
330
228C
100
AcDbEntity
  8
Visible Edges(ISO)
100
AcDbCircle
 10
-0.0000000000147793
 20
-0.0000000000080718
 30
0.0
 40
40.94999999999243
100
AcDbArc
 50
285.8141600120052
 51
289.0245496654238
  0
ARC
  5
23C6
330
228C
100
AcDbEntity
  8
Visible Edges(ISO)
100
AcDbCircle
 10
-0.000000000018872
 20
0.0000000000172804
 30
0.0
 40
40.95000000001802
100
AcDbArc
 50
274.2012567861894
 51
277.4116464396099
  0
ARC
  5
23C7
330
228C
100
AcDbEntity
  8
Visible Edges(ISO)
100
AcDbCircle
 10
-0.0000000000179625
 20
-0.000000000003979
 30
0.0
 40
40.94999999999695
100
AcDbArc
 50
262.5883535603902
 51
265.7987432138106
  0
ARC
  5
23C8
330
228C
100
AcDbEntity
  8
Visible Edges(ISO)
100
AcDbCircle
 10
-0.0000000000168257
 20
0.0
 30
0.0
 40
40.95000000000071
100
AcDbArc
 50
250.9754503345762
 51
254.1858399879948
  0
ARC
  5
23C9
330
228C
100
AcDbEntity
  8
Visible Edges(ISO)
100
AcDbCircle
 10
-0.0000000000209184
 20
-0.0000000000075033
 30
0.0
 40
40.94999999999243
100
AcDbArc
 50
239.362547108787
 51
242.5729367621839
  0
ARC
  5
23CA
330
228C
100
AcDbEntity
  8
Visible Edges(ISO)
100
AcDbCircle
 10
-0.0000000000179625
 20
-0.0000000000014779
 30
0.0
 40
40.94999999999894
100
AcDbArc
 50
227.7496438829738
 51
230.9600335363853
  0
ARC
  5
23CB
330
228C
100
AcDbEntity
  8
Visible Edges(ISO)
100
AcDbCircle
 10
-0.0000000000259206
 20
-0.0000000000075033
 30
0.0
 40
40.94999999998868
100
AcDbArc
 50
216.1367406571632
 51
219.3471303105816
  0
ARC
  5
23CC
330
228C
100
AcDbEntity
  8
Visible Edges(ISO)
100
AcDbCircle
 10
-0.0000000000168257
 20
-0.0000000000003411
 30
0.0
 40
40.95000000000065
100
AcDbArc
 50
204.5238374313617
 51
207.734227084772
  0
ARC
  5
23CD
330
228C
100
AcDbEntity
  8
Visible Edges(ISO)
100
AcDbCircle
 10
-0.0000000000347882
 20
-0.000000000005457
 30
0.0
 40
40.94999999998207
100
AcDbArc
 50
192.9109342055532
 51
196.1213238589594
  0
ARC
  5
23CE
330
228C
100
AcDbEntity
  8
Visible Edges(ISO)
100
AcDbCircle
 10
-0.0000000000050022
 20
-0.0000000000001137
 30
0.0
 40
40.95000000001257
100
AcDbArc
 50
181.2980309797488
 51
184.5084206331549
  0
ARC
  5
23CF
330
228C
100
AcDbEntity
  8
Visible Edges(ISO)
100
AcDbCircle
 10
0.0000000000052296
 20
-0.0000000000043201
 30
0.0
 40
40.95000000002264
100
AcDbArc
 50
169.6851277539424
 51
172.89551740735
  0
ARC
  5
23D0
330
228C
100
AcDbEntity
  8
Visible Edges(ISO)
100
AcDbCircle
 10
-0.0000000000259206
 20
0.0000000000022737
 30
0.0
 40
40.94999999999067
100
AcDbArc
 50
158.0722245281331
 51
161.2826141815451
  0
ARC
  5
23D1
330
228C
100
AcDbEntity
  8
Visible Edges(ISO)
100
AcDbCircle
 10
-0.0000000000159162
 20
-0.0000000000013642
 30
0.0
 40
40.95000000000108
100
AcDbArc
 50
146.4593213023257
 51
149.6697109557329
  0
ARC
  5
23D2
330
228C
100
AcDbEntity
  8
Visible Edges(ISO)
100
AcDbCircle
 10
-0.0000000000068212
 20
-0.0000000000101181
 30
0.0
 40
40.95000000001359
100
AcDbArc
 50
134.8464180765175
 51
138.056807729933
  0
ARC
  5
23D3
330
228C
100
AcDbEntity
  8
Visible Edges(ISO)
100
AcDbCircle
 10
-0.0000000000109139
 20
-0.0000000000098908
 30
0.0
 40
40.95000000001122
100
AcDbArc
 50
123.2335148507224
 51
126.4439045041212
  0
ARC
  5
23D4
330
228C
100
AcDbEntity
  8
Visible Edges(ISO)
100
AcDbCircle
 10
-0.0000000000227374
 20
0.0000000000114824
 30
0.0
 40
40.94999999998669
100
AcDbArc
 50
111.6206116249077
 51
114.8310012783127
  0
ARC
  5
23D5
330
228C
100
AcDbEntity
  8
Visible Edges(ISO)
100
AcDbCircle
 10
-0.0000000000168257
 20
-0.0000000000035243
 30
0.0
 40
40.9500000000026
100
AcDbArc
 50
100.0077083990956
 51
103.218098052509
  0
ARC
  5
23D6
330
228C
100
AcDbEntity
  8
Visible Edges(ISO)
100
AcDbCircle
 10
-0.0000000000147793
 20
0.0000000000098908
 30
0.0
 40
38.4499999999889
100
AcDbArc
 50
77.05560527615594
 51
79.71858827222051
  0
ARC
  5
23D7
330
228C
100
AcDbEntity
  8
Visible Edges(ISO)
100
AcDbCircle
 10
-0.0000000000159162
 20
0.0000000000026148
 30
0.0
 40
38.44999999999645
100
AcDbArc
 50
65.44270205034944
 51
68.10568504642167
  0
ARC
  5
23D8
330
228C
100
AcDbEntity
  8
Visible Edges(ISO)
100
AcDbCircle
 10
-0.0000000000059117
 20
0.0000000000147793
 30
0.0
 40
38.44999999998093
100
AcDbArc
 50
53.82979882454536
 51
56.49278182060614
  0
ARC
  5
23D9
330
228C
100
AcDbEntity
  8
Visible Edges(ISO)
100
AcDbCircle
 10
-0.0000000000077307
 20
0.0000000000081855
 30
0.0
 40
38.44999999998708
100
AcDbArc
 50
42.2168955987377
 51
44.87987859481193
  0
ARC
  5
23DA
330
228C
100
AcDbEntity
  8
Visible Edges(ISO)
100
AcDbCircle
 10
-0.0000000000218279
 20
-0.0000000000040927
 30
0.0
 40
38.45000000000587
100
AcDbArc
 50
30.60399237293219
 51
33.26697536900072
  0
ARC
  5
23DB
330
228C
100
AcDbEntity
  8
Visible Edges(ISO)
100
AcDbCircle
 10
-0.0000000000300133
 20
-0.000000000005457
 30
0.0
 40
38.45000000001375
100
AcDbArc
 50
18.99108914713122
 51
21.6540721431946
  0
ARC
  5
23DC
330
228C
100
AcDbEntity
  8
Visible Edges(ISO)
100
AcDbCircle
 10
-0.0000000000329692
 20
-0.0000000000031832
 30
0.0
 40
38.45000000001551
100
AcDbArc
 50
7.378185921324949
 51
10.04116891738916
  0
ARC
  5
23DD
330
228C
100
AcDbEntity
  8
Visible Edges(ISO)
100
AcDbCircle
 10
-0.0000000000109139
 20
-0.0000000000010232
 30
0.0
 40
38.44999999999352
100
AcDbArc
 50
355.7652826955178
 51
358.4282656915791
  0
ARC
  5
23DE
330
228C
100
AcDbEntity
  8
Visible Edges(ISO)
100
AcDbCircle
 10
-0.0000000000138698
 20
-0.0000000000019327
 30
0.0
 40
38.44999999999629
100
AcDbArc
 50
344.152379469709
 51
346.8153624657742
  0
ARC
  5
23DF
330
228C
100
AcDbEntity
  8
Visible Edges(ISO)
100
AcDbCircle
 10
-0.0000000000168257
 20
-0.0000000000010232
 30
0.0
 40
38.44999999999937
100
AcDbArc
 50
332.5394762439043
 51
335.2024592399635
  0
ARC
  5
23E0
330
228C
100
AcDbEntity
  8
Visible Edges(ISO)
100
AcDbCircle
 10
-0.0000000000159162
 20
-0.0000000000014779
 30
0.0
 40
38.44999999999897
100
AcDbArc
 50
320.9265730180982
 51
323.5895560141659
  0
ARC
  5
23E1
330
228C
100
AcDbEntity
  8
Visible Edges(ISO)
100
AcDbCircle
 10
-0.0000000000029559
 20
-0.0000000000172804
 30
0.0
 40
38.44999999997839
100
AcDbArc
 50
309.3136697922881
 51
311.9766527883591
  0
ARC
  5
23E2
330
228C
100
AcDbEntity
  8
Visible Edges(ISO)
100
AcDbCircle
 10
-0.0000000000147793
 20
-0.0000000000043201
 30
0.0
 40
38.449999999996
100
AcDbArc
 50
297.7007665664736
 51
300.3637495625451
  0
ARC
  5
23E3
330
228C
100
AcDbEntity
  8
Visible Edges(ISO)
100
AcDbCircle
 10
-0.0000000000159162
 20
-0.0000000000035243
 30
0.0
 40
38.44999999999725
100
AcDbArc
 50
286.0878633406788
 51
288.7508463367391
  0
ARC
  5
23E4
330
228C
100
AcDbEntity
  8
Visible Edges(ISO)
100
AcDbCircle
 10
-0.0000000000159162
 20
-0.0000000000067075
 30
0.0
 40
38.44999999999423
100
AcDbArc
 50
274.47496011487
 51
277.1379431109422
  0
ARC
  5
23E5
330
228C
100
AcDbEntity
  8
Visible Edges(ISO)
100
AcDbCircle
 10
-0.000000000018872
 20
-0.0000000000164846
 30
0.0
 40
38.44999999998434
100
AcDbArc
 50
262.8620568890577
 51
265.52503988513
  0
ARC
  5
23E6
330
228C
100
AcDbEntity
  8
Visible Edges(ISO)
100
AcDbCircle
 10
-0.0000000000179625
 20
-0.0000000000014779
 30
0.0
 40
38.44999999999919
100
AcDbArc
 50
251.249153663261
 51
253.9121366593212
  0
ARC
  5
23E7
330
228C
100
AcDbEntity
  8
Visible Edges(ISO)
100
AcDbCircle
 10
-0.0000000000147793
 20
0.0000000000029559
 30
0.0
 40
38.45000000000418
100
AcDbArc
 50
239.6362504374549
 51
242.2992334335265
  0
ARC
  5
23E8
330
228C
100
AcDbEntity
  8
Visible Edges(ISO)
100
AcDbCircle
 10
-0.0000000000109139
 20
0.0000000000070486
 30
0.0
 40
38.45000000001012
100
AcDbArc
 50
228.0233472116409
 51
230.6863302077119
  0
ARC
  5
23E9
330
228C
100
AcDbEntity
  8
Visible Edges(ISO)
100
AcDbCircle
 10
-0.0000000000227374
 20
-0.0000000000050022
 30
0.0
 40
38.44999999999334
100
AcDbArc
 50
216.4104439858393
 51
219.0734269819018
  0
ARC
  5
23EA
330
228C
100
AcDbEntity
  8
Visible Edges(ISO)
100
AcDbCircle
 10
-0.0000000000120508
 20
0.00000000000216
 30
0.0
 40
38.45000000000656
100
AcDbArc
 50
204.7975407600365
 51
207.4605237561015
  0
ARC
  5
23EB
330
228C
100
AcDbEntity
  8
Visible Edges(ISO)
100
AcDbCircle
 10
-0.0000000000218279
 20
-0.0000000000019327
 30
0.0
 40
38.4499999999955
100
AcDbArc
 50
193.1846375342258
 51
195.847620530291
  0
ARC
  5
23EC
330
228C
100
AcDbEntity
  8
Visible Edges(ISO)
100
AcDbCircle
 10
-0.0000000000038654
 20
0.0
 30
0.0
 40
38.45000000001356
100
AcDbArc
 50
181.571734308421
 51
184.2347173044822
  0
ARC
  5
23ED
330
228C
100
AcDbEntity
  8
Visible Edges(ISO)
100
AcDbCircle
 10
-0.0000000000238742
 20
0.0
 30
0.0
 40
38.44999999999338
100
AcDbArc
 50
169.9588310826108
 51
172.6218140786815
  0
ARC
  5
23EE
330
228C
100
AcDbEntity
  8
Visible Edges(ISO)
100
AcDbCircle
 10
-0.0000000000347882
 20
0.000000000005457
 30
0.0
 40
38.44999999998159
100
AcDbArc
 50
158.3459278568054
 51
161.0089108528749
  0
ARC
  5
23EF
330
228C
100
AcDbEntity
  8
Visible Edges(ISO)
100
AcDbCircle
 10
-0.000000000018872
 20
0.0
 30
0.0
 40
38.44999999999828
100
AcDbArc
 50
146.7330246309993
 51
149.3960076270678
  0
ARC
  5
23F0
330
228C
100
AcDbEntity
  8
Visible Edges(ISO)
100
AcDbCircle
 10
-0.0000000000227374
 20
0.0000000000044338
 30
0.0
 40
38.4499999999924
100
AcDbArc
 50
135.1201214051881
 51
137.7831044012623
  0
ARC
  5
23F1
330
228C
100
AcDbEntity
  8
Visible Edges(ISO)
100
AcDbCircle
 10
-0.0000000000250111
 20
0.000000000009436
 30
0.0
 40
38.44999999998741
100
AcDbArc
 50
123.5072181793938
 51
126.1702011754546
  0
ARC
  5
23F2
330
228C
100
AcDbEntity
  8
Visible Edges(ISO)
100
AcDbCircle
 10
-0.0000000000197815
 20
0.0000000000048885
 30
0.0
 40
38.44999999999387
100
AcDbArc
 50
111.8943149535783
 51
114.5572979496505
  0
ARC
  5
23F3
330
228C
100
AcDbEntity
  8
Visible Edges(ISO)
100
AcDbCircle
 10
-0.0000000000138698
 20
-0.0000000000151203
 30
0.0
 40
38.45000000001446
100
AcDbArc
 50
100.2814117277795
 51
102.944394723844
  0
ARC
  5
23F4
330
228C
100
AcDbEntity
  8
Visible Edges(ISO)
100
AcDbCircle
 10
-0.0000000000109139
 20
-0.0000000000309228
 30
0.0
 40
35.95000000003091
100
AcDbArc
 50
100.5933073503546
 51
102.6324991012526
  0
ARC
  5
23F5
330
228C
100
AcDbEntity
  8
Visible Edges(ISO)
100
AcDbCircle
 10
-0.0000000000168257
 20
-0.0000000000010232
 30
0.0
 40
35.95000000000048
100
AcDbArc
 50
112.206210576164
 51
114.2454023270655
  0
ARC
  5
23F6
330
228C
100
AcDbEntity
  8
Visible Edges(ISO)
100
AcDbCircle
 10
-0.0000000000379714
 20
0.0000000000284217
 30
0.0
 40
35.94999999996435
100
AcDbArc
 50
123.8191138019613
 51
125.8583055528711
  0
ARC
  5
23F7
330
228C
100
AcDbEntity
  8
Visible Edges(ISO)
100
AcDbCircle
 10
-0.0000000000418368
 20
0.0000000000226237
 30
0.0
 40
35.94999999996614
100
AcDbArc
 50
135.4320170277747
 51
137.4712087786718
  0
ARC
  5
23F8
330
228C
100
AcDbEntity
  8
Visible Edges(ISO)
100
AcDbCircle
 10
-0.0000000000218279
 20
0.00000000000216
 30
0.0
 40
35.9499999999944
100
AcDbArc
 50
147.0449202535843
 51
149.0841120044865
  0
ARC
  5
23F9
330
228C
100
AcDbEntity
  8
Visible Edges(ISO)
100
AcDbCircle
 10
-0.0000000000088676
 20
-0.0000000000040927
 30
0.0
 40
35.950000000009
100
AcDbArc
 50
158.6578234793894
 51
160.6970152302841
  0
ARC
  5
23FA
330
228C
100
AcDbEntity
  8
Visible Edges(ISO)
100
AcDbCircle
 10
-0.000000000001819
 20
-0.0000000000030695
 30
0.0
 40
35.9500000000159
100
AcDbArc
 50
170.2707267051941
 51
172.3099184560921
  0
ARC
  5
23FB
330
228C
100
AcDbEntity
  8
Visible Edges(ISO)
100
AcDbCircle
 10
0.0000000000079581
 20
0.0000000000003411
 30
0.0
 40
35.9500000000249
100
AcDbArc
 50
181.8836299310016
 51
183.9228216818972
  0
ARC
  5
23FC
330
228C
100
AcDbEntity
  8
Visible Edges(ISO)
100
AcDbCircle
 10
-0.0000000000077307
 20
0.0000000000014779
 30
0.0
 40
35.95000000000914
100
AcDbArc
 50
193.4965331568126
 51
195.5357249077041
  0
ARC
  5
23FD
330
228C
100
AcDbEntity
  8
Visible Edges(ISO)
100
AcDbCircle
 10
-0.0000000000347882
 20
-0.0000000000096634
 30
0.0
 40
35.94999999998016
100
AcDbArc
 50
205.109436382615
 51
207.148628133516
  0
ARC
  5
23FE
330
228C
100
AcDbEntity
  8
Visible Edges(ISO)
100
AcDbCircle
 10
-0.0000000000238742
 20
-0.0000000000061391
 30
0.0
 40
35.94999999999115
100
AcDbArc
 50
216.7223396084229
 51
218.7615313593256
  0
ARC
  5
23FF
330
228C
100
AcDbEntity
  8
Visible Edges(ISO)
100
AcDbCircle
 10
-0.0000000000218279
 20
-0.0000000000063665
 30
0.0
 40
35.94999999999262
100
AcDbArc
 50
228.3352428342297
 51
230.374434585128
  0
ARC
  5
2400
330
228C
100
AcDbEntity
  8
Visible Edges(ISO)
100
AcDbCircle
 10
-0.0000000000238742
 20
-0.000000000013074
 30
0.0
 40
35.94999999998612
100
AcDbArc
 50
239.9481460600339
 51
241.9873378109366
  0
ARC
  5
2401
330
228C
100
AcDbEntity
  8
Visible Edges(ISO)
100
AcDbCircle
 10
-0.0000000000138698
 20
0.0000000000098908
 30
0.0
 40
35.95000000001125
100
AcDbArc
 50
251.5610492858364
 51
253.6002410367397
  0
ARC
  5
2402
330
228C
100
AcDbEntity
  8
Visible Edges(ISO)
100
AcDbCircle
 10
-0.0000000000147793
 20
0.0000000000244427
 30
0.0
 40
35.95000000002547
100
AcDbArc
 50
263.1739525116554
 51
265.213144262547
  0
ARC
  5
2403
330
228C
100
AcDbEntity
  8
Visible Edges(ISO)
100
AcDbCircle
 10
-0.0000000000168257
 20
-0.0000000000031832
 30
0.0
 40
35.94999999999757
100
AcDbArc
 50
274.786855737453
 51
276.8260474883446
  0
ARC
  5
2404
330
228C
100
AcDbEntity
  8
Visible Edges(ISO)
100
AcDbCircle
 10
-0.0000000000168257
 20
-0.0000000000019327
 30
0.0
 40
35.94999999999879
100
AcDbArc
 50
286.3997589632603
 51
288.4389507141636
  0
ARC
  5
2405
330
228C
100
AcDbEntity
  8
Visible Edges(ISO)
100
AcDbCircle
 10
-0.0000000000088676
 20
-0.0000000000161435
 30
0.0
 40
35.94999999998235
100
AcDbArc
 50
298.0126621890633
 51
300.0518539399661
  0
ARC
  5
2406
330
228C
100
AcDbEntity
  8
Visible Edges(ISO)
100
AcDbCircle
 10
-0.0000000000059117
 20
-0.0000000000137561
 30
0.0
 40
35.94999999998285
100
AcDbArc
 50
309.6255654148719
 51
311.6647571657703
  0
ARC
  5
2407
330
228C
100
AcDbEntity
  8
Visible Edges(ISO)
100
AcDbCircle
 10
-0.0000000000197815
 20
0.0000000000009095
 30
0.0
 40
35.95000000000285
100
AcDbArc
 50
321.2384686406744
 51
323.2776603915771
  0
ARC
  5
2408
330
228C
100
AcDbEntity
  8
Visible Edges(ISO)
100
AcDbCircle
 10
-0.0000000000329692
 20
0.0000000000070486
 30
0.0
 40
35.95000000001734
100
AcDbArc
 50
332.851371866484
 51
334.8905636173851
  0
ARC
  5
2409
330
228C
100
AcDbEntity
  8
Visible Edges(ISO)
100
AcDbCircle
 10
-0.0000000000347882
 20
0.0000000000038654
 30
0.0
 40
35.95000000001798
100
AcDbArc
 50
344.4642750922959
 51
346.5034668431874
  0
ARC
  5
240A
330
228C
100
AcDbEntity
  8
Visible Edges(ISO)
100
AcDbCircle
 10
-0.0000000000120508
 20
-0.0000000000010232
 30
0.0
 40
35.94999999999446
100
AcDbArc
 50
356.0771783181027
 51
358.1163700689984
  0
ARC
  5
240B
330
228C
100
AcDbEntity
  8
Visible Edges(ISO)
100
AcDbCircle
 10
-0.0000000000197815
 20
-0.0000000000013642
 30
0.0
 40
35.95000000000316
100
AcDbArc
 50
7.690081543907909
 51
9.729273294805826
  0
ARC
  5
240C
330
228C
100
AcDbEntity
  8
Visible Edges(ISO)
100
AcDbCircle
 10
-0.0000000000197815
 20
-0.0000000000019327
 30
0.0
 40
35.95000000000299
100
AcDbArc
 50
19.30298476971582
 51
21.34217652061062
  0
ARC
  5
240D
330
228C
100
AcDbEntity
  8
Visible Edges(ISO)
100
AcDbCircle
 10
-0.0000000000168257
 20
-0.0000000000003411
 30
0.0
 40
35.94999999999922
100
AcDbArc
 50
30.91588799551352
 51
32.95507974641569
  0
ARC
  5
240E
330
228C
100
AcDbEntity
  8
Visible Edges(ISO)
100
AcDbCircle
 10
-0.0000000000527507
 20
-0.0000000000346745
 30
0.0
 40
35.95000000004934
100
AcDbArc
 50
42.52879122132818
 51
44.56798297222524
  0
ARC
  5
240F
330
228C
100
AcDbEntity
  8
Visible Edges(ISO)
100
AcDbCircle
 10
-0.0000000000218279
 20
-0.0000000000081855
 30
0.0
 40
35.95000000000908
100
AcDbArc
 50
54.14169444712888
 51
56.1808861980387
  0
ARC
  5
2410
330
228C
100
AcDbEntity
  8
Visible Edges(ISO)
100
AcDbCircle
 10
-0.0000000000259206
 20
-0.0000000000221689
 30
0.0
 40
35.95000000002339
100
AcDbArc
 50
65.75459767293441
 51
67.793789423836
  0
ARC
  5
2411
330
228C
100
AcDbEntity
  8
Visible Edges(ISO)
100
AcDbCircle
 10
-0.0000000000168257
 20
-0.0000000000001137
 30
0.0
 40
35.94999999999944
100
AcDbArc
 50
77.36750089874739
 51
79.40669264964542
  0
ARC
  5
2412
330
228C
100
AcDbEntity
  8
Visible Edges(ISO)
100
AcDbCircle
 10
-0.0000000000268301
 20
0.000000000048999
 30
0.0
 40
33.44999999994916
100
AcDbArc
 50
100.9520004526902
 51
102.2738059989323
  0
ARC
  5
2413
330
228C
100
AcDbEntity
  8
Visible Edges(ISO)
100
AcDbCircle
 10
0.0000000000102318
 20
-0.0000000000628688
 30
0.0
 40
33.45000000006741
100
AcDbArc
 50
112.5649036784831
 51
113.8867092247288
  0
ARC
  5
2414
330
228C
100
AcDbEntity
  8
Visible Edges(ISO)
100
AcDbCircle
 10
-0.0000000000309228
 20
0.0000000000187583
 30
0.0
 40
33.44999999997603
100
AcDbArc
 50
124.1778069042933
 51
125.4996124505501
  0
ARC
  5
2415
330
228C
100
AcDbEntity
  8
Visible Edges(ISO)
100
AcDbCircle
 10
-0.000000000001819
 20
-0.0000000000164846
 30
0.0
 40
33.45000000002213
100
AcDbArc
 50
135.7907101301019
 51
137.1125156763548
  0
ARC
  5
2416
330
228C
100
AcDbEntity
  8
Visible Edges(ISO)
100
AcDbCircle
 10
-0.0000000000300133
 20
0.0000000000070486
 30
0.0
 40
33.44999999998505
100
AcDbArc
 50
147.4036133559046
 51
148.7254189021615
  0
ARC
  5
2417
330
228C
100
AcDbEntity
  8
Visible Edges(ISO)
100
AcDbCircle
 10
-0.000000000046839
 20
0.0000000000103455
 30
0.0
 40
33.44999999996857
100
AcDbArc
 50
159.0165165817112
 51
160.3383221279619
  0
ARC
  5
2418
330
228C
100
AcDbEntity
  8
Visible Edges(ISO)
100
AcDbCircle
 10
0.0000000000511591
 20
-0.0000000000111413
 30
0.0
 40
33.45000000006943
100
AcDbArc
 50
170.6294198075253
 51
171.9512253537706
  0
ARC
  5
2419
330
228C
100
AcDbEntity
  8
Visible Edges(ISO)
100
AcDbCircle
 10
0.0000000000011369
 20
0.0
 30
0.0
 40
33.45000000001864
100
AcDbArc
 50
182.2423230333244
 51
183.5641285795735
  0
ARC
  5
241A
330
228C
100
AcDbEntity
  8
Visible Edges(ISO)
100
AcDbCircle
 10
-0.0000000000138698
 20
0.0
 30
0.0
 40
33.4500000000031
100
AcDbArc
 50
193.8552262591306
 51
195.1770318053851
  0
ARC
  5
241B
330
228C
100
AcDbEntity
  8
Visible Edges(ISO)
100
AcDbCircle
 10
0.0000000000511591
 20
0.0000000000325144
 30
0.0
 40
33.45000000007568
100
AcDbArc
 50
205.4681294849372
 51
206.7899350311871
  0
ARC
  5
241C
330
228C
100
AcDbEntity
  8
Visible Edges(ISO)
100
AcDbCircle
 10
0.0000000000311502
 20
0.0000000000361524
 30
0.0
 40
33.45000000006046
100
AcDbArc
 50
217.0810327107504
 51
218.4028382569886
  0
ARC
  5
241D
330
228C
100
AcDbEntity
  8
Visible Edges(ISO)
100
AcDbCircle
 10
-0.0000000000509317
 20
-0.0000000000400178
 30
0.0
 40
33.44999999994853
100
AcDbArc
 50
228.6939359365493
 51
230.0157414828092
  0
ARC
  5
241E
330
228C
100
AcDbEntity
  8
Visible Edges(ISO)
100
AcDbCircle
 10
0.0000000000040927
 20
0.000000000037403
 30
0.0
 40
33.45000000004365
100
AcDbArc
 50
240.3068391623655
 51
241.6286447086113
  0
ARC
  5
241F
330
228C
100
AcDbEntity
  8
Visible Edges(ISO)
100
AcDbCircle
 10
-0.0000000000227374
 20
-0.0000000000179625
 30
0.0
 40
33.44999999998178
100
AcDbArc
 50
251.9197423881644
 51
253.2415479344161
  0
ARC
  5
2420
330
228C
100
AcDbEntity
  8
Visible Edges(ISO)
100
AcDbCircle
 10
-0.0000000000218279
 20
-0.0000000000469527
 30
0.0
 40
33.4499999999535
100
AcDbArc
 50
263.5326456139738
 51
264.8544511602194
  0
ARC
  5
2421
330
228C
100
AcDbEntity
  8
Visible Edges(ISO)
100
AcDbCircle
 10
-0.0000000000159162
 20
-0.0000000000120508
 30
0.0
 40
33.4499999999887
100
AcDbArc
 50
275.1455488397806
 51
276.4673543860261
  0
ARC
  5
2422
330
228C
100
AcDbEntity
  8
Visible Edges(ISO)
100
AcDbCircle
 10
-0.0000000000238742
 20
0.0000000000221689
 30
0.0
 40
33.45000000002402
100
AcDbArc
 50
286.758452065584
 51
288.0802576118356
  0
ARC
  5
2423
330
228C
100
AcDbEntity
  8
Visible Edges(ISO)
100
AcDbCircle
 10
-0.0000000000159162
 20
-0.0000000000040927
 30
0.0
 40
33.44999999999629
100
AcDbArc
 50
298.3713552913887
 51
299.6931608376345
  0
ARC
  5
2424
330
228C
100
AcDbEntity
  8
Visible Edges(ISO)
100
AcDbCircle
 10
-0.0000000000059117
 20
-0.0000000000135287
 30
0.0
 40
33.44999999998294
100
AcDbArc
 50
309.9842585171908
 51
311.3060640634507
  0
ARC
  5
2425
330
228C
100
AcDbEntity
  8
Visible Edges(ISO)
100
AcDbCircle
 10
-0.0000000000077307
 20
-0.0000000000081855
 30
0.0
 40
33.4499999999879
100
AcDbArc
 50
321.5971617430113
 51
322.9189672892549
  0
ARC
  5
2426
330
228C
100
AcDbEntity
  8
Visible Edges(ISO)
100
AcDbCircle
 10
0.0000000000052296
 20
-0.0000000000120508
 30
0.0
 40
33.44999999997522
100
AcDbArc
 50
333.2100649688129
 51
334.5318705150628
  0
ARC
  5
2427
330
228C
100
AcDbEntity
  8
Visible Edges(ISO)
100
AcDbCircle
 10
0.0000000000270575
 20
-0.0000000000123919
 30
0.0
 40
33.44999999995407
100
AcDbArc
 50
344.8229681946149
 51
346.1447737408694
  0
ARC
  5
2428
330
228C
100
AcDbEntity
  8
Visible Edges(ISO)
100
AcDbCircle
 10
-0.0000000000479758
 20
0.0000000000007958
 30
0.0
 40
33.45000000003063
100
AcDbArc
 50
356.4358714204264
 51
357.7576769666691
  0
ARC
  5
2429
330
228C
100
AcDbEntity
  8
Visible Edges(ISO)
100
AcDbCircle
 10
0.0000000000181899
 20
0.0000000000043201
 30
0.0
 40
33.44999999996487
100
AcDbArc
 50
8.048774646229391
 51
9.370580192481021
  0
ARC
  5
242A
330
228C
100
AcDbEntity
  8
Visible Edges(ISO)
100
AcDbCircle
 10
-0.0000000000679847
 20
-0.0000000000193268
 30
0.0
 40
33.45000000005418
100
AcDbArc
 50
19.66167787203804
 51
20.9834834182888
  0
ARC
  5
242B
330
228C
100
AcDbEntity
  8
Visible Edges(ISO)
100
AcDbCircle
 10
-0.0000000000547971
 20
-0.0000000000245564
 30
0.0
 40
33.45000000004467
100
AcDbArc
 50
31.27458109784405
 51
32.59638664408985
  0
ARC
  5
242C
330
228C
100
AcDbEntity
  8
Visible Edges(ISO)
100
AcDbCircle
 10
0.000000000017053
 20
0.0000000000321734
 30
0.0
 40
33.44999999995244
100
AcDbArc
 50
42.88748432364513
 51
44.20928986989809
  0
ARC
  5
242D
330
228C
100
AcDbEntity
  8
Visible Edges(ISO)
100
AcDbCircle
 10
-0.0000000000538876
 20
-0.0000000000543423
 30
0.0
 40
33.45000000006507
100
AcDbArc
 50
54.50038754944992
 51
55.82219309570302
  0
ARC
  5
242E
330
228C
100
AcDbEntity
  8
Visible Edges(ISO)
100
AcDbCircle
 10
-0.0000000000147793
 20
0.0000000000048885
 30
0.0
 40
33.44999999999398
100
AcDbArc
 50
66.11329077527118
 51
67.43509632151682
  0
ARC
  5
242F
330
228C
100
AcDbEntity
  8
Visible Edges(ISO)
100
AcDbCircle
 10
-0.0000000000268301
 20
-0.000000000048999
 30
0.0
 40
33.45000000004915
100
AcDbArc
 50
77.72619400106771
 51
79.04799954730977
  0
ARC
  5
2430
330
228C
100
AcDbEntity
  8
Visible Edges(ISO)
100
AcDbCircle
 10
-0.0000000000197815
 20
-0.0000000000121645
 30
0.0
 40
35.95000000001172
100
AcDbArc
 50
77.36750089874739
 51
79.40669264964542
  0
ARC
  5
2431
330
228C
100
AcDbEntity
  8
Visible Edges(ISO)
100
AcDbCircle
 10
-0.0000000000120508
 20
0.0000000000111413
 30
0.0
 40
35.9499999999871
100
AcDbArc
 50
65.75459767293441
 51
67.793789423836
  0
ARC
  5
2432
330
228C
100
AcDbEntity
  8
Visible Edges(ISO)
100
AcDbCircle
 10
-0.0000000000077307
 20
0.000000000013074
 30
0.0
 40
35.94999999998311
100
AcDbArc
 50
54.14169444712888
 51
56.1808861980387
  0
ARC
  5
2433
330
228C
100
AcDbEntity
  8
Visible Edges(ISO)
100
AcDbCircle
 10
-0.0000000000268301
 20
-0.0000000000098908
 30
0.0
 40
35.95000000001314
100
AcDbArc
 50
42.52879122132818
 51
44.56798297222524
  0
ARC
  5
2434
330
228C
100
AcDbEntity
  8
Visible Edges(ISO)
100
AcDbCircle
 10
0.0000000000031832
 20
0.0000000000119371
 30
0.0
 40
35.94999999997597
100
AcDbArc
 50
30.91588799551352
 51
32.95507974641569
  0
ARC
  5
2435
330
228C
100
AcDbEntity
  8
Visible Edges(ISO)
100
AcDbCircle
 10
-0.0000000000379714
 20
-0.0000000000081855
 30
0.0
 40
35.95000000002168
100
AcDbArc
 50
19.30298476971582
 51
21.34217652061062
  0
ARC
  5
2436
330
228C
100
AcDbEntity
  8
Visible Edges(ISO)
100
AcDbCircle
 10
-0.0000000000379714
 20
-0.0000000000040927
 30
0.0
 40
35.95000000002097
100
AcDbArc
 50
7.690081543907909
 51
9.729273294805826
  0
ARC
  5
2437
330
228C
100
AcDbEntity
  8
Visible Edges(ISO)
100
AcDbCircle
 10
-0.0000000000077307
 20
-0.0000000000013642
 30
0.0
 40
35.9499999999906
100
AcDbArc
 50
356.0771783181027
 51
358.1163700689984
  0
ARC
  5
2438
330
228C
100
AcDbEntity
  8
Visible Edges(ISO)
100
AcDbCircle
 10
-0.0000000000418368
 20
0.000000000005798
 30
0.0
 40
35.95000000002575
100
AcDbArc
 50
344.4642750922959
 51
346.5034668431874
  0
ARC
  5
2439
330
228C
100
AcDbEntity
  8
Visible Edges(ISO)
100
AcDbCircle
 10
-0.0000000000159162
 20
-0.0000000000014779
 30
0.0
 40
35.9499999999983
100
AcDbArc
 50
332.851371866484
 51
334.8905636173851
  0
ARC
  5
243A
330
228C
100
AcDbEntity
  8
Visible Edges(ISO)
100
AcDbCircle
 10
-0.0000000000300133
 20
0.0000000000087539
 30
0.0
 40
35.95000000001558
100
AcDbArc
 50
321.2384686406744
 51
323.2776603915771
  0
ARC
  5
243B
330
228C
100
AcDbEntity
  8
Visible Edges(ISO)
100
AcDbCircle
 10
-0.000000000001819
 20
-0.0000000000192131
 30
0.0
 40
35.94999999997563
100
AcDbArc
 50
309.6255654148719
 51
311.6647571657703
  0
ARC
  5
243C
330
228C
100
AcDbEntity
  8
Visible Edges(ISO)
100
AcDbCircle
 10
-0.0000000000250111
 20
0.0000000000125056
 30
0.0
 40
35.95000000001504
100
AcDbArc
 50
298.0126621890633
 51
300.0518539399661
  0
ARC
  5
243D
330
228C
100
AcDbEntity
  8
Visible Edges(ISO)
100
AcDbCircle
 10
-0.000000000018872
 20
0.0000000000040927
 30
0.0
 40
35.95000000000508
100
AcDbArc
 50
286.3997589632603
 51
288.4389507141636
  0
ARC
  5
243E
330
228C
100
AcDbEntity
  8
Visible Edges(ISO)
100
AcDbCircle
 10
-0.0000000000159162
 20
-0.0000000000151203
 30
0.0
 40
35.94999999998578
100
AcDbArc
 50
274.786855737453
 51
276.8260474883446
  0
ARC
  5
243F
330
228C
100
AcDbEntity
  8
Visible Edges(ISO)
100
AcDbCircle
 10
-0.0000000000159162
 20
0.0000000000105729
 30
0.0
 40
35.95000000001141
100
AcDbArc
 50
263.1739525116554
 51
265.213144262547
  0
ARC
  5
2440
330
228C
100
AcDbEntity
  8
Visible Edges(ISO)
100
AcDbCircle
 10
-0.0000000000120508
 20
0.0000000000173941
 30
0.0
 40
35.95000000001911
100
AcDbArc
 50
251.5610492858364
 51
253.6002410367397
  0
ARC
  5
2441
330
228C
100
AcDbEntity
  8
Visible Edges(ISO)
100
AcDbCircle
 10
-0.0000000000038654
 20
0.0000000000227374
 30
0.0
 40
35.95000000002679
100
AcDbArc
 50
239.9481460600339
 51
241.9873378109366
  0
ARC
  5
2442
330
228C
100
AcDbEntity
  8
Visible Edges(ISO)
100
AcDbCircle
 10
-0.0000000000409273
 20
-0.0000000000286491
 30
0.0
 40
35.94999999996328
100
AcDbArc
 50
228.3352428342297
 51
230.374434585128
  0
ARC
  5
2443
330
228C
100
AcDbEntity
  8
Visible Edges(ISO)
100
AcDbCircle
 10
-0.0000000000129603
 20
0.00000000000216
 30
0.0
 40
35.95000000000496
100
AcDbArc
 50
216.7223396084229
 51
218.7615313593256
  0
ARC
  5
2444
330
228C
100
AcDbEntity
  8
Visible Edges(ISO)
100
AcDbCircle
 10
-0.0000000000129603
 20
0.0000000000014779
 30
0.0
 40
35.95000000000503
100
AcDbArc
 50
205.109436382615
 51
207.148628133516
  0
ARC
  5
2445
330
228C
100
AcDbEntity
  8
Visible Edges(ISO)
100
AcDbCircle
 10
0.0000000000020464
 20
0.0000000000040927
 30
0.0
 40
35.95000000001964
100
AcDbArc
 50
193.4965331568126
 51
195.5357249077041
  0
ARC
  5
2446
330
228C
100
AcDbEntity
  8
Visible Edges(ISO)
100
AcDbCircle
 10
-0.0000000000038654
 20
-0.0000000000003411
 30
0.0
 40
35.95000000001301
100
AcDbArc
 50
181.8836299310016
 51
183.9228216818972
  0
ARC
  5
2447
330
228C
100
AcDbEntity
  8
Visible Edges(ISO)
100
AcDbCircle
 10
-0.0000000000179625
 20
-0.0000000000005684
 30
0.0
 40
35.94999999999914
100
AcDbArc
 50
170.2707267051941
 51
172.3099184560921
  0
ARC
  5
2448
330
228C
100
AcDbEntity
  8
Visible Edges(ISO)
100
AcDbCircle
 10
-0.0000000000179625
 20
-0.0000000000003411
 30
0.0
 40
35.94999999999899
100
AcDbArc
 50
158.6578234793894
 51
160.6970152302841
  0
ARC
  5
2449
330
228C
100
AcDbEntity
  8
Visible Edges(ISO)
100
AcDbCircle
 10
-0.0000000000100044
 20
-0.0000000000050022
 30
0.0
 40
35.95000000000843
100
AcDbArc
 50
147.0449202535843
 51
149.0841120044865
  0
ARC
  5
244A
330
228C
100
AcDbEntity
  8
Visible Edges(ISO)
100
AcDbCircle
 10
-0.0000000000088676
 20
-0.0000000000081855
 30
0.0
 40
35.95000000001097
100
AcDbArc
 50
135.4320170277747
 51
137.4712087786718
  0
ARC
  5
244B
330
228C
100
AcDbEntity
  8
Visible Edges(ISO)
100
AcDbCircle
 10
-0.0000000000109139
 20
-0.0000000000101181
 30
0.0
 40
35.95000000001127
100
AcDbArc
 50
123.8191138019613
 51
125.8583055528711
  0
ARC
  5
244C
330
228C
100
AcDbEntity
  8
Visible Edges(ISO)
100
AcDbCircle
 10
-0.0000000000288765
 20
0.0000000000267164
 30
0.0
 40
35.94999999997011
100
AcDbArc
 50
112.206210576164
 51
114.2454023270655
  0
ARC
  5
244D
330
228C
100
AcDbEntity
  8
Visible Edges(ISO)
100
AcDbCircle
 10
-0.0000000000129603
 20
-0.0000000000241016
 30
0.0
 40
35.95000000002396
100
AcDbArc
 50
100.5933073503546
 51
102.6324991012526
  0
CIRCLE
  5
244E
330
228C
100
AcDbEntity
  8
Sketch Geometry(ISO)
100
AcDbCircle
 10
-0.0000000000159162
 20
-0.0000000000019327
 30
0.0
 40
30.15000000000001
  0
CIRCLE
  5
244F
330
228C
100
AcDbEntity
  8
Sketch Geometry(ISO)
100
AcDbCircle
 10
-0.0000000000159162
 20
-0.0000000000019327
 30
0.0
 40
31.0
  0
LINE
  5
2450
330
228C
100
AcDbEntity
  8
AM_5
100
AcDbLine
 10
36.39692667901704
 20
58.03028285577159
 30
0.0
 11
37.72528166730308
 21
60.14817639065404
 31
0.0
  0
LINE
  5
2451
330
228C
100
AcDbEntity
  8
AM_5
100
AcDbLine
 10
37.72528166730308
 20
60.14817639065404
 30
0.0
 11
46.04890371454712
 21
60.14817639065404
 31
0.0
  0
SOLID
  5
2452
330
228C
100
AcDbEntity
  8
AM_5
100
AcDbTrace
 10
36.04394442320313
 20
58.25167535381922
 30
0.0
 11
36.74990893483096
 21
57.80889035772395
 31
0.0
 12
35.06857169073124
 22
55.91238932088959
 32
0.0
 13
35.06857169073124
 23
55.91238932088959
 33
0.0
  0
MTEXT
  5
2453
330
228C
100
AcDbEntity
  8
AM_5
 62
     2
100
AcDbMText
 10
42.6370926909251
 20
63.39817639065405
 30
0.0
 40
3.5
 41
0.0
 71
     5
 72
     1
  1
%%C66 [2,598"]
 73
     1
 44
1.0
1001
ACAD
1000
MTEXTBEGIN
1070
    73
1070
     1
1070
    44
1040
1.0
1070
    74
1070
     0
1000
MTEXTEND
  0
LINE
  5
2454
330
228C
100
AcDbEntity
  8
AM_5
100
AcDbLine
 10
-27.65000000001692
 20
-0.0000000000019327
 30
0.0
 11
27.64999999998418
 21
-0.0000000000019327
 31
0.0
  0
SOLID
  5
2455
330
228C
100
AcDbEntity
  8
AM_5
100
AcDbTrace
 10
-27.65000000001692
 20
0.4166666666649235
 30
0.0
 11
-27.65000000001692
 21
-0.4166666666685615
 31
0.0
 12
-30.15000000001692
 22
-0.0000000000019327
 32
0.0
 13
-30.15000000001692
 23
-0.0000000000019327
 33
0.0
  0
SOLID
  5
2456
330
228C
100
AcDbEntity
  8
AM_5
100
AcDbTrace
 10
27.64999999998418
 20
0.4166666666649235
 30
0.0
 11
27.64999999998418
 21
-0.4166666666685615
 31
0.0
 12
30.14999999998418
 22
-0.0000000000019327
 32
0.0
 13
30.14999999998418
 23
-0.0000000000019327
 33
0.0
  0
MTEXT
  5
2457
330
228C
100
AcDbEntity
  8
AM_5
 62
     2
100
AcDbMText
 10
-0.0000000000159162
 20
3.250344488187238
 30
0.0
 40
3.5
 41
0.0
 71
     5
 72
     1
  1
%%C20 [0,787"]
 73
     1
 44
1.0
1001
ACAD
1000
MTEXTBEGIN
1070
    73
1070
     1
1070
    44
1040
1.0
1070
    74
1070
     0
1000
MTEXTEND
  0
ENDBLK
  5
228E
330
228C
100
AcDbEntity
  8
0
100
AcDbBlockEnd
  0
ENDSEC
  0
SECTION
  2
ENTITIES
  0
INSERT
  5
2458
330
1A
100
AcDbEntity
  8
AM_0
100
AcDbBlockReference
  2
Sleev-IT_FC20
 10
1096.268261857453
 20
734.9804472456631
 30
0.0
  0
VIEWPORT
  5
22
102
{ACAD_XDICTIONARY
360
2462
102
}
330
17
100
AcDbEntity
 67
     1
  8
0
100
AcDbViewport
 10
7.900096624318575
 20
6.635154955787665
 30
0.0
 40
18.8944864125024
 41
11.87498859712033
 68
     1
 69
     1
 12
7.900096624318575
 22
6.635154955787665
 13
0.0
 23
0.0
 14
1.0
 24
1.0
 15
10.0
 25
10.0
 16
0.0
 26
0.0
 36
1.0
 17
0.0
 27
0.0
 37
0.0
 42
50.0
 43
0.0
 44
0.0
 45
11.87498859712033
 50
0.0
 51
0.0
 72
   100
 90
    32800
  1

281
     0
 71
     1
 74
     0
110
0.0
120
0.0
130
0.0
111
1.0
121
0.0
131
0.0
112
0.0
122
1.0
132
0.0
 79
     0
146
0.0
1001
GENIUS_GENODEF_13
1002
{
1000
HIER
1070
     0
1002
}
1002
{
1000
MANEDIT
1070
     0
1002
}
1002
{
1000
NOSEL
1070
     0
1002
}
1002
{
1000
BEHIND
1070
     0
1002
}
1002
{
1000
OTHER
1070
     0
1002
}
1002
{
1000
REACTOR
1002
}
1001
GENIUS_GENOBJ-N-SDF_13
1002
{
1000
OWNER
1000
GEN
1002
}
1001
GENIUS_GENSCREG_15
1000
PF
1040
1.0
1000
DF
1040
1.0
1000
MIN
1011
-1.547146581932626
1021
0.6976606572275
1031
0.0
1000
MAX
1011
17.34733983056977
1021
12.57264925434783
1031
0.0
1000
FLAGS
1070
     4
  0
ENDSEC
  0
SECTION
  2
OBJECTS
  0
DICTIONARY
  5
C
330
0
100
AcDbDictionary
281
     1
  3
ACAD_2007HEADERVARS_RT
350
245D
  3
ACAD_COLOR
350
3CA
  3
ACAD_GROUP
350
D
  3
ACAD_LAYOUT
350
167
  3
ACAD_MATERIAL
350
3C9
  3
ACAD_MLEADERSTYLE
350
A72
  3
ACAD_MLINESTYLE
350
E
  3
ACAD_PLOTSETTINGS
350
168
  3
ACAD_PLOTSTYLENAME
350
165
  3
ACAD_SCALELIST
350
A60
  3
ACAD_TABLESTYLE
350
650
  3
ACAD_VISUALSTYLE
350
A4F
  3
ACDB_RECOMPOSE_DATA
350
AF1
  3
ACDBVARIABLEDICTIONARY
350
5D
  3
ACMDICTIONARY
350
142
  3
AMG
350
171
  3
AMGSNAPSETTINGS
350
1F2
  3
ASE_INDEX_DICTIONARY
350
849
  3
DWGPROPS
350
245C
  0
DICTIONARY
  5
592
330
2
100
AcDbDictionary
280
     1
281
     1
  3
ACAD_LAYERFILTERS
360
C7C
  3
ACAD_LAYERSTATES
360
822
  3
ACLYDICTIONARY
360
C7B
  3
AMLAYER_GROUPCOLORS
360
593
  0
DICTIONARY
  5
AB7
330
F
100
AcDbDictionary
280
     1
281
     1
  3
ADSK_XREC_LAYER_RECONCILED
360
12C1
  0
DICTIONARY
  5
AB9
330
5CF
100
AcDbDictionary
280
     1
281
     1
  3
ADSK_XREC_LAYER_RECONCILED
360
12C2
  0
DICTIONARY
  5
12C3
330
D2F
100
AcDbDictionary
280
     1
281
     1
  3
ADSK_XREC_LAYER_RECONCILED
360
12C4
  0
DICTIONARY
  5
12C5
330
D30
100
AcDbDictionary
280
     1
281
     1
  3
ADSK_XREC_LAYER_RECONCILED
360
12C6
  0
DICTIONARY
  5
12A
330
1A
100
AcDbDictionary
280
     1
281
     1
  3
ACAD_INDEX
360
12B
  3
ACAD_SORTENTS
360
1578
  0
DICTIONARY
  5
2462
330
22
100
AcDbDictionary
280
     1
281
     1
  3
ACAD_XREC_ROUNDTRIP
360
2463
  0
DICTIONARY
  5
245D
102
{ACAD_REACTORS
330
C
102
}
330
C
100
AcDbDictionary
281
     1
  3
DIMARCSYM
350
245E
  3
DIMLTEX1
350
2460
  3
DIMLTEX2
350
2461
  3
DIMLTYPE
350
245F
  0
DICTIONARY
  5
3CA
102
{ACAD_REACTORS
330
C
102
}
330
C
100
AcDbDictionary
281
     1
  0
DICTIONARY
  5
D
102
{ACAD_REACTORS
330
C
102
}
330
C
100
AcDbDictionary
281
     1
  0
DICTIONARY
  5
167
102
{ACAD_REACTORS
330
C
102
}
330
C
100
AcDbDictionary
281
     1
  3
Layout1
350
16A
  3
Model
350
169
  0
DICTIONARY
  5
3C9
102
{ACAD_REACTORS
330
C
102
}
330
C
100
AcDbDictionary
281
     1
  3
ByBlock
350
A3F
  3
ByLayer
350
A37
  3
Global
350
A47
  0
DICTIONARY
  5
A72
102
{ACAD_REACTORS
330
C
102
}
330
C
100
AcDbDictionary
281
     1
  3
Standard
350
A73
  0
DICTIONARY
  5
E
102
{ACAD_REACTORS
330
C
102
}
330
C
100
AcDbDictionary
281
     1
  3
STANDARD
350
13
  0
DICTIONARY
  5
168
102
{ACAD_REACTORS
330
C
102
}
330
C
100
AcDbDictionary
281
     1
  0
ACDBDICTIONARYWDFLT
  5
165
102
{ACAD_REACTORS
330
C
102
}
330
C
100
AcDbDictionary
281
     1
  3
Normal
350
166
100
AcDbDictionaryWithDefault
340
166
  0
DICTIONARY
  5
A60
102
{ACAD_REACTORS
330
C
102
}
330
C
100
AcDbDictionary
281
     1
  3
A0
350
A61
  3
A1
350
A62
  3
A2
350
A63
  3
A3
350
A64
  3
A4
350
A65
  3
A5
350
A66
  3
A6
350
A67
  3
A7
350
A68
  3
A8
350
A69
  3
A9
350
A6A
  3
B0
350
A6B
  3
B1
350
A6C
  3
B2
350
A6D
  3
B3
350
A6E
  3
B4
350
A6F
  3
B5
350
A70
  3
B6
350
A71
  0
DICTIONARY
  5
650
102
{ACAD_REACTORS
330
C
102
}
330
C
100
AcDbDictionary
281
     1
  3
Standard
350
651
  0
DICTIONARY
  5
A4F
102
{ACAD_REACTORS
330
C
102
}
330
C
100
AcDbDictionary
281
     1
  3
2dWireframe
350
A55
  3
3D Hidden
350
A57
  3
3dWireframe
350
A56
  3
Basic
350
A54
  3
Brighten
350
A5B
  3
ColorChange
350
A5F
  3
Conceptual
350
A58
  3
Dim
350
A5A
  3
Facepattern
350
A5E
  3
Flat
350
A50
  3
FlatWithEdges
350
A51
  3
Gouraud
350
A52
  3
GouraudWithEdges
350
A53
  3
Linepattern
350
A5D
  3
Realistic
350
A59
  3
Thicken
350
A5C
  0
XRECORD
  5
AF1
102
{ACAD_REACTORS
330
C
102
}
330
C
100
AcDbXrecord
280
     1
 90
        1
330
651
  0
DICTIONARY
  5
5D
102
{ACAD_REACTORS
330
C
102
}
330
C
100
AcDbDictionary
281
     1
  3
CANNOSCALE
350
AF4
  3
CMLEADERSTYLE
350
AF2
  3
CTABLESTYLE
350
66F
  3
DIMADEC
350
5E
  3
DIMASSOC
350
3C7
  3
INDEXCTL
350
128
  3
LAYEREVAL
350
AF6
  3
LAYERNOTIFY
350
AF7
  3
LIGHTINGUNITS
350
AF5
  3
MSLTSCALE
350
AF3
  3
SORTENTS
350
12C7
  0
DICTIONARY
  5
142
102
{ACAD_REACTORS
330
C
102
}
330
C
100
AcDbDictionary
281
     1
  3
ACMSTDDICTIONARY
350
143
  3
AMDTSECTSYM_ARROWCOLOR
350
47D
  0
DICTIONARY
  5
171
102
{ACAD_REACTORS
330
C
102
}
330
C
100
AcDbDictionary
281
     1
  3
AcMgSettings
350
172
  0
DICTIONARY
  5
1F2
102
{ACAD_REACTORS
330
C
102
}
330
C
100
AcDbDictionary
281
     1
  3
DIMENSION
350
15CD
  3
FEA
350
15CE
  3
HATCH
350
15CF
  3
SYMBOLS
350
15D0
  0
DICTIONARY
  5
849
102
{ACAD_REACTORS
330
C
102
}
330
C
100
AcDbDictionary
281
     1
  3
ASEBlockHierarchyIndexRecord
350
84B
1001
DCO15
1040
1524370329.156
  0
XRECORD
  5
245C
102
{ACAD_REACTORS
330
C
102
}
330
C
100
AcDbXrecord
280
     1
  1
DWGPROPS COOKIE
  2

  3

  4

  6

  7

  8
se-jenboh
  9

300
AmdtFileType=84
301
=
302
=
303
=
304
=
305
=
306
=
307
=
308
=
309
=
 40
0.0294198726851852
 41
2456346.581612859
 42
2456359.642219746
  1

 90
        1
  0
DICTIONARY
  5
C7C
102
{ACAD_REACTORS
330
592
102
}
330
592
100
AcDbDictionary
281
     1
  0
DICTIONARY
  5
822
102
{ACAD_REACTORS
330
592
102
}
330
592
100
AcDbDictionary
281
     1
  0
DICTIONARY
  5
C7B
102
{ACAD_REACTORS
330
592
102
}
330
592
100
AcDbDictionary
281
     1
1001
ACAD
1000
<All
  0
DICTIONARY
  5
593
102
{ACAD_REACTORS
330
592
102
}
330
592
100
AcDbDictionary
280
     1
281
     1
  0
XRECORD
  5
12C1
102
{ACAD_REACTORS
330
AB7
102
}
330
AB7
100
AcDbXrecord
280
     1
290
     1
  0
XRECORD
  5
12C2
102
{ACAD_REACTORS
330
AB9
102
}
330
AB9
100
AcDbXrecord
280
     1
290
     1
  0
XRECORD
  5
12C4
102
{ACAD_REACTORS
330
12C3
102
}
330
12C3
100
AcDbXrecord
280
     1
290
     1
  0
XRECORD
  5
12C6
102
{ACAD_REACTORS
330
12C5
102
}
330
12C5
100
AcDbXrecord
280
     1
290
     1
  0
DICTIONARY
  5
12B
102
{ACAD_REACTORS
330
12A
102
}
330
12A
100
AcDbDictionary
281
     1
  3
*A1
350
12C
  0
SORTENTSTABLE
  5
1578
102
{ACAD_REACTORS
330
12A
102
}
330
12A
100
AcDbSortentsTable
330
1A
  0
XRECORD
  5
2463
102
{ACAD_REACTORS
330
2462
102
}
330
2462
100
AcDbXrecord
280
     1
102
SHADEPLOT
 70
     0
  0
XRECORD
  5
245E
102
{ACAD_REACTORS
330
245D
102
}
330
245D
100
AcDbXrecord
280
     1
 70
     1
  0
XRECORD
  5
2460
102
{ACAD_REACTORS
330
245D
102
}
330
245D
100
AcDbXrecord
280
     1
340
14
  0
XRECORD
  5
2461
102
{ACAD_REACTORS
330
245D
102
}
330
245D
100
AcDbXrecord
280
     1
340
14
  0
XRECORD
  5
245F
102
{ACAD_REACTORS
330
245D
102
}
330
245D
100
AcDbXrecord
280
     1
340
14
  0
LAYOUT
  5
16A
102
{ACAD_XDICTIONARY
360
824
102
}
102
{ACAD_REACTORS
330
167
102
}
330
167
100
AcDbPlotSettings
  1

  2
none_device
  4
Letter_(8.50_x_11.00_Inches)
  6

 40
6.349999904632567
 41
6.349999904632567
 42
6.350006103515625
 43
6.350006103515625
 44
215.8999938964844
 45
279.3999938964844
 46
0.0
 47
7.25904629660107
 48
0.0
 49
0.0
140
0.0
141
0.0
142
1.0
143
1.0
 70
   688
 72
     0
 73
     1
 74
     5
  7
@Layout.ctb
 75
     0
147
1.0
148
-74.57150970956639
149
-30.33168042120906
100
AcDbLayout
  1
Layout1
 70
     1
 71
     1
 10
-0.2500002402958907
 20
-0.2499999962453767
 11
10.74999951940821
 21
8.249999763458731
 12
0.0
 22
0.0
 32
0.0
 14
1.000000000000000E+20
 24
1.000000000000000E+20
 34
1.000000000000000E+20
 15
-1.000000000000000E+20
 25
-1.000000000000000E+20
 35
-1.000000000000000E+20
146
0.0
 13
0.0
 23
0.0
 33
0.0
 16
1.0
 26
0.0
 36
0.0
 17
0.0
 27
1.0
 37
0.0
 76
     0
330
17
331
22
1001
ACAD_PSEXT
1000
None
1000
None
1000
Not applicable
1000
The layout will not be plotted unless a new plotter configuration name is selected.
1070
     0
  0
LAYOUT
  5
169
102
{ACAD_XDICTIONARY
360
2464
102
}
102
{ACAD_REACTORS
330
167
102
}
330
167
100
AcDbPlotSettings
  1

  2
none_device
  4
Letter_(8.50_x_11.00_Inches)
  6

 40
6.349999904632567
 41
6.349999904632567
 42
6.350006103515625
 43
6.350006103515625
 44
215.8999938964844
 45
279.3999938964844
 46
38.1308720290886
 47
0.0
 48
0.0
 49
0.0
140
0.0
141
0.0
142
1.0
143
24.24127445441686
 70
 11956
 72
     0
 73
     1
 74
     0
  7
@Layout.ctb
 75
     0
147
0.0412519565289521
148
8019.824937415057
149
-189.2331007602539
100
AcDbLayout
  1
Model
 70
     1
 71
     0
 10
0.0
 20
0.0
 11
12.0
 21
9.0
 12
0.0
 22
0.0
 32
0.0
 14
0.0
 24
0.0
 34
0.0
 15
0.0
 25
0.0
 35
0.0
146
0.0
 13
0.0
 23
0.0
 33
0.0
 16
1.0
 26
0.0
 36
0.0
 17
0.0
 27
1.0
 37
0.0
 76
     0
330
1A
331
A35
1001
ACAD_PSEXT
1000
None
1000
None
1000
Not applicable
1000
The layout will not be plotted unless a new plotter configuration name is selected.
1070
     0
  0
MATERIAL
  5
A3F
102
{ACAD_XDICTIONARY
360
A40
102
}
102
{ACAD_REACTORS
330
3C9
102
}
330
3C9
100
AcDbMaterial
  1
ByBlock
 72
     0
 43
0.0008202099737533
 43
0.0
 43
0.0
 43
0.0
 43
0.0
 43
0.0008202099737533
 43
0.0
 43
0.0
 43
0.0
 43
0.0
 43
1.0
 43
0.0
 43
0.0
 43
0.0
 43
0.0
 43
1.0
 77
     0
 47
0.0008202099737533
 47
0.0
 47
0.0
 47
0.0
 47
0.0
 47
0.0008202099737533
 47
0.0
 47
0.0
 47
0.0
 47
0.0
 47
1.0
 47
0.0
 47
0.0
 47
0.0
 47
0.0
 47
1.0
171
     0
 49
0.0008202099737533
 49
0.0
 49
0.0
 49
0.0
 49
0.0
 49
0.0008202099737533
 49
0.0
 49
0.0
 49
0.0
 49
0.0
 49
1.0
 49
0.0
 49
0.0
 49
0.0
 49
0.0
 49
1.0
175
     0
142
0.0008202099737533
142
0.0
142
0.0
142
0.0
142
0.0
142
0.0008202099737533
142
0.0
142
0.0
142
0.0
142
0.0
142
1.0
142
0.0
142
0.0
142
0.0
142
0.0
142
1.0
179
     0
144
0.0008202099737533
144
0.0
144
0.0
144
0.0
144
0.0
144
0.0008202099737533
144
0.0
144
0.0
144
0.0
144
0.0
144
1.0
144
0.0
144
0.0
144
0.0
144
0.0
144
1.0
147
0.0008202099737533
147
0.0
147
0.0
147
0.0
147
0.0
147
0.0008202099737533
147
0.0
147
0.0
147
0.0
147
0.0
147
1.0
147
0.0
147
0.0
147
0.0
147
0.0
147
1.0
  0
MATERIAL
  5
A37
102
{ACAD_XDICTIONARY
360
A38
102
}
102
{ACAD_REACTORS
330
3C9
102
}
330
3C9
100
AcDbMaterial
  1
ByLayer
 72
     0
 43
0.0008202099737533
 43
0.0
 43
0.0
 43
0.0
 43
0.0
 43
0.0008202099737533
 43
0.0
 43
0.0
 43
0.0
 43
0.0
 43
1.0
 43
0.0
 43
0.0
 43
0.0
 43
0.0
 43
1.0
 77
     0
 47
0.0008202099737533
 47
0.0
 47
0.0
 47
0.0
 47
0.0
 47
0.0008202099737533
 47
0.0
 47
0.0
 47
0.0
 47
0.0
 47
1.0
 47
0.0
 47
0.0
 47
0.0
 47
0.0
 47
1.0
171
     0
 49
0.0008202099737533
 49
0.0
 49
0.0
 49
0.0
 49
0.0
 49
0.0008202099737533
 49
0.0
 49
0.0
 49
0.0
 49
0.0
 49
1.0
 49
0.0
 49
0.0
 49
0.0
 49
0.0
 49
1.0
175
     0
142
0.0008202099737533
142
0.0
142
0.0
142
0.0
142
0.0
142
0.0008202099737533
142
0.0
142
0.0
142
0.0
142
0.0
142
1.0
142
0.0
142
0.0
142
0.0
142
0.0
142
1.0
179
     0
144
0.0008202099737533
144
0.0
144
0.0
144
0.0
144
0.0
144
0.0008202099737533
144
0.0
144
0.0
144
0.0
144
0.0
144
1.0
144
0.0
144
0.0
144
0.0
144
0.0
144
1.0
147
0.0008202099737533
147
0.0
147
0.0
147
0.0
147
0.0
147
0.0008202099737533
147
0.0
147
0.0
147
0.0
147
0.0
147
1.0
147
0.0
147
0.0
147
0.0
147
0.0
147
1.0
  0
MATERIAL
  5
A47
102
{ACAD_XDICTIONARY
360
A48
102
}
102
{ACAD_REACTORS
330
3C9
102
}
330
3C9
100
AcDbMaterial
  1
Global
 72
     0
 43
0.0008202099737533
 43
0.0
 43
0.0
 43
0.0
 43
0.0
 43
0.0008202099737533
 43
0.0
 43
0.0
 43
0.0
 43
0.0
 43
1.0
 43
0.0
 43
0.0
 43
0.0
 43
0.0
 43
1.0
 77
     0
 47
0.0008202099737533
 47
0.0
 47
0.0
 47
0.0
 47
0.0
 47
0.0008202099737533
 47
0.0
 47
0.0
 47
0.0
 47
0.0
 47
1.0
 47
0.0
 47
0.0
 47
0.0
 47
0.0
 47
1.0
171
     0
 49
0.0008202099737533
 49
0.0
 49
0.0
 49
0.0
 49
0.0
 49
0.0008202099737533
 49
0.0
 49
0.0
 49
0.0
 49
0.0
 49
1.0
 49
0.0
 49
0.0
 49
0.0
 49
0.0
 49
1.0
175
     0
142
0.0008202099737533
142
0.0
142
0.0
142
0.0
142
0.0
142
0.0008202099737533
142
0.0
142
0.0
142
0.0
142
0.0
142
1.0
142
0.0
142
0.0
142
0.0
142
0.0
142
1.0
179
     0
144
0.0008202099737533
144
0.0
144
0.0
144
0.0
144
0.0
144
0.0008202099737533
144
0.0
144
0.0
144
0.0
144
0.0
144
1.0
144
0.0
144
0.0
144
0.0
144
0.0
144
1.0
147
0.0008202099737533
147
0.0
147
0.0
147
0.0
147
0.0
147
0.0008202099737533
147
0.0
147
0.0
147
0.0
147
0.0
147
1.0
147
0.0
147
0.0
147
0.0
147
0.0
147
1.0
  0
MLEADERSTYLE
  5
A73
102
{ACAD_REACTORS
330
A72
102
}
330
A72
100
AcDbMLeaderStyle
170
     2
171
     1
172
     0
 90
        2
 40
0.0
 41
0.0
173
     1
 91
-1056964608
340
14
 92
       -2
290
     1
 42
2.0
291
     1
 43
0.36
  3
Standard
 44
4.0
300

342
10
174
     1
178
     6
175
     1
176
     0
 93
-1056964608
 45
4.0
292
     0
297
     0
 46
4.0
 94
-1056964608
 47
1.0
 49
1.0
140
1.0
293
     1
141
0.0
294
     1
177
     0
142
1.0
295
     0
296
     0
143
0.125
1001
ACAD_MLEADERVER
1070
     2
  0
MLINESTYLE
  5
13
102
{ACAD_REACTORS
330
E
102
}
330
E
100
AcDbMlineStyle
  2
STANDARD
 70
     0
  3

 62
     0
 51
90.0
 52
90.0
 71
     2
 49
0.5
 62
   256
  6
BYLAYER
 49
-0.5
 62
   256
  6
BYLAYER
  0
ACDBPLACEHOLDER
  5
166
102
{ACAD_REACTORS
330
165
102
}
330
165
  0
SCALE
  5
A61
102
{ACAD_REACTORS
330
A60
102
}
330
A60
100
AcDbScale
 70
     0
300
1:1
140
1.0
141
1.0
290
     1
  0
SCALE
  5
A62
102
{ACAD_REACTORS
330
A60
102
}
330
A60
100
AcDbScale
 70
     0
300
1:2
140
1.0
141
2.0
290
     0
  0
SCALE
  5
A63
102
{ACAD_REACTORS
330
A60
102
}
330
A60
100
AcDbScale
 70
     0
300
1:4
140
1.0
141
4.0
290
     0
  0
SCALE
  5
A64
102
{ACAD_REACTORS
330
A60
102
}
330
A60
100
AcDbScale
 70
     0
300
1:5
140
1.0
141
5.0
290
     0
  0
SCALE
  5
A65
102
{ACAD_REACTORS
330
A60
102
}
330
A60
100
AcDbScale
 70
     0
300
1:8
140
1.0
141
8.0
290
     0
  0
SCALE
  5
A66
102
{ACAD_REACTORS
330
A60
102
}
330
A60
100
AcDbScale
 70
     0
300
1:10
140
1.0
141
10.0
290
     0
  0
SCALE
  5
A67
102
{ACAD_REACTORS
330
A60
102
}
330
A60
100
AcDbScale
 70
     0
300
1:16
140
1.0
141
16.0
290
     0
  0
SCALE
  5
A68
102
{ACAD_REACTORS
330
A60
102
}
330
A60
100
AcDbScale
 70
     0
300
1:20
140
1.0
141
20.0
290
     0
  0
SCALE
  5
A69
102
{ACAD_REACTORS
330
A60
102
}
330
A60
100
AcDbScale
 70
     0
300
1:30
140
1.0
141
30.0
290
     0
  0
SCALE
  5
A6A
102
{ACAD_REACTORS
330
A60
102
}
330
A60
100
AcDbScale
 70
     0
300
1:40
140
1.0
141
40.0
290
     0
  0
SCALE
  5
A6B
102
{ACAD_REACTORS
330
A60
102
}
330
A60
100
AcDbScale
 70
     0
300
1:50
140
1.0
141
50.0
290
     0
  0
SCALE
  5
A6C
102
{ACAD_REACTORS
330
A60
102
}
330
A60
100
AcDbScale
 70
     0
300
1:100
140
1.0
141
100.0
290
     0
  0
SCALE
  5
A6D
102
{ACAD_REACTORS
330
A60
102
}
330
A60
100
AcDbScale
 70
     0
300
2:1
140
2.0
141
1.0
290
     0
  0
SCALE
  5
A6E
102
{ACAD_REACTORS
330
A60
102
}
330
A60
100
AcDbScale
 70
     0
300
4:1
140
4.0
141
1.0
290
     0
  0
SCALE
  5
A6F
102
{ACAD_REACTORS
330
A60
102
}
330
A60
100
AcDbScale
 70
     0
300
8:1
140
8.0
141
1.0
290
     0
  0
SCALE
  5
A70
102
{ACAD_REACTORS
330
A60
102
}
330
A60
100
AcDbScale
 70
     0
300
10:1
140
10.0
141
1.0
290
     0
  0
SCALE
  5
A71
102
{ACAD_REACTORS
330
A60
102
}
330
A60
100
AcDbScale
 70
     0
300
100:1
140
100.0
141
1.0
290
     0
  0
TABLESTYLE
  5
651
102
{ACAD_XDICTIONARY
360
AED
102
}
102
{ACAD_REACTORS
330
650
102
}
330
650
100
AcDbTableStyle
  3
Standard
 70
     0
 71
     0
 40
1.5
 41
1.5
280
     0
281
     0
  7
STANDARD
140
4.5
170
     2
 62
     0
 63
     7
283
     0
274
    -2
284
     1
 64
     0
275
    -2
285
     1
 65
     0
276
    -2
286
     1
 66
     0
277
    -2
287
     1
 67
     0
278
    -2
288
     1
 68
     0
279
    -2
289
     1
 69
     0
  7
STANDARD
140
6.0
170
     5
 62
     0
 63
     7
283
     0
274
    -2
284
     1
 64
     0
275
    -2
285
     1
 65
     0
276
    -2
286
     1
 66
     0
277
    -2
287
     1
 67
     0
278
    -2
288
     1
 68
     0
279
    -2
289
     1
 69
     0
  7
STANDARD
140
4.5
170
     5
 62
     0
 63
     7
283
     0
274
    -2
284
     1
 64
     0
275
    -2
285
     1
 65
     0
276
    -2
286
     1
 66
     0
277
    -2
287
     1
 67
     0
278
    -2
288
     1
 68
     0
279
    -2
289
     1
 69
     0
  0
VISUALSTYLE
  5
A55
102
{ACAD_REACTORS
330
A4F
102
}
330
A4F
100
AcDbVisualStyle
  2
2dWireframe
 70
     4
 71
     0
 72
     2
 73
     0
 90
        0
 40
-0.6
 41
-30.0
 62
     5
 63
     7
 74
     1
 91
        4
 64
     7
 65
   257
 75
     1
175
     1
 42
1.0
 92
        0
 66
   257
 43
1.0
 76
     1
 77
     6
 78
     2
 67
     7
 79
     5
170
     0
171
     0
290
     0
174
     0
 93
        1
 44
0.0
173
     0
291
     0
 45
0.0
1001
ACAD
1000
AcDbSavedByObjectVersion
1070
     0
1000
AcDbSavedByObjectVersion
1070
     0
1000
AcDbSavedByObjectVersion
1070
     0
1000
AcDbSavedByObjectVersion
1070
     0
1000
AcDbSavedByObjectVersion
1070
     0
1000
AcDbSavedByObjectVersion
1070
     0
  0
VISUALSTYLE
  5
A57
102
{ACAD_REACTORS
330
A4F
102
}
330
A4F
100
AcDbVisualStyle
  2
3D Hidden
 70
     6
 71
     1
 72
     2
 73
     2
 90
        0
 40
-0.6
 41
-30.0
 62
     5
 63
     7
 74
     2
 91
        2
 64
     7
 65
   257
 75
     2
175
     1
 42
40.0
 92
        0
 66
   257
 43
1.0
 76
     1
 77
     6
 78
     2
 67
     7
 79
     3
170
     0
171
     0
290
     0
174
     0
 93
        1
 44
0.0
173
     0
291
     0
 45
0.0
1001
ACAD
1000
AcDbSavedByObjectVersion
1070
     0
1000
AcDbSavedByObjectVersion
1070
     0
1000
AcDbSavedByObjectVersion
1070
     0
1000
AcDbSavedByObjectVersion
1070
     0
1000
AcDbSavedByObjectVersion
1070
     0
1000
AcDbSavedByObjectVersion
1070
     0
  0
VISUALSTYLE
  5
A56
102
{ACAD_REACTORS
330
A4F
102
}
330
A4F
100
AcDbVisualStyle
  2
3dWireframe
 70
     5
 71
     0
 72
     2
 73
     0
 90
        0
 40
-0.6
 41
-30.0
 62
     5
 63
     7
 74
     1
 91
        4
 64
     7
 65
   257
 75
     1
175
     1
 42
1.0
 92
        0
 66
   257
 43
1.0
 76
     1
 77
     6
 78
     2
 67
     7
 79
     5
170
     0
171
     0
290
     0
174
     0
 93
        1
 44
0.0
173
     0
291
     0
 45
0.0
1001
ACAD
1000
AcDbSavedByObjectVersion
1070
     0
1000
AcDbSavedByObjectVersion
1070
     0
1000
AcDbSavedByObjectVersion
1070
     0
1000
AcDbSavedByObjectVersion
1070
     0
1000
AcDbSavedByObjectVersion
1070
     0
1000
AcDbSavedByObjectVersion
1070
     0
  0
VISUALSTYLE
  5
A54
102
{ACAD_REACTORS
330
A4F
102
}
330
A4F
100
AcDbVisualStyle
  2
Basic
 70
     7
 71
     1
 72
     0
 73
     1
 90
        0
 40
-0.6
 41
-30.0
 62
     5
 63
     7
 74
     0
 91
        4
 64
     7
 65
   257
 75
     1
175
     1
 42
1.0
 92
        8
 66
     7
 43
1.0
 76
     1
 77
     6
 78
     2
 67
     7
 79
     5
170
     0
171
     0
290
     0
174
     0
 93
        1
 44
0.0
173
     0
291
     1
 45
0.0
1001
ACAD
1000
AcDbSavedByObjectVersion
1070
     0
1000
AcDbSavedByObjectVersion
1070
     0
1000
AcDbSavedByObjectVersion
1070
     0
1000
AcDbSavedByObjectVersion
1070
     0
1000
AcDbSavedByObjectVersion
1070
     0
1000
AcDbSavedByObjectVersion
1070
     0
  0
VISUALSTYLE
  5
A5B
102
{ACAD_REACTORS
330
A4F
102
}
330
A4F
100
AcDbVisualStyle
  2
Brighten
 70
    12
 71
     2
 72
     2
 73
     0
 90
        0
 40
-0.6
 41
-30.0
 62
     5
 63
     7
 74
     1
 91
        4
 64
     7
 65
   257
 75
     1
175
     1
 42
1.0
 92
        8
 66
     7
 43
1.0
 76
     1
 77
     6
 78
     2
 67
     7
 79
     5
170
     0
171
     0
290
     0
174
     0
 93
        1
 44
50.0
173
     0
291
     1
 45
0.0
1001
ACAD
1000
AcDbSavedByObjectVersion
1070
     0
1000
AcDbSavedByObjectVersion
1070
     0
1000
AcDbSavedByObjectVersion
1070
     0
1000
AcDbSavedByObjectVersion
1070
     0
1000
AcDbSavedByObjectVersion
1070
     0
1000
AcDbSavedByObjectVersion
1070
     0
  0
VISUALSTYLE
  5
A5F
102
{ACAD_REACTORS
330
A4F
102
}
330
A4F
100
AcDbVisualStyle
  2
ColorChange
 70
    16
 71
     2
 72
     2
 73
     3
 90
        0
 40
-0.6
 41
-30.0
 62
     5
 63
     8
 74
     1
 91
        4
 64
     7
 65
   257
 75
     1
175
     1
 42
1.0
 92
        8
 66
     8
 43
1.0
 76
     1
 77
     6
 78
     2
 67
     7
 79
     5
170
     0
171
     0
290
     0
174
     0
 93
        1
 44
0.0
173
     0
291
     1
 45
0.0
1001
ACAD
1000
AcDbSavedByObjectVersion
1070
     0
1000
AcDbSavedByObjectVersion
1070
     0
1000
AcDbSavedByObjectVersion
1070
     0
1000
AcDbSavedByObjectVersion
1070
     0
1000
AcDbSavedByObjectVersion
1070
     0
1000
AcDbSavedByObjectVersion
1070
     0
  0
VISUALSTYLE
  5
A58
102
{ACAD_REACTORS
330
A4F
102
}
330
A4F
100
AcDbVisualStyle
  2
Conceptual
 70
     9
 71
     3
 72
     2
 73
     0
 90
        0
 40
-0.6
 41
-30.0
 62
     5
 63
     7
 74
     2
 91
        2
 64
     7
 65
   257
 75
     1
175
     1
 42
40.0
 92
        8
 66
     7
 43
1.0
 76
     1
 77
     6
 78
     2
 67
     7
 79
     3
170
     0
171
     0
290
     0
174
     0
 93
        1
 44
0.0
173
     0
291
     0
 45
0.0
1001
ACAD
1000
AcDbSavedByObjectVersion
1070
     0
1000
AcDbSavedByObjectVersion
1070
     0
1000
AcDbSavedByObjectVersion
1070
     0
1000
AcDbSavedByObjectVersion
1070
     0
1000
AcDbSavedByObjectVersion
1070
     0
1000
AcDbSavedByObjectVersion
1070
     0
  0
VISUALSTYLE
  5
A5A
102
{ACAD_REACTORS
330
A4F
102
}
330
A4F
100
AcDbVisualStyle
  2
Dim
 70
    11
 71
     2
 72
     2
 73
     0
 90
        0
 40
-0.6
 41
-30.0
 62
     5
 63
     7
 74
     1
 91
        4
 64
     7
 65
   257
 75
     1
175
     1
 42
1.0
 92
        8
 66
     7
 43
1.0
 76
     1
 77
     6
 78
     2
 67
     7
 79
     5
170
     0
171
     0
290
     0
174
     0
 93
        1
 44
-50.0
173
     0
291
     1
 45
0.0
1001
ACAD
1000
AcDbSavedByObjectVersion
1070
     0
1000
AcDbSavedByObjectVersion
1070
     0
1000
AcDbSavedByObjectVersion
1070
     0
1000
AcDbSavedByObjectVersion
1070
     0
1000
AcDbSavedByObjectVersion
1070
     0
1000
AcDbSavedByObjectVersion
1070
     0
  0
VISUALSTYLE
  5
A5E
102
{ACAD_REACTORS
330
A4F
102
}
330
A4F
100
AcDbVisualStyle
  2
Facepattern
 70
    15
 71
     2
 72
     2
 73
     0
 90
        0
 40
-0.6
 41
-30.0
 62
     5
 63
     7
 74
     1
 91
        4
 64
     7
 65
   257
 75
     1
175
     1
 42
1.0
 92
        8
 66
     7
 43
1.0
 76
     1
 77
     6
 78
     2
 67
     7
 79
     5
170
     0
171
     0
290
     0
174
     0
 93
        1
 44
0.0
173
     0
291
     1
 45
0.0
1001
ACAD
1000
AcDbSavedByObjectVersion
1070
     0
1000
AcDbSavedByObjectVersion
1070
     0
1000
AcDbSavedByObjectVersion
1070
     0
1000
AcDbSavedByObjectVersion
1070
     0
1000
AcDbSavedByObjectVersion
1070
     0
1000
AcDbSavedByObjectVersion
1070
     0
  0
VISUALSTYLE
  5
A50
102
{ACAD_REACTORS
330
A4F
102
}
330
A4F
100
AcDbVisualStyle
  2
Flat
 70
     0
 71
     2
 72
     1
 73
     1
 90
        2
 40
-0.6
 41
30.0
 62
     5
 63
     7
 74
     0
 91
        4
 64
     7
 65
   257
 75
     1
175
     1
 42
1.0
 92
        8
 66
     7
 43
1.0
 76
     1
 77
     6
 78
     2
 67
     7
 79
     5
170
     0
171
     0
290
     0
174
     0
 93
       13
 44
0.0
173
     0
291
     1
 45
0.0
1001
ACAD
1000
AcDbSavedByObjectVersion
1070
     0
1000
AcDbSavedByObjectVersion
1070
     0
1000
AcDbSavedByObjectVersion
1070
     0
1000
AcDbSavedByObjectVersion
1070
     0
1000
AcDbSavedByObjectVersion
1070
     0
1000
AcDbSavedByObjectVersion
1070
     0
  0
VISUALSTYLE
  5
A51
102
{ACAD_REACTORS
330
A4F
102
}
330
A4F
100
AcDbVisualStyle
  2
FlatWithEdges
 70
     1
 71
     2
 72
     1
 73
     1
 90
        2
 40
-0.6
 41
30.0
 62
     5
 63
     7
 74
     1
 91
        4
 64
     7
 65
   257
 75
     1
175
     1
 42
1.0
 92
        0
 66
   257
 43
1.0
 76
     1
 77
     6
 78
     2
 67
     7
 79
     5
170
     0
171
     0
290
     0
174
     0
 93
       13
 44
0.0
173
     0
291
     1
 45
0.0
1001
ACAD
1000
AcDbSavedByObjectVersion
1070
     0
1000
AcDbSavedByObjectVersion
1070
     0
1000
AcDbSavedByObjectVersion
1070
     0
1000
AcDbSavedByObjectVersion
1070
     0
1000
AcDbSavedByObjectVersion
1070
     0
1000
AcDbSavedByObjectVersion
1070
     0
  0
VISUALSTYLE
  5
A52
102
{ACAD_REACTORS
330
A4F
102
}
330
A4F
100
AcDbVisualStyle
  2
Gouraud
 70
     2
 71
     2
 72
     2
 73
     1
 90
        2
 40
-0.6
 41
30.0
 62
     5
 63
     7
 74
     0
 91
        4
 64
     7
 65
   257
 75
     1
175
     1
 42
1.0
 92
        0
 66
     7
 43
1.0
 76
     1
 77
     6
 78
     2
 67
     7
 79
     5
170
     0
171
     0
290
     0
174
     0
 93
       13
 44
0.0
173
     0
291
     1
 45
0.0
1001
ACAD
1000
AcDbSavedByObjectVersion
1070
     0
1000
AcDbSavedByObjectVersion
1070
     0
1000
AcDbSavedByObjectVersion
1070
     0
1000
AcDbSavedByObjectVersion
1070
     0
1000
AcDbSavedByObjectVersion
1070
     0
1000
AcDbSavedByObjectVersion
1070
     0
  0
VISUALSTYLE
  5
A53
102
{ACAD_REACTORS
330
A4F
102
}
330
A4F
100
AcDbVisualStyle
  2
GouraudWithEdges
 70
     3
 71
     2
 72
     2
 73
     1
 90
        2
 40
-0.6
 41
30.0
 62
     5
 63
     7
 74
     1
 91
        4
 64
     7
 65
   257
 75
     1
175
     1
 42
1.0
 92
        0
 66
   257
 43
1.0
 76
     1
 77
     6
 78
     2
 67
     7
 79
     5
170
     0
171
     0
290
     0
174
     0
 93
       13
 44
0.0
173
     0
291
     1
 45
0.0
1001
ACAD
1000
AcDbSavedByObjectVersion
1070
     0
1000
AcDbSavedByObjectVersion
1070
     0
1000
AcDbSavedByObjectVersion
1070
     0
1000
AcDbSavedByObjectVersion
1070
     0
1000
AcDbSavedByObjectVersion
1070
     0
1000
AcDbSavedByObjectVersion
1070
     0
  0
VISUALSTYLE
  5
A5D
102
{ACAD_REACTORS
330
A4F
102
}
330
A4F
100
AcDbVisualStyle
  2
Linepattern
 70
    14
 71
     2
 72
     2
 73
     0
 90
        0
 40
-0.6
 41
-30.0
 62
     5
 63
     7
 74
     1
 91
        4
 64
     7
 65
   257
 75
     7
175
     7
 42
1.0
 92
        8
 66
     7
 43
1.0
 76
     1
 77
     6
 78
     2
 67
     7
 79
     5
170
     0
171
     0
290
     0
174
     0
 93
        1
 44
0.0
173
     0
291
     1
 45
0.0
1001
ACAD
1000
AcDbSavedByObjectVersion
1070
     0
1000
AcDbSavedByObjectVersion
1070
     0
1000
AcDbSavedByObjectVersion
1070
     0
1000
AcDbSavedByObjectVersion
1070
     0
1000
AcDbSavedByObjectVersion
1070
     0
1000
AcDbSavedByObjectVersion
1070
     0
  0
VISUALSTYLE
  5
A59
102
{ACAD_REACTORS
330
A4F
102
}
330
A4F
100
AcDbVisualStyle
  2
Realistic
 70
     8
 71
     2
 72
     2
 73
     0
 90
        0
 40
-0.6
 41
-30.0
 62
     5
 63
     7
 74
     1
 91
        0
 64
     7
 65
   257
 75
     1
175
     1
 42
1.0
 92
        8
 66
     8
 43
1.0
 76
     1
 77
     6
 78
     2
 67
     7
 79
     5
170
     0
171
     0
290
     0
174
     0
 93
       13
 44
0.0
173
     0
291
     0
 45
0.0
1001
ACAD
1000
AcDbSavedByObjectVersion
1070
     0
1000
AcDbSavedByObjectVersion
1070
     0
1000
AcDbSavedByObjectVersion
1070
     0
1000
AcDbSavedByObjectVersion
1070
     0
1000
AcDbSavedByObjectVersion
1070
     0
1000
AcDbSavedByObjectVersion
1070
     0
  0
VISUALSTYLE
  5
A5C
102
{ACAD_REACTORS
330
A4F
102
}
330
A4F
100
AcDbVisualStyle
  2
Thicken
 70
    13
 71
     2
 72
     2
 73
     0
 90
        0
 40
-0.6
 41
-30.0
 62
     5
 63
     7
 74
     1
 91
        4
 64
     7
 65
   257
 75
     1
175
     1
 42
1.0
 92
       12
 66
     7
 43
1.0
 76
     1
 77
     6
 78
     2
 67
     7
 79
     5
170
     0
171
     0
290
     0
174
     0
 93
        1
 44
0.0
173
     0
291
     1
 45
0.0
1001
ACAD
1000
AcDbSavedByObjectVersion
1070
     0
1000
AcDbSavedByObjectVersion
1070
     0
1000
AcDbSavedByObjectVersion
1070
     0
1000
AcDbSavedByObjectVersion
1070
     0
1000
AcDbSavedByObjectVersion
1070
     0
1000
AcDbSavedByObjectVersion
1070
     0
  0
DICTIONARYVAR
  5
AF4
102
{ACAD_REACTORS
330
5D
102
}
330
5D
100
DictionaryVariables
280
     0
  1
1:1
  0
DICTIONARYVAR
  5
AF2
102
{ACAD_REACTORS
330
5D
102
}
330
5D
100
DictionaryVariables
280
     0
  1
STANDARD
  0
DICTIONARYVAR
  5
66F
102
{ACAD_REACTORS
330
5D
102
}
330
5D
100
DictionaryVariables
280
     0
  1
STANDARD
  0
DICTIONARYVAR
  5
5E
102
{ACAD_REACTORS
330
5D
102
}
330
5D
100
DictionaryVariables
280
     0
  1
0
  0
DICTIONARYVAR
  5
3C7
102
{ACAD_REACTORS
330
5D
102
}
330
5D
100
DictionaryVariables
280
     0
  1
2
  0
DICTIONARYVAR
  5
128
102
{ACAD_REACTORS
330
5D
102
}
330
5D
100
DictionaryVariables
280
     0
  1
1
  0
DICTIONARYVAR
  5
AF6
102
{ACAD_REACTORS
330
5D
102
}
330
5D
100
DictionaryVariables
280
     0
  1
1
  0
DICTIONARYVAR
  5
AF7
102
{ACAD_REACTORS
330
5D
102
}
330
5D
100
DictionaryVariables
280
     0
  1
15
  0
DICTIONARYVAR
  5
AF5
102
{ACAD_REACTORS
330
5D
102
}
330
5D
100
DictionaryVariables
280
     0
  1
0
  0
DICTIONARYVAR
  5
AF3
102
{ACAD_REACTORS
330
5D
102
}
330
5D
100
DictionaryVariables
280
     0
  1
0
  0
DICTIONARYVAR
  5
12C7
102
{ACAD_REACTORS
330
5D
102
}
330
5D
100
DictionaryVariables
280
     0
  1
127
  0
DICTIONARY
  5
143
102
{ACAD_REACTORS
330
142
102
}
330
142
100
AcDbDictionary
281
     1
  0
XRECORD
  5
47D
102
{ACAD_REACTORS
330
142
102
}
330
142
100
AcDbXrecord
280
     1
 90
-1056964608
  0
DICTIONARY
  5
172
102
{ACAD_REACTORS
330
171
102
}
330
171
100
AcDbDictionary
281
     1
  3
DWGSETTINGS
350
1FB3
  3
TRANSSETTINGS
350
1FB7
  0
ACAMGFILTERDAT
  5
15CD
102
{ACAD_REACTORS
330
1F2
102
}
330
1F2
100
AcAmgFilterDat
 70
    15
  1
DIMENSION,AMDT_*_DIM
  2
*
  3
*
  4
*
  5
*
290
     1
  0
ACAMGFILTERDAT
  5
15CE
102
{ACAD_REACTORS
330
1F2
102
}
330
1F2
100
AcAmgFilterDat
 70
    15
  1
*
  2
AM_FEA-AM_*
  3
*
  4
*
  5
*
290
     1
  0
ACAMGFILTERDAT
  5
15CF
102
{ACAD_REACTORS
330
1F2
102
}
330
1F2
100
AcAmgFilterDat
 70
    15
  1
HATCH
  2
*
  3
*
  4
*
  5
*
290
     1
  0
ACAMGFILTERDAT
  5
15D0
102
{ACAD_REACTORS
330
1F2
102
}
330
1F2
100
AcAmgFilterDat
 70
    15
  1
ACMFCFRAME,ACMDATUMTARGET,ACMDATUMID,ACMWELDSYM,ACMSURFSYM,ACMFEATID,ACMPARTREF,ACMBALLOON
  2
*
  3
*
  4
*
  5
*
290
     1
  0
XRECORD
  5
84B
102
{ACAD_REACTORS
330
849
102
}
330
849
100
AcDbXrecord
280
     1
  0
LAYER_INDEX
  5
12C
102
{ACAD_REACTORS
330
12B
102
}
330
12B
100
AcDbIndex
 40
2456359.642219746
100
AcDbLayerIndex
  8
0
360
12D
 90
        0
  8
AM_0
360
59B
 90
        1
  8
Sketch Geometry(ISO)
360
8F9
 90
        0
  8
Visible Edges(ISO)
360
AD1
 90
        0
  8
AM_5
360
AD4
 90
        0
  8
Defpoints
360
1800
 90
        0
  0
DICTIONARY
  5
824
330
16A
100
AcDbDictionary
280
     1
281
     1
  3
ACAD_XREC_ROUNDTRIP
360
2466
  3
ADSK_XREC_LAYOUTTHUMBNAIL
360
825
  0
DICTIONARY
  5
2464
330
169
100
AcDbDictionary
280
     1
281
     1
  3
ACAD_XREC_ROUNDTRIP
360
2465
  0
DICTIONARY
  5
A40
330
A3F
100
AcDbDictionary
280
     1
281
     1
  3
ACAD_XREC_ROUNDTRIP
360
12D1
  3
BUMPTILE
360
A42
  3
DIFFUSETILE
360
A41
  3
OPACITYTILE
360
A45
  3
REFLECTIONTILE
360
A44
  3
REFRACTIONTILE
360
A46
  3
SPECULARTILE
360
A43
  0
DICTIONARY
  5
A38
330
A37
100
AcDbDictionary
280
     1
281
     1
  3
ACAD_XREC_ROUNDTRIP
360
12D0
  3
BUMPTILE
360
A3A
  3
DIFFUSETILE
360
A39
  3
OPACITYTILE
360
A3D
  3
REFLECTIONTILE
360
A3C
  3
REFRACTIONTILE
360
A3E
  3
SPECULARTILE
360
A3B
  0
DICTIONARY
  5
A48
330
A47
100
AcDbDictionary
280
     1
281
     1
  3
ACAD_XREC_ROUNDTRIP
360
12D2
  3
BUMPTILE
360
A4A
  3
DIFFUSETILE
360
A49
  3
OPACITYTILE
360
A4D
  3
REFLECTIONTILE
360
A4C
  3
REFRACTIONTILE
360
A4E
  3
SPECULARTILE
360
A4B
  0
DICTIONARY
  5
AED
330
651
100
AcDbDictionary
280
     1
281
     1
  3
ACAD_ROUNDTRIP_2008_TABLESTYLE_CELLSTYLEMAP
360
245B
  3
ACAD_XREC_ROUNDTRIP
360
2467
  0
IDBUFFER
  5
12D
330
0
100
AcDbIdBuffer
  0
IDBUFFER
  5
59B
330
0
100
AcDbIdBuffer
330
2458
  0
IDBUFFER
  5
8F9
330
0
100
AcDbIdBuffer
  0
IDBUFFER
  5
AD1
330
0
100
AcDbIdBuffer
  0
IDBUFFER
  5
AD4
330
0
100
AcDbIdBuffer
  0
IDBUFFER
  5
1800
330
0
100
AcDbIdBuffer
  0
XRECORD
  5
2466
102
{ACAD_REACTORS
330
824
102
}
330
824
100
AcDbXrecord
280
     1
102
SHADEPLOT
 70
     0
102
SHADEPLOTRESLEVEL
 70
     2
102
SHADEPLOTCUSTOMDPI
 70
   300
  0
XRECORD
  5
825
102
{ACAD_REACTORS
330
824
102
}
330
824
100
AcDbXrecord
280
     1
310
28000000B40000008B0000000100080000000000BC610000000000000000000000010000000000000000000000000000FFFFFF000000000000000000000000000000000000000000000000000000000000000000330000006600000099000000CC000000FF00000000330000333300006633000099330000CC330000FF3300
310
0000660000336600006666000099660000CC660000FF66000000990000339900006699000099990000CC990000FF99000000CC000033CC000066CC000099CC0000CCCC0000FFCC000000FF000033FF000066FF000099FF0000CCFF0000FFFF000000003300330033006600330099003300CC003300FF003300003333003333
310
33006633330099333300CC333300FF33330000663300336633006666330099663300CC663300FF66330000993300339933006699330099993300CC993300FF99330000CC330033CC330066CC330099CC3300CCCC3300FFCC330000FF330033FF330066FF330099FF3300CCFF3300FFFF330000006600330066006600660099
310
006600CC006600FF00660000336600333366006633660099336600CC336600FF33660000666600336666006666660099666600CC666600FF66660000996600339966006699660099996600CC996600FF99660000CC660033CC660066CC660099CC6600CCCC6600FFCC660000FF660033FF660066FF660099FF6600CCFF6600
310
FFFF660000009900330099006600990099009900CC009900FF00990000339900333399006633990099339900CC339900FF33990000669900336699006666990099669900CC669900FF66990000999900339999006699990099999900CC999900FF99990000CC990033CC990066CC990099CC9900CCCC9900FFCC990000FF99
310
0033FF990066FF990099FF9900CCFF9900FFFF99000000CC003300CC006600CC009900CC00CC00CC00FF00CC000033CC003333CC006633CC009933CC00CC33CC00FF33CC000066CC003366CC006666CC009966CC00CC66CC00FF66CC000099CC003399CC006699CC009999CC00CC99CC00FF99CC0000CCCC0033CCCC0066CC
310
CC0099CCCC00CCCCCC00FFCCCC0000FFCC0033FFCC0066FFCC0099FFCC00CCFFCC00FFFFCC000000FF003300FF006600FF009900FF00CC00FF00FF00FF000033FF003333FF006633FF009933FF00CC33FF00FF33FF000066FF003366FF006666FF009966FF00CC66FF00FF66FF000099FF003399FF006699FF009999FF00CC
310
99FF00FF99FF0000CCFF0033CCFF0066CCFF0099CCFF00CCCCFF00FFCCFF0000FFFF0033FFFF0066FFFF0099FFFF00CCFFFF00FFFFFF00000000000D0D0D001A1A1A00282828003535350043434300505050005D5D5D006B6B6B00787878008686860093939300A1A1A100AEAEAE00BBBBBB00C9C9C900D6D6D600E4E4E400
310
F1F1F100FFFFFF0000000000000000000000000000000000000000000000000000000000000000000000000000000000E2E2E2E2E2E2E2E2E2E2E2E2E2E2E2E2E2E2E2E2E2E2E2E2E2E2E2E2E2E2E2E2E2E2E2E2E2E2E2E2E2E2E2E2E2E2E2E2E2E2E2E2E2E2E2E2E2E2E2E2E2E2E2E2E2E2E2E2E2E2E2E2E2E2E2E2E2E2E2
310
E2E2E2E2E2E2E2E2E2E2E2E2E2E2E2E2E2E2E2E2E2E2E2E2E2E2E2E2E2E2E2E2E2E2E2E2E2E2E2E2E2E2E2E2E2E2E2E2E2E2E2E2E2E2E2E2E2E2E2E2E2E2E2E2E2E2E2E2E2E2E2E2E2E2E2E2E2E2E2E2E2E2E2E2E2E2E2E2E2E2E2E2E2E2E2E2E2E2E2E2E2E2E2E2E2E2E2E2E2E2E2E2E2E2E2E2E2E2E2E2E2E2E2E2E2E2E2
310
E2E2E2E2E2E2E2E2E2E2E2E2E2E2E2E2E2E2E2E2E2E2E2E2E2E2E2E2E2E2E2E2E2E2E2E2E2E2E2E2E2E2E2E2E2E2E2E2E2E2E2E2E2E2E2E2E2E2E2E2E2E2E2E2E2E2E2E2E2E2E2E2E2E2E2E2E2E2E2E2E2E2E2E2E2E2E2E2E2E2E2E2E2E2E2E2E2E2E2E2E2E2E2E2E2E2E2E2E2E2E2E2E2E2E2E2E2E2E2E2E2E2E2E2E2E2E2
310
E2E2E2E2E2E2E2E2E2E2E2E2E2E2E2E2E2E2E2E2E2E2E2E2E2E2E2E2E2E2E2E2E2E2E2E2E2E2E2E2E2E2E2E2E2E2E2E2E2E2E2E2E2E2E2E2E2E2E2E2E2E2E2E2E2E2E2E2E2E2E2E2E2E2E2E2E2E2E2E2E2E2E2E2E2E2E2E2E2E2E2E2E2E2E2E2E2E2E2E2E2E2E2E2E2E2E2E2E2E2E2E2E2E2E2E2E2E2E2E2E2E2E2E2E2E2E2
310
E2E2E2E2E2E2E2E2E2E2E2E2E2E2E2E2E2E2E2E2E2E2E2E2E2E2E2E2E2E2E2E2E2E2E2E2E2E2E2E2E2E2E2E2E2E2E2E2E2E2E2E2E2E2E2E2E2E2E2E2E2E2E2E2E2E2E2E2E2E2E2E2E2E2E2E2E2E2E2E2E2E2E2E2E2E2E2E2E2E2E2E2E2E2E2E2E2E2E2E2E2E2E2E2E2E2E2E2E2E2E2E2E2E2E2E2E2E2E2E2E2E2E2E2E2E2E2
310
E2E2E2E2E2E2E2E2E2E2E2E2E2E2E2E2E2E2E2E2E2E2E2E2E2E2E2E2E2E2E2E2E2E2E2E2E2E2E2E2E2E2E2E2E2E2E2E2E2E2E2E2E2E2E2E2E2E2E2E2E2E2E2E2E2E2E2E2E2E2E2E2E2E2E2E2E2E2E2E2E2E2E2E2E2E2E2E2E2E2E2E2E2E2E2E2E2E2E2E2E2E2E2E2E2E2E2E2E2E2E2E2E2E2E2E2E2E2E2E2E2E2E2E2E2E2E2
310
E2E2E2E2E2E2E2E2E2E2E2E2E2E2E2E2E2E2E2E2E2E2E2E2E2E2E2E2E2E2E2E2E2E2E2E2E2E2E2E2E2E2E2E2E2E2E2E2E2E2E2E2E2E2E2E2E2E2E2E2E2E2E2E2E2E2E2E2E2E2E2E2E2E2E2E2E2E2E2E2E2E2E2E2E2E2E2E2E2E2E2E2E2E2E2E2E2E2E2E2E2E2E2E2E2E2E2E2E2E2E2E2E2E2E2E2E2E2E2E2E2E2E2E2E2E2E2
310
E2E2E2E2E2E2E2E2E2E2E2E2E2E2E2E2E2E2E2E2E2E2E2E2E2E2E2E2E2E2E2E2E2E2E2E2E2E2E2E2E2E2E2E2E2E2E2E2E2E2E2E2E2E2E2E2E2E2E2E2E2E2E2E2E2E2E2E2E2E2E2E2E2E2E2E2E2E2E2E2E2E2E2E2E2E2E2E2E2E2E2E2E2E2E2E2E2E2E2E2E2E2E2E2E2E2E2E2E2E2E2E2E2E2E2E2E2E2E2E2E2E2E2E2E2E2E2
310
E2E2E2E2E2E2E2E2E2E2E2E2E2E2E2E2E2E2E2E2E2E2E2E2E2E2E2E2E2E2E2E2E2E2E2E2E2E2E2E2E2E2E2E2E2E2E2E2E2E2E2E2E2E2E2E2E2E2E2E2E2E2E2E2E2E2E2E2E2E2E2E2E2E2E2E2E2E2E2E2E2E2E2E2E2E2E2E2E2E2E2E2E2E2E2E2E2E2E2E2E2E2E2E2E2E2E2E2E2E2E2E2E2E2E2E2E2E2E2E2E2E2E2E2E2E2E2
310
E2E2E2E2E2E2E2E2E2E2E2E2E2E2E2E2E2E2E2E2E2E2E2E2E2E2E2E2E2E2E2E2E2E2E2E2E2E2E2E2E2E2E2E2E2E2E2E2E2E2E2E2E2E2E2E2E2E2E2E2E2E2E2E2E2E2E2E2E2E2E2E2E2E2E2E2E2E2E2E2E2E2E2E2E2E2E2E2E2E2E2E2E2E2E2E2E2E2E2E2E2E2E2E2E2E2E2E2E2E2E2E2E2E2E2E2E2E2E2E2E2E2E2E2E2E2E2
310
E2E2E2E2E2E2E2E2E2E2E2E2E2E2E2E2E2E2E2E2E2E2E2E2E2E2E2E2E2E2E2E2E2E2E2E2E2E2E2E2E2E2E2E2E2E2E2E2E2E2E2E2E2E2E2E2E2E2E2E2E2E2E2E2E2E2E2E2E2E2E2E2E2E2E2E2E2E2E2E2E2E2E2E2E2E2E2E2E2E2E2E2E2E2E2E2E2E2E2E2E2E2E2E2E2E2E2E2E2E2E2E2E2E2E2E2E2E2E2E2E2E2E2E2E2E2E2
310
E2E2E2E2E2E2E2E2E2E2E2E2E2E2E2E2E2E2E2E2E2E2E2E2E2E2E2E2E2E2E2E2E2E2E2E2E2E2E2E2E2E2E2E2E2E2E2E2E2E2E2E2E2E2E2E2E2E2E2E2E2E2E2E2E2E2E2E2E2E2E2E2E2E2E2E2E2E2E2E2E2E2E2E2E2E2E2E2E2E2E2E2E2E2E2E2E2E2E2E2E2E2E2E2E2E2E2E2E2E2E2E2E2E2E2E2E2E2E2E2E2E2E2E2E2E2E2
310
E2E2E2E2E2E2E2E2E2E2E2E2E2E2E2E2E2E2E2E2E2E2E2E2E2E2E2E2E2E2E2E2E2E2E2E2E2E2E2E2E2E2E2E2E2E2E2E2E2E2E2E2E2E2E2E2E2E2E2E2E2E2E2E2E2E2E2E2E2E2E2E2E2E2E2E2E2E2E2E2E2E2E2E2E2E2E2E2E2E2E2E2E2E2E2E2E2E2E2E2E2E2E2E2E2E2E2E2E2E2E2E2E2E2E2E2E2E2E2E2E2E2E2E2E2E2E2
310
E2E2E2E2E2E2E2E2E2E2E2E2E2E2E2E2E2E2E2E2E2E2E2E2E2E2E2E2E2E2E2E2E2E2E2E2E2E2E2E2E2E2E2E2E2E2E2E2E2E2E2E2E2E2E2E2E2E2E2E2E2E2E2E2E2E2E2E2E2E2E2E2E2E2E2E2E2E2E2E2E2E2E2E2E2E2E2E2E2E2E2E2E2E2E2E2E2E2E2E2E2E2E2E2E2E2E2E2E2E2E2E2E2E2E2E2E2E2E2E2E2E2E2E2E2E2E2
310
E2E2E2E2E2E2E2E2E2E2E2E2E2E2E2E2E2E2E2E2E2E2E2E2E2E2E2E2E2E2E2E2E2E2E2E2E2E2E2E2E2E2E2E2E2E2E2E2E2E2E2E2E2E2E2E2E2E2E2E2E2E2E2E2E2E2E2E2E2E2E2E2E2E2E2E2E2E2E2E2E2E2E2E2E2E2E2E2E2E2E2E2E2E2E2E2E2E2E2E2E2E2E2E2E2E2E2E2E2E2E2E2E2E2E2E2E2E2E2E2E2E2E2E2E2E2E2
310
E2E2E2E2E2E2E2E2E2E2E2E2E2E2E2E2E2E2E2E2E2E2E2E2E2E2E2E2E2E2E2E2E2E2E2E2E2E2E2E2E2E2E2E2E2E2E2E2E2E2E2E2E2E2E2E2E2E2E2E2E2E2E2E2E2E2E2E2E2E2E2E2E2E2E2E2E2E2E2E2E2E2E2E2E2E2E2E2E2E2E2E2E2E2E2E2E2E2E2E2E2E2E2E2E2E2E2E2E2E2E2E2E2E2E2E2E2E2E2E2E2E2E2E2E2E2E2
310
E2E2E2E2E2E2E2E2E2E2E2E2E2E2E2E2E2E2E2E2E2E2E2E2E2E2E2E2E2E2E2E2E2E2E2E2E2E2E2E2E2E2E2E2E2E2E2E2E2E2E2E2E2E2E2E2E2E2E2E2E2E2E2E2E2E2E2E2E2E2E2E2E2E2E2E2E2E2E2E2E2E2E2E2E2E2E2E2E2E2E2E2E2E2E2E2E2E2E2E2E2E2E2E2E2E2E2E2E2E2E2E2E2E2E2E2E2E2E2E2E2E2E2E2E2E2E2
310
E2E2E2E2E2E2E2E2E2E2E2E2E2E2E2E2E2E2E2E2E2E2E2E2E2E2E2E2E2E2E2E2E2E2E2E2E2E2E2E2E2E2E2E2E2E2E2E2E2E2E2E2E2E2E2E2E2E2E2E2E2E2E2E2E2E2E2E2E2E2E2E2E2E2E2E2E2E2E2E2E2E2E2E2E2E2E2E2E2E2E2E2E2E2E2E2E2E2E2E2E2E2E2E2E2E2E2E2E2E2E2E2E2E2E2E2E2E2E2E2E2E2E2E2E2E2E2
310
E2E2E2E2E2E2E2E2E2E2E2E2E2E2E2E2E2E2E2E2E2E2E2E2E2E2E2E2E2E2E2E2E2E2E2E2E2E2E2E2E2E2E2E2E2E2E2E2E2E2E2E2E2E2E2E2E2E2E2E2E2E2E2E2E2E2E2E2E2E2E2E2E2E2E2E2E2E2E2E2E2E2E2E2E2E2E2E2E2E2E2E2E2E2E2E2E2E2E2E2E2E2E2E2E2E2E2E2E2E2E2E2E2E2E2E2E2E2E2E2E2E2E2E2E2E2E2
310
E2E2E2E2E2E2E2E2E2E2E2E2E2E2E2E2E2E2E2E2E2E2E2E2E2E2E2E2E2E2E2E2E2E2E2E2E2E2E2E2E2E2E2E2E2E2E2E2E2E2E2E2E2E2E2E2E2E2E2E2E2E2E2E2E2E2E2E2E2E2E2E2E2E2E2E2E2E2E2E2E2E2E2E2E2E2E2E2E2E2E2E2E2E2E2E2E2E2E2E2E2E2E2E2E2E2E2E2E2E2E2E2E2E2E2E2E2E2E2E2E2E2E2E2E2E2E2
310
E2E2E2E2E2E2E2E2E2E2E2E2E2E2E2E2E2E2E2E2E2E2E2E2E2E2E2E2E2E2E2E2E2E2E2E2E2E2E2E2E2E2E2E2E2E2E2E2E2E2E2E2E2E2E2E2E2E2E2E2E2E2E2E2E2E2E2E2E2E2E2E2E2E2E2E2E2E2E2E2E2E2E2E2E2E2E2E2E2E2E2E2E2E2E2E2E2E2E2E2E2E2E2E2E2E2E2E2E2E2E2E2E2E2E2E2E2E2E2E2E2E2E2E2E2E2E2
310
E2E2E2E2E2E2E2E2E2E2E2E2E2E2E2E2E2E2E2E2E2E2E2E2E2E2E2E2E2E2E2E2E2E2E2E2E2E2E2E2E2E2E2E2E2E2E2E2E2E2E2E2E2E2E2E2E2E2E2E2E2E2E2E2E2E2E2E2E2E2E2E2E2E2E2E2E2E2E2E2E2E2E2E2E2E2E2E2E2E2E2E2E2E2E2E2E2E2E2E2E2E2E2E2E2E2E2E2E2E2E2E2E2E2E2E2E2E2E2E2E2E2E2E2E2E2E2
310
E2E2E2E2E2E2E2E2E2E2E2E2E2E2E2E2E2E2E2E2E2E2E2E2E2E2E2E2E2E2E2E2E2E2E2E2E2E2E2E2E2E2E2E2E2E2E2E2E2E2E2E2E2E2E2E2E2E2E2E2E2E2E2E2E2E2E2E2E2E2E2E2E2E2E2E2E2E2E2E2E2E2E2E2E2E2E2E2E2E2E2E2E2E2E2E2E2E2E2E2E2E2E2E2E2E2E2E2E2E2E2E2E2E2E2E2E2E2E2E2E2E2E2E2E2E2E2
310
E2E2E2E2E2E2E2E2E2E2E2E2E2E2E2E2E2E2E2E2E2E2E2E2E2E2E2E2E2E2E2E2E2E2E2E2E2E2E2E2E2E2E2E2E2E2E2E2E2E2E2E2E2E2E2E2E2E2E2E2E2E2E2E2E2E2E2E2E2E2E2E2E2E2E2E2E2E2E2E2E2E2E2E2E2E2E2E2E2E2E2E2E2E2E2E2E2E2E2E2E2E2E2E2E2E2E2E2E2E2E2E2E2E2E2E2E2E2E2E2E2E2E2E2E2E2E2
310
E2E2E2E2E2E2E2E2E2E2E2E2E2E2E2E2E2E2E2E2E2E2E2E2E2E2E2E2E2E2E2E2E2E2E2E2E2E2E2E2E2E2E2E2E2E2E2E2E2E2E2E2E2E2E2E2E2E2E2E2E2E2E2E2E2E2E2E2E2E2E2E2E2E2E2E2E2E2E2E2E2E2E2E2E2E2E2E2E2E2E2E2E2E2E2E2E2E2E2E2E2E2E2E2E2E2E2E2E2E2E2E2E2E2E2E2E2E2E2E2E2E2E2E2E2E2E2
310
E2E2E2E2E2E2E2E2E2E2E2E2E2E2E2E2E2E2E2E2E2E2E2E2E2E2E2E2E2E2E2E2E2E2E2E2E2E2E2E2E2E2E2E2E2E2E2E2E2E2E2E2E2E2E2E2E2E2E2E2E2E2E2E2E2E2E2E2E2E2E2E2E2E2E2E2E2E2E2E2E2E2E2E2E2E2E2E2E2E2E2E2E2E2E2E2E2E2E2E2E2E2E2E2E2E2E2E2E2E2E2E2E2E2E2E2E2E2E2E2E2E2E2E2E2E2E2
310
E2E2E2E2E2E2E2E2E2E2E2E2E2E2E2E2E2E2E2E2E2E2E2E2E2E2E2E2E2E2E2E2E2E2E2E2E2E2E2E2E2E2E2E2E2E2E2E2E2E2E2E2E2E2E2E2E2E2E2E2E2E2E2E2E2E2E2E2E2E2E2E2E2E2E2E2E2E2E2E2E2E2E2E2E2E2E2E2E2E2E2E2E2E2E2E2E2E2E2E2E2E2E2E2E2E2E2E2E2E2E2E2E2E2E2E2E2E2E2E2E2E2E2E2E2E2E2
310
E2E2E2E2E2E2E2E2E2E2E2E2E2E2E2E2E2E2E2E2E2E2E2E2E2E2E2E2E2E2E2E2E2E2E2E2E2E2E2E2E2E2E2E2E2E2E2E2E2E2E2E2E2E2E2E2E2E2E2E2E2E2E2E2E2E2E2E2E2E2E2E2E2E2E2E2E2E2E2E2E2E2E2E2E2E2E2E2E2E2E2E2E2E2E2E2E2E2E2E2E2E2E2E2E2E2E2E2E2E2E2E2E2E2E2E2E2E2E2E2E2E2E2E2E2E2E2
310
E2E2E2E2E2E2E2E2E2E2E2E2E2E2E2E2E2E2E2E2E2E2E2E2E2E2E2E2E2E2E2E2E2E2E2E2E2E2E2E2E2E2E2E2E2E2E2E2E2E2E2E2E2E2E2E2E2E2E2E2E2E2E2E2E2E2E2E2E2E2E2E2E2E2E2E2E2E2E2E2E2E2E2E2E2E2E2E2E2E2E2E2E2E2E2E2E2E2E2E2E2E2E2E2E2E2E2E2E2E2E2E2E2E2E2E2E2E2E2E2E2E2E2E2E2E2E2
310
E2E2E2E2E2E2E2E2E2E2E2E2E2E2E2E2E2E2E2E2E2E2E2E2E2E2E2E2E2E2E2E2E2E2E2E2E2E2E2E2E2E2E2E2E2E2E2E2E2E2E2E2E2E2E2E2E2E2E2E2E2E2E2E2E2E2E2E2E2E2E2E2E2E2E2E2E2E2E2E2E2E2E2E2E2E2E2E2E2E2E2E2E2E2E2E2E2E2E2E2E2E2E2E2E2E2E2E2E2E2E2E2E2E2E2E2E2E2E2E2E2E2E2E2E2E2E2
310
E2E2E2E2E2E2E2E2E2E2E2E2E2E2E2E2E2E2E2E2E2E2E2E2E2E2E2E2E2E2E2E2E2E2E2E2E2E2E2E2E2E2E2E2E2E2E2E2E2E2E2E2E2E2E2E2E2E2E2E2E2E2E2E2E2E2E2E2E2E2E2E2E2E2E2E2E2E2E2E2E2E2E2E2E2E2E2E2E2E2E2E2E2E2E2E2E2E2E2E2E2E2E2E2E2E2E2E2E2E2E2E2E2E2E2E2E2E2E2E2E2E2E2E2E2E2E2
310
E2E2E2E2E2E2E2E2E2E2E2E2E2E2E2E2E2E2E2E2E2E2E2E2E2E2E2E2E2E2E2E2E2E2E2E2E2E2E2E2E2E2E2E2E2E2E2E2E2E2E2E2E2E2E2E2E2E2E2E2E2E2E2E2E2E2E2E2E2E2E2E2E2E2E2E2E2E2E2E2E2E2E2E2E2E2E2E2E2E2E2E2E2E2E2E2E2E2E2E2E2E2E2E2E2E2E2E2E2E2E2E2E2E2E2E2E2E2E2E2E2E2E2E2E2E2E2
310
E2E2E2E2E2E2E2E2E2E2E2E2E2E2E2E2E2E2E2E2E2E2E2E2E2E2E2E2E2E2E2E2E2E2E2E2E2E2E2E2E2E2E2E2E2E2E2E2E2E2E2E2E2E2E2E2E2E2E2E2E2E2E2E2E2E2E2E2E2E2E2E2E2E2E2E2E2E2E2E2E2E2E2E2E2E2E2E2E2E2E2E2E2E2E2E2E2E2E2E2E2E2E2E2E2E2E2E2E2E2E2E2E2E2E2E2E2E2E2E2E2E2E2E2E2E2E2
310
E2E2E2E2E2E2E2E2E2E2E2E2E2E2E2E2E2E2E2E2E2E2E2E2E2E2E2E2E2E2E2E2E2E2E2E2E2E2E2E2E2E2E2E2E2E2E2E2E2E2E2E2E2E2E2E2E2E2E2E2E2E2E2E2E2E2E2E2E2E2E2E2E2E2E2E2E2E2E2E2E2E2E2E2E2E2E2E2E2E2E2E2E2E2E2E2E2E2E2E2E2E2E2E2E2E2E2E2E2E2E2E2E2E2E2E2E2E2E2E2E2E2E2E2E2E2E2
310
E2E2E2E2E2E2E2E2E2E2E2E2E2E2E2E2E2E2E2E2E2E2E2E2E2E2E2E2E2E2E2E2E2E2E2E2E2E2E2E2E2E2E2E2E2E2E2E2E2E2E2E2E2E2E2E2E2E2E2E2E2E2E2E2E2E2E2E2E2E2E2E2E2E2E2E2E2E2E2E2E2E2E2E2E2E2E2E2E2E2E2E2E2E2E2E2E2E2E2E2E2E2E2E2E2E2E2E2E2E2E2E2E2E2E2E2E2E2E2E2E2E2E2E2E2E2E2
310
E2E2E2E2E2E2E2E2E2E2E2E2E2E2E2E2E2E2E2E2E2E2E2E2E2E2E2E2E2E2E2E2E2E2E2E2E2E2E2E2E2E2E2E2E2E2E2E2E2E2E2E2E2E2E2E2E2E2E2E2E2E2E2E2E2E2E2E2E2E2E2E2E2E2E2E2E2E2E2E2E2E2E2E2E2E2E2E2E2E2E2E2E2E2E2E2E2E2E2E2E2E2E2E2E2E2E2E2E2E2E2E2E2E2E2E2E2E2E2E2E2E2E2E2E2E2E2
310
E2E2E2E2E2E2E2E2E2E2E2E2E2E2E2E2E2E2E2E2E2E2E2E2E2E2E2E2E2E2E2E2E2E2E2E2E2E2E2E2E2E2E2E2E2E2E2E2E2E2E2E2E2E2E2E2E2E2E2E2E2E2E2E2E2E2E2E2E2E2E2E2E2E2E2E2E2E2E2E2E2E2E2E2E2E2E2E2E2E2E2E2E2E2E2E2E2E2E2E2E2E2E2E2E2E2E2E2E2E2E2E2E2E2E2E2E2E2E2E2E2E2E2E2E2E2E2
310
E2E2E2E2E2E2E2E2E2E2E2E2E2E2E2E2E2E2E2E2E2E2E2E2E2E2E2E2E2E2E2E2E2E2E2E2E2E2E2E2E2E2E2E2E2E2E2E2E2E2E2E2E2E2E2E2E2E2E2E2E2E2E2E2E2E2E2E2E2E2E2E2E2E2E2E2E2E2E2E2E2E2E2E2E2E2E2E2E2E2E2E2E2E2E2E2E2E2E2E2E2E2E2E2E2E2E2E2E2E2E2E2E2E2E2E2E2E2E2E2E2E2E2E2E2E2E2
310
E2E2E2E2E2E2E2E2E2E2E2E2E2E2E2E2E2E2E2E2E2E2E2E2E2E2E2E2E2E2E2E2E2E2E2E2E2E2E2E2E2E2E2E2E2E2E2E2E2E2E2E2E2E2E2E2E2E2E2E2E2E2E2E2E2E2E2E2E2E2E2E2E2E2E2E2E2E2E2E2E2E2E2E2E2E2E2E2E2E2E2E2E2E2E2E2E2E2E2E2E2E2E2E2E2E2E2E2E2E2E2E2E2E2E2E2E2E2E2E2E2E2E2E2E2E2E2
310
E2E2E2E2E2E2E2E2E2E2E2E2E2E2E2E2E2E2E2E2E2E2E2E2E2E2E2E2E2E2E2E2E2E2E2E2E2E2E2E2E2E2E2E2E2E2E2E2E2E2E2E2E2E2E2E2E2E2E2E2E2E2E2E2E2E2E2E2E2E2E2E2E2E2E2E2E2E2E2E2E2E2E2E2E2E2E2E2E2E2E2E2E2E2E2E2E2E2E2E2E2E2E2E2E2E2E2E2E2E2E2E2E2E2E2E2E2E2E2E2E2E2E2E2E2E2E2
310
E2E2E2E2E2E2E2E2E2E2E2E2E2E2E2E2E2E2E2E2E2E2E2E2E2E2E2E2E2E2E2E2E2E2E2E2E2E2E2E2E2E2E2E2E2E2E2E2E2E2E2E2E2E2E2E2E2E2E2E2E2E2E2E2E2E2E2E2E2E2E2E2E2E2E2E2E2E2E2E2E2E2E2E2E2E2E2E2E2E2E2E2E2E2E2E2E2E2E2E2E2E2E2E2E2E2E2E2E2E2E2E2E2E2E2E2E2E2E2E2E2E2E2E2E2E2E2
310
E2E2E2E2E2E2E2E2E2E2E2E2E2E2E2E2E2E2E2E2E2E2E2E2E2E2E2E2E2E2E2E2E2E2E2E2E2E2E2E2E2E2E2E2E2E2E2E2E2E2E2E2E2E2E2E2E2E2E2E2E2E2E2E2E2E2E2E2E2E2E2E2E2E2E2E2E2E2E2E2E2E2E2E2E2E2E2E2E2E2E2E2E2E2E2E2E2E2E2E2E2E2E2E2E2E2E2E2E2E2E2E2E2E2E2E2E2E2E2E2E2E2E2E2E2E2E2
310
E2E2E2E2E2E2E2E2E2E2E2E2E2E2E2E2E2E2E2E2E2E2E2E2E2E2E2E2E2E2E2E2E2E2E2E2E2E2E2E2E2E2E2E2E2E2E2E2E2E2E2E2E2E2E2E2E2E2E2E2E2E2E2E2E2E2E2E2E2E2E2E2E2E2E2E2E2E2E2E2E2E2E2E2E2E2E2E2E2E2E2E2E2E2E2E2E2E2E2E2E2E2E2E2E2E2E2E2E2E2E2E2E2E2E2E2E2E2E2E2E2E2E2E2E2E2E2
310
E2E2E2E2E2E2E2E2E2E2E2E2E2E2E2E2E2E2E2E2E2E2E2E2E2E2E2E2E2E2E2E2E2E2E2E2E2E2E2E2E2E2E2E2E2E2E2E2E2E2E2E2E2E2E2E2E2E2E2E2E2E2E2E2E2E2E2E2E2E2E2E2E2E2E2E2E2E2E2E2E2E2E2E2E2E2E2E2E2E2E2E2E2E2E2E2E2E2E2E2E2E2E2E2E2E2E2E2E2E2E2E2E2E2E2E2E2E2E2E2E2E2E2E2E2E2E2
310
E2E2E2E2E2E2E2E2E2E2E2E2E2E2E2E2E2E2E2E2E2E2E2E2E2E2E2E2E2E2E2E2E2E2E2E2E2E2E2E2E2E2E2E2E2E2E2E2E2E2E2E2E2E2E2E2E2E2E2E2E2E2E2E2E2E2E2E2E2E2E2E2E2E2E2E2E2E2E2E2E2E2E2E2E2E2E2E2E2E2E2E2E2E2E2E2E2E2E2E2E2E2E2E2E2E2E2E2E2E2E2E2E2E2E2E2E2E2E2E2E2E2E2E2E2E2E2
310
E2E2E2E2E2E2E2E2E2E2E2E2E2E2E2E2E2E2E2E2E2E2E2E2E2E2E2E2E2E2E2E2E2E2E2E2E2E2E2E2E2E2E2E2E2E2E2E2E2E2E2E2E2E2E2E2E2E2E2E2E2E2E2E2E2E2E2E2E2E2E2E2E2E2E2E2E2E2E2E2E2E2E2E2E2E2E2E2E2E2E2E2E2E2E2E2E2E2E2E2E2E2E2E2E2E2E2E2E2E2E2E2E2E2E2E2E2E2E2E2E2E2E2E2E2E2E2
310
E2E2E2E2E2E2E2E2E2E2E2E2E2E2E2E2E2E2E2E2E2E2E2E2E2E2E2E2E2E2E2E2E2E2E2E2E2E2E2E2E2E2E2E2E2E2E2E2E2E2E2E2E2E2E2E2E2E2E2E2E2E2E2E2E2E2E2E2E2E2E2E2E2E2E2E2E2E2E2E2E2E2E2E2E2E2E2E2E2E2E2E2E2E2E2E2E2E2E2E2E2E2E2E2E2E2E2E2E2E2E2E2E2E2E2E2E2E2E2E2E2E2E2E2E2E2E2
310
E2E2E2E2E2E2E2E2E2E2E2E2E2E2E2E2E2E2E2E2E2E2E2E2E2E2E2E2E2E2E2E2E2E2E2E2E2E2E2E2E2E2E2E2E2E2E2E2E2E2E2E2E2E2E2E2E2E2E2E2E2E2E2E2E2E2E2E2E2E2E2E2E2E2E2E2E2E2E2E2E2E2E2E2E2E2E2E2E2E2E2E2E2E2E2E2E2E2E2E2E2E2E2E2E2E2E2E2E2E2E2E2E2E2E2E2E2E2E2E2E2E2E2E2E2E2E2
310
E2E2E2E2E2E2E2E2E2E2E2E2E2E2E2E2E2E2E2E2E2E2E2E2E2E2E2E2E2E2E2E2E2E2E2E2E2E2E2E2E2E2E2E2E2E2E2E2E2E2E2E2E2E2E2E2E2E2E2E2E2E2E2E2E2E2E2E2E2E2E2E2E2E2E2E2E2E2E2E2E2E2E2E2E2E2E2E2E2E2E2E2E2E2E2E2E2E2E2E2E2E2E2E2E2E2E2E2E2E2E2E2E2E2E2E2E2E2E2E2E2E2E2E2E2E2E2
310
E2E2E2E2E2E2E2E2E2E2E2E2E2E2E2E2E2E2E2E2E2E2E2E2E2E2E2E2E2E2E2E2E2E2E2E2E2E2E2E2E2E2E2E2E2E2E2E2E2E2E2E2E2E2E2E2E2E2E2E2E2E2E2E2E2E2E2E2E2E2E2E2E2E2E2E2E2E2E2E2E2E2E2E2E2E2E2E2E2E2E2E2E2E2E2E2E2E2E2E2E2E2E2E2E2E2E2E2E2E2E2E2E2E2E2E2E2E2E2E2E2E2E2E2E2E2E2
310
E2E2E2E2E2E2E2E2E2E2E2E2E2E2E2E2E2E2E2E2E2E2E2E2E2E2E2E2E2E2E2E2E2E2E2E2E2E2E2E2E2E2E2E2E2E2E2E2E2E2E2E2E2E2E2E2E2E2E2E2E2E2E2E2E2E2E2E2E2E2E2E2E2E2E2E2E2E2E2E2E2E2E2E2E2E2E2E2E2E2E2E2E2E2E2E2E2E2E2E2E2E2E2E2E2E2E2E2E2E2E2E2E2E2E2E2E2E2E2E2E2E2E2E2E2E2E2
310
E2E2E2E2E2E2E2E2E2E2E2E2E2E2E2E2E2E2E2E2E2E2E2E2E2E2E2E2E2E2E2E2E2E2E2E2E2E2E2E2E2E2E2E2E2E2E2E2E2E2E2E2E2E2E2E2E2E2E2E2E2E2E2E2E2E2E2E2E2E2E2E2E2E2E2E2E2E2E2E2E2E2E2E2E2E2E2E2E2E2E2E2E2E2E2E2E2E2E2E2E2E2E2E2E2E2E2E2E2E2E2E2E2E2E2E2E2E2E2E2E2E2E2E2E2E2E2
310
E2E2E2E2E2E2E2E2E2E2E2E2E2E2E2E2E2E2E2E2E2E2E2E2E2E2E2E2E2E2E2E2E2E2E2E2E2E2E2E2E2E2E2E2E2E2E2E2E2E2E2E2E2E2E2E2E2E2E2E2E2E2E2E2E2E2E2E2E2E2E2E2E2E2E2E2E2E2E2E2E2E2E2E2E2E2E2E2E2E2E2E2E2E2E2E2E2E2E2E2E2E2E2E2E2E2E2E2E2E2E2E2E2E2E2E2E2E2E2E2E2E2E2E2E2E2E2
310
E2E2E2E2E2E2E2E2E2E2E2E2E2E2E2E2E2E2E2E2E2E2E2E2E2E2E2E2E2E2E2E2E2E2E2E2E2E2E2E2E2E2E2E2E2E2E2E2E2E2E2E2E2E2E2E2E2E2E2E2E2E2E2E2E2E2E2E2E2E2E2E2E2E2E2E2E2E2E2E2E2E2E2E2E2E2E2E2E2E2E2E2E2E2E2E2E2E2E2E2E2E2E2E2E2E2E2E2E2E2E2E2E2E2E2E2E2E2E2E2E2E2E2E2E2E2E2
310
E2E2E2E2E2E2E2E2E2E2E2E2E2E2E2E2E2E2E2E2E2E2E2E2E2E2E2E2E2E2E2E2E2E2E2E2E2E2E2E2E2E2E2E2E2E2E2E2E2E2E2E2E2E2E2E2E2E2E2E2E2E2E2E2E2E2E2E2E2E2E2E2E2E2E2E2E2E2E2E2E2E2E2E2E2E2E2E2E2E2E2E2E2E2E2E2E2E2E2E2E2E2E2E2E2E2E2E2E2E2E2E2E2E2E2E2E2E2E2E2E2E2E2E2E2E2E2
310
E2E2E2E2E2E2E2E2E2E2E2E2E2E2E2E2E2E2E2E2E2E2E2E2E2E2E2E2E2E2E2E2E2E2E2E2E2E2E2E2E2E2E2E2E2E2E2E2E2E2E2E2E2E2E2E2E2E2E2E2E2E2E2E2E2E2E2E2E2E2E2E2E2E2E2E2E2E2E2E2E2E2E2E2E2E2E2E2E2E2E2E2E2E2E2E2E2E2E2E2E2E2E2E2E2E2E2E2E2E2E2E2E2E2E2E2E2E2E2E2E2E2E2E2E2E2E2
310
E2E2E2E2E2E2E2E2E2E2E2E2E2E2E2E2E2E2E2E2E2E2E2E2E2E2E2E2E2E2E2E2E2E2E2E2E2E2E2E2E2E2E2E2E2E2E2E2E2E2E2E2E2E2E2E2E2E2E2E2E2E2E2E2E2E2E2E2E2E2E2E2E2E2E2E2E2E2E2E2E2E2E2E2E2E2E2E2E2E2E2E2E2E2E2E2E2E2E2E2E2E2E2E2E2E2E2E2E2E2E2E2E2E2E2E2E2E2E2E2E2E2E2E2E2E2E2
310
E2E2E2E2E2E2E2E2E2E2E2E2E2E2E2E2E2E2E2E2E2E2E2E2E2E2E2E2E2E2E2E2E2E2E2E2E2E2E2E2E2E2E2E2E2E2E2E2E2E2E2E2E2E2E2E2E2E2E2E2E2E2E2E2E2E2E2E2E2E2E2E2E2E2E2E2E2E2E2E2E2E2E2E2E2E2E2E2E2E2E2E2E2E2E2E2E2E2E2E2E2E2E2E2E2E2E2E2E2E2E2E2E2E2E2E2E2E2E2E2E2E2E2E2E2E2E2
310
E2E2E2E2E2E2E2E2E2E2E2E2E2E2E2E2E2E2E2E2E2E2E2E2E2E2E2E2E2E2E2E2E2E2E2E2E2E2E2E2E2E2E2E2E2E2E2E2E2E2E2E2E2E2E2E2E2E2E2E2E2E2E2E2E2E2E2E2E2E2E2E2E2E2E2E2E2E2E2E2E2E2E2E2E2E2E2E2E2E2E2E2E2E2E2E2E2E2E2E2E2E2E2E2E2E2E2E2E2E2E2E2E2E2E2E2E2E2E2E2E2E2E2E2E2E2E2
310
E2E2E2E2E2E2E2E2E2E2E2E2E2E2E2E2E2E2E2E2E2E2E2E2E2E2E2E2E2E2E2E2E2E2E2E2E2E2E2E2E2E2E2E2E2E2E2E2E2E2E2E2E2E2E2E2E2E2E2E2E2E2E2E2E2E2E2E2E2E2E2E2E2E2E2E2E2E2E2E2E2E2E2E2E2E2E2E2E2E2E2E2E2E2E2E2E2E2E2E2E2E2E2E2E2E2E2E2E2E2E2E2E2E2E2E2E2E2E2E2E2E2E2E2E2E2E2
310
E2E2E2E2E2E2E2E2E2E2E2E2E2E2E2E2E2E2E2E2E2E2E2E2E2E2E2E2E2E2E2E2E2E2E2E2E2E2E2E2E2E2E2E2E2E2E2E2E2E2E2E2E2E2E2E2E2E2E2E2E2E2E2E2E2E2E2E2E2E2E2E2E2E2E2E2E2E2E2E2E2E2E2E2E2E2E2E2E2E2E2E2E2E2E2E2E2E2E2E2E2E2E2E2E2E2E2E2E2E2E2E2E2E2E2E2E2E2E2E2E2E2E2E2E2E2E2
310
E2E2E2E2E2E2E2E2E2E2E2E2E2E2E2E2E2E2E2E2E2E2E2E2E2E2E2E2E2E2E2E2E2E2E2E2E2E2E2E2E2E2E2E2E2E2E2E2E2E2E2E2E2E2E2E2E2E2E2E2E2E2E2E2E2E2E2E2E2E2E2E2E2E2E2E2E2E2E2E2E2E2E2E2E2E2E2E2E2E2E2E2E2E2E2E2E2E2E2E2E2E2E2E2E2E2E2E2E2E2E2E2E2E2E2E2E2E2E2E2E2E2E2E2E2E2E2
310
E2E2E2E2E2E2E2E2E2E2E2E2E2E2E2E2E2E2E2E2E2E2E2E2E2E2E2E2E2E2E2E2E2E2E2E2E2E2E2E2E2E2E2E2E2E2E2E2E2E2E2E2E2E2E2E2E2E2E2E2E2E2E2E2E2E2E2E2E2E2E2E2E2E2E2E2E2E2E2E2E2E2E2E2E2E2E2E2E2E2E2E2E2E2E2E2E2E2E2E2E2E2E2E2E2E2E2E2E2E2E2E2E2E2E2E2E2E2E2E2E2E2E2E2E2E2E2
310
E2E2E2E2E2E2E2E2E2E2E2E2E2E2E2E2E2E2E2E2E2E2E2E2E2E2E2E2E2E2E2E2E2E2E2E2E2E2E2E2E2E2E2E2E2E2E2E2E2E2E2E2E2E2E2E2E2E2E2E2E2E2E2E2E2E2E2E2E2E2E2E2E2E2E2E2E2E2E2E2E2E2E2E2E2E2E2E2E2E2E2E2E2E2E2E2E2E2E2E2E2E2E2E2E2E2E2E2E2E2E2E2E2E2E2E2E2E2E2E2E2E2E2E2E2E2E2
310
E2E2E2E2E2E2E2E2E2E2E2E2E2E2E2E2E2E2E2E2E2E2E2E2E2E2E2E2E2E2E2E2E2E2E2E2E2E2E2E2E2E2E2E2E2E2E2E2E2E2E2E2E2E2E2E2E2E2E2E2E2E2E2E2E2E2E2E2E2E2E2E2E2E2E2E2E2E2E2E2E2E2E2E2E2E2E2E2E2E2E2E2E2E2E2E2E2E2E2E2E2E2E2E2E2E2E2E2E2E2E2E2E2E2E2E2E2E2E2E2E2E2E2E2E2E2E2
310
E2E2E2E2E2E2E2E2E2E2E2E2E2E2E2E2E2E2E2E2E2E2E2E2E2E2E2E2E2E2E2E2E2E2E2E2E2E2E2E2E2E2E2E2E2E2E2E2E2E2E2E2E2E2E2E2E2E2E2E2E2E2E2E2E2E2E2E2E2E2E2E2E2E2E2E2E2E2E2E2E2E2E2E2E2E2E2E2E2E2E2E2E2E2E2E2E2E2E2E2E2E2E2E2E2E2E2E2E2E2E2E2E2E2E2E2E2E2E2E2E2E2E2E2E2E2E2
310
E2E2E2E2E2E2E2E2E2E2E2E2E2E2E2E2E2E2E2E2E2E2E2E2E2E2E2E2E2E2E2E2E2E2E2E2E2E2E2E2E2E2E2E2E2E2E2E2E2E2E2E2E2E2E2E2E2E2E2E2E2E2E2E2E2E2E2E2E2E2E2E2E2E2E2E2E2E2E2E2E2E2E2E2E2E2E2E2E2E2E2E2E2E2E2E2E2E2E2E2E2E2E2E2E2E2E2E2E2E2E2E2E2E2E2E2E2E2E2E2E2E2E2E2E2E2E2
310
E2E2E2E2E2E2E2E2E2E2E2E2E2E2E2E2E2E2E2E2E2E2E2E2E2E2E2E2E2E2E2E2E2E2E2E2E2E2E2E2E2E2E2E2E2E2E2E2E2E2E2E2E2E2E2E2E2E2E2E2E2E2E2E2E2E2E2E2E2E2E2E2E2E2E2E2E2E2E2E2E2E2E2E2E2E2E2E2E2E2E2E2E2E2E2E2E2E2E2E2E2E2E2E2E2E2E2E2E2E2E2E2E2E2E2E2E2E2E2E2E2E2E2E2E2E2E2
310
E2E2E2E2E2E2E2E2E2E2E2E2E2E2E2E2E2E2E2E2E2E2E2E2E2E2E2E2E2E2E2E2E2E2E2E2E2E2E2E2E2E2E2E2E2E2E2E2E2E2E2E2E2E2E2E2E2E2E2E2E2E2E2E2E2E2E2E2E2E2E2E2E2E2E2E2E2E2E2E2E2E2E2E2E2E2E2E2E2E2E2E2E2E2E2E2E2E2E2E2E2E2E2E2E2E2E2E2E2E2E2E2E2E2E2E2E2E2E2E2E2E2E2E2E2E2E2
310
E2E2E2E2E2E2E2E2E2E2E2E2E2E2E2E2E2E2E2E2E2E2E2E2E2E2E2E2E2E2E2E2E2E2E2E2E2E2E2E2E2E2E2E2E2E2E2E2E2E2E2E2E2E2E2E2E2E2E2E2E2E2E2E2E2E2E2E2E2E2E2E2E2E2E2E2E2E2E2E2E2E2E2E2E2E2E2E2E2E2E2E2E2E2E2E2E2E2E2E2E2E2E2E2E2E2E2E2E2E2E2E2E2E2E2E2E2E2E2E2E2E2E2E2E2E2E2
310
E2E2E2E2E2E2E2E2E2E2E2E2E2E2E2E2E2E2E2E2E2E2E2E2E2E2E2E2E2E2E2E2E2E2E2E2E2E2E2E2E2E2E2E2E2E2E2E2E2E2E2E2E2E2E2E2E2E2E2E2E2E2E2E2E2E2E2E2E2E2E2E2E2E2E2E2E2E2E2E2E2E2E2E2E2E2E2E2E2E2E2E2E2E2E2E2E2E2E2E2E2E2E2E2E2E2E2E2E2E2E2E2E2E2E2E2E2E2E2E2E2E2E2E2E2E2E2
310
E2E2E2E2E2E2E2E2E2E2E2E2E2E2E2E2E2E2E2E2E2E2E2E2E2E2E2E2E2E2E2E2E2E2E2E2E2E2E2E2E2E2E2E2E2E2E2E2E2E2E2E2E2E2E2E2E2E2E2E2E2E2E2E2E2E2E2E2E2E2E2E2E2E2E2E2E2E2E2E2E2E2E2E2E2E2E2E2E2E2E2E2E2E2E2E2E2E2E2E2E2E2E2E2E2E2E2E2E2E2E2E2E2E2E2E2E2E2E2E2E2E2E2E2E2E2E2
310
E2E2E2E2E2E2E2E2E2E2E2E2E2E2E2E2E2E2E2E2E2E2E2E2E2E2E2E2E2E2E2E2E2E2E2E2E2E2E2E2E2E2E2E2E2E2E2E2E2E2E2E2E2E2E2E2E2E2E2E2E2E2E2E2E2E2E2E2E2E2E2E2E2E2E2E2E2E2E2E2E2E2E2E2E2E2E2E2E2E2E2E2E2E2E2E2E2E2E2E2E2E2E2E2E2E2E2E2E2E2E2E2E2E2E2E2E2E2E2E2E2E2E2E2E2E2E2
310
E2E2E2E2E2E2E2E2E2E2E2E2E2E2E2E2E2E2E2E2E2E2E2E2E2E2E2E2E2E2E2E2E2E2E2E2E2E2E2E2E2E2E2E2E2E2E2E2E2E2E2E2E2E2E2E2E2E2E2E2E2E2E2E2E2E2E2E2E2E2E2E2E2E2E2E2E2E2E2E2E2E2E2E2E2E2E2E2E2E2E2E2E2E2E2E2E2E2E2E2E2E2E2E2E2E2E2E2E2E2E2E2E2E2E2E2E2E2E2E2E2E2E2E2E2E2E2
310
E2E2E2E2E2E2E2E2E2E2E2E2E2E2E2E2E2E2E2E2E2E2E2E2E2E2E2E2E2E2E2E2E2E2E2E2E2E2E2E2E2E2E2E2E2E2E2E2E2E2E2E2E2E2E2E2E2E2E2E2E2E2E2E2E2E2E2E2E2E2E2E2E2E2E2E2E2E2E2E2E2E2E2E2E2E2E2E2E2E2E2E2E2E2E2E2E2E2E2E2E2E2E2E2E2E2E2E2E2E2E2E2E2E2E2E2E2E2E2E2E2E2E2E2E2E2E2
310
E2E2E2E2E2E2E2E2E2E2E2E2E2E2E2E2E2E2E2E2E2E2E2E2E2E2E2E2E2E2E2E2E2E2E2E2E2E2E2E2E2E2E2E2E2E2E2E2E2E2E2E2E2E2E2E2E2E2E2E2E2E2E2E2E2E2E2E2E2E2E2E2E2E2E2E2E2E2E2E2E2E2E2E2E2E2E2E2E2E2E2E2E2E2E2E2E2E2E2E2E2E2E2E2E2E2E2E2E2E2E2E2E2E2E2E2E2E2E2E2E2E2E2E2E2E2E2
310
E2E2E2E2E2E2E2E2E2E2E2E2E2E2E2E2E2E2E2E2E2E2E2E2E2E2E2E2E2E2E2E2E2E2E2E2E2E2E2E2E2E2E2E2E2E2E2E2E2E2E2E2E2E2E2E2E2E2E2E2E2E2E2E2E2E2E2E2E2E2E2E2E2E2E2E2E2E2E2E2E2E2E2E2E2E2E2E2E2E2E2E2E2E2E2E2E2E2E2E2E2E2E2E2E2E2E2E2E2E2E2E2E2E2E2E2E2E2E2E2E2E2E2E2E2E2E2
310
E2E2E2E2E2E2E2E2E2E2E2E2E2E2E2E2E2E2E2E2E2E2E2E2E2E2E2E2E2E2E2E2E2E2E2E2E2E2E2E2E2E2E2E2E2E2E2E2E2E2E2E2E2E2E2E2E2E2E2E2E2E2E2E2E2E2E2E2E2E2E2E2E2E2E2E2E2E2E2E2E2E2E2E2E2E2E2E2E2E2E2E2E2E2E2E2E2E2E2E2E2E2E2E2E2E2E2E2E2E2E2E2E2E2E2E2E2E2E2E2E2E2E2E2E2E2E2
310
E2E2E2E2E2E2E2E2E2E2E2E2E2E2E2E2E2E2E2E2E2E2E2E2E2E2E2E2E2E2E2E2E2E2E2E2E2E2E2E2E2E2E2E2E2E2E2E2E2E2E2E2E2E2E2E2E2E2E2E2E2E2E2E2E2E2E2E2E2E2E2E2E2E2E2E2E2E2E2E2E2E2E2E2E2E2E2E2E2E2E2E2E2E2E2E2E2E2E2E2E2E2E2E2E2E2E2E2E2E2E2E2E2E2E2E2E2E2E2E2E2E2E2E2E2E2E2
310
E2E2E2E2E2E2E2E2E2E2E2E2E2E2E2E2E2E2E2E2E2E2E2E2E2E2E2E2E2E2E2E2E2E2E2E2E2E2E2E2E2E2E2E2E2E2E2E2E2E2E2E2E2E2E2E2E2E2E2E2E2E2E2E2E2E2E2E2E2E2E2E2E2E2E2E2E2E2E2E2E2E2E2E2E2E2E2E2E2E2E2E2E2E2E2E2E2E2E2E2E2E2E2E2E2E2E2E2E2E2E2E2E2E2E2E2E2E2E2E2E2E2E2E2E2E2E2
310
E2E2E2E2E2E2E2E2E2E2E2E2E2E2E2E2E2E2E2E2E2E2E2E2E2E2E2E2E2E2E2E2E2E2E2E2E2E2E2E2E2E2E2E2E2E2E2E2E2E2E2E2E2E2E2E2E2E2E2E2E2E2E2E2E2E2E2E2E2E2E2E2E2E2E2E2E2E2E2E2E2E2E2E2E2E2E2E2E2E2E2E2E2E2E2E2E2E2E2E2E2E2E2E2E2E2E2E2E2E2E2E2E2E2E2E2E2E2E2E2E2E2E2E2E2E2E2
310
E2E2E2E2E2E2E2E2E2E2E2E2E2E2E2E2E2E2E2E2E2E2E2E2E2E2E2E2E2E2E2E2E2E2E2E2E2E2E2E2E2E2E2E2E2E2E2E2E2E2E2E2E2E2E2E2E2E2E2E2E2E2E2E2E2E2E2E2E2E2E2E2E2E2E2E2E2E2E2E2E2E2E2E2E2E2E2E2E2E2E2E2E2E2E2E2E2E2E2E2E2E2E2E2E2E2E2E2E2E2E2E2E2E2E2E2E2E2E2E2E2E2E2E2E2E2E2
310
E2E2E2E2E2E2E2E2E2E2E2E2E2E2E2E2E2E2E2E2E2E2E2E2E2E2E2E2E2E2E2E2E2E2E2E2E2E2E2E2E2E2E2E2E2E2E2E2E2E2E2E2E2E2E2E2E2E2E2E2E2E2E2E2E2E2E2E2E2E2E2E2E2E2E2E2E2E2E2E2E2E2E2E2E2E2E2E2E2E2E2E2E2E2E2E2E2E2E2E2E2E2E2E2E2E2E2E2E2E2E2E2E2E2E2E2E2E2E2E2E2E2E2E2E2E2E2
310
E2E2E2E2E2E2E2E2E2E2E2E2E2E2E2E2E2E2E2E2E2E2E2E2E2E2E2E2E2E2E2E2E2E2E2E2E2E2E2E2E2E2E2E2E2E2E2E2E2E2E2E2E2E2E2E2E2E2E2E2E2E2E2E2E2E2E2E2E2E2E2E2E2E2E2E2E2E2E2E2E2E2E2E2E2E2E2E2E2E2E2E2E2E2E2E2E2E2E2E2E2E2E2E2E2E2E2E2E2E2E2E2E2E2E2E2E2E2E2E2E2E2E2E2E2E2E2
310
E2E2E2E2E2E2E2E2E2E2E2E2E2E2E2E2E2E2E2E2E2E2E2E2E2E2E2E2E2E2E2E2E2E2E2E2E2E2E2E2E2E2E2E2E2E2E2E2E2E2E2E2E2E2E2E2E2E2E2E2E2E2E2E2E2E2E2E2E2E2E2E2E2E2E2E2E2E2E2E2E2E2E2E2E2E2E2E2E2E2E2E2E2E2E2E2E2E2E2E2E2E2E2E2E2E2E2E2E2E2E2E2E2E2E2E2E2E2E2E2E2E2E2E2E2E2E2
310
E2E2E2E2E2E2E2E2E2E2E2E2E2E2E2E2E2E2E2E2E2E2E2E2E2E2E2E2E2E2E2E2E2E2E2E2E2E2E2E2E2E2E2E2E2E2E2E2E2E2E2E2E2E2E2E2E2E2E2E2E2E2E2E2E2E2E2E2E2E2E2E2E2E2E2E2E2E2E2E2E2E2E2E2E2E2E2E2E2E2E2E2E2E2E2E2E2E2E2E2E2E2E2E2E2E2E2E2E2E2E2E2E2E2E2E2E2E2E2E2E2E2E2E2E2E2E2
310
E2E2E2E2E2E2E2E2E2E2E2E2E2E2E2E2E2E2E2E2E2E2E2E2E2E2E2E2E2E2E2E2E2E2E2E2E2E2E2E2E2E2E2E2E2E2E2E2E2E2E2E2E2E2E2E2E2E2E2E2E2E2E2E2E2E2E2E2E2E2E2E2E2E2E2E2E2E2E2E2E2E2E2E2E2E2E2E2E2E2E2E2E2E2E2E2E2E2E2E2E2E2E2E2E2E2E2E2E2E2E2E2E2E2E2E2E2E2E2E2E2E2E2E2E2E2E2
310
E2E2E2E2E2E2E2E2E2E2E2E2E2E2E2E2E2E2E2E2E2E2E2E2E2E2E2E2E2E2E2E2E2E2E2E2E2E2E2E2E2E2E2E2E2E2E2E2E2E2E2E2E2E2E2E2E2E2E2E2E2E2E2E2E2E2E2E2E2E2E2E2E2E2E2E2E2E2E2E2E2E2E2E2E2E2E2E2E2E2E2E2E2E2E2E2E2E2E2E2E2E2E2E2E2E2E2E2E2E2E2E2E2E2E2E2E2E2E2E2E2E2E2E2E2E2E2
310
E2E2E2E2E2E2E2E2E2E2E2E2E2E2E2E2E2E2E2E2E2E2E2E2E2E2E2E2E2E2E2E2E2E2E2E2E2E2E2E2E2E2E2E2E2E2E2E2E2E2E2E2E2E2E2E2E2E2E2E2E2E2E2E2E2E2E2E2E2E2E2E2E2E2E2E2E2E2E2E2E2E2E2E2E2E2E2E2E2E2E2E2E2E2E2E2E2E2E2E2E2E2E2E2E2E2E2E2E2E2E2E2E2E2E2E2E2E2E2E2E2E2E2E2E2E2E2
310
E2E2E2E2E2E2E2E2E2E2E2E2E2E2E2E2E2E2E2E2E2E2E2E2E2E2E2E2E2E2E2E2E2E2E2E2E2E2E2E2E2E2E2E2E2E2E2E2E2E2E2E2E2E2E2E2E2E2E2E2E2E2E2E2E2E2E2E2E2E2E2E2E2E2E2E2E2E2E2E2E2E2E2E2E2E2E2E2E2E2E2E2E2E2E2E2E2E2E2E2E2E2E2E2E2E2E2E2E2E2E2E2E2E2E2E2E2E2E2E2E2E2E2E2E2E2E2
310
E2E2E2E2E2E2E2E2E2E2E2E2E2E2E2E2E2E2E2E2E2E2E2E2E2E2E2E2E2E2E2E2E2E2E2E2E2E2E2E2E2E2E2E2E2E2E2E2E2E2E2E2E2E2E2E2E2E2E2E2E2E2E2E2E2E2E2E2E2E2E2E2E2E2E2E2E2E2E2E2E2E2E2E2E2E2E2E2E2E2E2E2E2E2E2E2E2E2E2E2E2E2E2E2E2E2E2E2E2E2E2E2E2E2E2E2E2E2E2E2E2E2E2E2E2E2E2
310
E2E2E2E2E2E2E2E2E2E2E2E2E2E2E2E2E2E2E2E2E2E2E2E2E2E2E2E2E2E2E2E2E2E2E2E2E2E2E2E2E2E2E2E2E2E2E2E2E2E2E2E2E2E2E2E2E2E2E2E2E2E2E2E2E2E2E2E2E2E2E2E2E2E2E2E2E2E2E2E2E2E2E2E2E2E2E2E2E2E2E2E2E2E2E2E2E2E2E2E2E2E2E2E2E2E2E2E2E2E2E2E2E2E2E2E2E2E2E2E2E2E2E2E2E2E2E2
310
E2E2E2E2E2E2E2E2E2E2E2E2E2E2E2E2E2E2E2E2E2E2E2E2E2E2E2E2E2E2E2E2E2E2E2E2E2E2E2E2E2E2E2E2E2E2E2E2E2E2E2E2E2E2E2E2E2E2E2E2E2E2E2E2E2E2E2E2E2E2E2E2E2E2E2E2E2E2E2E2E2E2E2E2E2E2E2E2E2E2E2E2E2E2E2E2E2E2E2E2E2E2E2E2E2E2E2E2E2E2E2E2E2E2E2E2E2E2E2E2E2E2E2E2E2E2E2
310
E2E2E2E2E2E2E2E2E2E2E2E2E2E2E2E2E2E2E2E2E2E2E2E2E2E2E2E2E2E2E2E2E2E2E2E2E2E2E2E2E2E2E2E2E2E2E2E2E2E2E2E2E2E2E2E2E2E2E2E2E2E2E2E2E2E2E2E2E2E2E2E2E2E2E2E2E2E2E2E2E2E2E2E2E2E2E2E2E2E2E2E2E2E2E2E2E2E2E2E2E2E2E2E2E2E2E2E2E2E2E2E2E2E2E2E2E2E2E2E2E2E2E2E2E2E2E2
310
E2E2E2E2E2E2E2E2E2E2E2E2E2E2E2E2E2E2E2E2E2E2E2E2E2E2E2E2E2E2E2E2E2E2E2E2E2E2E2E2E2E2E2E2E2E2E2E2E2E2E2E2E2E2E2E2E2E2E2E2E2E2E2E2E2E2E2E2E2E2E2E2E2E2E2E2E2E2E2E2E2E2E2E2E2E2E2E2E2E2E2E2E2E2E2E2E2E2E2E2E2E2E2E2E2E2E2E2E2E2E2E2E2E2E2E2E2E2E2E2E2E2E2E2E2E2E2
310
E2E2E2E2E2E2E2E2E2E2E2E2E2E2E2E2E2E2E2E2E2E2E2E2E2E2E2E2E2E2E2E2E2E2E2E2E2E2E2E2E2E2E2E2E2E2E2E2E2E2E2E2E2E2E2E2E2E2E2E2E2E2E2E2E2E2E2E2E2E2E2E2E2E2E2E2E2E2E2E2E2E2E2E2E2E2E2E2E2E2E2E2E2E2E2E2E2E2E2E2E2E2E2E2E2E2E2E2E2E2E2E2E2E2E2E2E2E2E2E2E2E2E2E2E2E2E2
310
E2E2E2E2E2E2E2E2E2E2E2E2E2E2E2E2E2E2E2E2E2E2E2E2E2E2E2E2E2E2E2E2E2E2E2E2E2E2E2E2E2E2E2E2E2E2E2E2E2E2E2E2E2E2E2E2E2E2E2E2E2E2E2E2E2E2E2E2E2E2E2E2E2E2E2E2E2E2E2E2E2E2E2E2E2E2E2E2E2E2E2E2E2E2E2E2E2E2E2E2E2E2E2E2E2E2E2E2E2E2E2E2E2E2E2E2E2E2E2E2E2E2E2E2E2E2E2
310
E2E2E2E2E2E2E2E2E2E2E2E2E2E2E2E2E2E2E2E2E2E2E2E2E2E2E2E2E2E2E2E2E2E2E2E2E2E2E2E2E2E2E2E2E2E2E2E2E2E2E2E2E2E2E2E2E2E2E2E2E2E2E2E2E2E2E2E2E2E2E2E2E2E2E2E2E2E2E2E2E2E2E2E2E2E2E2E2E2E2E2E2E2E2E2E2E2E2E2E2E2E2E2E2E2E2E2E2E2E2E2E2E2E2E2E2E2E2E2E2E2E2E2E2E2E2E2
310
E2E2E2E2E2E2E2E2E2E2E2E2E2E2E2E2E2E2E2E2E2E2E2E2E2E2E2E2E2E2E2E2E2E2E2E2E2E2E2E2E2E2E2E2E2E2E2E2E2E2E2E2E2E2E2E2E2E2E2E2E2E2E2E2E2E2E2E2E2E2E2E2E2E2E2E2E2E2E2E2E2E2E2E2E2E2E2E2E2E2E2E2E2E2E2E2E2E2E2E2E2E2E2E2E2E2E2E2E2E2E2E2E2E2E2E2E2E2E2E2E2E2E2E2E2E2E2
310
E2E2E2E2E2E2E2E2E2E2E2E2E2E2E2E2E2E2E2E2E2E2E2E2E2E2E2E2E2E2E2E2E2E2E2E2E2E2E2E2E2E2E2E2E2E2E2E2E2E2E2E2E2E2E2E2E2E2E2E2E2E2E2E2E2E2E2E2E2E2E2E2E2E2E2E2E2E2E2E2E2E2E2E2E2E2E2E2E2E2E2E2E2E2E2E2E2E2E2E2E2E2E2E2E2E2E2E2E2E2E2E2E2E2E2E2E2E2E2E2E2E2E2E2E2E2E2
310
E2E2E2E2E2E2E2E2E2E2E2E2E2E2E2E2E2E2E2E2E2E2E2E2E2E2E2E2E2E2E2E2E2E2E2E2E2E2E2E2E2E2E2E2E2E2E2E2E2E2E2E2E2E2E2E2E2E2E2E2E2E2E2E2E2E2E2E2E2E2E2E2E2E2E2E2E2E2E2E2E2E2E2E2E2E2E2E2E2E2E2E2E2E2E2E2E2E2E2E2E2E2E2E2E2E2E2E2E2E2E2E2E2E2E2E2E2E2E2E2E2E2E2E2E2E2E2
310
E2E2E2E2E2E2E2E2E2E2E2E2E2E2E2E2E2E2E2E2E2E2E2E2E2E2E2E2E2E2E2E2E2E2E2E2E2E2E2E2E2E2E2E2E2E2E2E2E2E2E2E2E2E2E2E2E2E2E2E2E2E2E2E2E2E2E2E2E2E2E2E2E2E2E2E2E2E2E2E2E2E2E2E2E2E2E2E2E2E2E2E2E2E2E2E2E2E2E2E2E2E2E2E2E2E2E2E2E2E2E2E2E2E2E2E2E2E2E2E2E2E2E2E2E2E2E2
310
E2E2E2E2E2E2E2E2E2E2E2E2E2E2E2E2E2E2E2E2E2E2E2E2E2E2E2E2E2E2E2E2E2E2E2E2E2E2E2E2E2E2E2E2E2E2E2E2E2E2E2E2E2E2E2E2E2E2E2E2E2E2E2E2E2E2E2E2E2E2E2E2E2E2E2E2E2E2E2E2E2E2E2E2E2E2E2E2E2E2E2E2E2E2E2E2E2E2E2E2E2E2E2E2E2E2E2E2E2E2E2E2E2E2E2E2E2E2E2E2E2E2E2E2E2E2E2
310
E2E2E2E2E2E2E2E2E2E2E2E2E2E2E2E2E2E2E2E2E2E2E2E2E2E2E2E2E2E2E2E2E2E2E2E2E2E2E2E2E2E2E2E2E2E2E2E2E2E2E2E2E2E2E2E2E2E2E2E2E2E2E2E2E2E2E2E2E2E2E2E2E2E2E2E2E2E2E2E2E2E2E2E2E2E2E2E2E2E2E2E2E2E2E2E2E2E2E2E2E2E2E2E2E2E2E2E2E2E2E2E2E2E2E2E2E2E2E2E2E2E2E2E2E2E2E2
310
E2E2E2E2E2E2E2E2E2E2E2E2E2E2E2E2E2E2E2E2E2E2E2E2E2E2E2E2E2E2E2E2E2E2E2E2E2E2E2E2E2E2E2E2E2E2E2E2E2E2E2E2E2E2E2E2E2E2E2E2E2E2E2E2E2E2E2E2E2E2E2E2E2E2E2E2E2E2E2E2E2E2E2E2E2E2E2E2E2E2E2E2E2E2E2E2E2E2E2E2E2E2E2E2E2E2E2E2E2E2E2E2E2E2E2E2E2E2E2E2E2E2E2E2E2E2E2
310
E2E2E2E2E2E2E2E2E2E2E2E2E2E2E2E2E2E2E2E2E2E2E2E2E2E2E2E2E2E2E2E2E2E2E2E2E2E2E2E2E2E2E2E2E2E2E2E2E2E2E2E2E2E2E2E2E2E2E2E2E2E2E2E2E2E2E2E2E2E2E2E2E2E2E2E2E2E2E2E2E2E2E2E2E2E2E2E2E2E2E2E2E2E2E2E2E2E2E2E2E2E2E2E2E2E2E2E2E2E2E2E2E2E2E2E2E2E2E2E2E2E2E2E2E2E2E2
310
E2E2E2E2E2E2E2E2E2E2E2E2E2E2E2E2E2E2E2E2E2E2E2E2E2E2E2E2E2E2E2E2E2E2E2E2E2E2E2E2E2E2E2E2E2E2E2E2E2E2E2E2E2E2E2E2E2E2E2E2E2E2E2E2E2E2E2E2E2E2E2E2E2E2E2E2E2E2E2E2E2E2E2E2E2E2E2E2E2E2E2E2E2E2E2E2E2E2E2E2E2E2E2E2E2E2E2E2E2E2E2E2E2E2E2E2E2E2E2E2E2E2E2E2E2E2E2
310
E2E2E2E2E2E2E2E2E2E2E2E2E2E2E2E2E2E2E2E2E2E2E2E2E2E2E2E2E2E2E2E2E2E2E2E2E2E2E2E2E2E2E2E2E2E2E2E2E2E2E2E2E2E2E2E2E2E2E2E2E2E2E2E2E2E2E2E2E2E2E2E2E2E2E2E2E2E2E2E2E2E2E2E2E2E2E2E2E2E2E2E2E2E2E2E2E2E2E2E2E2E2E2E2E2E2E2E2E2E2E2E2E2E2E2E2E2E2E2E2E2E2E2E2E2E2E2
310
E2E2E2E2E2E2E2E2E2E2E2E2E2E2E2E2E2E2E2E2E2E2E2E2E2E2E2E2E2E2E2E2E2E2E2E2E2E2E2E2E2E2E2E2E2E2E2E2E2E2E2E2E2E2E2E2E2E2E2E2E2E2E2E2E2E2E2E2E2E2E2E2E2E2E2E2E2E2E2E2E2E2E2E2E2E2E2E2E2E2E2E2E2E2E2E2E2E2E2E2E2E2E2E2E2E2E2E2E2E2E2E2E2E2E2E2E2E2E2E2E2E2E2E2E2E2E2
310
E2E2E2E2E2E2E2E2E2E2E2E2E2E2E2E2E2E2E2E2E2E2E2E2E2E2E2E2E2E2E2E2E2E2E2E2E2E2E2E2E2E2E2E2E2E2E2E2E2E2E2E2E2E2E2E2E2E2E2E2E2E2E2E2E2E2E2E2E2E2E2E2E2E2E2E2E2E2E2E2E2E2E2E2E2E2E2E2E2E2E2E2E2E2E2E2E2E2E2E2E2E2E2E2E2E2E2E2E2E2E2E2E2E2E2E2E2E2E2E2E2E2E2E2E2E2E2
310
E2E2E2E2E2E2E2E2E2E2E2E2E2E2E2E2E2E2E2E2E2E2E2E2E2E2E2E2E2E2E2E2E2E2E2E2E2E2E2E2E2E2E2E2E2E2E2E2E2E2E2E2E2E2E2E2E2E2E2E2E2E2E2E2E2E2E2E2E2E2E2E2E2E2E2E2E2E2E2E2E2E2E2E2E2E2E2E2E2E2E2E2E2E2E2E2E2E2E2E2E2E2E2E2E2E2E2E2E2E2E2E2E2E2E2E2E2E2E2E2E2E2E2E2E2E2E2
310
E2E2E2E2E2E2E2E2E2E2E2E2E2E2E2E2E2E2E2E2E2E2E2E2E2E2E2E2E2E2E2E2E2E2E2E2E2E2E2E2E2E2E2E2E2E2E2E2E2E2E2E2E2E2E2E2E2E2E2E2E2E2E2E2E2E2E2E2E2E2E2E2E2E2E2E2E2E2E2E2E2E2E2E2E2E2E2E2E2E2E2E2E2E2E2E2E2E2E2E2E2E2E2E2E2E2E2E2E2E2E2E2E2E2E2E2E2E2E2E2E2E2E2E2E2E2E2
310
E2E2E2E2E2E2E2E2E2E2E2E2E2E2E2E2E2E2E2E2E2E2E2E2E2E2E2E2E2E2E2E2E2E2E2E2E2E2E2E2E2E2E2E2E2E2E2E2E2E2E2E2E2E2E2E2E2E2E2E2E2E2E2E2E2E2E2E2E2E2E2E2E2E2E2E2E2E2E2E2E2E2E2E2E2E2E2E2E2E2E2E2E2E2E2E2E2E2E2E2E2E2E2E2E2E2E2E2E2E2E2E2E2E2E2E2E2E2E2E2E2E2E2E2E2E2E2
310
E2E2E2E2E2E2E2E2E2E2E2E2E2E2E2E2E2E2E2E2E2E2E2E2E2E2E2E2E2E2E2E2E2E2E2E2E2E2E2E2E2E2E2E2E2E2E2E2E2E2E2E2E2E2E2E2E2E2E2E2E2E2E2E2E2E2E2E2E2E2E2E2E2E2E2E2E2E2E2E2E2E2E2E2E2E2E2E2E2E2E2E2E2E2E2E2E2E2E2E2E2E2E2E2E2E2E2E2E2E2E2E2E2E2E2E2E2E2E2E2E2E2E2E2E2E2E2
310
E2E2E2E2E2E2E2E2E2E2E2E2E2E2E2E2E2E2E2E2E2E2E2E2E2E2E2E2E2E2E2E2E2E2E2E2E2E2E2E2E2E2E2E2E2E2E2E2E2E2E2E2E2E2E2E2E2E2E2E2E2E2E2E2E2E2E2E2E2E2E2E2E2E2E2E2E2E2E2E2E2E2E2E2E2E2E2E2E2E2E2E2E2E2E2E2E2E2E2E2E2E2E2E2E2E2E2E2E2E2E2E2E2E2E2E2E2E2E2E2E2E2E2E2E2E2E2
310
E2E2E2E2E2E2E2E2E2E2E2E2E2E2E2E2E2E2E2E2E2E2E2E2E2E2E2E2E2E2E2E2E2E2E2E2E2E2E2E2E2E2E2E2E2E2E2E2E2E2E2E2E2E2E2E2E2E2E2E2E2E2E2E2E2E2E2E2E2E2E2E2E2E2E2E2E2E2E2E2E2E2E2E2E2E2E2E2E2E2E2E2E2E2E2E2E2E2E2E2E2E2E2E2E2E2E2E2E2E2E2E2E2E2E2E2E2E2E2E2E2E2E2E2E2E2E2
310
E2E2E2E2E2E2E2E2E2E2E2E2E2E2E2E2E2E2E2E2E2E2E2E2E2E2E2E2E2E2E2E2E2E2E2E2E2E2E2E2E2E2E2E2E2E2E2E2E2E2E2E2E2E2E2E2E2E2E2E2E2E2E2E2E2E2E2E2E2E2E2E2E2E2E2E2E2E2E2E2E2E2E2E2E2E2E2E2E2E2E2E2E2E2E2E2E2E2E2E2E2E2E2E2E2E2E2E2E2E2E2E2E2E2E2E2E2E2E2E2E2E2E2E2E2E2E2
310
E2E2E2E2E2E2E2E2E2E2E2E2E2E2E2E2E2E2E2E2E2E2E2E2E2E2E2E2E2E2E2E2E2E2E2E2E2E2E2E2E2E2E2E2E2E2E2E2E2E2E2E2E2E2E2E2E2E2E2E2E2E2E2E2E2E2E2E2E2E2E2E2E2E2E2E2E2E2E2E2E2E2E2E2E2E2E2E2E2E2E2E2E2E2E2E2E2E2E2E2E2E2E2E2E2E2E2E2E2E2E2E2E2E2E2E2E2E2E2E2E2E2E2E2E2E2E2
310
E2E2E2E2E2E2E2E2E2E2E2E2E2E2E2E2E2E2E2E2E2E2E2E2E2E2E2E2E2E2E2E2E2E2E2E2E2E2E2E2E2E2E2E2E2E2E2E2E2E2E2E2E2E2E2E2E2E2E2E2E2E2E2E2E2E2E2E2E2E2E2E2E2E2E2E2E2E2E2E2E2E2E2E2E2E2E2E2E2E2E2E2E2E2E2E2E2E2E2E2E2E2E2E2E2E2E2E2E2E2E2E2E2E2E2E2E2E2E2E2E2E2E2E2E2E2E2
310
E2E2E2E2E2E2E2E2E2E2E2E2E2E2E2E2E2E2E2E2E2E2E2E2E2E2E2E2E2E2E2E2E2E2E2E2E2E2E2E2E2E2E2E2E2E2E2E2E2E2E2E2E2E2E2E2E2E2E2E2E2E2E2E2E2E2E2E2E2E2E2E2E2E2E2E2E2E2E2E2E2E2E2E2E2E2E2E2E2E2E2E2E2E2E2E2E2E2E2E2E2E2E2E2E2E2E2E2E2E2E2E2E2E2E2E2E2E2E2E2E2E2E2E2E2E2E2
310
E2E2E2E2E2E2E2E2E2E2E2E2E2E2E2E2E2E2E2E2E2E2E2E2E2E2E2E2E2E2E2E2E2E2E2E2E2E2E2E2E2E2E2E2E2E2E2E2E2E2E2E2E2E2E2E2E2E2E2E2E2E2E2E2E2E2E2E2E2E2E2E2E2E2E2E2E2E2E2E2E2E2E2E2E2E2E2E2E2E2E2E2E2E2E2E2E2E2E2E2E2E2E2E2E2E2E2E2E2E2E2E2E2E2E2E2E2E2E2E2E2E2E2E2E2E2E2
310
E2E2E2E2E2E2E2E2E2E2E2E2E2E2E2E2E2E2E2E2E2E2E2E2E2E2E2E2E2E2E2E2E2E2E2E2E2E2E2E2E2E2E2E2E2E2E2E2E2E2E2E2E2E2E2E2E2E2E2E2E2E2E2E2E2E2E2E2E2E2E2E2E2E2E2E2E2E2E2E2E2E2E2E2E2E2E2E2E2E2E2E2E2E2E2E2E2E2E2E2E2E2E2E2E2E2E2E2E2E2E2E2E2E2E2E2E2E2E2E2E2E2E2E2E2E2E2
310
E2E2E2E2E2E2E2E2E2E2E2E2E2E2E2E2E2E2E2E2E2E2E2E2E2E2E2E2E2E2E2E2E2E2E2E2E2E2E2E2E2E2E2E2E2E2E2E2E2E2E2E2E2E2E2E2E2E2E2E2E2E2E2E2E2E2E2E2E2E2E2E2E2E2E2E2E2E2E2E2E2E2E2E2E2E2E2E2E2E2E2E2E2E2E2E2E2E2E2E2E2E2E2E2E2E2E2E2E2E2E2E2E2E2E2E2E2E2E2E2E2E2E2E2E2E2E2
310
E2E2E2E2E2E2E2E2E2E2E2E2E2E2E2E2E2E2E2E2E2E2E2E2E2E2E2E2E2E2E2E2E2E2E2E2E2E2E2E2E2E2E2E2E2E2E2E2E2E2E2E2E2E2E2E2E2E2E2E2E2E2E2E2E2E2E2E2E2E2E2E2E2E2E2E2E2E2E2E2E2E2E2E2E2E2E2E2E2E2E2E2E2E2E2E2E2E2E2E2E2E2E2E2E2E2E2E2E2E2E2E2E2E2E2E2E2E2E2E2E2E2E2E2E2E2E2
310
E2E2E2E2E2E2E2E2E2E2E2E2E2E2E2E2E2E2E2E2E2E2E2E2E2E2E2E2E2E2E2E2E2E2E2E2E2E2E2E2E2E2E2E2E2E2E2E2E2E2E2E2E2E2E2E2E2E2E2E2E2E2E2E2E2E2E2E2E2E2E2E2E2E2E2E2E2E2E2E2E2E2E2E2E2E2E2E2E2E2E2E2E2E2E2E2E2E2E2E2E2E2E2E2E2E2E2E2E2E2E2E2E2E2E2E2E2E2E2E2E2E2E2E2E2E2E2
310
E2E2E2E2E2E2E2E2E2E2E2E2E2E2E2E2E2E2E2E2E2E2E2E2E2E2E2E2E2E2E2E2E2E2E2E2E2E2E2E2E2E2E2E2E2E2E2E2E2E2E2E2E2E2E2E2E2E2E2E2E2E2E2E2E2E2E2E2E2E2E2E2E2E2E2E2E2E2E2E2E2E2E2E2E2E2E2E2E2E2E2E2E2E2E2E2E2E2E2E2E2E2E2E2E2E2E2E2E2E2E2E2E2E2E2E2E2E2E2E2E2E2E2E2E2E2E2
310
E2E2E2E2E2E2E2E2E2E2E2E2E2E2E2E2E2E2E2E2E2E2E2E2E2E2E2E2E2E2E2E2E2E2E2E2E2E2E2E2E2E2E2E2E2E2E2E2E2E2E2E2E2E2E2E2E2E2E2E2E2E2E2E2E2E2E2E2E2E2E2E2E2E2E2E2E2E2E2E2E2E2E2E2E2E2E2E2E2E2E2E2E2E2E2E2E2E2E2E2E2E2E2E2E2E2E2E2E2E2E2E2E2E2E2E2E2E2E2E2E2E2E2E2E2E2E2
310
E2E2E2E2E2E2E2E2E2E2E2E2E2E2E2E2E2E2E2E2E2E2E2E2E2E2E2E2E2E2E2E2E2E2E2E2E2E2E2E2E2E2E2E2E2E2E2E2E2E2E2E2E2E2E2E2E2E2E2E2E2E2E2E2E2E2E2E2E2E2E2E2E2E2E2E2E2E2E2E2E2E2E2E2E2E2E2E2E2E2E2E2E2E2E2E2E2E2E2E2E2E2E2E2E2E2E2E2E2E2E2E2E2E2E2E2E2E2E2E2E2E2E2E2E2E2E2
310
E2E2E2E2E2E2E2E2E2E2E2E2E2E2E2E2E2E2E2E2E2E2E2E2E2E2E2E2E2E2E2E2E2E2E2E2E2E2E2E2E2E2E2E2E2E2E2E2E2E2E2E2E2E2E2E2E2E2E2E2E2E2E2E2E2E2E2E2E2E2E2E2E2E2E2E2E2E2E2E2E2E2E2E2E2E2E2E2E2E2E2E2E2E2E2E2E2E2E2E2E2E2E2E2E2E2E2E2E2E2E2E2E2E2E2E2E2E2E2E2E2E2E2E2E2E2E2
310
E2E2E2E2E2E2E2E2E2E2E2E2E2E2E2E2E2E2E2E2E2E2E2E2E2E2E2E2E2E2E2E2E2E2E2E2E2E2E2E2E2E2E2E2E2E2E2E2E2E2E2E2E2E2E2E2E2E2E2E2E2E2E2E2E2E2E2E2E2E2E2E2E2E2E2E2E2E2E2E2E2E2E2E2E2E2E2E2E2E2E2E2E2E2E2E2E2E2E2E2E2E2E2E2E2E2E2E2E2E2E2E2E2E2E2E2E2E2E2E2E2E2E2E2E2E2E2
310
E2E2E2E2E2E2E2E2E2E2E2E2E2E2E2E2E2E2E2E2E2E2E2E2E2E2E2E2E2E2E2E2E2E2E2E2E2E2E2E2E2E2E2E2E2E2E2E2E2E2E2E2E2E2E2E2E2E2E2E2E2E2E2E2E2E2E2E2E2E2E2E2E2E2E2E2E2E2E2E2E2E2E2E2E2E2E2E2E2E2E2E2E2E2E2E2E2E2E2E2E2E2E2E2E2E2E2E2E2E2E2E2E2E2E2E2E2E2E2E2E2E2E2E2E2E2E2
310
E2E2E2E2E2E2E2E2E2E2E2E2E2E2E2E2E2E2E2E2E2E2E2E2E2E2E2E2E2E2E2E2E2E2E2E2E2E2E2E2E2E2E2E2E2E2E2E2E2E2E2E2E2E2E2E2E2E2E2E2E2E2E2E2E2E2E2E2E2E2E2E2E2E2E2E2E2E2E2E2E2E2E2E2E2E2E2E2E2E2E2E2E2E2E2E2E2E2E2E2E2E2E2E2E2E2E2E2E2E2E2E2E2E2E2E2E2E2E2E2E2E2E2E2E2E2E2
310
E2E2E2E2E2E2E2E2E2E2E2E2E2E2E2E2E2E2E2E2E2E2E2E2E2E2E2E2E2E2E2E2E2E2E2E2E2E2E2E2E2E2E2E2E2E2E2E2E2E2E2E2E2E2E2E2E2E2E2E2E2E2E2E2E2E2E2E2E2E2E2E2E2E2E2E2E2E2E2E2E2E2E2E2E2E2E2E2E2E2E2E2E2E2E2E2E2E2E2E2E2E2E2E2E2E2E2E2E2E2E2E2E2E2E2E2E2E2E2E2E2E2E2E2E2E2E2
310
E2E2E2E2E2E2E2E2E2E2E2E2E2E2E2E2E2E2E2E2E2E2E2E2E2E2E2E2E2E2E2E2E2E2E2E2E2E2E2E2E2E2E2E2E2E2E2E2E2E2E2E2E2E2E2E2E2E2E2E2E2E2E2E2E2E2E2E2E2E2E2E2E2E2E2E2E2E2E2E2E2E2E2E2E2E2E2E2E2E2E2E2E2E2E2E2E2E2E2E2E2E2E2E2E2E2E2E2E2E2E2E2E2E2E2E2E2E2E2E2E2E2E2E2E2E2E2
310
E2E2E2E2E2E2E2E2E2E2E2E2E2E2E2E2E2E2E2E2E2E2E2E2E2E2E2E2E2E2E2E2E2E2E2E2E2E2E2E2E2E2E2E2E2E2E2E2E2E2E2E2E2E2E2E2E2E2E2E2E2E2E2E2E2E2E2E2E2E2E2E2E2E2E2E2E2E2E2E2E2E2E2E2E2E2E2E2E2E2E2E2E2E2E2E2E2E2E2E2E2E2E2E2E2E2E2E2E2E2E2E2E2E2E2E2E2E2E2E2E2E2E2E2E2E2E2
310
E2E2E2E2E2E2E2E2E2E2E2E2E2E2E2E2E2E2E2E2E2E2E2E2E2E2E2E2E2E2E2E2E2E2E2E2E2E2E2E2E2E2E2E2E2E2E2E2E2E2E2E2E2E2E2E2E2E2E2E2E2E2E2E2E2E2E2E2E2E2E2E2E2E2E2E2E2E2E2E2E2E2E2E2E2E2E2E2E2E2E2E2E2E2E2E2E2E2E2E2E2E2E2E2E2E2E2E2E2E2E2E2E2E2E2E2E2E2E2E2E2E2E2E2E2E2E2
310
E2E2E2E2E2E2E2E2E2E2E2E2E2E2E2E2E2E2E2E2E2E2E2E2E2E2E2E2E2E2E2E2E2E2E2E2E2E2E2E2E2E2E2E2E2E2E2E2E2E2E2E2E2E2E2E2E2E2E2E2E2E2E2E2E2E2E2E2E2E2E2E2E2E2E2E2E2E2E2E2E2E2E2E2E2E2E2E2E2E2E2E2E2E2E2E2E2E2E2E2E2E2E2E2E2E2E2E2E2E2E2E2E2E2E2E2E2E2E2E2E2E2E2E2E2E2E2
310
E2E2E2E2E2E2E2E2E2E2E2E2E2E2E2E2E2E2E2E2E2E2E2E2E2E2E2E2E2E2E2E2E2E2E2E2E2E2E2E2E2E2E2E2E2E2E2E2E2E2E2E2E2E2E2E2E2E2E2E2E2E2E2E2E2E2E2E2E2E2E2E2E2E2E2E2E2E2E2E2E2E2E2E2E2E2E2E2E2E2E2E2E2E2E2E2E2E2E2E2E2E2E2E2E2E2E2E2E2E2E2E2E2E2E2E2E2E2E2E2E2E2E2E2E2E2E2
310
E2E2E2E2E2E2E2E2E2E2E2E2E2E2E2E2E2E2E2E2E2E2E2E2E2E2E2E2E2E2E2E2E2E2E2E2E2E2E2E2E2E2E2E2E2E2E2E2E2E2E2E2E2E2E2E2E2E2E2E2E2E2E2E2E2E2E2E2E2E2E2E2E2E2E2E2E2E2E2E2E2E2E2E2E2E2E2E2E2E2E2E2E2E2E2E2E2E2E2E2E2E2E2E2E2E2E2E2E2E2E2E2E2E2E2E2E2E2E2E2E2E2E2E2E2E2E2
310
E2E2E2E2E2E2E2E2E2E2E2E2E2E2E2E2E2E2E2E2E2E2E2E2E2E2E2E2E2E2E2E2E2E2E2E2E2E2E2E2E2E2E2E2E2E2E2E2E2E2E2E2E2E2E2E2E2E2E2E2E2E2E2E2E2E2E2E2E2E2E2E2E2E2E2E2E2E2E2E2E2E2E2E2E2E2E2E2E2E2E2E2E2E2E2E2E2E2E2E2E2E2E2E2E2E2E2E2E2E2E2E2E2E2E2E2E2E2E2E2E2E2E2E2E2E2E2
310
E2E2E2E2E2E2E2E2E2E2E2E2E2E2E2E2E2E2E2E2E2E2E2E2E2E2E2E2E2E2E2E2E2E2E2E2E2E2E2E2E2E2E2E2E2E2E2E2E2E2E2E2E2E2E2E2E2E2E2E2E2E2E2E2E2E2E2E2E2E2E2E2E2E2E2E2E2E2E2E2E2E2E2E2E2E2E2E2E2E2E2E2E2E2E2E2E2E2E2E2E2E2E2E2E2E2E2E2E2E2E2E2E2E2E2E2E2E2E2E2E2E2E2E2E2E2E2
310
E2E2E2E2E2E2E2E2E2E2E2E2E2E2E2E2E2E2E2E2E2E2E2E2E2E2E2E2E2E2E2E2E2E2E2E2E2E2E2E2E2E2E2E2E2E2E2E2E2E2E2E2E2E2E2E2E2E2E2E2E2E2E2E2E2E2E2E2E2E2E2E2E2E2E2E2E2E2E2E2E2E2E2E2E2E2E2E2E2E2E2E2E2E2E2E2E2E2E2E2E2E2E2E2E2E2E2E2E2E2E2E2E2E2E2E2E2E2E2E2E2E2E2E2E2E2E2
310
E2E2E2E2E2E2E2E2E2E2E2E2E2E2E2E2E2E2E2E2E2E2E2E2E2E2E2E2E2E2E2E2E2E2E2E2E2E2E2E2E2E2E2E2E2E2E2E2E2E2E2E2E2E2E2E2E2E2E2E2E2E2E2E2E2E2E2E2E2E2E2E2E2E2E2E2E2E2E2E2E2E2E2E2E2E2E2E2E2E2E2E2E2E2E2E2E2E2E2E2E2E2E2E2E2E2E2E2E2E2E2E2E2E2E2E2E2E2E2E2E2E2E2E2E2E2E2
310
E2E2E2E2E2E2E2E2E2E2E2E2E2E2E2E2E2E2E2E2E2E2E2E2E2E2E2E2E2E2E2E2E2E2E2E2E2E2E2E2E2E2E2E2E2E2E2E2E2E2E2E2E2E2E2E2E2E2E2E2E2E2E2E2E2E2E2E2E2E2E2E2E2E2E2E2E2E2E2E2E2E2E2E2E2E2E2E2E2E2E2E2E2E2E2E2E2E2E2E2E2E2E2E2E2E2E2E2E2E2E2E2E2E2E2E2E2E2E2E2E2E2E2E2E2E2E2
310
E2E2E2E2E2E2E2E2E2E2E2E2E2E2E2E2E2E2E2E2E2E2E2E2E2E2E2E2E2E2E2E2E2E2E2E2E2E2E2E2E2E2E2E2E2E2E2E2E2E2E2E2E2E2E2E2E2E2E2E2E2E2E2E2E2E2E2E2E2E2E2E2E2E2E2E2E2E2E2E2E2E2E2E2E2E2E2E2E2E2E2E2E2E2E2E2E2E2E2E2E2E2E2E2E2E2E2E2E2E2E2E2E2E2E2E2E2E2E2E2E2E2E2E2E2E2E2
310
E2E2E2E2E2E2E2E2E2E2E2E2E2E2E2E2E2E2E2E2E2E2E2E2E2E2E2E2E2E2E2E2E2E2E2E2E2E2E2E2E2E2E2E2E2E2E2E2E2E2E2E2E2E2E2E2E2E2E2E2E2E2E2E2E2E2E2E2E2E2E2E2E2E2E2E2E2E2E2E2E2E2E2E2E2E2E2E2E2E2E2E2E2E2E2E2E2E2E2E2E2E2E2E2E2E2E2E2E2E2E2E2E2E2E2E2E2E2E2E2E2E2E2E2E2E2E2
310
E2E2E2E2E2E2E2E2E2E2E2E2E2E2E2E2E2E2E2E2E2E2E2E2E2E2E2E2E2E2E2E2E2E2E2E2E2E2E2E2E2E2E2E2E2E2E2E2E2E2E2E2E2E2E2E2E2E2E2E2E2E2E2E2E2E2E2E2E2E2E2E2E2E2E2E2E2E2E2E2E2E2E2E2E2E2E2E2E2E2E2E2E2E2E2E2E2E2E2E2E2E2E2E2E2E2E2E2E2E2E2E2E2E2E2E2E2E2E2E2E2E2E2E2E2E2E2
310
E2E2E2E2E2E2E2E2E2E2E2E2E2E2E2E2E2E2E2E2E2E2E2E2E2E2E2E2E2E2E2E2E2E2E2E2E2E2E2E2E2E2E2E2E2E2E2E2E2E2E2E2E2E2E2E2E2E2E2E2E2E2E2E2E2E2E2E2E2E2E2E2E2E2E2E2E2E2E2E2E2E2E2E2E2E2E2E2E2E2E2E2E2E2E2E2E2E2E2E2E2E2E2E2E2E2E2E2E2E2E2E2E2E2E2E2E2E2E2E2E2E2E2E2E2E2E2
310
E2E2E2E2E2E2E2E2E2E2E2E2E2E2E2E2E2E2E2E2E2E2E2E2E2E2E2E2E2E2E2E2E2E2E2E2E2E2E2E2E2E2E2E2E2E2E2E2E2E2E2E2E2E2E2E2E2E2E2E2E2E2E2E2E2E2E2E2E2E2E2E2E2E2E2E2E2E2E2E2E2E2E2E2E2E2E2E2E2E2E2E2E2E2E2E2E2E2E2E2E2E2E2E2E2E2E2E2E2E2E2E2E2E2E2E2E2E2E2E2E2E2E2E2E2E2E2
310
E2E2E2E2E2E2E2E2E2E2E2E2E2E2E2E2E2E2E2E2E2E2E2E2E2E2E2E2E2E2E2E2E2E2E2E2E2E2E2E2E2E2E2E2E2E2E2E2E2E2E2E2E2E2E2E2E2E2E2E2E2E2E2E2E2E2E2E2E2E2E2E2E2E2E2E2E2E2E2E2E2E2E2E2E2E2E2E2E2E2E2E2E2E2E2E2E2E2E2E2E2E2E2E2E2E2E2E2E2E2E2E2E2E2E2E2E2E2E2E2E2E2E2E2E2E2E2
310
E2E2E2E2E2E2E2E2E2E2E2E2E2E2E2E2E2E2E2E2E2E2E2E2E2E2E2E2E2E2E2E2E2E2E2E2E2E2E2E2E2E2E2E2E2E2E2E2E2E2E2E2E2E2E2E2E2E2E2E2E2E2E2E2E2E2E2E2E2E2E2E2E2E2E2E2E2E2E2E2E2E2E2E2E2E2E2E2E2E2E2E2E2E2E2E2E2E2E2E2E2E2E2E2E2E2E2E2E2E2E2E2E2E2E2E2E2E2E2E2E2E2E2E2E2E2E2
310
E2E2E2E2E2E2E2E2E2E2E2E2E2E2E2E2E2E2E2E2E2E2E2E2E2E2E2E2E2E2E2E2E2E2E2E2E2E2E2E2E2E2E2E2E2E2E2E2E2E2E2E2E2E2E2E2E2E2E2E2E2E2E2E2E2E2E2E2E2E2E2E2E2E2E2E2E2E2E2E2E2E2E2E2E2E2E2E2E2E2E2E2E2E2E2E2E2E2E2E2E2E2E2E2E2E2E2E2E2E2E2E2E2E2E2E2E2E2E2E2E2E2E2E2E2E2E2
310
E2E2E2E2E2E2E2E2E2E2E2E2E2E2E2E2E2E2E2E2E2E2E2E2E2E2E2E2E2E2E2E2E2E2E2E2E2E2E2E2E2E2E2E2E2E2E2E2E2E2E2E2E2E2E2E2E2E2E2E2E2E2E2E2E2E2E2E2E2E2E2E2E2E2E2E2E2E2E2E2E2E2E2E2E2E2E2E2E2E2E2E2E2E2E2E2E2E2E2E2E2E2E2E2E2E2E2E2E2E2E2E2E2E2E2E2E2E2E2E2E2E2E2E2E2E2E2
310
E2E2E2E2E2E2E2E2E2E2E2E2E2E2E2E2E2E2E2E2E2E2E2E2E2E2E2E2E2E2E2E2E2E2E2E2E2E2E2E2E2E2E2E2E2E2E2E2E2E2E2E2E2E2E2E2E2E2E2E2E2E2E2E2E2E2E2E2E2E2E2E2E2E2E2E2E2E2E2E2E2E2E2E2E2E2E2E2E2E2E2E2E2E2E2E2E2E2E2E2E2E2E2E2E2E2E2E2E2E2E2E2E2E2E2E2E2E2E2E2E2E2E2E2E2E2E2
310
E2E2E2E2E2E2E2E2E2E2E2E2E2E2E2E2E2E2E2E2E2E2E2E2E2E2E2E2E2E2E2E2E2E2E2E2E2E2E2E2E2E2E2E2E2E2E2E2E2E2E2E2E2E2E2E2E2E2E2E2E2E2E2E2E2E2E2E2E2E2E2E2E2E2E2E2E2E2E2E2E2E2E2E2E2E2E2E2E2E2E2E2E2E2E2E2E2E2E2E2E2E2E2E2E2E2E2E2E2E2E2E2E2E2E2E2E2E2E2E2E2E2E2E2E2E2E2
310
E2E2E2E2E2E2E2E2E2E2E2E2E2E2E2E2E2E2E2E2E2E2E2E2E2E2E2E2E2E2E2E2E2E2E2E2E2E2E2E2E2E2E2E2E2E2E2E2E2E2E2E2E2E2E2E2E2E2E2E2E2E2E2E2E2E2E2E2E2E2E2E2E2E2E2E2E2E2E2E2E2E2E2E2E2E2E2E2E2E2E2E2E2E2E2E2E2E2E2E2E2E2E2E2E2E2E2E2E2E2E2E2E2E2E2E2E2E2E2E2E2E2E2E2E2E2E2
310
E2E2E2E2E2E2E2E2E2E2E2E2E2E2E2E2E2E2E2E2E2E2E2E2E2E2E2E2E2E2E2E2E2E2E2E2E2E2E2E2E2E2E2E2E2E2E2E2E2E2E2E2E2E2E2E2E2E2E2E2E2E2E2E2E2E2E2E2E2E2E2E2E2E2E2E2E2E2E2E2E2E2E2E2E2E2E2E2E2E2E2E2E2E2E2E2E2E2E2E2E2E2E2E2E2E2E2E2E2E2E2E2E2E2E2E2E2E2E2E2E2E2E2E2E2E2E2
310
E2E2E2E2E2E2E2E2E2E2E2E2E2E2E2E2E2E2E2E2E2E2E2E2E2E2E2E2E2E2E2E2E2E2E2E2E2E2E2E2E2E2E2E2E2E2E2E2E2E2E2E2E2E2E2E2E2E2E2E2E2E2E2E2E2E2E2E2E2E2E2E2E2E2E2E2E2E2E2E2E2E2E2E2E2E2E2E2E2E2E2E2E2E2E2E2E2E2E2E2E2E2E2E2E2E2E2E2E2E2E2E2E2E2E2E2E2E2E2E2E2E2E2E2E2E2E2
310
E2E2E2E2E2E2E2E2E2E2E2E2E2E2E2E2E2E2E2E2E2E2E2E2E2E2E2E2E2E2E2E2E2E2E2E2E2E2E2E2E2E2E2E2E2E2E2E2E2E2E2E2E2E2E2E2E2E2E2E2E2E2E2E2E2E2E2E2E2E2E2E2E2E2E2E2E2E2E2E2E2E2E2E2E2E2E2E2E2E2E2E2E2E2E2E2E2E2E2E2E2E2E2E2E2E2E2E2E2E2E2E2E2E2E2E2E2E2E2E2E2E2E2E2E2E2E2
310
E2E2E2E2E2E2E2E2E2E2E2E2E2E2E2E2E2E2E2E2E2E2E2E2E2E2E2E2E2E2E2E2E2E2E2E2E2E2E2E2E2E2E2E2E2E2E2E2E2E2E2E2E2E2E2E2E2E2E2E2E2E2E2E2E2E2E2E2E2E2E2E2E2E2E2E2E2E2E2E2E2E2E2E2E2E2E2E2E2E2E2E2E2E2E2E2E2E2E2E2E2E2E2E2E2E2E2E2E2E2E2E2E2E2E2E2E2E2E2E2E2E2E2E2E2E2E2
310
E2E2E2E2E2E2E2E2E2E2E2E2E2E2E2E2E2E2E2E2E2E2E2E2E2E2E2E2E2E2E2E2E2E2E2E2E2E2E2E2E2E2E2E2E2E2E2E2E2E2E2E2E2E2E2E2E2E2E2E2E2E2E2E2E2E2E2E2E2E2E2E2E2E2E2E2E2E2E2E2E2E2E2E2E2E2E2E2E2E2E2E2E2E2E2E2E2E2E2E2E2E2E2E2E2E2E2E2E2E2E2E2E2E2E2E2E2E2E2E2E2E2E2E2E2E2E2
310
E2E2E2E2E2E2E2E2E2E2E2E2E2E2E2E2E2E2E2E2E2E2E2E2E2E2E2E2E2E2E2E2E2E2E2E2E2E2E2E2E2E2E2E2E2E2E2E2E2E2E2E2E2E2E2E2E2E2E2E2E2E2E2E2E2E2E2E2E2E2E2E2E2E2E2E2E2E2E2E2E2E2E2E2E2E2E2E2E2E2E2E2E2E2E2E2E2E2E2E2E2E2E2E2E2E2E2E2E2E2E2E2E2E2E2E2E2E2E2E2E2E2E2E2E2E2E2
310
E2E2E2E2E2E2E2E2E2E2E2E2E2E2E2E2E2E2E2E2E2E2E2E2E2E2E2E2E2E2E2E2E2E2E2E2E2E2E2E2E2E2E2E2E2E2E2E2E2E2E2E2E2E2E2E2E2E2E2E2E2E2E2E2E2E2E2E2E2E2E2E2E2E2E2E2E2E2E2E2E2E2E2E2E2E2E2E2E2E2E2E2E2E2E2E2E2E2E2E2E2E2E2E2E2E2E2E2E2E2E2E2E2E2E2E2E2E2E2E2E2E2E2E2E2E2E2
310
E2E2E2E2E2E2E2E2E2E2E2E2E2E2E2E2E2E2E2E2E2E2E2E2E2E2E2E2E2E2E2E2E2E2E2E2E2E2E2E2E2E2E2E2E2E2E2E2E2E2E2E2E2E2E2E2E2E2E2E2E2E2E2E2E2E2E2E2E2E2E2E2E2E2E2E2E2E2E2E2E2E2E2E2E2E2E2E2E2E2E2E2E2E2E2E2E2E2E2E2E2E2E2E2E2E2E2E2E2E2E2E2E2E2E2E2E2E2E2E2E2E2E2E2E2E2E2
310
E2E2E2E2E2E2E2E2E2E2E2E2E2E2E2E2E2E2E2E2E2E2E2E2E2E2E2E2E2E2E2E2E2E2E2E2E2E2E2E2E2E2E2E2E2E2E2E2E2E2E2E2E2E2E2E2E2E2E2E2E2E2E2E2E2E2E2E2E2E2E2E2E2E2E2E2E2E2E2E2E2E2E2E2E2E2E2E2E2E2E2E2E2E2E2E2E2E2E2E2E2E2E2E2E2E2E2E2E2E2E2E2E2E2E2E2E2E2E2E2E2E2E2E2E2E2E2
310
E2E2E2E2E2E2E2E2E2E2E2E2E2E2E2E2E2E2E2E2E2E2E2E2E2E2E2E2E2E2E2E2E2E2E2E2E2E2E2E2E2E2E2E2E2E2E2E2E2E2E2E2E2E2E2E2E2E2E2E2E2E2E2E2E2E2E2E2E2E2E2E2E2E2E2E2E2E2E2E2E2E2E2E2E2E2E2E2E2E2E2E2E2E2E2E2E2E2E2E2E2E2E2E2E2E2E2E2E2E2E2E2E2E2E2E2E2E2E2E2E2E2E2E2E2E2E2
310
E2E2E2E2E2E2E2E2E2E2E2E2E2E2E2E2E2E2E2E2E2E2E2E2E2E2E2E2E2E2E2E2E2E2E2E2E2E2E2E2E2E2E2E2E2E2E2E2E2E2E2E2E2E2E2E2E2E2E2E2E2E2E2E2E2E2E2E2E2E2E2E2E2E2E2E2E2E2E2E2E2E2E2E2E2E2E2E2E2E2E2E2E2E2E2E2E2E2E2E2E2E2E2E2E2E2E2E2E2E2E2E2E2E2E2E2E2E2E2E2E2E2E2E2E2E2E2
310
E2E2E2E2E2E2E2E2E2E2E2E2E2E2E2E2E2E2E2E2E2E2E2E2E2E2E2E2E2E2E2E2E2E2E2E2E2E2E2E2E2E2E2E2E2E2E2E2E2E2E2E2E2E2E2E2E2E2E2E2E2E2E2E2E2E2E2E2E2E2E2E2E2E2E2E2E2E2E2E2E2E2E2E2E2E2E2E2E2E2E2E2E2E2E2E2E2E2E2E2E2E2E2E2E2E2E2E2E2E2E2E2E2E2E2E2E2E2E2E2E2E2E2E2E2E2E2
310
E2E2E2E2E2E2E2E2E2E2E2E2E2E2E2E2E2E2E2E2E2E2E2E2E2E2E2E2E2E2E2E2E2E2E2E2E2E2E2E2E2E2E2E2E2E2E2E2E2E2E2E2E2E2E2E2E2E2E2E2E2E2E2E2E2E2E2E2E2E2E2E2E2E2E2E2E2E2E2E2E2E2E2E2E2E2E2E2E2E2E2E2E2E2E2E2E2E2E2E2E2E2E2E2E2E2E2E2E2E2E2E2E2E2E2E2E2E2E2E2E2E2E2E2E2E2E2
310
E2E2E2E2E2E2E2E2E2E2E2E2E2E2E2E2E2E2E2E2E2E2E2E2E2E2E2E2E2E2E2E2E2E2E2E2E2E2E2E2E2E2E2E2E2E2E2E2E2E2E2E2E2E2E2E2E2E2E2E2E2E2E2E2E2E2E2E2E2E2E2E2E2E2E2E2E2E2E2E2E2E2E2E2E2E2E2E2E2E2E2E2E2E2E2E2E2E2E2E2E2E2E2E2E2E2E2E2E2E2E2E2E2E2E2E2E2E2E2E2E2E2E2E2E2E2E2
310
E2E2E2E2E2E2E2E2E2E2E2E2E2E2E2E2E2E2E2E2E2E2E2E2E2E2E2E2E2E2E2E2E2E2E2E2E2E2E2E2E2E2E2E2E2E2E2E2E2E2E2E2E2E2E2E2E2E2E2E2E2E2E2E2E2E2E2E2E2E2E2E2E2E2E2E2E2E2E2E2E2E2E2E2E2E2E2E2E2E2E2E2E2E2E2E2E2E2E2E2E2E2E2E2E2E2E2E2E2E2E2E2E2E2E2E2E2E2E2E2E2E2E2E2E2E2E2
310
E2E2E2E2E2E2E2E2E2E2E2E2E2E2E2E2E2E2E2E2E2E2E2E2E2E2E2E2E2E2E2E2E2E2E2E2E2E2E2E2E2E2E2E2E2E2E2E2E2E2E2E2E2E2E2E2E2E2E2E2E2E2E2E2E2E2E2E2E2E2E2E2E2E2E2E2E2E2E2E2E2E2E2E2E2E2E2E2E2E2E2E2E2E2E2E2E2E2E2E2E2E2E2E2E2E2E2E2E2E2E2E2E2E2E2E2E2E2E2E2E2E2E2E2E2E2E2
310
E2E2E2E2E2E2E2E2E2E2E2E2E2E2E2E2E2E2E2E2E2E2E2E2E2E2E2E2E2E2E2E2E2E2E2E2E2E2E2E2E2E2E2E2E2E2E2E2E2E2E2E2E2E2E2E2E2E2E2E2E2E2E2E2E2E2E2E2E2E2E2E2E2E2E2E2E2E2E2E2E2E2E2E2E2E2E2E2E2E2E2E2E2E2E2E2E2E2E2E2E2E2E2E2E2E2E2E2E2E2E2E2E2E2E2E2E2E2E2E2E2E2E2E2E2E2E2
310
E2E2E2E2E2E2E2E2E2E2E2E2E2E2E2E2E2E2E2E2E2E2E2E2E2E2E2E2E2E2E2E2E2E2E2E2E2E2E2E2E2E2E2E2E2E2E2E2E2E2E2E2E2E2E2E2E2E2E2E2E2E2E2E2E2E2E2E2E2E2E2E2E2E2E2E2E2E2E2E2E2E2E2E2E2E2E2E2E2E2E2E2E2E2E2E2E2E2E2E2E2E2E2E2E2E2E2E2E2E2E2E2E2E2E2E2E2E2E2E2E2E2E2E2E2E2E2
310
E2E2E2E2E2E2E2E2E2E2E2E2E2E2E2E2E2E2E2E2E2E2E2E2E2E2E2E2E2E2E2E2E2E2E2E2E2E2E2E2E2E2E2E2E2E2E2E2E2E2E2E2E2E2E2E2E2E2E2E2E2E2E2E2E2E2E2E2E2E2E2E2E2E2E2E2E2E2E2E2E2E2E2E2E2E2E2E2E2E2E2E2E2E2E2E2E2E2E2E2E2E2E2E2E2E2E2E2E2E2E2E2E2E2E2E2E2E2E2E2E2E2E2E2E2E2E2
310
E2E2E2E2E2E2E2E2E2E2E2E2E2E2E2E2E2E2E2E2E2E2E2E2E2E2E2E2E2E2E2E2E2E2E2E2E2E2E2E2E2E2E2E2E2E2E2E2E2E2E2E2E2E2E2E2E2E2E2E2E2E2E2E2E2E2E2E2E2E2E2E2E2E2E2E2E2E2E2E2E2E2E2E2E2E2E2E2E2E2E2E2E2E2E2E2E2E2E2E2E2E2E2E2E2E2E2E2E2E2E2E2E2E2E2E2E2E2E2E2E2E2E2E2E2E2E2
310
E2E2E2E2E2E2E2E2E2E2E2E2E2E2E2E2E2E2E2E2E2E2E2E2E2E2E2E2E2E2E2E2E2E2E2E2E2E2E2E2E2E2E2E2E2E2E2E2E2E2E2E2E2E2E2E2E2E2E2E2E2E2E2E2E2E2E2E2E2E2E2E2E2E2E2E2E2E2E2E2E2E2E2E2E2E2E2E2E2E2E2E2E2E2E2E2E2E2E2E2E2E2E2E2E2E2E2E2E2E2E2E2E2E2E2E2E2E2E2E2E2E2E2E2E2E2E2
310
E2E2E2E2E2E2E2E2E2E2E2E2E2E2E2E2E2E2E2E2E2E2E2E2E2E2E2E2E2E2E2E2E2E2E2E2E2E2E2E2E2E2E2E2E2E2E2E2E2E2E2E2E2E2E2E2E2E2E2E2E2E2E2E2E2E2E2E2E2E2E2E2E2E2E2E2E2E2E2E2E2E2E2E2E2E2E2E2E2E2E2E2E2E2E2E2E2E2E2E2E2E2E2E2E2E2E2E2E2E2E2E2E2E2E2E2E2E2E2E2E2E2E2E2E2E2E2
310
E2E2E2E2E2E2E2E2E2E2E2E2E2E2E2E2E2E2E2E2E2E2E2E2E2E2E2E2E2E2E2E2E2E2E2E2E2E2E2E2E2E2E2E2E2E2E2E2E2E2E2E2E2E2E2E2E2E2E2E2E2E2E2E2E2E2E2E2E2E2E2E2E2E2E2E2E2E2E2E2E2E2E2E2E2E2E2E2E2E2E2E2E2E2E2E2E2E2E2E2E2E2E2E2E2E2E2E2E2E2E2E2E2E2E2E2E2E2E2E2E2E2E2E2E2E2E2
310
E2E2E2E2E2E2E2E2E2E2E2E2E2E2E2E2E2E2E2E2E2E2E2E2E2E2E2E2E2E2E2E2E2E2E2E2E2E2E2E2E2E2E2E2E2E2E2E2E2E2E2E2E2E2E2E2E2E2E2E2E2E2E2E2E2E2E2E2E2E2E2E2E2E2E2E2E2E2E2E2E2E2E2E2E2E2E2E2E2E2E2E2E2E2E2E2E2E2E2E2E2E2E2E2E2E2E2E2E2E2E2E2E2E2E2E2E2E2E2E2E2E2E2E2E2E2E2
310
E2E2E2E2E2E2E2E2E2E2E2E2E2E2E2E2E2E2E2E2E2E2E2E2E2E2E2E2E2E2E2E2E2E2E2E2E2E2E2E2E2E2E2E2E2E2E2E2E2E2E2E2E2E2E2E2E2E2E2E2E2E2E2E2E2E2E2E2E2E2E2E2E2E2E2E2E2E2E2E2E2E2E2E2E2E2E2E2E2E2E2E2E2E2E2E2E2E2E2E2E2E2E2E2E2E2E2E2E2E2E2E2E2E2E2E2E2E2E2E2E2E2E2E2E2E2E2
310
E2E2E2E2E2E2E2E2E2E2E2E2E2E2E2E2E2E2E2E2E2E2E2E2E2E2E2E2E2E2E2E2E2E2E2E2E2E2E2E2E2E2E2E2E2E2E2E2E2E2E2E2E2E2E2E2E2E2E2E2E2E2E2E2E2E2E2E2E2E2E2E2E2E2E2E2E2E2E2E2E2E2E2E2E2E2E2E2E2E2E2E2E2E2E2E2E2E2E2E2E2E2E2E2E2E2E2E2E2E2E2E2E2E2E2E2E2E2E2E2E2E2E2E2E2E2E2
310
E2E2E2E2E2E2E2E2E2E2E2E2E2E2E2E2E2E2E2E2E2E2E2E2E2E2E2E2E2E2E2E2E2E2E2E2E2E2E2E2E2E2E2E2E2E2E2E2E2E2E2E2E2E2E2E2E2E2E2E2E2E2E2E2E2E2E2E2E2E2E2E2E2E2E2E2E2E2E2E2E2E2E2E2E2E2E2E2E2E2E2E2E2E2E2E2E2E2E2E2E2E2E2E2E2E2E2E2E2E2E2E2E2E2E2E2E2E2E2E2E2E2E2E2E2E2E2
310
E2E2E2E2E2E2E2E2E2E2E2E2E2E2E2E2E2E2E2E2E2E2E2E2E2E2E2E2E2E2E2E2E2E2E2E2E2E2E2E2E2E2E2E2E2E2E2E2E2E2E2E2E2E2E2E2E2E2E2E2E2E2E2E2E2E2E2E2E2E2E2E2E2E2E2E2E2E2E2E2E2E2E2E2E2E2E2E2E2E2E2E2E2E2E2E2E2E2E2E2E2E2E2E2E2E2E2E2E2E2E2E2E2E2E2E2E2E2E2E2E2E2E2E2E2E2E2
310
E2E2E2E2E2E2E2E2E2E2E2E2E2E2E2E2E2E2E2E2E2E2E2E2E2E2E2E2E2E2E2E2E2E2E2E2E2E2E2E2E2E2E2E2E2E2E2E2E2E2E2E2E2E2E2E2E2E2E2E2E2E2E2E2E2E2E2E2E2E2E2E2E2E2E2E2E2E2E2E2E2E2E2E2E2E2E2E2E2E2E2E2E2E2E2E2E2E2E2E2E2E2E2E2E2E2E2E2E2E2E2E2E2E2E2E2E2E2E2E2E2E2E2E2E2E2E2
310
E2E2E2E2E2E2E2E2E2E2E2E2E2E2E2E2E2E2E2E2E2E2E2E2E2E2E2E2E2E2E2E2E2E2E2E2E2E2E2E2E2E2E2E2E2E2E2E2E2E2E2E2E2E2E2E2E2E2E2E2E2E2E2E2E2E2E2E2E2E2E2E2E2E2E2E2E2E2E2E2E2E2E2E2E2E2E2E2E2E2E2E2E2E2E2E2E2E2E2E2E2E2E2E2E2E2E2E2E2E2E2E2E2E2E2E2E2E2E2E2E2E2E2E2E2E2E2
310
E2E2E2E2E2E2E2E2E2E2E2E2E2E2E2E2E2E2E2E2E2E2E2E2E2E2E2E2E2E2E2E2E2E2E2E2E2E2E2E2E2E2E2E2E2E2E2E2E2E2E2E2E2E2E2E2E2E2E2E2E2E2E2E2E2E2E2E2E2E2E2E2E2E2E2E2E2E2E2E2E2E2E2E2E2E2E2E2E2E2E2E2E2E2E2E2E2E2E2E2E2E2E2E2E2E2E2E2E2E2E2E2E2E2E2E2E2E2E2E2E2E2E2E2E2E2E2
310
E2E2E2E2E2E2E2E2E2E2E2E2E2E2E2E2E2E2E2E2E2E2E2E2E2E2E2E2E2E2E2E2E2E2E2E2E2E2E2E2E2E2E2E2E2E2E2E2E2E2E2E2E2E2E2E2E2E2E2E2E2E2E2E2E2E2E2E2E2E2E2E2E2E2E2E2E2E2E2E2E2E2E2E2E2E2E2E2E2E2E2E2E2E2E2E2E2E2E2E2E2E2E2E2E2E2E2E2E2E2E2E2E2E2E2E2E2E2E2E2E2E2E2E2E2E2E2
310
E2E2E2E2E2E2E2E2E2E2E2E2E2E2E2E2E2E2E2E2E2E2E2E2E2E2E2E2E2E2E2E2E2E2E2E2E2E2E2E2E2E2E2E2E2E2E2E2E2E2E2E2E2E2E2E2E2E2E2E2E2E2E2E2E2E2E2E2E2E2E2E2E2E2E2E2E2E2E2E2E2E2E2E2E2E2E2E2E2E2E2E2E2E2E2E2E2E2E2E2E2E2E2E2E2E2E2E2E2E2E2E2E2E2E2E2E2E2E2E2E2E2E2E2E2E2E2
310
E2E2E2E2E2E2E2E2E2E2E2E2E2E2E2E2E2E2E2E2E2E2E2E2E2E2E2E2E2E2E2E2E2E2E2E2E2E2E2E2E2E2E2E2E2E2E2E2E2E2E2E2E2E2E2E2E2E2E2E2E2E2E2E2E2E2E2E2E2E2E2E2E2E2E2E2E2E2E2E2E2E2E2E2E2E2E2E2E2E2E2E2E2E2E2E2E2E2E2E2E2E2E2E2E2E2E2E2E2E2E2E2E2E2E2E2E2E2E2E2E2E2E2E2E2E2E2
310
E2E2E2E2E2E2E2E2E2E2E2E2E2E2E2E2E2E2E2E2E2E2E2E2E2E2E2E2E2E2E2E2E2E2E2E2E2E2E2E2E2E2E2E2E2E2E2E2E2E2E2E2E2E2E2E2E2E2E2E2E2E2E2E2E2E2E2E2E2E2E2E2E2E2E2E2E2E2E2E2E2E2E2E2E2E2E2E2E2E2E2E2E2E2E2E2E2E2E2E2E2E2E2E2E2E2E2E2E2E2E2E2E2E2E2E2E2E2E2E2E2E2E2E2E2E2E2
310
E2E2E2E2E2E2E2E2E2E2E2E2E2E2E2E2E2E2E2E2E2E2E2E2E2E2E2E2E2E2E2E2E2E2E2E2E2E2E2E2E2E2E2E2E2E2E2E2E2E2E2E2E2E2E2E2E2E2E2E2E2E2E2E2E2E2E2E2E2E2E2E2E2E2E2E2E2E2E2E2E2E2E2E2E2E2E2E2E2E2E2E2E2E2E2E2E2E2E2E2E2E2E2E2E2E2E2E2E2E2E2E2E2E2E2E2E2E2E2E2E2E2E2E2E2E2E2
310
E2E2E2E2E2E2E2E2E2E2E2E2E2E2E2E2E2E2E2E2E2E2E2E2E2E2E2E2E2E2E2E2E2E2E2E2E2E2E2E2E2E2E2E2E2E2E2E2E2E2E2E2E2E2E2E2E2E2E2E2E2E2E2E2E2E2E2E2E2E2E2E2E2E2E2E2E2E2E2E2E2E2E2E2E2E2E2E2E2E2E2E2E2E2E2E2E2E2E2E2E2E2E2E2E2E2E2E2E2E2E2E2E2E2E2E2E2E2E2E2E2E2E2E2E2E2E2
310
E2E2E2E2E2E2E2E2E2E2E2E2E2E2E2E2E2E2E2E2E2E2E2E2E2E2E2E2E2E2E2E2E2E2E2E2E2E2E2E2E2E2E2E2E2E2E2E2E2E2E2E2E2E2E2E2E2E2E2E2E2E2E2E2E2E2E2E2E2E2E2E2E2E2E2E2E2E2E2E2E2E2E2E2E2E2E2E2E2E2E2E2E2E2E2E2E2E2E2E2E2E2E2E2E2E2E2E2E2E2E2E2E2E2E2E2E2E2E2E2E2E2E2E2E2E2E2
310
E2E2E2E2E2E2E2E2E2E2E2E2E2E2E2E2E2E2E2E2E2E2E2E2E2E2E2E2E2E2E2E2E2E2E2E2E2E2E2E2E2E2E2E2E2E2E2E2E2E2E2E2E2E2E2E2E2E2E2E2E2E2E2E2E2E2E2E2E2E2E2E2E2E2E2E2E2E2E2E2E2E2E2E2E2E2E2E2E2E2E2E2E2E2E2E2E2E2E2E2E2E2E2E2E2E2E2E2E2E2E2E2E2E2E2E2E2E2E2E2E2E2E2E2E2E2E2
310
E2E2E2E2E2E2E2E2E2E2E2E2E2E2E2E2E2E2E2E2E2E2E2E2E2E2E2E2E2E2E2E2E2E2E2E2E2E2E2E2E2E2E2E2E2E2E2E2E2E2E2E2E2E2E2E2E2E2E2E2E2E2E2E2E2E2E2E2E2E2E2E2E2E2E2E2E2E2E2E2E2E2E2E2E2E2E2E2E2E2E2E2E2E2E2E2E2E2E2E2E2E2E2E2E2E2E2E2E2E2E2E2E2E2E2E2E2E2E2E2E2E2E2E2E2E2E2
310
E2E2E2E2E2E2E2E2E2E2E2E2E2E2E2E2E2E2E2E2E2E2E2E2E2E2E2E2E2E2E2E2E2E2E2E2E2E2E2E2E2E2E2E2E2E2E2E2E2E2E2E2E2E2E2E2E2E2E2E2E2E2E2E2E2E2E2E2E2E2E2E2E2E2E2E2E2E2E2E2E2E2E2E2E2E2E2E2E2E2E2E2E2E2E2E2E2E2E2E2E2E2E2E2E2E2E2E2E2E2E2E2E2E2E2E2E2E2E2E2E2E2E2E2E2E2E2
310
E2E2E2E2E2E2E2E2E2E2E2E2E2E2E2E2E2E2E2E2E2E2E2E2E2E2E2E2E2E2E2E2E2E2E2E2E2E2E2E2E2E2E2E2E2E2E2E2E2
  0
XRECORD
  5
2465
102
{ACAD_REACTORS
330
2464
102
}
330
2464
100
AcDbXrecord
280
     1
102
SHADEPLOT
 70
     0
102
SHADEPLOTRESLEVEL
 70
     2
102
SHADEPLOTCUSTOMDPI
 70
   300
  0
XRECORD
  5
12D1
102
{ACAD_REACTORS
330
A40
102
}
330
A40
100
AcDbXrecord
280
     1
102
MATERIAL
148
0.0
149
0.0
149
0.0
 93
        0
 94
      127
282
     0
 72
     0
 77
     0
171
     0
175
     0
179
     0
273
     0
  0
XRECORD
  5
A42
102
{ACAD_REACTORS
330
A40
102
}
330
A40
100
AcDbXrecord
280
     1
270
     1
271
     1
  0
XRECORD
  5
A41
102
{ACAD_REACTORS
330
A40
102
}
330
A40
100
AcDbXrecord
280
     1
270
     1
271
     1
  0
XRECORD
  5
A45
102
{ACAD_REACTORS
330
A40
102
}
330
A40
100
AcDbXrecord
280
     1
270
     1
271
     1
  0
XRECORD
  5
A44
102
{ACAD_REACTORS
330
A40
102
}
330
A40
100
AcDbXrecord
280
     1
270
     1
271
     1
  0
XRECORD
  5
A46
102
{ACAD_REACTORS
330
A40
102
}
330
A40
100
AcDbXrecord
280
     1
270
     1
271
     1
  0
XRECORD
  5
A43
102
{ACAD_REACTORS
330
A40
102
}
330
A40
100
AcDbXrecord
280
     1
270
     1
271
     1
  0
XRECORD
  5
12D0
102
{ACAD_REACTORS
330
A38
102
}
330
A38
100
AcDbXrecord
280
     1
102
MATERIAL
148
0.0
149
0.0
149
0.0
 93
        0
 94
      127
282
     0
 72
     0
 77
     0
171
     0
175
     0
179
     0
273
     0
  0
XRECORD
  5
A3A
102
{ACAD_REACTORS
330
A38
102
}
330
A38
100
AcDbXrecord
280
     1
270
     1
271
     1
  0
XRECORD
  5
A39
102
{ACAD_REACTORS
330
A38
102
}
330
A38
100
AcDbXrecord
280
     1
270
     1
271
     1
  0
XRECORD
  5
A3D
102
{ACAD_REACTORS
330
A38
102
}
330
A38
100
AcDbXrecord
280
     1
270
     1
271
     1
  0
XRECORD
  5
A3C
102
{ACAD_REACTORS
330
A38
102
}
330
A38
100
AcDbXrecord
280
     1
270
     1
271
     1
  0
XRECORD
  5
A3E
102
{ACAD_REACTORS
330
A38
102
}
330
A38
100
AcDbXrecord
280
     1
270
     1
271
     1
  0
XRECORD
  5
A3B
102
{ACAD_REACTORS
330
A38
102
}
330
A38
100
AcDbXrecord
280
     1
270
     1
271
     1
  0
XRECORD
  5
12D2
102
{ACAD_REACTORS
330
A48
102
}
330
A48
100
AcDbXrecord
280
     1
102
MATERIAL
148
0.0
149
0.0
149
0.0
 93
        0
 94
      127
282
     0
 72
     0
 77
     0
171
     0
175
     0
179
     0
273
     0
  0
XRECORD
  5
A4A
102
{ACAD_REACTORS
330
A48
102
}
330
A48
100
AcDbXrecord
280
     1
270
     1
271
     1
  0
XRECORD
  5
A49
102
{ACAD_REACTORS
330
A48
102
}
330
A48
100
AcDbXrecord
280
     1
270
     1
271
     1
  0
XRECORD
  5
A4D
102
{ACAD_REACTORS
330
A48
102
}
330
A48
100
AcDbXrecord
280
     1
270
     1
271
     1
  0
XRECORD
  5
A4C
102
{ACAD_REACTORS
330
A48
102
}
330
A48
100
AcDbXrecord
280
     1
270
     1
271
     1
  0
XRECORD
  5
A4E
102
{ACAD_REACTORS
330
A48
102
}
330
A48
100
AcDbXrecord
280
     1
270
     1
271
     1
  0
XRECORD
  5
A4B
102
{ACAD_REACTORS
330
A48
102
}
330
A48
100
AcDbXrecord
280
     1
270
     1
271
     1
  0
CELLSTYLEMAP
  5
245B
102
{ACAD_REACTORS
330
AED
102
}
330
AED
100
AcDbCellStyleMap
 90
        3
300
CELLSTYLE
  1
TABLEFORMAT_BEGIN
 90
        5
170
     1
 91
        0
 92
    32768
 62
   257
 93
        1
300
CONTENTFORMAT
  1
CONTENTFORMAT_BEGIN
 90
        0
 91
        0
 92
        4
 93
        0
300

 40
0.0
140
1.0
 94
        5
 62
     0
340
10
144
6.0
309
CONTENTFORMAT_END
171
     1
301
MARGIN
  1
CELLMARGIN_BEGIN
 40
1.5
 40
1.5
 40
1.5
 40
1.5
 40
0.18
 40
0.18
309
CELLMARGIN_END
 94
        6
 95
        1
302
GRIDFORMAT
  1
GRIDFORMAT_BEGIN
 90
        0
 91
        1
 62
     0
 92
       -2
340
0
 93
        0
 40
0.045
309
GRIDFORMAT_END
 95
        2
302
GRIDFORMAT
  1
GRIDFORMAT_BEGIN
 90
        0
 91
        1
 62
     0
 92
       -2
340
0
 93
        0
 40
0.045
309
GRIDFORMAT_END
 95
        4
302
GRIDFORMAT
  1
GRIDFORMAT_BEGIN
 90
        0
 91
        1
 62
     0
 92
       -2
340
0
 93
        0
 40
0.045
309
GRIDFORMAT_END
 95
        8
302
GRIDFORMAT
  1
GRIDFORMAT_BEGIN
 90
        0
 91
        1
 62
     0
 92
       -2
340
0
 93
        0
 40
0.045
309
GRIDFORMAT_END
 95
       16
302
GRIDFORMAT
  1
GRIDFORMAT_BEGIN
 90
        0
 91
        1
 62
     0
 92
       -2
340
0
 93
        0
 40
0.045
309
GRIDFORMAT_END
 95
       32
302
GRIDFORMAT
  1
GRIDFORMAT_BEGIN
 90
        0
 91
        1
 62
     0
 92
       -2
340
0
 93
        0
 40
0.045
309
GRIDFORMAT_END
309
TABLEFORMAT_END
  1
CELLSTYLE_BEGIN
 90
        1
 91
        1
300
_TITLE
309
CELLSTYLE_END
300
CELLSTYLE
  1
TABLEFORMAT_BEGIN
 90
        5
170
     1
 91
        0
 92
        0
 62
   257
 93
        1
300
CONTENTFORMAT
  1
CONTENTFORMAT_BEGIN
 90
        0
 91
        0
 92
        4
 93
        0
300

 40
0.0
140
1.0
 94
        5
 62
     0
340
10
144
4.5
309
CONTENTFORMAT_END
171
     1
301
MARGIN
  1
CELLMARGIN_BEGIN
 40
1.5
 40
1.5
 40
1.5
 40
1.5
 40
0.18
 40
0.18
309
CELLMARGIN_END
 94
        6
 95
        1
302
GRIDFORMAT
  1
GRIDFORMAT_BEGIN
 90
        0
 91
        1
 62
     0
 92
       -2
340
0
 93
        0
 40
0.045
309
GRIDFORMAT_END
 95
        2
302
GRIDFORMAT
  1
GRIDFORMAT_BEGIN
 90
        0
 91
        1
 62
     0
 92
       -2
340
0
 93
        0
 40
0.045
309
GRIDFORMAT_END
 95
        4
302
GRIDFORMAT
  1
GRIDFORMAT_BEGIN
 90
        0
 91
        1
 62
     0
 92
       -2
340
0
 93
        0
 40
0.045
309
GRIDFORMAT_END
 95
        8
302
GRIDFORMAT
  1
GRIDFORMAT_BEGIN
 90
        0
 91
        1
 62
     0
 92
       -2
340
0
 93
        0
 40
0.045
309
GRIDFORMAT_END
 95
       16
302
GRIDFORMAT
  1
GRIDFORMAT_BEGIN
 90
        0
 91
        1
 62
     0
 92
       -2
340
0
 93
        0
 40
0.045
309
GRIDFORMAT_END
 95
       32
302
GRIDFORMAT
  1
GRIDFORMAT_BEGIN
 90
        0
 91
        1
 62
     0
 92
       -2
340
0
 93
        0
 40
0.045
309
GRIDFORMAT_END
309
TABLEFORMAT_END
  1
CELLSTYLE_BEGIN
 90
        2
 91
        1
300
_HEADER
309
CELLSTYLE_END
300
CELLSTYLE
  1
TABLEFORMAT_BEGIN
 90
        5
170
     1
 91
        0
 92
        0
 62
   257
 93
        1
300
CONTENTFORMAT
  1
CONTENTFORMAT_BEGIN
 90
        0
 91
        0
 92
        4
 93
        0
300

 40
0.0
140
1.0
 94
        2
 62
     0
340
10
144
4.5
309
CONTENTFORMAT_END
171
     1
301
MARGIN
  1
CELLMARGIN_BEGIN
 40
1.5
 40
1.5
 40
1.5
 40
1.5
 40
0.18
 40
0.18
309
CELLMARGIN_END
 94
        6
 95
        1
302
GRIDFORMAT
  1
GRIDFORMAT_BEGIN
 90
        0
 91
        1
 62
     0
 92
       -2
340
0
 93
        0
 40
0.045
309
GRIDFORMAT_END
 95
        2
302
GRIDFORMAT
  1
GRIDFORMAT_BEGIN
 90
        0
 91
        1
 62
     0
 92
       -2
340
0
 93
        0
 40
0.045
309
GRIDFORMAT_END
 95
        4
302
GRIDFORMAT
  1
GRIDFORMAT_BEGIN
 90
        0
 91
        1
 62
     0
 92
       -2
340
0
 93
        0
 40
0.045
309
GRIDFORMAT_END
 95
        8
302
GRIDFORMAT
  1
GRIDFORMAT_BEGIN
 90
        0
 91
        1
 62
     0
 92
       -2
340
0
 93
        0
 40
0.045
309
GRIDFORMAT_END
 95
       16
302
GRIDFORMAT
  1
GRIDFORMAT_BEGIN
 90
        0
 91
        1
 62
     0
 92
       -2
340
0
 93
        0
 40
0.045
309
GRIDFORMAT_END
 95
       32
302
GRIDFORMAT
  1
GRIDFORMAT_BEGIN
 90
        0
 91
        1
 62
     0
 92
       -2
340
0
 93
        0
 40
0.045
309
GRIDFORMAT_END
309
TABLEFORMAT_END
  1
CELLSTYLE_BEGIN
 90
        3
 91
        2
300
_DATA
309
CELLSTYLE_END
  0
XRECORD
  5
2467
102
{ACAD_REACTORS
330
AED
102
}
330
AED
100
AcDbXrecord
280
     1
102
ACAD_ROUNDTRIP_PRE2007_TABLESTYLE
 90
        4
 91
        0
  1

 92
        4
 93
        0
  2

 94
        4
 95
        0
  3

  0
ENDSEC
  0
EOF
