  0
SECTION
  2
HEADER
  9
$ACADVER
  1
AC1027
  9
$ACADMAINTVER
 70
    20
  9
$DWGCODEPAGE
  3
ANSI_1252
  9
$LASTSAVEDBY
  1
se-milkar
  9
$CUSTOMPROPERTYTAG
  1
AmdtFileType
  9
$CUSTOMPROPERTY
  1
84
  9
$REQUIREDVERSIONS
160
                 0
  9
$INSBASE
 10
0.0
 20
0.0
 30
0.0
  9
$EXTMIN
 10
157.7449154428884
 20
113.2556288658629
 30
0.0
  9
$EXTMAX
 10
316.1344513395741
 20
375.8425062269227
 30
0.0
  9
$LIMMIN
 10
0.0
 20
0.0
  9
$LIMMAX
 10
420.0
 20
297.0
  9
$ORTHOMODE
 70
     1
  9
$REGENMODE
 70
     1
  9
$FILLMODE
 70
     1
  9
$QTEXTMODE
 70
     0
  9
$MIRRTEXT
 70
     0
  9
$LTSCALE
 40
1.0
  9
$ATTMODE
 70
     1
  9
$TEXTSIZE
 40
3.5
  9
$TRACEWID
 40
1.0
  9
$TEXTSTYLE
  7
STANDARD
  9
$CLAYER
  8
AM_0
  9
$CELTYPE
  6
BYLAYER
  9
$CECOLOR
 62
   256
  9
$CELTSCALE
 40
1.0
  9
$DISPSILH
 70
     0
  9
$DIMSCALE
 40
1.0
  9
$DIMASZ
 40
2.5
  9
$DIMEXO
 40
1.0
  9
$DIMDLI
 40
10.0
  9
$DIMRND
 40
0.0
  9
$DIMDLE
 40
0.0
  9
$DIMEXE
 40
1.0
  9
$DIMTP
 40
0.1
  9
$DIMTM
 40
0.1
  9
$DIMTXT
 40
3.5
  9
$DIMCEN
 40
0.0
  9
$DIMTSZ
 40
0.0
  9
$DIMTOL
 70
     0
  9
$DIMLIM
 70
     0
  9
$DIMTIH
 70
     0
  9
$DIMTOH
 70
     0
  9
$DIMSE1
 70
     0
  9
$DIMSE2
 70
     0
  9
$DIMTAD
 70
     1
  9
$DIMZIN
 70
     8
  9
$DIMBLK
  1

  9
$DIMASO
 70
     1
  9
$DIMSHO
 70
     1
  9
$DIMPOST
  1

  9
$DIMAPOST
  1
"
  9
$DIMALT
 70
     0
  9
$DIMALTD
 70
     3
  9
$DIMALTF
 40
0.0393701
  9
$DIMLFAC
 40
1.0
  9
$DIMTOFL
 70
     1
  9
$DIMTVP
 40
0.0
  9
$DIMTIX
 70
     0
  9
$DIMSOXD
 70
     0
  9
$DIMSAH
 70
     0
  9
$DIMBLK1
  1

  9
$DIMBLK2
  1

  9
$DIMSTYLE
  2
AM_ISO
  9
$DIMCLRD
 70
   256
  9
$DIMCLRE
 70
   256
  9
$DIMCLRT
 70
     2
  9
$DIMTFAC
 40
0.71
  9
$DIMGAP
 40
1.5
  9
$DIMJUST
 70
     0
  9
$DIMSD1
 70
     0
  9
$DIMSD2
 70
     0
  9
$DIMTOLJ
 70
     0
  9
$DIMTZIN
 70
     8
  9
$DIMALTZ
 70
     0
  9
$DIMALTTZ
 70
     0
  9
$DIMUPT
 70
     0
  9
$DIMDEC
 70
     2
  9
$DIMTDEC
 70
     2
  9
$DIMALTU
 70
     2
  9
$DIMALTTD
 70
     3
  9
$DIMTXSTY
  7
STANDARD
  9
$DIMAUNIT
 70
     0
  9
$DIMADEC
 70
     0
  9
$DIMALTRND
 40
0.0
  9
$DIMAZIN
 70
     2
  9
$DIMDSEP
 70
    46
  9
$DIMATFIT
 70
     3
  9
$DIMFRAC
 70
     0
  9
$DIMLDRBLK
  1

  9
$DIMLUNIT
 70
     2
  9
$DIMLWD
 70
    -1
  9
$DIMLWE
 70
    -1
  9
$DIMTMOVE
 70
     0
  9
$DIMFXL
 40
1.0
  9
$DIMFXLON
 70
     0
  9
$DIMJOGANG
 40
0.7853981633974483
  9
$DIMTFILL
 70
     0
  9
$DIMTFILLCLR
 70
     0
  9
$DIMARCSYM
 70
     0
  9
$DIMLTYPE
  6

  9
$DIMLTEX1
  6

  9
$DIMLTEX2
  6

  9
$DIMTXTDIRECTION
 70
     0
  9
$LUNITS
 70
     2
  9
$LUPREC
 70
     2
  9
$SKETCHINC
 40
1.0
  9
$FILLETRAD
 40
0.0
  9
$AUNITS
 70
     0
  9
$AUPREC
 70
     0
  9
$MENU
  1
.
  9
$ELEVATION
 40
0.0
  9
$PELEVATION
 40
0.0
  9
$THICKNESS
 40
0.0
  9
$LIMCHECK
 70
     0
  9
$CHAMFERA
 40
2.5
  9
$CHAMFERB
 40
2.5
  9
$CHAMFERC
 40
20.0
  9
$CHAMFERD
 40
0.0
  9
$SKPOLY
 70
     1
  9
$TDCREATE
 40
2454182.616847141
  9
$TDUCREATE
 40
2454182.533513808
  9
$TDUPDATE
 40
2457246.616941459
  9
$TDUUPDATE
 40
2457246.533608125
  9
$TDINDWG
 40
0.3339248264
  9
$TDUSRTIMER
 40
0.3339246296
  9
$USRTIMER
 70
     1
  9
$ANGBASE
 50
0.0
  9
$ANGDIR
 70
     0
  9
$PDMODE
 70
     0
  9
$PDSIZE
 40
0.0
  9
$PLINEWID
 40
0.0
  9
$SPLFRAME
 70
     0
  9
$SPLINETYPE
 70
     6
  9
$SPLINESEGS
 70
     8
  9
$HANDSEED
  5
3B53
  9
$SURFTAB1
 70
     6
  9
$SURFTAB2
 70
     6
  9
$SURFTYPE
 70
     6
  9
$SURFU
 70
     6
  9
$SURFV
 70
     6
  9
$UCSBASE
  2

  9
$UCSNAME
  2

  9
$UCSORG
 10
0.0
 20
0.0
 30
0.0
  9
$UCSXDIR
 10
1.0
 20
0.0
 30
0.0
  9
$UCSYDIR
 10
0.0
 20
1.0
 30
0.0
  9
$UCSORTHOREF
  2

  9
$UCSORTHOVIEW
 70
     0
  9
$UCSORGTOP
 10
0.0
 20
0.0
 30
0.0
  9
$UCSORGBOTTOM
 10
0.0
 20
0.0
 30
0.0
  9
$UCSORGLEFT
 10
0.0
 20
0.0
 30
0.0
  9
$UCSORGRIGHT
 10
0.0
 20
0.0
 30
0.0
  9
$UCSORGFRONT
 10
0.0
 20
0.0
 30
0.0
  9
$UCSORGBACK
 10
0.0
 20
0.0
 30
0.0
  9
$PUCSBASE
  2

  9
$PUCSNAME
  2

  9
$PUCSORG
 10
0.0
 20
0.0
 30
0.0
  9
$PUCSXDIR
 10
1.0
 20
0.0
 30
0.0
  9
$PUCSYDIR
 10
0.0
 20
1.0
 30
0.0
  9
$PUCSORTHOREF
  2

  9
$PUCSORTHOVIEW
 70
     0
  9
$PUCSORGTOP
 10
0.0
 20
0.0
 30
0.0
  9
$PUCSORGBOTTOM
 10
0.0
 20
0.0
 30
0.0
  9
$PUCSORGLEFT
 10
0.0
 20
0.0
 30
0.0
  9
$PUCSORGRIGHT
 10
0.0
 20
0.0
 30
0.0
  9
$PUCSORGFRONT
 10
0.0
 20
0.0
 30
0.0
  9
$PUCSORGBACK
 10
0.0
 20
0.0
 30
0.0
  9
$USERI1
 70
     0
  9
$USERI2
 70
     0
  9
$USERI3
 70
     0
  9
$USERI4
 70
     0
  9
$USERI5
 70
     0
  9
$USERR1
 40
0.0
  9
$USERR2
 40
0.0
  9
$USERR3
 40
0.0
  9
$USERR4
 40
0.0
  9
$USERR5
 40
0.0
  9
$WORLDVIEW
 70
     1
  9
$SHADEDGE
 70
     3
  9
$SHADEDIF
 70
    70
  9
$TILEMODE
 70
     1
  9
$MAXACTVP
 70
    48
  9
$PINSBASE
 10
0.0
 20
0.0
 30
0.0
  9
$PLIMCHECK
 70
     0
  9
$PEXTMIN
 10
1.000000000000000E+20
 20
1.000000000000000E+20
 30
1.000000000000000E+20
  9
$PEXTMAX
 10
-1.000000000000000E+20
 20
-1.000000000000000E+20
 30
-1.000000000000000E+20
  9
$PLIMMIN
 10
-0.2500002402958907
 20
-0.2499999962453767
  9
$PLIMMAX
 10
10.74999951940821
 20
8.249999763458731
  9
$UNITMODE
 70
     0
  9
$VISRETAIN
 70
     1
  9
$PLINEGEN
 70
     0
  9
$PSLTSCALE
 70
     1
  9
$TREEDEPTH
 70
  3020
  9
$CMLSTYLE
  2
STANDARD
  9
$CMLJUST
 70
     0
  9
$CMLSCALE
 40
1.0
  9
$PROXYGRAPHICS
 70
     1
  9
$MEASUREMENT
 70
     1
  9
$CELWEIGHT
370
    -1
  9
$ENDCAPS
280
     0
  9
$JOINSTYLE
280
     0
  9
$LWDISPLAY
290
     0
  9
$INSUNITS
 70
     4
  9
$HYPERLINKBASE
  1

  9
$STYLESHEET
  1
MONOCHROME.CTB
  9
$XEDIT
290
     1
  9
$CEPSNTYPE
380
     0
  9
$PSTYLEMODE
290
     1
  9
$FINGERPRINTGUID
  2
{127C7B49-A843-4817-BAC7-EABF00131CF8}
  9
$VERSIONGUID
  2
{81FCD525-6493-4211-82F5-C51E1EAF1F67}
  9
$EXTNAMES
290
     1
  9
$PSVPSCALE
 40
0.0
  9
$OLESTARTUP
290
     0
  9
$SORTENTS
280
   127
  9
$INDEXCTL
280
     1
  9
$HIDETEXT
280
     0
  9
$XCLIPFRAME
280
     2
  9
$HALOGAP
280
     0
  9
$OBSCOLOR
 70
   257
  9
$OBSLTYPE
280
     0
  9
$INTERSECTIONDISPLAY
280
     0
  9
$INTERSECTIONCOLOR
 70
   257
  9
$DIMASSOC
280
     2
  9
$PROJECTNAME
  1

  9
$CAMERADISPLAY
290
     0
  9
$LENSLENGTH
 40
50.0
  9
$CAMERAHEIGHT
 40
0.0
  9
$STEPSPERSEC
 40
2.0
  9
$STEPSIZE
 40
6.0
  9
$3DDWFPREC
 40
2.0
  9
$PSOLWIDTH
 40
0.25
  9
$PSOLHEIGHT
 40
4.0
  9
$LOFTANG1
 40
1.570796326794896
  9
$LOFTANG2
 40
1.570796326794896
  9
$LOFTMAG1
 40
0.0
  9
$LOFTMAG2
 40
0.0
  9
$LOFTPARAM
 70
     7
  9
$LOFTNORMALS
280
     1
  9
$LATITUDE
 40
37.795
  9
$LONGITUDE
 40
-122.394
  9
$NORTHDIRECTION
 40
0.0
  9
$TIMEZONE
 70
 -8000
  9
$LIGHTGLYPHDISPLAY
280
     1
  9
$TILEMODELIGHTSYNCH
280
     1
  9
$CMATERIAL
347
A37
  9
$SOLIDHIST
280
     0
  9
$SHOWHIST
280
     1
  9
$DWFFRAME
280
     2
  9
$DGNFRAME
280
     0
  9
$REALWORLDSCALE
290
     1
  9
$INTERFERECOLOR
 62
     1
  9
$INTERFEREOBJVS
345
A59
  9
$INTERFEREVPVS
346
3AAE
  9
$CSHADOW
280
     0
  9
$SHADOWPLANELOCATION
 40
0.0
  0
ENDSEC
  0
SECTION
  2
CLASSES
  0
CLASS
  1
DICTIONARYVAR
  2
AcDbDictionaryVar
  3
ObjectDBX Classes
 90
        0
 91
       14
280
     0
281
     0
  0
CLASS
  1
ACMESTATEMGR
  2
AcMeStateMgr
  3
AcMeServices
 90
     1024
 91
        1
280
     1
281
     0
  0
CLASS
  1
ACMESCOPE
  2
AcMeScope
  3
AcMeServices
 90
     1024
 91
        1
280
     1
281
     0
  0
CLASS
  1
ACMECOMMANDHISTORY
  2
AcMeCommandHistory
  3
AcMeServices
 90
     1024
 91
        1
280
     1
281
     0
  0
CLASS
  1
ACRFINSADJUSTERMGR
  2
AcRfInsAdjusterMgr
  3
AcMeServices
 90
     1024
 91
        1
280
     1
281
     0
  0
CLASS
  1
ACMEDRAWINGMAN
  2
AcMeDrawingMan
  3
AcMeServices
 90
     1024
 91
        0
280
     1
281
     0
  0
CLASS
  1
AMATTR
  2
AcMeAttribute
  3
AcMeServices
 90
     1024
 91
        0
280
     1
281
     0
  0
CLASS
  1
ACMEBOMCOLUMN
  2
AcMeBOMColumn
  3
AcMeServices
 90
     1024
 91
        0
280
     1
281
     0
  0
CLASS
  1
ACMEBOMCONF
  2
AcMeBOMConf
  3
AcMeServices
 90
     1024
 91
        0
280
     1
281
     0
  0
CLASS
  1
ACMEBOMTABLE
  2
AcMeBOMTable
  3
AcMeServices
 90
     1024
 91
        0
280
     1
281
     0
  0
CLASS
  1
ACMEBOMENTRY
  2
AcMeBOMEntry
  3
AcMeServices
 90
     1024
 91
        0
280
     1
281
     0
  0
CLASS
  1
ACMEVIEW
  2
AcMeView
  3
AcMeServices
 90
     1024
 91
        0
280
     1
281
     0
  0
CLASS
  1
ACGREFMASTER
  2
AcGrefMaster
  3
AcAttribServices
 90
     1024
 91
        1
280
     1
281
     0
  0
CLASS
  1
AMIMASTER
  2
AmiMaster
  3
AmiServices
 90
     1024
 91
        1
280
     1
281
     0
  0
CLASS
  1
ACASGREFMASTER
  2
AcAsGrefMaster
  3
AutoSurfResolverServices
 90
     1024
 91
        0
280
     1
281
     0
  0
CLASS
  1
ADAPPL
  2
AcAdAppl
  3
DesignerAssemblies
 90
     1024
 91
        0
280
     1
281
     0
  0
CLASS
  1
DEPMGR
  2
AcAdDepMgr
  3
DesignerAssemblies
 90
     1024
 91
        0
280
     1
281
     0
  0
CLASS
  1
PARAMMGR
  2
AcAdParamMgr
  3
DesignerAssemblies
 90
     1024
 91
        0
280
     1
281
     0
  0
CLASS
  1
PARAMSCOPE
  2
AcAdParamScope
  3
DesignerAssemblies
 90
     1024
 91
        0
280
     1
281
     0
  0
CLASS
  1
ACIMSYSVARMAN
  2
AcImSysVarManager
  3
AcMeServices
 90
     1024
 91
        3
280
     1
281
     0
  0
CLASS
  1
ACIMINTSYSVAR
  2
AcImIntSysVar
  3
AcMeServices
 90
     1024
 91
        2
280
     1
281
     0
  0
CLASS
  1
ACIMREALSYSVAR
  2
AcImRealSysVar
  3
AcMeServices
 90
     1024
 91
        0
280
     1
281
     0
  0
CLASS
  1
ACIMSTRSYSVAR
  2
AcImStrSysVar
  3
AcMeServices
 90
     1024
 91
        5
280
     1
281
     0
  0
CLASS
  1
NAMEDAPPL
  2
AcAdNamedAppl
  3
DesignerAssemblies
 90
     1024
 91
        0
280
     1
281
     0
  0
CLASS
  1
ADHNTMPLT
  2
AdHoleNoteTemplateMgr
  3
DesignerServices
 90
     1024
 91
        0
280
     1
281
     0
  0
CLASS
  1
AM_HNTEMPLATE_MGR_NAME
  2
AdHoleNoteTemplateMgrName
  3
DesignerServices
 90
     1024
 91
        0
280
     1
281
     0
  0
CLASS
  1
ACADGREFMODULE
  2
AcAdGrefModule
  3
AdGrefServices
 90
     1024
 91
        0
280
     1
281
     0
  0
CLASS
  1
AM_DRAWING_MGR
  2
AcDmDwgMgr
  3
AcMechDwgViewMgmt
 90
     1024
 91
        0
280
     1
281
     0
  0
CLASS
  1
AM_DWG_DOCUMENT
  2
AcDmDwgDocument
  3
AcMechDwgViewMgmt
 90
     1024
 91
        0
280
     1
281
     0
  0
CLASS
  1
AM_DWG_SHEET
  2
AcDmSheet
  3
AcMechDwgViewMgmt
 90
     1024
 91
        0
280
     1
281
     0
  0
CLASS
  1
AM_VIEWDIMPARMAP
  2
AcDmViewDimParMap
  3
AcMechDwgViewMgmt
 90
     1024
 91
        0
280
     1
281
     0
  0
CLASS
  1
AM_DWGMGR_NAME
  2
AcDmDwgMgrName
  3
AcMechDwgViewMgmt
 90
     1024
 91
        0
280
     1
281
     0
  0
CLASS
  1
ACAMPROJECT
  2
AcAmProject
  3
DesignerAssemblies
 90
     1024
 91
        1
280
     1
281
     0
  0
CLASS
  1
ACAMGRCOMPSET
  2
AcAmGrCompSet
  3
DesignerAssemblies
 90
        0
 91
        0
280
     1
281
     0
  0
CLASS
  1
ACAMGRCOMPDEFSET
  2
AcAmGrCompDefSet
  3
DesignerAssemblies
 90
     1024
 91
        1
280
     1
281
     0
  0
CLASS
  1
ACAMGRCOMPDEF
  2
AcAmGrCompDef
  3
DesignerAssemblies
 90
     1024
 91
        1
280
     1
281
     0
  0
CLASS
  1
ACCMCONTEXT
  2
AcCmContext
  3
DesignerAssemblies
 90
     1024
 91
        0
280
     1
281
     0
  0
CLASS
  1
ACAMCOMPDEF
  2
AcAmCompDef
  3
DesignerAssemblies
 90
     1024
 91
        1
280
     1
281
     0
  0
CLASS
  1
ACAMCOMPDEFMGR
  2
AcAmCompDefMgr
  3
DesignerAssemblies
 90
     1024
 91
        1
280
     1
281
     0
  0
CLASS
  1
AMCONTEXTMGR
  2
AcAmContextMgr
  3
DesignerAssemblies
 90
     1024
 91
        1
280
     1
281
     0
  0
CLASS
  1
ACAMCONTEXTMODELER
  2
AcAmContextModeler
  3
DesignerAssemblies
 90
     1024
 91
        1
280
     1
281
     0
  0
CLASS
  1
ACDMVIEWGEOM
  2
AcDmViewGeometry
  3
AcMechDwgViewMgmt
 90
     1024
 91
        0
280
     1
281
     1
  0
CLASS
  1
CBROWSERAPPOBJECT
  2
CBrowserAppObject
  3
McadcomServices
 90
     1024
 91
        2
280
     1
281
     0
  0
CLASS
  1
IM_STATIC_MAN
  2
AcImStaticVarManager
  3
AcMeServices
 90
     1024
 91
        0
280
     1
281
     0
  0
CLASS
  1
ASAPP
  2
AcAsAppObject
  3
AutoSurfServices
 90
     1024
 91
        0
280
     1
281
     0
  0
CLASS
  1
ACIMDBLSTATICVAR
  2
AcImDblStaticVar
  3
AcMeServices
 90
     1024
 91
        0
280
     1
281
     0
  0
CLASS
  1
ACIMSTRSTATICVAR
  2
AcImStrStaticVar
  3
AcMeServices
 90
     1024
 91
        0
280
     1
281
     0
  0
CLASS
  1
ACIMINTSTATICVAR
  2
AcImIntStaticVar
  3
AcMeServices
 90
     1024
 91
        0
280
     1
281
     0
  0
CLASS
  1
CATALOGSTATE
  2
AcAmCatalogState
  3
DesignerAssemblies
 90
     1024
 91
        0
280
     1
281
     0
  0
CLASS
  1
DM_PLACEHOLDER
  2
AcDmSelsetPlaceholder
  3
McadcomServices
 90
     1024
 91
        1
280
     1
281
     0
  0
CLASS
  1
LAYER_INDEX
  2
AcDbLayerIndex
  3
ObjectDBX Classes
 90
        0
 91
        1
280
     0
281
     0
  0
CLASS
  1
IDBUFFER
  2
AcDbIdBuffer
  3
ObjectDBX Classes
 90
        0
 91
        7
280
     0
281
     0
  0
CLASS
  1
ACMSTANDARDJIS
  2
AcmStandardJIS
  3
"Amdt_StdImp|Product Description: AutoCAD Mechanical|Company: Autodesk, Inc."
 90
     1024
 91
        0
280
     1
281
     0
  0
CLASS
  1
ACMSTANDARDANSI
  2
AcmStandardANSI
  3
"Amdt_StdImp|Product Description: AutoCAD Mechanical|Company: Autodesk, Inc."
 90
     1024
 91
        1
280
     1
281
     0
  0
CLASS
  1
ACMSTANDARDBSI
  2
AcmStandardBSI
  3
"Amdt_StdImp|Product Description: AutoCAD Mechanical|Company: Autodesk, Inc."
 90
     1024
 91
        0
280
     1
281
     0
  0
CLASS
  1
ACMSTANDARDDIN
  2
AcmStandardDIN
  3
"Amdt_StdImp|Product Description: AutoCAD Mechanical|Company: Autodesk, Inc."
 90
     1024
 91
        0
280
     1
281
     0
  0
CLASS
  1
ACMSTANDARDISO
  2
AcmStandardISO
  3
"Amdt_StdImp|Product Description: AutoCAD Mechanical|Company: Autodesk, Inc."
 90
     1024
 91
        1
280
     1
281
     0
  0
CLASS
  1
ACDBDICTIONARYWDFLT
  2
AcDbDictionaryWithDefault
  3
ObjectDBX Classes
 90
        0
 91
        1
280
     0
281
     0
  0
CLASS
  1
ACME_DOCUMENT
  2
AcMeDbDoc
  3
AcMeServices
 90
     1024
 91
        1
280
     1
281
     0
  0
CLASS
  1
AMGSETTINGSOBJ
  2
AmgSettingsObj
  3
"AcadM|Product Description: AutoCAD Mechanical|Company: Autodesk, Inc."
 90
     1024
 91
        2
280
     1
281
     0
  0
CLASS
  1
AMGOBJPROPCFG
  2
AmgObjPropCfg
  3
"AmgLay|Product Description: AutoCAD Mechanical|Company: Autodesk, Inc."
 90
     1024
 91
        2
280
     1
281
     0
  0
CLASS
  1
ACDBENTITYCACHE
  2
AcMeEntityCache
  3
AcMeServices
 90
     1024
 91
        1
280
     1
281
     0
  0
CLASS
  1
GSMANAGER
  2
AcMeGSManager
  3
AcMeServices
 90
     1024
 91
        0
280
     1
281
     0
  0
CLASS
  1
AMDTINTERNALREACTOR
  2
AmdtInternalReactor
  3
AcMeServices
 90
     1024
 91
        0
280
     1
281
     0
  0
CLASS
  1
ACME_DATABASE
  2
AcMeDbDatabase
  3
AcMeServices
 90
     1024
 91
        1
280
     1
281
     0
  0
CLASS
  1
ACGREFACADMASTER
  2
AcGrefacadMaster
  3
AcGrefServices
 90
     1024
 91
        1
280
     1
281
     0
  0
CLASS
  1
AMDTMENUSTATEMGR
  2
AmdtMenuStateMgr
  3
McadcomServices
 90
     1024
 91
        1
280
     1
281
     0
  0
CLASS
  1
AMDTMCOMMENUSTATE
  2
AmdtMcomMenuState
  3
McadcomServices
 90
     1024
 91
        1
280
     1
281
     0
  0
CLASS
  1
MAPIADMODULE
  2
MApiAdModule
  3
MApiAdServices
 90
     1024
 91
        0
280
     1
281
     0
  0
CLASS
  1
AMDTDMMENUSTATE
  2
AmdtDmMenuState
  3
AcMechDwgViewMgmt
 90
     1024
 91
        0
280
     1
281
     0
  0
CLASS
  1
AMDTADMENUSTATE
  2
AmdtAdMenuState
  3
DesignerServices
 90
     1024
 91
        0
280
     1
281
     0
  0
CLASS
  1
AMDTAMMENUSTATE
  2
AmdtAmMenuState
  3
DesignerAssemblies
 90
     1024
 91
        1
280
     1
281
     0
  0
CLASS
  1
ACMDATADICTIONARY
  2
AcmDataDictionary
  3
"AcmSymBB|Product Description: AutoCAD Mechanical|Company: Autodesk, Inc."
 90
     1024
 91
        1
280
     1
281
     0
  0
CLASS
  1
ACMDATAENTRYBLOCK
  2
AcmDataEntryBlock
  3
AcmSymBB|Product Description: AutoCAD Mechanical|Company: Autodesk, Inc.
 90
     1024
 91
        0
280
     1
281
     0
  0
CLASS
  1
ACMSURFSTANDARDJIS
  2
AcmSurfTextStdJIS
  3
"Amdt_StdImp|Product Description: AutoCAD Mechanical|Company: Autodesk, Inc."
 90
     1024
 91
        0
280
     1
281
     0
  0
CLASS
  1
ACMFCFSTANDARDJIS
  2
AcmFCFStdJIS
  3
"Amdt_StdImp|Product Description: AutoCAD Mechanical|Company: Autodesk, Inc."
 90
     1024
 91
        0
280
     1
281
     0
  0
CLASS
  1
ACMWELDSTANDARDJIS
  2
AcmWeldingStdJIS
  3
"Amdt_StdImp|Product Description: AutoCAD Mechanical|Company: Autodesk, Inc."
 90
     1024
 91
        0
280
     1
281
     0
  0
CLASS
  1
ACMIDSTANDARDJIS
  2
AcmIdStdJIS
  3
"Amdt_StdImp|Product Description: AutoCAD Mechanical|Company: Autodesk, Inc."
 90
     1024
 91
        0
280
     1
281
     0
  0
CLASS
  1
ACMDATUMSTANDARDJIS
  2
AcmDatumStdJIS
  3
"Amdt_StdImp|Product Description: AutoCAD Mechanical|Company: Autodesk, Inc."
 90
     1024
 91
        0
280
     1
281
     0
  0
CLASS
  1
ACMBOMSTANDARDJIS
  2
AcmBOMStdJIS
  3
"Amdt_StdImp|Product Description: AutoCAD Mechanical|Company: Autodesk, Inc."
 90
     1024
 91
        0
280
     1
281
     0
  0
CLASS
  1
ACMSURFSTANDARDANSI
  2
AcmSurfTextStdANSI
  3
"Amdt_StdImp|Product Description: AutoCAD Mechanical|Company: Autodesk, Inc."
 90
     1024
 91
        1
280
     1
281
     0
  0
CLASS
  1
ACMFCFSTANDARDANSI
  2
AcmFCFStdANSI
  3
"Amdt_StdImp|Product Description: AutoCAD Mechanical|Company: Autodesk, Inc."
 90
     1024
 91
        1
280
     1
281
     0
  0
CLASS
  1
ACMWELDSTANDARDANSI
  2
AcmWeldingStdANSI
  3
"Amdt_StdImp|Product Description: AutoCAD Mechanical|Company: Autodesk, Inc."
 90
     1024
 91
        1
280
     1
281
     0
  0
CLASS
  1
ACMIDSTANDARDANSI
  2
AcmIdStdANSI
  3
"Amdt_StdImp|Product Description: AutoCAD Mechanical|Company: Autodesk, Inc."
 90
     1024
 91
        1
280
     1
281
     0
  0
CLASS
  1
ACMDATUMSTANDARDANSI
  2
AcmDatumStdANSI
  3
"Amdt_StdImp|Product Description: AutoCAD Mechanical|Company: Autodesk, Inc."
 90
     1024
 91
        1
280
     1
281
     0
  0
CLASS
  1
ACMBOMSTANDARDANSI
  2
AcmBOMStdANSI
  3
"Amdt_StdImp|Product Description: AutoCAD Mechanical|Company: Autodesk, Inc."
 90
     1024
 91
        1
280
     1
281
     0
  0
CLASS
  1
ACMSURFSTANDARDBSI
  2
AcmSurfTextStdBSI
  3
"Amdt_StdImp|Product Description: AutoCAD Mechanical|Company: Autodesk, Inc."
 90
     1024
 91
        0
280
     1
281
     0
  0
CLASS
  1
ACMFCFSTANDARDBSI
  2
AcmFCFStdBSI
  3
"Amdt_StdImp|Product Description: AutoCAD Mechanical|Company: Autodesk, Inc."
 90
     1024
 91
        0
280
     1
281
     0
  0
CLASS
  1
ACMWELDSTANDARDBSI
  2
AcmWeldingStdBSI
  3
"Amdt_StdImp|Product Description: AutoCAD Mechanical|Company: Autodesk, Inc."
 90
     1024
 91
        0
280
     1
281
     0
  0
CLASS
  1
ACMIDSTANDARDBSI
  2
AcmIdStdBSI
  3
"Amdt_StdImp|Product Description: AutoCAD Mechanical|Company: Autodesk, Inc."
 90
     1024
 91
        0
280
     1
281
     0
  0
CLASS
  1
ACMDATUMSTANDARDBSI
  2
AcmDatumStdBSI
  3
"Amdt_StdImp|Product Description: AutoCAD Mechanical|Company: Autodesk, Inc."
 90
     1024
 91
        0
280
     1
281
     0
  0
CLASS
  1
ACMBOMSTANDARDBSI
  2
AcmBOMStdBSI
  3
"Amdt_StdImp|Product Description: AutoCAD Mechanical|Company: Autodesk, Inc."
 90
     1024
 91
        0
280
     1
281
     0
  0
CLASS
  1
AMDTEDGESTANDARDDIN
  2
AmdtEdgeStdDIN
  3
"Amdt_StdImp|Product Description: AutoCAD Mechanical|Company: Autodesk, Inc."
 90
     1024
 91
        0
280
     1
281
     0
  0
CLASS
  1
ACMSURFSTANDARDDIN
  2
AcmSurfTextStdDIN
  3
"Amdt_StdImp|Product Description: AutoCAD Mechanical|Company: Autodesk, Inc."
 90
     1024
 91
        0
280
     1
281
     0
  0
CLASS
  1
ACMFCFSTANDARDDIN
  2
AcmFCFStdDIN
  3
"Amdt_StdImp|Product Description: AutoCAD Mechanical|Company: Autodesk, Inc."
 90
     1024
 91
        0
280
     1
281
     0
  0
CLASS
  1
ACMWELDSTANDARDDIN
  2
AcmWeldingStdDIN
  3
"Amdt_StdImp|Product Description: AutoCAD Mechanical|Company: Autodesk, Inc."
 90
     1024
 91
        0
280
     1
281
     0
  0
CLASS
  1
ACMIDSTANDARDDIN
  2
AcmIdStdDIN
  3
"Amdt_StdImp|Product Description: AutoCAD Mechanical|Company: Autodesk, Inc."
 90
     1024
 91
        0
280
     1
281
     0
  0
CLASS
  1
ACMDATUMSTANDARDDIN
  2
AcmDatumStdDIN
  3
"Amdt_StdImp|Product Description: AutoCAD Mechanical|Company: Autodesk, Inc."
 90
     1024
 91
        0
280
     1
281
     0
  0
CLASS
  1
ACMBOMSTANDARDDIN
  2
AcmBOMStdDIN
  3
"Amdt_StdImp|Product Description: AutoCAD Mechanical|Company: Autodesk, Inc."
 90
     1024
 91
        0
280
     1
281
     0
  0
CLASS
  1
ACMSURFSTANDARDISO
  2
AcmSurfTextStdISO
  3
"Amdt_StdImp|Product Description: AutoCAD Mechanical|Company: Autodesk, Inc."
 90
     1024
 91
        1
280
     1
281
     0
  0
CLASS
  1
ACMFCFSTANDARDISO
  2
AcmFCFStdISO
  3
"Amdt_StdImp|Product Description: AutoCAD Mechanical|Company: Autodesk, Inc."
 90
     1024
 91
        1
280
     1
281
     0
  0
CLASS
  1
ACMWELDSTANDARDISO
  2
AcmWeldingStdISO
  3
"Amdt_StdImp|Product Description: AutoCAD Mechanical|Company: Autodesk, Inc."
 90
     1024
 91
        1
280
     1
281
     0
  0
CLASS
  1
ACMIDSTANDARDISO
  2
AcmIdStdISO
  3
"Amdt_StdImp|Product Description: AutoCAD Mechanical|Company: Autodesk, Inc."
 90
     1024
 91
        1
280
     1
281
     0
  0
CLASS
  1
ACMDATUMSTANDARDISO
  2
AcmDatumStdISO
  3
"Amdt_StdImp|Product Description: AutoCAD Mechanical|Company: Autodesk, Inc."
 90
     1024
 91
        1
280
     1
281
     0
  0
CLASS
  1
ACMBOMSTANDARDISO
  2
AcmBOMStdISO
  3
"Amdt_StdImp|Product Description: AutoCAD Mechanical|Company: Autodesk, Inc."
 90
     1024
 91
        1
280
     1
281
     0
  0
CLASS
  1
AMDTBROWSERDBTAB
  2
AmdtBrowserDbTab
  3
McadcomServices
 90
     1024
 91
        1
280
     1
281
     0
  0
CLASS
  1
ACAMGFILTERDAT
  2
AcAmgFilterDat
  3
"AcadM|Product Description: AutoCAD Mechanical|Company: Autodesk, Inc."
 90
     1024
 91
        4
280
     1
281
     0
  0
CLASS
  1
MAPIAMMOUDLE
  2
MApiAmModule
  3
MApiAmServices
 90
     1024
 91
        1
280
     1
281
     0
  0
CLASS
  1
AMDTMAPISURFMOUDULE
  2
AmdtMApiSurfModule
  3
MApiSurfServices
 90
     1024
 91
        0
280
     1
281
     0
  0
CLASS
  1
ACAMGLAYSTD
  2
AcAmgLayStd
  3
"AmgLay|Product Description: AutoCAD Mechanical|Company: Autodesk, Inc."
 90
     1024
 91
        2
280
     1
281
     0
  0
CLASS
  1
ACAMGDIMSTD
  2
AcAmgDimStd
  3
"AmgDim|Product Description: AutoCAD Mechanical|Company: Autodesk, Inc."
 90
     1024
 91
        2
280
     1
281
     0
  0
CLASS
  1
ACAMGTITLESTD
  2
AcAmgTitleStd
  3
"AmgTitle|Product Description: AutoCAD Mechanical|Company: Autodesk, Inc."
 90
     1024
 91
        2
280
     1
281
     0
  0
CLASS
  1
ACMDETAILSTANDARDJIS
  2
AmdtDetailSymStdJIS
  3
"Amdt_StdImp|Product Description: AutoCAD Mechanical|Company: Autodesk, Inc."
 90
     1024
 91
        0
280
     1
281
     0
  0
CLASS
  1
ACMSECTIONSTANDARDJIS
  2
AmdtSectionSymStdJIS
  3
"Amdt_StdImp|Product Description: AutoCAD Mechanical|Company: Autodesk, Inc."
 90
     1024
 91
        0
280
     1
281
     0
  0
CLASS
  1
ACMCENTERLINESTANDARDJIS
  2
AmdtCenterLineStdJIS
  3
"Amdt_StdImp|Product Description: AutoCAD Mechanical|Company: Autodesk, Inc."
 90
     1024
 91
        0
280
     1
281
     0
  0
CLASS
  1
ACMTHREADLINESTANDARDJIS
  2
AmdtThreadLineStdJIS
  3
"Amdt_StdImp|Product Description: AutoCAD Mechanical|Company: Autodesk, Inc."
 90
     1024
 91
        0
280
     1
281
     0
  0
CLASS
  1
ACMDETAILSTANDARDANSI
  2
AmdtDetailSymStdANSI
  3
"Amdt_StdImp|Product Description: AutoCAD Mechanical|Company: Autodesk, Inc."
 90
     1024
 91
        1
280
     1
281
     0
  0
CLASS
  1
ACMSECTIONSTANDARDANSI
  2
AmdtSectionSymStdANSI
  3
"Amdt_StdImp|Product Description: AutoCAD Mechanical|Company: Autodesk, Inc."
 90
     1024
 91
        1
280
     1
281
     0
  0
CLASS
  1
ACMCENTERLINESTANDARDANSI
  2
AmdtCenterLineStdANSI
  3
"Amdt_StdImp|Product Description: AutoCAD Mechanical|Company: Autodesk, Inc."
 90
     1024
 91
        1
280
     1
281
     0
  0
CLASS
  1
ACMTHREADLINESTANDARDANSI
  2
AmdtThreadLineStdANSI
  3
"Amdt_StdImp|Product Description: AutoCAD Mechanical|Company: Autodesk, Inc."
 90
     1024
 91
        1
280
     1
281
     0
  0
CLASS
  1
ACMDETAILSTANDARDBSI
  2
AmdtDetailSymStdBSI
  3
"Amdt_StdImp|Product Description: AutoCAD Mechanical|Company: Autodesk, Inc."
 90
     1024
 91
        0
280
     1
281
     0
  0
CLASS
  1
ACMSECTIONSTANDARDBSI
  2
AmdtSectionSymStdBSI
  3
"Amdt_StdImp|Product Description: AutoCAD Mechanical|Company: Autodesk, Inc."
 90
     1024
 91
        0
280
     1
281
     0
  0
CLASS
  1
ACMCENTERLINESTANDARDBSI
  2
AmdtCenterLineStdBSI
  3
"Amdt_StdImp|Product Description: AutoCAD Mechanical|Company: Autodesk, Inc."
 90
     1024
 91
        0
280
     1
281
     0
  0
CLASS
  1
ACMTHREADLINESTANDARDBSI
  2
AmdtThreadLineStdBSI
  3
"Amdt_StdImp|Product Description: AutoCAD Mechanical|Company: Autodesk, Inc."
 90
     1024
 91
        0
280
     1
281
     0
  0
CLASS
  1
ACMDETAILSTANDARDDIN
  2
AmdtDetailSymStdDIN
  3
"Amdt_StdImp|Product Description: AutoCAD Mechanical|Company: Autodesk, Inc."
 90
     1024
 91
        0
280
     1
281
     0
  0
CLASS
  1
ACMSECTIONSTANDARDDIN
  2
AmdtSectionSymStdDIN
  3
"Amdt_StdImp|Product Description: AutoCAD Mechanical|Company: Autodesk, Inc."
 90
     1024
 91
        0
280
     1
281
     0
  0
CLASS
  1
ACMCENTERLINESTANDARDDIN
  2
AmdtCenterLineStdDIN
  3
"Amdt_StdImp|Product Description: AutoCAD Mechanical|Company: Autodesk, Inc."
 90
     1024
 91
        0
280
     1
281
     0
  0
CLASS
  1
ACMTHREADLINESTANDARDDIN
  2
AmdtThreadLineStdDIN
  3
"Amdt_StdImp|Product Description: AutoCAD Mechanical|Company: Autodesk, Inc."
 90
     1024
 91
        0
280
     1
281
     0
  0
CLASS
  1
AMDTEDGESTANDARDISO
  2
AmdtEdgeStdISO
  3
"Amdt_StdImp|Product Description: AutoCAD Mechanical|Company: Autodesk, Inc."
 90
     1024
 91
        1
280
     1
281
     0
  0
CLASS
  1
ACMDETAILSTANDARDISO
  2
AmdtDetailSymStdISO
  3
"Amdt_StdImp|Product Description: AutoCAD Mechanical|Company: Autodesk, Inc."
 90
     1024
 91
        1
280
     1
281
     0
  0
CLASS
  1
ACMSECTIONSTANDARDISO
  2
AmdtSectionSymStdISO
  3
"Amdt_StdImp|Product Description: AutoCAD Mechanical|Company: Autodesk, Inc."
 90
     1024
 91
        1
280
     1
281
     0
  0
CLASS
  1
ACMCENTERLINESTANDARDISO
  2
AmdtCenterLineStdISO
  3
"Amdt_StdImp|Product Description: AutoCAD Mechanical|Company: Autodesk, Inc."
 90
     1024
 91
        1
280
     1
281
     0
  0
CLASS
  1
ACMTHREADLINESTANDARDISO
  2
AmdtThreadLineStdISO
  3
"Amdt_StdImp|Product Description: AutoCAD Mechanical|Company: Autodesk, Inc."
 90
     1024
 91
        1
280
     1
281
     0
  0
CLASS
  1
ACMNOTESTANDARDISO
  2
AmdtNoteStdISO
  3
"Amdt_StdImp|Product Description: AutoCAD Mechanical|Company: Autodesk, Inc."
 90
     1024
 91
        1
280
     1
281
     0
  0
CLASS
  1
ACAMGHOLECHARTSTDISO
  2
AcAmgHoleChartStdISO
  3
AmgDim|Product Description: AutoCAD Mechanical|Company: Autodesk, Inc.
 90
     1024
 91
        1
280
     1
281
     0
  0
CLASS
  1
ACMNOTESTANDARDANSI
  2
AmdtNoteStdANSI
  3
"Amdt_StdImp|Product Description: AutoCAD Mechanical|Company: Autodesk, Inc."
 90
     1024
 91
        1
280
     1
281
     0
  0
CLASS
  1
AMDTNOTETEMPLATEDB
  2
AmdtNoteTemplateDB
  3
AcmSymBB|Product Description: AutoCAD Mechanical|Company: Autodesk, Inc.
 90
     1024
 91
        8
280
     1
281
     0
  0
CLASS
  1
ACAMGHOLECHARTSTDANSI
  2
AcAmgHoleChartStdANSI
  3
AmgDim|Product Description: AutoCAD Mechanical|Company: Autodesk, Inc.
 90
     1024
 91
        1
280
     1
281
     0
  0
CLASS
  1
TABLESTYLE
  2
AcDbTableStyle
  3
ObjectDBX Classes
 90
     4095
 91
        1
280
     0
281
     0
  0
CLASS
  1
ACAD_TABLE
  2
AcDbTable
  3
ObjectDBX Classes
 90
     1025
 91
        0
280
     0
281
     1
  0
CLASS
  1
MATERIAL
  2
AcDbMaterial
  3
ObjectDBX Classes
 90
     1153
 91
        3
280
     0
281
     0
  0
CLASS
  1
VISUALSTYLE
  2
AcDbVisualStyle
  3
ObjectDBX Classes
 90
     4095
 91
       26
280
     0
281
     0
  0
CLASS
  1
SCALE
  2
AcDbScale
  3
ObjectDBX Classes
 90
     1153
 91
       17
280
     0
281
     0
  0
CLASS
  1
MLEADERSTYLE
  2
AcDbMLeaderStyle
  3
ACDB_MLEADERSTYLE_CLASS
 90
     4095
 91
        1
280
     0
281
     0
  0
CLASS
  1
ACRFATTGENMGR
  2
AcRfAttGeneralMgr
  3
AcAttribServices
 90
     1024
 91
        0
280
     1
281
     0
  0
CLASS
  1
ACRFOBJATTMGR
  2
AcRfObjAttGroupMgr
  3
AcAttribServices
 90
     1024
 91
        0
280
     1
281
     0
  0
CLASS
  1
ACRFMCADAPIATTHOLDER
  2
AcRfMCADAPIAttHolder
  3
AcAttribServices
 90
     1024
 91
        0
280
     1
281
     0
  0
CLASS
  1
AMDTSYSATTR
  2
AmdtSystemAttribute
  3
AcAttribServices
 90
     1024
 91
        0
280
     1
281
     0
  0
CLASS
  1
ACMTAPERSTANDARDISO
  2
AcmTaperStdISO
  3
"Amdt_StdImp|Product Description: AutoCAD Mechanical|Company: Autodesk, Inc."
 90
     1024
 91
        1
280
     1
281
     0
  0
CLASS
  1
ACMANOOTATIONVIEWSTANDARDISO
  2
AmdtAnViewStdISO
  3
"Amdt_StdImp|Product Description: AutoCAD Mechanical|Company: Autodesk, Inc."
 90
     1024
 91
        1
280
     1
281
     0
  0
CLASS
  1
ACMTAPERSTANDARDANSI
  2
AcmTaperStdANSI
  3
"Amdt_StdImp|Product Description: AutoCAD Mechanical|Company: Autodesk, Inc."
 90
     1024
 91
        1
280
     1
281
     0
  0
CLASS
  1
ACMANOOTATIONVIEWSTANDARDANSI
  2
AmdtAnViewStdANSI
  3
"Amdt_StdImp|Product Description: AutoCAD Mechanical|Company: Autodesk, Inc."
 90
     1024
 91
        1
280
     1
281
     0
  0
CLASS
  1
CELLSTYLEMAP
  2
AcDbCellStyleMap
  3
ObjectDBX Classes
 90
     1152
 91
        2
280
     0
281
     0
  0
CLASS
  1
SORTENTSTABLE
  2
AcDbSortentsTable
  3
ObjectDBX Classes
 90
        0
 91
        1
280
     0
281
     0
  0
CLASS
  1
ACMBOM
  2
AcmBom
  3
"AcmSymBB|Product Description: AutoCAD Mechanical|Company: Autodesk, Inc."
 90
     1024
 91
        0
280
     1
281
     0
  0
CLASS
  1
AMDTFORMULAUPDATEDISPATCHER
  2
AmdtFormulaUpdateDispatcher
  3
AcMeServices
 90
     1024
 91
        0
280
     1
281
     0
  0
CLASS
  1
ACMDATAENTRYPART
  2
AcmDataEntryPart
  3
AcmSymBB|Product Description: AutoCAD Mechanical|Company: Autodesk, Inc.
 90
     1024
 91
        0
280
     1
281
     0
  0
CLASS
  1
ACMPARTREF
  2
AcmPartRef
  3
"AcmSymBB|Product Description: AutoCAD Mechanical|Company: Autodesk, Inc."
 90
     1024
 91
        0
280
     1
281
     1
  0
CLASS
  1
ACDBLINERES
  2
AcDbLineRes
  3
AcGrefServices
 90
     1024
 91
        0
280
     1
281
     0
  0
CLASS
  1
ACMBOMROW
  2
AcmBomRow
  3
"AcmSymBB|Product Description: AutoCAD Mechanical|Company: Autodesk, Inc."
 90
     1024
 91
        0
280
     1
281
     0
  0
CLASS
  1
ACMBALLOON
  2
AcmBalloon
  3
"AcmSymBB|Product Description: AutoCAD Mechanical|Company: Autodesk, Inc."
 90
     1024
 91
        0
280
     1
281
     1
  0
CLASS
  1
DIMASSOC
  2
AcDbDimAssoc
  3
"AcDbDimAssoc|Product Desc:     AcDim ARX App For Dimension|Company:          Autodesk, Inc.|WEB Address:      www.autodesk.com"
 90
        0
 91
        0
280
     0
281
     0
  0
CLASS
  1
AEC_REFEDIT_STATUS_TRACKER
  2
AecDbRefEditStatusTracker
  3
AecArchBase70|Product Desc: Autodesk Architectural Desktop 2007 |Company: Autodesk,Inc. |WEB Address: www.autodesk.com
 90
      129
 91
        0
280
     1
281
     0
  0
CLASS
  1
NPOCOLLECTION
  2
AcDbImpNonPersistentObjectsCollection
  3
ObjectDBX Classes
 90
     1153
 91
        0
280
     1
281
     0
  0
CLASS
  1
ACMPARTLIST
  2
AcmPartList
  3
"AcmSymBB|Product Description: AutoCAD Mechanical|Company: Autodesk, Inc."
 90
     1024
 91
        0
280
     1
281
     1
  0
CLASS
  1
ACRFINSADJ
  2
AcRfInsAdjuster
  3
AcMeServices
 90
     1024
 91
        0
280
     1
281
     0
  0
CLASS
  1
ACDBOPPOLYLINERES
  2
AcDbOpPolylineRes
  3
AcGrefServices
 90
     1024
 91
        0
280
     1
281
     0
  0
CLASS
  1
AMDTACMWBLOCKBOMENTITY
  2
AmdtAcmWblockBomEntity
  3
"AcmSymBB|Product Description: AutoCAD Mechanical|Company: Autodesk, Inc."
 90
     1024
 91
        0
280
     1
281
     1
  0
CLASS
  1
ACDBCIRCARCRES
  2
AcDbCircArcRes
  3
AcGrefServices
 90
     1024
 91
        0
280
     1
281
     0
  0
CLASS
  1
ACDBSECTIONVIEWSTYLE
  2
AcDbSectionViewStyle
  3
ObjectDBX Classes
 90
     1025
 91
        1
280
     0
281
     0
  0
CLASS
  1
ACDBDETAILVIEWSTYLE
  2
AcDbDetailViewStyle
  3
ObjectDBX Classes
 90
     1025
 91
        1
280
     0
281
     0
  0
ENDSEC
  0
SECTION
  2
TABLES
  0
TABLE
  2
VPORT
  5
8
330
0
100
AcDbSymbolTable
 70
     1
  0
VPORT
  5
A35
330
8
100
AcDbSymbolTableRecord
100
AcDbViewportTableRecord
  2
*Active
 70
     0
 10
0.0
 20
0.0
 11
1.0
 21
1.0
 12
-102.2581805646642
 22
-1651.626893668694
 13
0.0
 23
0.0
 14
2.5
 24
2.5
 15
10.0
 25
10.0
 16
0.0
 26
0.0
 36
1.0
 17
631.5957656288469
 27
1954.324568064567
 37
0.0
 40
616.3278522993898
 41
1.476709613478691
 42
50.0
 43
0.0
 44
0.0
 50
0.0
 51
0.0
 71
     0
 72
   100
 73
     1
 74
     1
 75
     0
 76
     0
 77
     0
 78
     0
281
     0
 65
     0
110
0.0
120
0.0
130
0.0
111
1.0
121
0.0
131
0.0
112
0.0
122
1.0
132
0.0
 79
     0
146
0.0
348
A55
 60
     3
 61
     5
292
     1
282
     1
141
0.0
142
0.0
 63
   250
421
  3355443
1001
ACAD_NAV_VCDISPLAY
1070
     3
  0
ENDTAB
  0
TABLE
  2
LTYPE
  5
5
330
0
100
AcDbSymbolTable
 70
    20
  0
LTYPE
  5
14
330
5
100
AcDbSymbolTableRecord
100
AcDbLinetypeTableRecord
  2
BYBLOCK
 70
     0
  3

 72
    65
 73
     0
 40
0.0
  0
LTYPE
  5
15
330
5
100
AcDbSymbolTableRecord
100
AcDbLinetypeTableRecord
  2
BYLAYER
 70
     0
  3

 72
    65
 73
     0
 40
0.0
  0
LTYPE
  5
16
330
5
100
AcDbSymbolTableRecord
100
AcDbLinetypeTableRecord
  2
CONTINUOUS
 70
     0
  3
Solid line
 72
    65
 73
     0
 40
0.0
  0
LTYPE
  5
BD
330
5
100
AcDbSymbolTableRecord
100
AcDbLinetypeTableRecord
  2
HIDDEN
 70
     0
  3
__ __ __ __ __ __ __ __ __ __ __ __ __ __ __ __
 72
    65
 73
     2
 40
0.375
 49
0.25
 74
     0
 49
-0.125
 74
     0
  0
LTYPE
  5
BF
330
5
100
AcDbSymbolTableRecord
100
AcDbLinetypeTableRecord
  2
PHANTOM2
 70
     0
  3
___ _ _ ___ _ _ ___ _ _ ___ _ _ ___ _ _ ___ _ _
 72
    65
 73
     6
 40
1.25
 49
0.625
 74
     0
 49
-0.125
 74
     0
 49
0.125
 74
     0
 49
-0.125
 74
     0
 49
0.125
 74
     0
 49
-0.125
 74
     0
  0
LTYPE
  5
CA
330
5
100
AcDbSymbolTableRecord
100
AcDbLinetypeTableRecord
  2
CENTER
 70
     0
  3
____ _ ____ _ ____ _ ____ _ ____ _ ____ _ ____ 
 72
    65
 73
     4
 40
2.0
 49
1.25
 74
     0
 49
-0.25
 74
     0
 49
0.25
 74
     0
 49
-0.25
 74
     0
  0
LTYPE
  5
14D
330
5
100
AcDbSymbolTableRecord
100
AcDbLinetypeTableRecord
  2
ACANSTGB
 70
     0
  3
__ . . __ . .
 72
    65
 73
     6
 40
0.35433070866
 49
0.15748031496
 74
     0
 49
-0.03937007874
 74
     0
 49
0.03937007874
 74
     0
 49
-0.03937007874
 74
     0
 49
0.03937007874
 74
     0
 49
-0.03937007874
 74
     0
  0
LTYPE
  5
14E
330
5
100
AcDbSymbolTableRecord
100
AcDbLinetypeTableRecord
  2
ACANSTGL
 70
     0
  3
_ _ _ _ _
 72
    65
 73
     2
 40
0.11811023622
 49
0.07874015748
 74
     0
 49
-0.03937007874
 74
     0
  0
LTYPE
  5
15B
330
5
100
AcDbSymbolTableRecord
100
AcDbLinetypeTableRecord
  2
ACISOWELD
 70
     0
  3
_ _ _ _ _
 72
    65
 73
     2
 40
2.0
 49
2.0
 74
     0
 49
-1.0
 74
     0
  0
LTYPE
  5
15C
330
5
100
AcDbSymbolTableRecord
100
AcDbLinetypeTableRecord
  2
ACISOTGB
 70
     0
  3
__ . . __ . .
 72
    65
 73
     6
 40
9.0
 49
4.0
 74
     0
 49
-1.0
 74
     0
 49
1.0
 74
     0
 49
-1.0
 74
     0
 49
1.0
 74
     0
 49
-1.0
 74
     0
  0
LTYPE
  5
15D
330
5
100
AcDbSymbolTableRecord
100
AcDbLinetypeTableRecord
  2
ACISOTGL
 70
     0
  3
_ _ _ _ _
 72
    65
 73
     2
 40
3.0
 49
2.0
 74
     0
 49
-1.0
 74
     0
  0
LTYPE
  5
175
330
5
100
AcDbSymbolTableRecord
100
AcDbLinetypeTableRecord
  2
AM_ISO02W050
 70
     0
  3
__ __ __ __ __ __ __ __ __ __ __ __ __ __ __
 72
    65
 73
     2
 40
7.5
 49
6.0
 74
     0
 49
-1.5
 74
     0
  0
LTYPE
  5
176
330
5
100
AcDbSymbolTableRecord
100
AcDbLinetypeTableRecord
  2
AM_ISO08W050
 70
     0
  3
____ . ____ . ____ . ____ . ____ . ____ . ____
 72
    65
 73
     4
 40
18.0
 49
12.0
 74
     0
 49
-1.5
 74
     0
 49
3.0
 74
     0
 49
-1.5
 74
     0
  0
LTYPE
  5
177
330
5
100
AcDbSymbolTableRecord
100
AcDbLinetypeTableRecord
  2
AM_ISO09W050
 70
     0
  3
_____ . . _____ . . _____ . . ____ .. ____
 72
    65
 73
     6
 40
22.5
 49
12.0
 74
     0
 49
-1.5
 74
     0
 49
3.0
 74
     0
 49
-1.5
 74
     0
 49
3.0
 74
     0
 49
-1.5
 74
     0
  0
LTYPE
  5
178
330
5
100
AcDbSymbolTableRecord
100
AcDbLinetypeTableRecord
  2
AM_ISO02W050x2
 70
     0
  3
 _ _ _ _ _ _ _ _ _ _ _ _
 72
    65
 73
     2
 40
3.75
 49
3.0
 74
     0
 49
-0.75
 74
     0
  0
LTYPE
  5
179
330
5
100
AcDbSymbolTableRecord
100
AcDbLinetypeTableRecord
  2
AM_ISO08W050x2
 70
     0
  3
__ . __ . __ . __ . __ . __
 72
    65
 73
     4
 40
9.0
 49
6.0
 74
     0
 49
-0.75
 74
     0
 49
1.5
 74
     0
 49
-0.75
 74
     0
  0
LTYPE
  5
17C
330
5
100
AcDbSymbolTableRecord
100
AcDbLinetypeTableRecord
  2
Amzigzag
 70
     0
  3
/\/-/\/-/\/-/\/-/\/-/\/
 72
    65
 73
     2
 40
11.0001
 49
0.0001
 74
     4
 75
   135
340
17B
 46
0.04
 50
0.0
 44
0.0
 45
0.0
 49
-11.0
 74
     0
  0
LTYPE
  5
2ED
330
5
100
AcDbSymbolTableRecord
100
AcDbLinetypeTableRecord
  2
Amconstr
 70
     0
  3
_______________________
 72
    65
 73
     2
 40
9999.0
 49
9999.0
 74
     0
 49
0.0
 74
     0
  0
LTYPE
  5
2F8
330
5
100
AcDbSymbolTableRecord
100
AcDbLinetypeTableRecord
  2
CENTER2
 70
     0
  3
Center (.5x) ___ _ ___ _ ___ _ ___ _ ___ _ ___
 72
    65
 73
     4
 40
1.125
 49
0.75
 74
     0
 49
-0.125
 74
     0
 49
0.125
 74
     0
 49
-0.125
 74
     0
  0
LTYPE
  5
2F9
330
5
100
AcDbSymbolTableRecord
100
AcDbLinetypeTableRecord
  2
HIDDEN2
 70
     0
  3
Hidden (.5x) _ _ _ _ _ _ _ _ _ _ _ _ _ _ _ _ _
 72
    65
 73
     2
 40
0.1875
 49
0.125
 74
     0
 49
-0.0625
 74
     0
  0
LTYPE
  5
2FA
330
5
100
AcDbSymbolTableRecord
100
AcDbLinetypeTableRecord
  2
Amzigzag2
 70
     0
  3
/\/-/\/-/\/-/\/-/\/-/\/
 72
    65
 73
     2
 40
0.4401
 49
0.0001
 74
     4
 75
   135
340
17B
 46
0.0016
 50
0.0
 44
0.0
 45
0.0
 49
-0.4400000000000001
 74
     0
  0
LTYPE
  5
CCD
330
5
100
AcDbSymbolTableRecord
100
AcDbLinetypeTableRecord
  2
CHAIN
 70
     0
  3
Chain ____ _ ____ _ ____ _ ____ _ ____ _ ____
 72
    65
 73
     4
 40
0.3543
 49
0.2362
 74
     0
 49
-0.0295
 74
     0
 49
0.0591
 74
     0
 49
-0.0295
 74
     0
  0
ENDTAB
  0
TABLE
  2
LAYER
  5
2
102
{ACAD_XDICTIONARY
360
592
102
}
330
0
100
AcDbSymbolTable
 70
     7
  0
LAYER
  5
F
102
{ACAD_XDICTIONARY
360
1FC1
102
}
330
2
100
AcDbSymbolTableRecord
100
AcDbLayerTableRecord
  2
0
 70
     0
 62
     7
  6
CONTINUOUS
370
    -3
390
166
347
A47
348
0
  0
LAYER
  5
5CF
102
{ACAD_XDICTIONARY
360
1FC3
102
}
330
2
100
AcDbSymbolTableRecord
100
AcDbLayerTableRecord
  2
AM_0
 70
     0
 62
     7
  6
CONTINUOUS
370
    50
390
166
347
A47
348
0
  0
LAYER
  5
88C
102
{ACAD_XDICTIONARY
360
1FC5
102
}
330
2
100
AcDbSymbolTableRecord
100
AcDbLayerTableRecord
  2
AM_5
 70
     0
 62
     3
  6
CONTINUOUS
370
    25
390
166
347
A47
348
0
  0
LAYER
  5
CCE
102
{ACAD_XDICTIONARY
360
1FD3
102
}
330
2
100
AcDbSymbolTableRecord
100
AcDbLayerTableRecord
  2
Center Mark(ISO)
 70
     0
 62
   150
  6
CONTINUOUS
370
    15
390
166
347
A47
348
0
  0
LAYER
  5
CD1
102
{ACAD_XDICTIONARY
360
1FD9
102
}
330
2
100
AcDbSymbolTableRecord
100
AcDbLayerTableRecord
  2
Visible Edges(ISO)
 70
     0
 62
     7
  6
CONTINUOUS
370
    35
390
166
347
A47
348
0
  0
LAYER
  5
CD2
102
{ACAD_XDICTIONARY
360
1FDB
102
}
330
2
100
AcDbSymbolTableRecord
100
AcDbLayerTableRecord
  2
Visible Tangent Edges(ISO)
 70
     0
 62
     7
  6
CONTINUOUS
370
    25
390
166
347
A47
348
0
  0
LAYER
  5
CD3
330
2
100
AcDbSymbolTableRecord
100
AcDbLayerTableRecord
  2
Defpoints
 70
     0
 62
     7
  6
CONTINUOUS
290
     0
370
    -3
390
166
347
A47
348
0
  0
ENDTAB
  0
TABLE
  2
STYLE
  5
3
330
0
100
AcDbSymbolTable
 70
     6
  0
STYLE
  5
10
330
3
100
AcDbSymbolTableRecord
100
AcDbTextStyleTableRecord
  2
STANDARD
 70
     0
 40
0.0
 41
1.0
 50
0.0
 71
     0
 42
3.5
  3
ISOCP.SHX
  4

  0
STYLE
  5
14C
330
3
100
AcDbSymbolTableRecord
100
AcDbTextStyleTableRecord
  2
ACANSGDT
 70
     0
 40
0.0
 41
1.0
 50
0.0
 71
     0
 42
3.5
  3
amgdt.shx
  4

  0
STYLE
  5
159
330
3
100
AcDbSymbolTableRecord
100
AcDbTextStyleTableRecord
  2
ACISOTS
 70
     0
 40
1.0
 41
1.0
 50
0.0
 71
     0
 42
2.5
  3
isocp.shx
  4

  0
STYLE
  5
15A
330
3
100
AcDbSymbolTableRecord
100
AcDbTextStyleTableRecord
  2
ACISOGDT
 70
     0
 40
0.0
 41
1.0
 50
0.0
 71
     0
 42
2.5
  3
amgdt.shx
  4

  0
STYLE
  5
17B
330
3
100
AcDbSymbolTableRecord
100
AcDbTextStyleTableRecord
  2

 70
     1
 40
0.0
 41
1.0
 50
0.0
 71
     0
 42
3.5
  3
ltypeshp.shx
  4

  0
STYLE
  5
425
330
3
100
AcDbSymbolTableRecord
100
AcDbTextStyleTableRecord
  2
ACANSTS
 70
     0
 40
1.0
 41
1.0
 50
0.0
 71
     0
 42
3.5
  3
romans.shx
  4

  0
ENDTAB
  0
TABLE
  2
VIEW
  5
6
330
0
100
AcDbSymbolTable
 70
     3
  0
VIEW
  5
1C8
330
6
100
AcDbSymbolTableRecord
100
AcDbViewTableRecord
  2
AMDTVIEW1
 70
     0
 40
329.0721649484536
 10
210.0
 20
164.5360824742268
 41
420.0
 11
0.0
 21
0.0
 31
1.0
 12
0.0
 22
0.0
 32
0.0
 42
50.0
 43
0.0
 44
0.0
 50
0.0
 71
     0
281
     0
 72
     0
 73
     0
348
A55
  0
VIEW
  5
1C9
330
6
100
AcDbSymbolTableRecord
100
AcDbViewTableRecord
  2
AMDTVIEW2
 70
     0
 40
329.0721649484536
 10
210.0
 20
164.5360824742268
 41
420.0
 11
0.0
 21
0.0
 31
1.0
 12
0.0
 22
0.0
 32
0.0
 42
50.0
 43
0.0
 44
0.0
 50
0.0
 71
     0
281
     0
 72
     0
 73
     0
348
A55
  0
VIEW
  5
1CA
330
6
100
AcDbSymbolTableRecord
100
AcDbViewTableRecord
  2
AMDTVIEW3
 70
     0
 40
329.0721649484536
 10
210.0
 20
164.5360824742268
 41
420.0
 11
0.0
 21
0.0
 31
1.0
 12
0.0
 22
0.0
 32
0.0
 42
50.0
 43
0.0
 44
0.0
 50
0.0
 71
     0
281
     0
 72
     0
 73
     0
348
A55
  0
ENDTAB
  0
TABLE
  2
UCS
  5
7
330
0
100
AcDbSymbolTable
 70
     0
  0
ENDTAB
  0
TABLE
  2
APPID
  5
9
330
0
100
AcDbSymbolTable
 70
    42
  0
APPID
  5
11
330
9
100
AcDbSymbolTableRecord
100
AcDbRegAppTableRecord
  2
ACAD
 70
     0
  0
APPID
  5
CD
330
9
100
AcDbSymbolTableRecord
100
AcDbRegAppTableRecord
  2
AD_DRAW
 70
     0
  0
APPID
  5
E7
330
9
100
AcDbSymbolTableRecord
100
AcDbRegAppTableRecord
  2
DESIGNERASSEMBLIES
 70
     0
  0
APPID
  5
EB
330
9
100
AcDbSymbolTableRecord
100
AcDbRegAppTableRecord
  2
MCAD_NO_VIS
 70
     0
  0
APPID
  5
122
330
9
100
AcDbSymbolTableRecord
100
AcDbRegAppTableRecord
  2
ASURF_PCURVE_APPNAME
 70
     0
  0
APPID
  5
17F
330
9
100
AcDbSymbolTableRecord
100
AcDbRegAppTableRecord
  2
ACAD_TEMP_GRAPHIC
 70
     0
  0
APPID
  5
189
330
9
100
AcDbSymbolTableRecord
100
AcDbRegAppTableRecord
  2
ACATTRIBSERVICES
 70
     0
  0
APPID
  5
1C4
330
9
100
AcDbSymbolTableRecord
100
AcDbRegAppTableRecord
  2
ACADM_DIM_EDIT
 70
     0
  0
APPID
  5
1D5
330
9
100
AcDbSymbolTableRecord
100
AcDbRegAppTableRecord
  2
GENIUS_GENDIM_13
 70
     0
  0
APPID
  5
1D6
330
9
100
AcDbSymbolTableRecord
100
AcDbRegAppTableRecord
  2
GENIUS_GENDTOL_13
 70
     0
  0
APPID
  5
1D7
330
9
100
AcDbSymbolTableRecord
100
AcDbRegAppTableRecord
  2
GENIUS_GE3DTOL_13
 70
     0
  0
APPID
  5
2E9
330
9
100
AcDbSymbolTableRecord
100
AcDbRegAppTableRecord
  2
AMG_3D2D_5.0
 70
     0
  0
APPID
  5
3C0
330
9
100
AcDbSymbolTableRecord
100
AcDbRegAppTableRecord
  2
AMDT_DM_ADJ
 70
     0
  0
APPID
  5
82F
330
9
100
AcDbSymbolTableRecord
100
AcDbRegAppTableRecord
  2
ACAD_PSEXT
 70
     0
  0
APPID
  5
84A
330
9
100
AcDbSymbolTableRecord
100
AcDbRegAppTableRecord
  2
DCO15
 70
     0
  0
APPID
  5
892
330
9
100
AcDbSymbolTableRecord
100
AcDbRegAppTableRecord
  2
ACAD_DSTYLE_DIMTEXT_FILL
 70
     0
  0
APPID
  5
A74
330
9
100
AcDbSymbolTableRecord
100
AcDbRegAppTableRecord
  2
ACAD_MLEADERVER
 70
     0
  0
APPID
  5
AB1
330
9
100
AcDbSymbolTableRecord
100
AcDbRegAppTableRecord
  2
AcAecLayerStandard
 70
     0
  0
APPID
  5
CD6
330
9
100
AcDbSymbolTableRecord
100
AcDbRegAppTableRecord
  2
ACAD_DSTYLE_DIMRADIAL_EXTENSION
 70
     0
  0
APPID
  5
144B
330
9
100
AcDbSymbolTableRecord
100
AcDbRegAppTableRecord
  2
ACAD_DSTYLE_DIMARC_LENGTH_SYMBOL
 70
     0
  0
APPID
  5
144C
330
9
100
AcDbSymbolTableRecord
100
AcDbRegAppTableRecord
  2
ACAD_DSTYLE_DIMJOGGED_JOGANGLE_SYMBOL
 70
     0
  0
APPID
  5
144D
330
9
100
AcDbSymbolTableRecord
100
AcDbRegAppTableRecord
  2
ACAD_EXEMPT_FROM_CAD_STANDARDS
 70
     0
  0
APPID
  5
153F
330
9
100
AcDbSymbolTableRecord
100
AcDbRegAppTableRecord
  2
GENIUS_GENTRA_14
 70
     0
  0
APPID
  5
1E12
330
9
100
AcDbSymbolTableRecord
100
AcDbRegAppTableRecord
  2
ACAD_DSTYLE_DIMINSPECT
 70
     0
  0
APPID
  5
365B
330
9
100
AcDbSymbolTableRecord
100
AcDbRegAppTableRecord
  2
GENIUS_GENSCREG_15
 70
     0
  0
APPID
  5
365C
330
9
100
AcDbSymbolTableRecord
100
AcDbRegAppTableRecord
  2
GENIUS_GENODEF_13
 70
     0
  0
APPID
  5
365D
330
9
100
AcDbSymbolTableRecord
100
AcDbRegAppTableRecord
  2
GENIUS_GENOBJ-N-SDF_13
 70
     0
  0
APPID
  5
3AA8
330
9
100
AcDbSymbolTableRecord
100
AcDbRegAppTableRecord
  2
AcDbAttr
 70
     0
  0
APPID
  5
3AC6
330
9
100
AcDbSymbolTableRecord
100
AcDbRegAppTableRecord
  2
ACAD_NAV_VCDISPLAY
 70
     0
  0
APPID
  5
3AC7
330
9
100
AcDbSymbolTableRecord
100
AcDbRegAppTableRecord
  2
ACAD_DSTYLE_DIMBREAK
 70
     0
  0
APPID
  5
3AC8
330
9
100
AcDbSymbolTableRecord
100
AcDbRegAppTableRecord
  2
ACAD_DSTYLE_DIMJAG
 70
     0
  0
APPID
  5
3AC9
330
9
100
AcDbSymbolTableRecord
100
AcDbRegAppTableRecord
  2
ACAD_DSTYLE_DIMTALN
 70
     0
  0
APPID
  5
3ACA
330
9
100
AcDbSymbolTableRecord
100
AcDbRegAppTableRecord
  2
GENIUS_GENOBJ-N-TIT_13
 70
     0
  0
APPID
  5
3ACB
330
9
100
AcDbSymbolTableRecord
100
AcDbRegAppTableRecord
  2
GENIUS_GENOLIS_13
 70
     0
  0
APPID
  5
3ACC
330
9
100
AcDbSymbolTableRecord
100
AcDbRegAppTableRecord
  2
GENIUS_GENOENT_13
 70
     0
  0
APPID
  5
3ACD
330
9
100
AcDbSymbolTableRecord
100
AcDbRegAppTableRecord
  2
GENIUS_GENTITLE_13
 70
     0
  0
APPID
  5
3ACE
330
9
100
AcDbSymbolTableRecord
100
AcDbRegAppTableRecord
  2
GENIUS_GENOREF_13
 70
     0
  0
APPID
  5
3ACF
330
9
100
AcDbSymbolTableRecord
100
AcDbRegAppTableRecord
  2
ACAD_OBJECT_CHANGE_GUID
 70
     0
  0
APPID
  5
3AD0
330
9
100
AcDbSymbolTableRecord
100
AcDbRegAppTableRecord
  2
ACAUTHENVIRON
 70
     0
  0
APPID
  5
3AD1
330
9
100
AcDbSymbolTableRecord
100
AcDbRegAppTableRecord
  2
AcDbDynamicBlockTrueName
 70
     0
  0
APPID
  5
3AD2
330
9
100
AcDbSymbolTableRecord
100
AcDbRegAppTableRecord
  2
AcDbDynamicBlockGUID
 70
     0
  0
APPID
  5
3AD3
330
9
100
AcDbSymbolTableRecord
100
AcDbRegAppTableRecord
  2
PE_URL
 70
     0
  0
ENDTAB
  0
TABLE
  2
DIMSTYLE
  5
A
330
0
100
AcDbSymbolTable
 70
    14
100
AcDbDimStyleTable
 71
     1
340
344
  0
DIMSTYLE
105
31C
330
A
100
AcDbSymbolTableRecord
100
AcDbDimStyleTableRecord
  2
AM_ANSI$3
 70
     0
  4
mm
 41
0.1
 42
0.05
 43
0.5
 44
0.1
 47
0.1
 48
0.1
 78
     7
 79
     2
140
0.12
141
0.0
146
0.71
147
0.06
176
   256
177
   256
178
     2
274
     4
284
     7
288
     1
289
     0
340
10
371
    -1
372
    -1
  0
DIMSTYLE
105
31D
330
A
100
AcDbSymbolTableRecord
100
AcDbDimStyleTableRecord
  2
AM_ANSI$4
 70
     0
  4
mm
 41
0.1
 42
0.05
 43
0.5
 44
0.1
 47
0.1
 48
0.1
 78
     7
 79
     2
140
0.12
141
0.0
146
0.71
147
0.06
176
   256
177
   256
178
     2
274
     4
284
     7
288
     1
289
     0
340
10
371
    -1
372
    -1
  0
DIMSTYLE
105
31E
330
A
100
AcDbSymbolTableRecord
100
AcDbDimStyleTableRecord
  2
AM_ANSI$7
 70
     0
  4
mm
 41
0.1
 42
0.05
 43
0.5
 44
0.1
 47
0.1
 48
0.1
 78
     7
 79
     2
140
0.24
141
0.0
146
0.71
147
0.06
176
   256
177
   256
178
     2
274
     4
284
     7
340
10
371
    -1
372
    -1
  0
DIMSTYLE
105
31F
330
A
100
AcDbSymbolTableRecord
100
AcDbDimStyleTableRecord
  2
AM_ANSI$SF
 70
     0
  4
mm
 41
0.1
 42
0.05
 43
0.5
 44
0.1
 47
0.1
 48
0.1
 75
     1
 76
     1
 78
     7
 79
     2
140
0.12
141
0.0
146
0.71
147
0.06
176
   256
177
   256
178
     2
274
     4
284
     7
340
10
371
    -1
372
    -1
  0
DIMSTYLE
105
320
330
A
100
AcDbSymbolTableRecord
100
AcDbDimStyleTableRecord
  2
AM_ANSI$SH
 70
     0
  4
mm
 41
0.1
 42
0.05
 43
0.5
 44
0.1
 47
0.1
 48
0.1
 75
     1
 76
     1
 78
     7
 79
     2
140
0.12
141
0.0
146
0.71
147
0.06
173
     1
176
   256
177
   256
178
     2
274
     4
284
     7
340
10
343
2F4
371
    -1
372
    -1
  0
DIMSTYLE
105
344
330
A
100
AcDbSymbolTableRecord
100
AcDbDimStyleTableRecord
  2
AM_ISO
 70
     0
  4
"
 41
2.5
 42
1.0
 43
10.0
 44
1.0
 47
0.1
 48
0.1
 73
     0
 74
     0
 77
     1
 78
     8
 79
     2
140
3.5
141
0.0
143
0.0393701
146
0.71
147
1.5
171
     3
172
     1
176
   256
177
   256
178
     2
271
     2
272
     2
274
     3
283
     0
284
     8
340
10
371
    -1
372
    -1
  0
DIMSTYLE
105
345
330
A
100
AcDbSymbolTableRecord
100
AcDbDimStyleTableRecord
  2
AM_ISO$3
 70
     0
  4
"
 41
2.5
 42
1.0
 43
10.0
 44
1.0
 47
0.1
 48
0.1
 73
     0
 77
     1
 78
     8
 79
     2
140
3.5
141
0.0
143
0.0393701
146
0.71
147
1.5
176
   256
177
   256
178
     2
271
     2
272
     3
274
     4
283
     0
284
     8
288
     1
289
     0
340
10
371
    -1
372
    -1
  0
DIMSTYLE
105
346
330
A
100
AcDbSymbolTableRecord
100
AcDbDimStyleTableRecord
  2
AM_ISO$4
 70
     0
  4
"
 41
2.5
 42
1.0
 43
10.0
 44
1.0
 47
0.1
 48
0.1
 73
     0
 77
     1
 78
     8
 79
     2
140
3.5
141
0.0
143
0.0393701
146
0.71
147
1.5
176
   256
177
   256
178
     2
271
     2
272
     3
274
     4
283
     0
284
     8
288
     1
289
     0
340
10
371
    -1
372
    -1
  0
DIMSTYLE
105
347
330
A
100
AcDbSymbolTableRecord
100
AcDbDimStyleTableRecord
  2
AM_ISO$6
 70
     0
  4
"
 41
2.5
 42
1.0
 43
10.0
 44
1.0
 47
0.1
 48
0.1
 73
     0
 74
     0
 78
     8
 79
     2
140
3.5
141
0.0
143
0.0393701
146
0.71
147
1.5
172
     1
176
   256
177
   256
178
     2
271
     2
272
     3
274
     4
283
     0
284
     8
340
10
371
    -1
372
    -1
  0
DIMSTYLE
105
348
330
A
100
AcDbSymbolTableRecord
100
AcDbDimStyleTableRecord
  2
AM_ISO$7
 70
     0
  4
"
 41
2.5
 42
1.0
 43
10.0
 44
1.0
 47
0.1
 48
0.1
 73
     0
 74
     0
 77
     1
 78
     8
 79
     2
140
5.0
141
0.0
143
0.0393701
146
0.71
147
1.5
172
     1
176
   256
177
   256
178
     2
271
     2
272
     3
274
     4
283
     0
284
     8
340
10
371
    -1
372
    -1
  0
DIMSTYLE
105
349
330
A
100
AcDbSymbolTableRecord
100
AcDbDimStyleTableRecord
  2
AM_ISO$SF
 70
     0
  4
"
 41
2.5
 42
1.0
 43
10.0
 44
1.0
 47
0.1
 48
0.1
 73
     0
 74
     0
 75
     1
 76
     1
 77
     1
 78
     8
 79
     2
140
3.5
141
0.0
143
0.0393701
146
0.71
147
1.5
172
     1
176
   256
177
   256
178
     2
271
     2
272
     3
274
     4
283
     0
284
     8
340
10
371
    -1
372
    -1
  0
DIMSTYLE
105
34A
330
A
100
AcDbSymbolTableRecord
100
AcDbDimStyleTableRecord
  2
AM_ISO$SH
 70
     0
  4
"
 41
2.5
 42
1.0
 43
10.0
 44
1.0
 47
0.1
 48
0.1
 73
     0
 74
     0
 75
     1
 76
     1
 77
     1
 78
     8
 79
     2
140
3.5
141
0.0
143
0.0393701
144
2.0
146
0.71
147
1.5
172
     1
173
     1
176
   256
177
   256
178
     2
271
     2
272
     3
274
     4
283
     0
284
     8
340
10
343
2F4
371
    -1
372
    -1
  0
DIMSTYLE
105
31B
330
A
100
AcDbSymbolTableRecord
100
AcDbDimStyleTableRecord
  2
AM_ANSI
 70
     0
  4
mm
 41
0.1
 42
0.05
 43
0.5
 44
0.1
 47
0.1
 48
0.1
 78
     7
 79
     2
140
0.12
141
0.0
146
0.71
147
0.06
176
   256
177
   256
178
     2
274
     4
284
     7
340
10
371
    -1
372
    -1
  0
ENDTAB
  0
TABLE
  2
BLOCK_RECORD
  5
1
330
0
100
AcDbSymbolTable
 70
     4
  0
BLOCK_RECORD
  5
1A
102
{ACAD_XDICTIONARY
360
12A
102
}
330
1
100
AcDbSymbolTableRecord
100
AcDbBlockTableRecord
  2
*MODEL_SPACE
340
169
 70
     0
280
     1
281
     0
  0
BLOCK_RECORD
  5
17
330
1
100
AcDbSymbolTableRecord
100
AcDbBlockTableRecord
  2
*PAPER_SPACE
340
16A
 70
     0
280
     1
281
     0
  0
BLOCK_RECORD
  5
2F4
330
1
100
AcDbSymbolTableRecord
100
AcDbBlockTableRecord
  2
GENAXEH
340
0
 70
     0
280
     1
281
     0
  0
BLOCK_RECORD
  5
3662
330
1
100
AcDbSymbolTableRecord
100
AcDbBlockTableRecord
  2
info
340
0
310
2800000020000000200000000100080000000000000400000000000000000000000000000000000000000000000080000080000000808000800000008000800080800000C0C0C000C0DCC000F0CAA6000020400000206000002080000020A0000020C0000020E00000400000004020000040400000406000004080000040A0
310
000040C0000040E00000600000006020000060400000606000006080000060A0000060C0000060E00000800000008020000080400000806000008080000080A0000080C0000080E00000A0000000A0200000A0400000A0600000A0800000A0A00000A0C00000A0E00000C0000000C0200000C0400000C0600000C0800000C0
310
A00000C0C00000C0E00000E0000000E0200000E0400000E0600000E0800000E0A00000E0C00000E0E00040000000400020004000400040006000400080004000A0004000C0004000E00040200000402020004020400040206000402080004020A0004020C0004020E000404000004040200040404000404060004040800040
310
40A0004040C0004040E00040600000406020004060400040606000406080004060A0004060C0004060E00040800000408020004080400040806000408080004080A0004080C0004080E00040A0000040A0200040A0400040A0600040A0800040A0A00040A0C00040A0E00040C0000040C0200040C0400040C0600040C08000
310
40C0A00040C0C00040C0E00040E0000040E0200040E0400040E0600040E0800040E0A00040E0C00040E0E00080000000800020008000400080006000800080008000A0008000C0008000E00080200000802020008020400080206000802080008020A0008020C0008020E00080400000804020008040400080406000804080
310
008040A0008040C0008040E00080600000806020008060400080606000806080008060A0008060C0008060E00080800000808020008080400080806000808080008080A0008080C0008080E00080A0000080A0200080A0400080A0600080A0800080A0A00080A0C00080A0E00080C0000080C0200080C0400080C0600080C0
310
800080C0A00080C0C00080C0E00080E0000080E0200080E0400080E0600080E0800080E0A00080E0C00080E0E000C0000000C0002000C0004000C0006000C0008000C000A000C000C000C000E000C0200000C0202000C0204000C0206000C0208000C020A000C020C000C020E000C0400000C0402000C0404000C0406000C0
310
408000C040A000C040C000C040E000C0600000C0602000C0604000C0606000C0608000C060A000C060C000C060E000C0800000C0802000C0804000C0806000C0808000C080A000C080C000C080E000C0A00000C0A02000C0A04000C0A06000C0A08000C0A0A000C0A0C000C0A0E000C0C00000C0C02000C0C04000C0C06000
310
C0C08000C0C0A000F0FBFF00A4A0A000808080000000FF0000FF000000FFFF00FF000000FF00FF00FFFF0000FFFFFF00FFFFFFFFFFFFFFFFFFFFFFFFFFFFFFFFFFFFFFFFFFFFFFFFFFFFFFFFFFFFFFFFFFFFFFFFFFFFFFFFFFFFFFFFFFFFFFFFFFFFFFFFFFFFFFFFFFFFFFFFFFFFFFFFFFFFFFFFFFFFFFFFFFFFFFFFFFFFFF
310
FFFFFFFFFFFFFFFFFFFFFFFFFFFFFFFFFFFFFFFFFFFFFFFFFFFFFFFFFFFFFFFFFFFFFFFFFFFFFFFFFFFFFFFFFFFFFFFFFFFFFFFFFFFFFFFFFFFFFFFF00FFFFFFFFFFFFFFFFFFFFFFFFFFFFFFFFFFFFFFFFFFFFFFFFFFFFFFFFFFFF00FFFFFFFFFFFFFFFFFFFFFFFFFFFFFFFFFFFFFFFFFFFFFFFFFFFFFFFFFFFF00FFFFFFFF
310
FFFFFFFFFFFFFFFFFFFFFFFFFFFFFFFFFFFF0000000000FFFFFF00FFFFFFFF00FFFFFF00FFFF000000FFFF0000000000FFFFFFFFFFFFFF000000FFFFFFFFFF00FFFFFF00FF00FFFFFF00FFFFFF00FFFF00FFFFFFFFFFFFFF0000FFFFFFFFFF00FFFFFF00FFFFFFFFFF00FFFFFF00FFFF00FFFFFFFFFFFF00FF00FFFFFFFFFF
310
0000000000FFFFFFFFFF00FFFFFF00FFFF00FFFFFFFFFF00FFFFFF00FFFFFFFF00FFFFFF00FFFFFFFFFF00FFFFFF00FFFF00FFFFFFFF00FFFFFFFF00FFFFFFFF00FFFFFF00FFFFFFFFFF00FFFFFF00FFFF00FF00FF00FFFFFFFFFF00FFFFFFFF00FFFFFF00FFFFFFFFFF00FF0000000000FFFFFF00FFFFFFFFFFFFFF00FFFF
310
FFFFFFFFFFFFFFFFFFFFFFFFFFFFFFFFFFFFFFFF00FF00FFFFFFFFFF00FFFFFFFFFFFFFFFFFFFFFFFFFFFFFFFFFFFFFFFFFFFFFFFFFFFF00FFFFFFFF00FFFFFFFFFFFFFFFFFFFFFFFFFFFFFFFFFFFFFFFFFFFFFFFFFFFFFF00FFFFFF00FFFFFFFFFFFFFFFFFFFFFFFFFFFFFFFFFFFFFFFFFFFFFFFFFFFFFFFF00FF00FFFFFF
310
FFFF00000000FFFF00FFFFFF00FF0000000000FFFFFFFFFFFFFFFF0000FFFFFFFFFFFF00FFFF00FF00FFFF00FFFFFFFF00FFFF00FFFFFFFFFFFF000000FFFFFFFFFFFF00FFFF00FF00FF00FFFFFFFFFF00FFFF00FF0000000000FFFFFF00FFFFFFFFFF000000FFFF00000000FFFFFFFF00FFFF00FFFFFFFFFFFFFFFFFFFF00
310
FFFFFFFF00FFFF00FF00FFFFFF00FFFFFF00FFFF00FFFFFFFFFFFFFFFFFFFFFF00FFFFFF00FFFF00FF00FFFFFF00FFFFFF00FFFF00FFFFFFFFFFFFFFFFFFFFFFFF00FF00000000FFFF00000000FFFF0000000000FFFFFFFFFFFFFFFFFFFFFFFFFFFFFFFFFFFFFFFFFFFFFFFFFFFFFFFFFFFFFFFFFFFFFFFFFFFFFFFFFFFFFF
310
FFFFFFFFFFFFFFFFFFFFFFFFFFFFFFFFFFFFFFFFFFFFFFFFFFFFFFFFFFFFFFFFFFFFFFFFFFFFFFFFFFFFFFFFFFFFFFFFFFFFFFFFFFFFFFFFFFFFFFFFFFFFFFFFFFFFFFFFFFFFFFFFFFFFFFFFFFFFFFFFFFFFFFFFFFFFFFFFFFFFFFFFFFFFFFFFFFFFFFFFFFFFFFFFFFFFFFFFFFFFFFFFFFFFFFFFFFFFFFFFFFFFFFFFFFFFFF
310
FFFFFFFFFFFFFFFFFFFFFFFFFFFFFFFFFFFFFFFFFFFFFFFFFFFFFFFFFFFFFFFFFFFFFFFFFFFFFFFFFFFFFFFFFFFFFFFFFFFFFFFFFFFFFFFF
102
{BLKREFS
331
3A8E
331
3A84
102
}
 70
     4
280
     1
281
     0
  0
BLOCK_RECORD
  5
3906
330
1
100
AcDbSymbolTableRecord
100
AcDbBlockTableRecord
  2
COMSEAL32AISI316
340
0
310
2800000020000000200000000100080000000000000400000000000000000000000000000000000000000000000080000080000000808000800000008000800080800000C0C0C000C0DCC000F0CAA6000020400000206000002080000020A0000020C0000020E00000400000004020000040400000406000004080000040A0
310
000040C0000040E00000600000006020000060400000606000006080000060A0000060C0000060E00000800000008020000080400000806000008080000080A0000080C0000080E00000A0000000A0200000A0400000A0600000A0800000A0A00000A0C00000A0E00000C0000000C0200000C0400000C0600000C0800000C0
310
A00000C0C00000C0E00000E0000000E0200000E0400000E0600000E0800000E0A00000E0C00000E0E00040000000400020004000400040006000400080004000A0004000C0004000E00040200000402020004020400040206000402080004020A0004020C0004020E000404000004040200040404000404060004040800040
310
40A0004040C0004040E00040600000406020004060400040606000406080004060A0004060C0004060E00040800000408020004080400040806000408080004080A0004080C0004080E00040A0000040A0200040A0400040A0600040A0800040A0A00040A0C00040A0E00040C0000040C0200040C0400040C0600040C08000
310
40C0A00040C0C00040C0E00040E0000040E0200040E0400040E0600040E0800040E0A00040E0C00040E0E00080000000800020008000400080006000800080008000A0008000C0008000E00080200000802020008020400080206000802080008020A0008020C0008020E00080400000804020008040400080406000804080
310
008040A0008040C0008040E00080600000806020008060400080606000806080008060A0008060C0008060E00080800000808020008080400080806000808080008080A0008080C0008080E00080A0000080A0200080A0400080A0600080A0800080A0A00080A0C00080A0E00080C0000080C0200080C0400080C0600080C0
310
800080C0A00080C0C00080C0E00080E0000080E0200080E0400080E0600080E0800080E0A00080E0C00080E0E000C0000000C0002000C0004000C0006000C0008000C000A000C000C000C000E000C0200000C0202000C0204000C0206000C0208000C020A000C020C000C020E000C0400000C0402000C0404000C0406000C0
310
408000C040A000C040C000C040E000C0600000C0602000C0604000C0606000C0608000C060A000C060C000C060E000C0800000C0802000C0804000C0806000C0808000C080A000C080C000C080E000C0A00000C0A02000C0A04000C0A06000C0A08000C0A0A000C0A0C000C0A0E000C0C00000C0C02000C0C04000C0C06000
310
C0C08000C0C0A000F0FBFF00A4A0A000808080000000FF0000FF000000FFFF00FF000000FF00FF00FFFF0000FFFFFF00000000000000000000000000000000000000000000000000000000000000000000000000000000000000FA00000000000000000000000000FA0000000000000000000000000000000000FAFAFAFAFA
310
FAFAFBFBFAFAFAFAFAFA0000000000000000000000000000000000FA00FAFBFBFBFA00000000000000FA0000000000000000000000000000FAFAFAFAE0FAFFFFFFFAE0FFFFFFFFFFE0FA000000000000000000000000000000FA00E000FAFFFFFFFAE0FFFFFFFFFFE0FF000000000000000000000000000000FAFAFAFAFAFF
310
FFFFFAFFFFFFFFFFFF00FF000000000000000000000000000000FAFAFFFFFF000000FFFF000000FFFF00FF000000000000000000000000000000FAFAFFFFFF000000FFFF000000FFFF00FF000000000000000000000000000000FAFAFFFFFF000000FFFF000000FFFF00FF000000000000000000000000000000FAFAFFFFFF
310
000000FFFF000000FFFF00FF000000000000000000000000000000FAFAFFFFFF000000FFFF000000FFFF00FF000000000000000000000000000000FAFAE0FFFF000000FFFF000000FFFFE0FF000000000000000000000000000000FAFAE0E0FF000000FFFF000000FFFFE0E0000000000000000000000000000000FBFAFFFF
310
FF000000FFFF000000FFFF00FF000000000000000000000000000000FBFAFFFFFF000000FFFF000000FFFF00FF0000000000000000000000000000FBFBFAFFFFFF000000FFFF000000FFFF00FF0000000000000000000000000000FBFAFAFFFFFF000000FFFF000000FFFF00FF0000000000000000000000000000FBFAFAFF
310
FFFF000000FFFF000000FFFF00FF000000000000000000000000000000FAFAFFFFFF000000FFFF000000FFFF00FF000000000000000000000000000000FAFAE0FFFF000000FFFF000000FFFFE0FF000000000000000000000000000000FAFAE0E0FF000000FFFF000000FFFFE0E0000000000000000000000000000000FAFA
310
FFFFFF000000FFFF000000FFFF00FF000000000000000000000000000000FAFAFFFFFF000000FFFF000000FFFF00FF000000000000000000000000000000FAFAFAFAFAFFFFFFFFFFFFFFFFFFFF00FF000000000000000000000000000000FA00FFFFFF00FFFFFFFFFFFF0000FF00FF000000000000000000000000000000FA
310
00FFFFFF00FFFFFFFFFFFF0000FF00FF000000000000000000000000000000FA00FFFFFFFFFFFFFFFFFFFFFFFFFF00FF000000000000000000000000000000FA00E000FFFFFFFFFFE0FFFFFFFFFFE0FF000000000000000000000000000000FA00E0E000000000E0E00000000000E0E00000000000000000000000000000FA
310
FAFAFAFFFFFFFFFFFFE0FFFFFFFFFFE000000000000000000000000000000000000000000000000000000000000000000000000000000000
102
{BLKREFS
331
3A98
102
}
 70
     4
280
     1
281
     0
  0
ENDTAB
  0
ENDSEC
  0
SECTION
  2
BLOCKS
  0
BLOCK
  5
1B
330
1A
100
AcDbEntity
  8
0
100
AcDbBlockBegin
  2
*MODEL_SPACE
 70
     0
 10
0.0
 20
0.0
 30
0.0
  3
*MODEL_SPACE
  1

  0
ENDBLK
  5
1C
330
1A
100
AcDbEntity
  8
0
100
AcDbBlockEnd
  0
BLOCK
  5
18
330
17
100
AcDbEntity
 67
     1
  8
0
100
AcDbBlockBegin
  2
*PAPER_SPACE
 70
     0
 10
0.0
 20
0.0
 30
0.0
  3
*PAPER_SPACE
  1

  0
ENDBLK
  5
19
330
17
100
AcDbEntity
 67
     1
  8
0
100
AcDbBlockEnd
  0
BLOCK
  5
3B0E
330
2F4
100
AcDbEntity
  8
0
100
AcDbBlockBegin
  2
GENAXEH
 70
     0
 10
0.0
 20
0.0
 30
0.0
  3
GENAXEH
  1

  0
LINE
  5
3B0F
330
2F4
100
AcDbEntity
  8
0
100
AcDbLine
 10
-1.0
 20
0.0
 30
0.0
 11
1.0
 21
0.0
 31
0.0
  0
ENDBLK
  5
3B10
330
2F4
100
AcDbEntity
  8
0
100
AcDbBlockEnd
  0
BLOCK
  5
3663
330
3662
100
AcDbEntity
  8
0
100
AcDbBlockBegin
  2
info
 70
     2
 10
0.0
 20
0.0
 30
0.0
  3
info
  1

  0
POINT
  5
3664
330
3662
100
AcDbEntity
  8
0
100
AcDbPoint
 10
0.0
 20
0.0
 30
0.0
  0
ATTDEF
  5
3665
330
3662
100
AcDbEntity
  8
0
100
AcDbText
 10
9.467092950319427
 20
2.891095235479383
 30
0.00000001
 40
5.0
  1

100
AcDbAttributeDefinition
280
     0
  3
bredd
  2
BRD
 70
     1
280
     1
  0
ATTDEF
  5
3666
330
3662
100
AcDbEntity
  8
0
100
AcDbText
 10
9.467092950319427
 20
-5.442238097853946
 30
0.00000001
 40
5.0
  1

100
AcDbAttributeDefinition
280
     0
  3
Höjd
  2
HJD
 70
     1
280
     1
  0
ENDBLK
  5
3667
330
3662
100
AcDbEntity
  8
0
100
AcDbBlockEnd
  0
BLOCK
  5
3907
330
3906
100
AcDbEntity
  8
0
100
AcDbBlockBegin
  2
COMSEAL32AISI316
 70
     0
 10
0.0
 20
0.0
 30
0.0
  3
COMSEAL32AISI316
  1

  0
LINE
  5
3909
330
3906
100
AcDbEntity
  8
Visible Tangent Edges(ISO)
100
AcDbLine
 10
-47.51737757881002
 20
-87.82500000000016
 30
0.0
 11
-49.5173014249384
 21
-87.82500000000016
 31
0.0
  0
LINE
  5
390A
330
3906
100
AcDbEntity
  8
Visible Tangent Edges(ISO)
100
AcDbLine
 10
-47.51737757881002
 20
-87.82500000000016
 30
0.0
 11
-47.51737757881002
 21
115.1749999999997
 31
0.0
  0
LINE
  5
390B
330
3906
100
AcDbEntity
  8
Visible Tangent Edges(ISO)
100
AcDbLine
 10
-49.5173014249384
 20
115.1749999999997
 30
0.0
 11
-47.51737757881002
 21
115.1749999999997
 31
0.0
  0
LINE
  5
390C
330
3906
100
AcDbEntity
  8
Visible Tangent Edges(ISO)
100
AcDbLine
 10
-49.5173014249384
 20
115.1749999999997
 30
0.0
 11
-49.5173014249384
 21
-87.82500000000027
 31
0.0
  0
LINE
  5
390D
330
3906
100
AcDbEntity
  8
Visible Tangent Edges(ISO)
100
AcDbLine
 10
-47.5
 20
117.1923014249381
 30
0.0
 11
-47.5
 21
115.1923775788098
 31
0.0
  0
ARC
  5
390E
330
3906
100
AcDbEntity
  8
Visible Tangent Edges(ISO)
100
AcDbCircle
 10
-47.5
 20
115.1749999999997
 30
0.0
 40
2.017301424938382
100
AcDbArc
 50
90.0
 51
180.0
  0
ARC
  5
390F
330
3906
100
AcDbEntity
  8
Visible Tangent Edges(ISO)
100
AcDbCircle
 10
-47.5
 20
115.1749999999997
 30
0.0
 40
0.0173775788099917
100
AcDbArc
 50
89.99999999994136
 51
180.0
  0
LINE
  5
3910
330
3906
100
AcDbEntity
  8
Visible Tangent Edges(ISO)
100
AcDbLine
 10
47.49999999999992
 20
117.1923014249381
 30
0.0
 11
47.49999999999992
 21
115.1923775788098
 31
0.0
  0
LINE
  5
3911
330
3906
100
AcDbEntity
  8
Visible Tangent Edges(ISO)
100
AcDbLine
 10
47.49999999999992
 20
117.1923014249381
 30
0.0
 11
-47.5
 21
117.1923014249381
 31
0.0
  0
LINE
  5
3912
330
3906
100
AcDbEntity
  8
Visible Tangent Edges(ISO)
100
AcDbLine
 10
-47.5
 20
115.1923775788098
 30
0.0
 11
47.49999999999992
 21
115.1923775788098
 31
0.0
  0
LINE
  5
3913
330
3906
100
AcDbEntity
  8
Visible Tangent Edges(ISO)
100
AcDbLine
 10
49.51730142493826
 20
115.1749999999997
 30
0.0
 11
47.51737757881002
 21
115.1749999999997
 31
0.0
  0
ARC
  5
3914
330
3906
100
AcDbEntity
  8
Visible Tangent Edges(ISO)
100
AcDbCircle
 10
47.49999999999992
 20
115.1749999999997
 30
0.0
 40
2.017301424938382
100
AcDbArc
 50
0.0
 51
90.0
  0
ARC
  5
3915
330
3906
100
AcDbEntity
  8
Visible Tangent Edges(ISO)
100
AcDbCircle
 10
47.49999999999992
 20
115.1749999999997
 30
0.0
 40
0.0173775788100095
100
AcDbArc
 50
0.0
 51
90.00000000011723
  0
LINE
  5
3916
330
3906
100
AcDbEntity
  8
Visible Tangent Edges(ISO)
100
AcDbLine
 10
49.51730142493826
 20
-87.82500000000027
 30
0.0
 11
47.51737757881002
 21
-87.82500000000027
 31
0.0
  0
LINE
  5
3917
330
3906
100
AcDbEntity
  8
Visible Tangent Edges(ISO)
100
AcDbLine
 10
49.51730142493826
 20
-87.82500000000027
 30
0.0
 11
49.51730142493826
 21
115.1749999999997
 31
0.0
  0
LINE
  5
3918
330
3906
100
AcDbEntity
  8
Visible Tangent Edges(ISO)
100
AcDbLine
 10
47.51737757881002
 20
115.1749999999997
 30
0.0
 11
47.51737757881002
 21
-87.82500000000027
 31
0.0
  0
LINE
  5
3919
330
3906
100
AcDbEntity
  8
Visible Tangent Edges(ISO)
100
AcDbLine
 10
47.49999999999992
 20
-89.84230142493865
 30
0.0
 11
47.49999999999992
 21
-87.84237757881022
 31
0.0
  0
ARC
  5
391A
330
3906
100
AcDbEntity
  8
Visible Tangent Edges(ISO)
100
AcDbCircle
 10
47.49999999999992
 20
-87.82500000000016
 30
0.0
 40
2.01730142493842
100
AcDbArc
 50
270.0
 51
0.0
  0
ARC
  5
391B
330
3906
100
AcDbEntity
  8
Visible Tangent Edges(ISO)
100
AcDbCircle
 10
47.49999999999992
 20
-87.82500000000027
 30
0.0
 40
0.0173775788100272
100
AcDbArc
 50
269.9999999998827
 51
0.0
  0
LINE
  5
391C
330
3906
100
AcDbEntity
  8
Visible Tangent Edges(ISO)
100
AcDbLine
 10
-47.5
 20
-89.84230142493855
 30
0.0
 11
-47.5
 21
-87.84237757881022
 31
0.0
  0
LINE
  5
391D
330
3906
100
AcDbEntity
  8
Visible Tangent Edges(ISO)
100
AcDbLine
 10
-47.5
 20
-89.84230142493855
 30
0.0
 11
47.49999999999992
 21
-89.84230142493855
 31
0.0
  0
LINE
  5
391E
330
3906
100
AcDbEntity
  8
Visible Tangent Edges(ISO)
100
AcDbLine
 10
47.49999999999992
 20
-87.84237757881022
 30
0.0
 11
-47.5
 21
-87.84237757881022
 31
0.0
  0
ARC
  5
391F
330
3906
100
AcDbEntity
  8
Visible Tangent Edges(ISO)
100
AcDbCircle
 10
-47.49999999999988
 20
-87.82500000000016
 30
0.0
 40
2.017301424938402
100
AcDbArc
 50
180.0
 51
269.9999999999902
  0
ARC
  5
3920
330
3906
100
AcDbEntity
  8
Visible Tangent Edges(ISO)
100
AcDbCircle
 10
-47.5
 20
-87.82500000000027
 30
0.0
 40
0.0173775788100272
100
AcDbArc
 50
180.0
 51
270.0000000000586
  0
LINE
  5
3921
330
3906
100
AcDbEntity
  8
Visible Tangent Edges(ISO)
100
AcDbLine
 10
47.49999999999992
 20
-89.84230142493855
 30
0.0
 11
47.49999999999992
 21
-89.94288887049703
 31
0.0
  0
LINE
  5
3922
330
3906
100
AcDbEntity
  8
Visible Tangent Edges(ISO)
100
AcDbLine
 10
49.61788887049673
 20
-87.82500000000027
 30
0.0
 11
49.51730142493826
 21
-87.82500000000027
 31
0.0
  0
LINE
  5
3923
330
3906
100
AcDbEntity
  8
Visible Tangent Edges(ISO)
100
AcDbLine
 10
-47.5
 20
-89.94288887049703
 30
0.0
 11
-47.5
 21
-89.84230142493855
 31
0.0
  0
LINE
  5
3924
330
3906
100
AcDbEntity
  8
Visible Tangent Edges(ISO)
100
AcDbLine
 10
-49.5173014249384
 20
-87.82500000000016
 30
0.0
 11
-49.61788887049678
 21
-87.82500000000016
 31
0.0
  0
LINE
  5
3925
330
3906
100
AcDbEntity
  8
Visible Tangent Edges(ISO)
100
AcDbLine
 10
-49.61788887049678
 20
115.1749999999997
 30
0.0
 11
-49.5173014249384
 21
115.1749999999997
 31
0.0
  0
LINE
  5
3926
330
3906
100
AcDbEntity
  8
Visible Tangent Edges(ISO)
100
AcDbLine
 10
49.51730142493826
 20
115.1749999999997
 30
0.0
 11
49.61788887049673
 21
115.1749999999997
 31
0.0
  0
LINE
  5
3927
330
3906
100
AcDbEntity
  8
Visible Tangent Edges(ISO)
100
AcDbLine
 10
47.49999999999992
 20
117.2928888704966
 30
0.0
 11
47.49999999999992
 21
117.1923014249381
 31
0.0
  0
LINE
  5
3928
330
3906
100
AcDbEntity
  8
Visible Tangent Edges(ISO)
100
AcDbLine
 10
-47.5
 20
117.1923014249381
 30
0.0
 11
-47.5
 21
117.2928888704966
 31
0.0
  0
ARC
  5
3929
330
3906
100
AcDbEntity
  8
Visible Tangent Edges(ISO)
100
AcDbCircle
 10
47.49999999999992
 20
-87.82500000000027
 30
0.0
 40
2.117888870496829
100
AcDbArc
 50
270.0
 51
0.0
  0
LINE
  5
392A
330
3906
100
AcDbEntity
  8
Visible Tangent Edges(ISO)
100
AcDbLine
 10
47.49999999999992
 20
-89.94288887049703
 30
0.0
 11
-47.5
 21
-89.94288887049703
 31
0.0
  0
ARC
  5
392B
330
3906
100
AcDbEntity
  8
Visible Tangent Edges(ISO)
100
AcDbCircle
 10
-47.5
 20
-87.82500000000027
 30
0.0
 40
2.117888870496784
100
AcDbArc
 50
180.0
 51
270.0
  0
LINE
  5
392C
330
3906
100
AcDbEntity
  8
Visible Tangent Edges(ISO)
100
AcDbLine
 10
-49.61788887049678
 20
-87.82500000000016
 30
0.0
 11
-49.61788887049678
 21
115.1749999999997
 31
0.0
  0
LINE
  5
392D
330
3906
100
AcDbEntity
  8
Visible Tangent Edges(ISO)
100
AcDbLine
 10
-49.61788887049678
 20
115.1749999999997
 30
0.0
 11
-50.61785079356099
 21
115.1749999999997
 31
0.0
  0
LINE
  5
392E
330
3906
100
AcDbEntity
  8
Visible Tangent Edges(ISO)
100
AcDbLine
 10
-50.61785079356099
 20
115.1749999999997
 30
0.0
 11
-50.61785079356099
 21
-87.82500000000027
 31
0.0
  0
LINE
  5
392F
330
3906
100
AcDbEntity
  8
Visible Tangent Edges(ISO)
100
AcDbLine
 10
-50.61785079356099
 20
-87.82500000000016
 30
0.0
 11
-49.61788887049678
 21
-87.82500000000016
 31
0.0
  0
LINE
  5
3930
330
3906
100
AcDbEntity
  8
Visible Tangent Edges(ISO)
100
AcDbLine
 10
-47.5
 20
-90.94285079356115
 30
0.0
 11
-47.5
 21
-89.94288887049703
 31
0.0
  0
ARC
  5
3931
330
3906
100
AcDbEntity
  8
Visible Tangent Edges(ISO)
100
AcDbCircle
 10
-47.5
 20
-87.82500000000016
 30
0.0
 40
3.117850793560978
100
AcDbArc
 50
180.0
 51
270.0
  0
LINE
  5
3932
330
3906
100
AcDbEntity
  8
Visible Tangent Edges(ISO)
100
AcDbLine
 10
47.49999999999992
 20
-90.94285079356115
 30
0.0
 11
47.49999999999992
 21
-89.94288887049703
 31
0.0
  0
LINE
  5
3933
330
3906
100
AcDbEntity
  8
Visible Tangent Edges(ISO)
100
AcDbLine
 10
-47.5
 20
-90.94285079356115
 30
0.0
 11
47.49999999999992
 21
-90.94285079356115
 31
0.0
  0
LINE
  5
3934
330
3906
100
AcDbEntity
  8
Visible Tangent Edges(ISO)
100
AcDbLine
 10
50.61785079356091
 20
-87.82500000000027
 30
0.0
 11
49.61788887049673
 21
-87.82500000000027
 31
0.0
  0
ARC
  5
3935
330
3906
100
AcDbEntity
  8
Visible Tangent Edges(ISO)
100
AcDbCircle
 10
47.49999999999992
 20
-87.82500000000027
 30
0.0
 40
3.117850793560953
100
AcDbArc
 50
270.0
 51
0.0
  0
LINE
  5
3936
330
3906
100
AcDbEntity
  8
Visible Tangent Edges(ISO)
100
AcDbLine
 10
50.61785079356091
 20
115.1749999999997
 30
0.0
 11
49.61788887049673
 21
115.1749999999997
 31
0.0
  0
LINE
  5
3937
330
3906
100
AcDbEntity
  8
Visible Tangent Edges(ISO)
100
AcDbLine
 10
49.61788887049673
 20
115.1749999999997
 30
0.0
 11
49.61788887049673
 21
-87.82500000000027
 31
0.0
  0
LINE
  5
3938
330
3906
100
AcDbEntity
  8
Visible Tangent Edges(ISO)
100
AcDbLine
 10
50.61785079356091
 20
-87.82500000000027
 30
0.0
 11
50.61785079356091
 21
115.1749999999997
 31
0.0
  0
LINE
  5
3939
330
3906
100
AcDbEntity
  8
Visible Tangent Edges(ISO)
100
AcDbLine
 10
47.49999999999992
 20
118.2928507935607
 30
0.0
 11
47.49999999999992
 21
117.2928888704964
 31
0.0
  0
ARC
  5
393A
330
3906
100
AcDbEntity
  8
Visible Tangent Edges(ISO)
100
AcDbCircle
 10
47.49999999999992
 20
115.1749999999997
 30
0.0
 40
2.117888870496817
100
AcDbArc
 50
0.0
 51
89.99999999999836
  0
ARC
  5
393B
330
3906
100
AcDbEntity
  8
Visible Tangent Edges(ISO)
100
AcDbCircle
 10
47.49999999999992
 20
115.1749999999997
 30
0.0
 40
3.11785079356099
100
AcDbArc
 50
0.0
 51
90.0
  0
LINE
  5
393C
330
3906
100
AcDbEntity
  8
Visible Tangent Edges(ISO)
100
AcDbLine
 10
-47.5
 20
118.2928507935607
 30
0.0
 11
-47.5
 21
117.2928888704966
 31
0.0
  0
LINE
  5
393D
330
3906
100
AcDbEntity
  8
Visible Tangent Edges(ISO)
100
AcDbLine
 10
-47.5
 20
117.2928888704966
 30
0.0
 11
47.49999999999992
 21
117.2928888704966
 31
0.0
  0
LINE
  5
393E
330
3906
100
AcDbEntity
  8
Visible Tangent Edges(ISO)
100
AcDbLine
 10
47.49999999999992
 20
118.2928507935607
 30
0.0
 11
-47.5
 21
118.2928507935607
 31
0.0
  0
ARC
  5
393F
330
3906
100
AcDbEntity
  8
Visible Tangent Edges(ISO)
100
AcDbCircle
 10
-47.5
 20
115.1749999999997
 30
0.0
 40
2.117888870496774
100
AcDbArc
 50
89.99999999999836
 51
180.0
  0
ARC
  5
3940
330
3906
100
AcDbEntity
  8
Visible Tangent Edges(ISO)
100
AcDbCircle
 10
-47.5
 20
115.1749999999997
 30
0.0
 40
3.11785079356097
100
AcDbArc
 50
90.0
 51
180.0
  0
LINE
  5
3941
330
3906
100
AcDbEntity
  8
Visible Edges(ISO)
100
AcDbLine
 10
-16.70629271309278
 20
92.26617251013598
 30
0.0
 11
-18.01248522614818
 21
92.26617251013598
 31
0.0
  0
ARC
  5
3942
330
3906
100
AcDbEntity
  8
Visible Edges(ISO)
100
AcDbCircle
 10
-21.07082514915359
 20
97.46475509235445
 30
0.0
 40
6.031476100325011
100
AcDbArc
 50
300.4684120702847
 51
59.54250091540367
  0
LINE
  5
3943
330
3906
100
AcDbEntity
  8
Visible Edges(ISO)
100
AcDbLine
 10
-18.01347544280901
 20
102.663920094728
 30
0.0
 11
-16.70698652614479
 21
102.663920094728
 31
0.0
  0
ARC
  5
3944
330
3906
100
AcDbEntity
  8
Visible Edges(ISO)
100
AcDbCircle
 10
-21.07082514915359
 20
97.46475509235445
 30
0.0
 40
6.787812920931853
100
AcDbArc
 50
310.0155427753971
 51
49.99210360364132
  0
LINE
  5
3945
330
3906
100
AcDbEntity
  8
Visible Edges(ISO)
100
AcDbLine
 10
9.84943448512044
 20
98.1541993400158
 30
0.0
 11
9.849434485120552
 21
95.34922557300928
 31
0.0
  0
LINE
  5
3946
330
3906
100
AcDbEntity
  8
Visible Edges(ISO)
100
AcDbLine
 10
9.849434485120552
 20
95.34922557300928
 30
0.0
 11
10.27259863100491
 21
95.34922557300928
 31
0.0
  0
LINE
  5
3947
330
3906
100
AcDbEntity
  8
Visible Edges(ISO)
100
AcDbLine
 10
10.27259863100491
 20
95.34922557300928
 30
0.0
 11
10.27259863100491
 21
94.40617404789495
 31
0.0
  0
LINE
  5
3948
330
3906
100
AcDbEntity
  8
Visible Edges(ISO)
100
AcDbLine
 10
10.27259863100491
 20
94.40617404789495
 30
0.0
 11
8.991015789184501
 21
94.40617404789504
 31
0.0
  0
ARC
  5
3949
330
3906
100
AcDbEntity
  8
Visible Edges(ISO)
100
AcDbCircle
 10
9.011377694881019
 20
95.34854355974001
 30
0.0
 40
0.9425894674026988
100
AcDbArc
 50
169.6128402964321
 51
268.7621949374041
  0
LINE
  5
394A
330
3906
100
AcDbEntity
  8
Visible Edges(ISO)
100
AcDbLine
 10
8.084235476573411
 20
95.51849123136332
 30
0.0
 11
8.084235476573411
 21
98.1541993400158
 31
0.0
  0
LINE
  5
394B
330
3906
100
AcDbEntity
  8
Visible Edges(ISO)
100
AcDbLine
 10
8.084235476573411
 20
98.1541993400158
 30
0.0
 11
7.78197537236977
 21
98.1541993400158
 31
0.0
  0
LINE
  5
394C
330
3906
100
AcDbEntity
  8
Visible Edges(ISO)
100
AcDbLine
 10
7.78197537236977
 20
98.1541993400158
 30
0.0
 11
7.78197537236977
 21
99.048889248457
 31
0.0
  0
LINE
  5
394D
330
3906
100
AcDbEntity
  8
Visible Edges(ISO)
100
AcDbLine
 10
7.78197537236977
 20
99.048889248457
 30
0.0
 11
9.84943448512044
 21
100.2216584527658
 31
0.0
  0
LINE
  5
394E
330
3906
100
AcDbEntity
  8
Visible Edges(ISO)
100
AcDbLine
 10
9.84943448512044
 20
100.2216584527658
 30
0.0
 11
9.84943448512044
 21
99.10934126929806
 31
0.0
  0
LINE
  5
394F
330
3906
100
AcDbEntity
  8
Visible Edges(ISO)
100
AcDbLine
 10
9.84943448512044
 20
99.10934126929806
 30
0.0
 11
10.2484178226687
 21
99.10934126929806
 31
0.0
  0
LINE
  5
3950
330
3906
100
AcDbEntity
  8
Visible Edges(ISO)
100
AcDbLine
 10
10.2484178226687
 20
99.10934126929806
 30
0.0
 11
10.2484178226687
 21
98.1541993400158
 31
0.0
  0
LINE
  5
3951
330
3906
100
AcDbEntity
  8
Visible Edges(ISO)
100
AcDbLine
 10
10.2484178226687
 20
98.1541993400158
 30
0.0
 11
9.84943448512044
 21
98.1541993400158
 31
0.0
  0
LINE
  5
3952
330
3906
100
AcDbEntity
  8
Visible Edges(ISO)
100
AcDbLine
 10
-21.07082514915359
 20
92.24869471139687
 30
0.0
 11
-21.07082514915359
 21
93.01653156897726
 31
0.0
  0
ARC
  5
3953
330
3906
100
AcDbEntity
  8
Visible Edges(ISO)
100
AcDbCircle
 10
-21.06827706097141
 20
97.46475363272551
 30
0.0
 40
4.44822279356263
100
AcDbArc
 50
269.9671790929932
 51
89.96717909299311
  0
LINE
  5
3954
330
3906
100
AcDbEntity
  8
Visible Edges(ISO)
100
AcDbLine
 10
-21.06572897278909
 20
101.9129756964737
 30
0.0
 11
-21.06572897278909
 21
102.6808129837874
 31
0.0
  0
ARC
  5
3955
330
3906
100
AcDbEntity
  8
Visible Edges(ISO)
100
AcDbCircle
 10
-21.06827706097141
 20
97.46475384759214
 30
0.0
 40
5.216059758576421
100
AcDbArc
 50
269.9720105383693
 51
89.9720105383693
  0
LINE
  5
3956
330
3906
100
AcDbEntity
  8
Visible Edges(ISO)
100
AcDbLine
 10
3.127169767639712
 20
96.89679730652997
 30
0.0
 11
2.184118242525499
 21
99.10934126929806
 31
0.0
  0
LINE
  5
3957
330
3906
100
AcDbEntity
  8
Visible Edges(ISO)
100
AcDbLine
 10
2.184118242525499
 20
99.10934126929806
 30
0.0
 11
4.009769271913397
 21
99.10934126929806
 31
0.0
  0
LINE
  5
3958
330
3906
100
AcDbEntity
  8
Visible Edges(ISO)
100
AcDbLine
 10
4.009769271913397
 20
99.10934126929806
 30
0.0
 11
4.662651096992418
 21
97.59804074828156
 31
0.0
  0
LINE
  5
3959
330
3906
100
AcDbEntity
  8
Visible Edges(ISO)
100
AcDbLine
 10
4.662651096992418
 20
97.59804074828156
 30
0.0
 11
5.315532922071496
 21
99.10934126929806
 31
0.0
  0
LINE
  5
395A
330
3906
100
AcDbEntity
  8
Visible Edges(ISO)
100
AcDbLine
 10
5.315532922071496
 20
99.10934126929806
 30
0.0
 11
7.008189505609577
 21
99.10934126929806
 31
0.0
  0
LINE
  5
395B
330
3906
100
AcDbEntity
  8
Visible Edges(ISO)
100
AcDbLine
 10
7.008189505609577
 20
99.10934126929806
 30
0.0
 11
6.065137980495392
 21
96.93306851903448
 31
0.0
  0
LINE
  5
395C
330
3906
100
AcDbEntity
  8
Visible Edges(ISO)
100
AcDbLine
 10
6.065137980495392
 20
96.93306851903448
 30
0.0
 11
7.177455163963571
 21
94.45453566456745
 31
0.0
  0
LINE
  5
395D
330
3906
100
AcDbEntity
  8
Visible Edges(ISO)
100
AcDbLine
 10
7.177455163963571
 20
94.45453566456745
 30
0.0
 11
5.255080901230711
 21
94.45453566456745
 31
0.0
  0
LINE
  5
395E
330
3906
100
AcDbEntity
  8
Visible Edges(ISO)
100
AcDbLine
 10
5.255080901230711
 20
94.45453566456745
 30
0.0
 11
4.517566246975007
 21
96.0988306314335
 31
0.0
  0
LINE
  5
395F
330
3906
100
AcDbEntity
  8
Visible Edges(ISO)
100
AcDbLine
 10
4.517566246975007
 20
96.0988306314335
 30
0.0
 11
3.780051592718904
 21
94.45453566456745
 31
0.0
  0
LINE
  5
3960
330
3906
100
AcDbEntity
  8
Visible Edges(ISO)
100
AcDbLine
 10
3.780051592718904
 20
94.45453566456745
 30
0.0
 11
2.05112379667608
 21
94.45453566456745
 31
0.0
  0
LINE
  5
3961
330
3906
100
AcDbEntity
  8
Visible Edges(ISO)
100
AcDbLine
 10
2.05112379667608
 20
94.45453566456745
 30
0.0
 11
3.127169767639712
 21
96.89679730652997
 31
0.0
  0
LINE
  5
3962
330
3906
100
AcDbEntity
  8
Visible Edges(ISO)
100
AcDbLine
 10
16.93368830067291
 20
99.07324696438784
 30
0.0
 11
17.07877315069041
 21
99.10951817689229
 31
0.0
  0
LINE
  5
3963
330
3906
100
AcDbEntity
  8
Visible Edges(ISO)
100
AcDbLine
 10
17.07877315069041
 20
99.10951817689229
 30
0.0
 11
17.2359484048761
 21
99.13369898522823
 31
0.0
  0
LINE
  5
3964
330
3906
100
AcDbEntity
  8
Visible Edges(ISO)
100
AcDbLine
 10
17.2359484048761
 20
99.13369898522823
 30
0.0
 11
17.39312365906173
 21
99.14578938939644
 31
0.0
  0
LINE
  5
3965
330
3906
100
AcDbEntity
  8
Visible Edges(ISO)
100
AcDbLine
 10
17.39312365906173
 20
99.14578938939644
 30
0.0
 11
19.84747570519258
 21
99.14578938939616
 31
0.0
  0
LINE
  5
3966
330
3906
100
AcDbEntity
  8
Visible Edges(ISO)
100
AcDbLine
 10
19.84747570519258
 20
99.14578938939616
 30
0.0
 11
19.9681829967233
 21
99.14211466891785
 31
0.0
  0
LINE
  5
3967
330
3906
100
AcDbEntity
  8
Visible Edges(ISO)
100
AcDbLine
 10
19.9681829967233
 20
99.14211466891785
 30
0.0
 11
20.16182621356373
 21
99.09742777272413
 31
0.0
  0
LINE
  5
3968
330
3906
100
AcDbEntity
  8
Visible Edges(ISO)
100
AcDbLine
 10
20.16182621356373
 20
99.09742777272413
 30
0.0
 11
20.30691106358123
 21
99.06115656021929
 31
0.0
  0
LINE
  5
3969
330
3906
100
AcDbEntity
  8
Visible Edges(ISO)
100
AcDbLine
 10
20.30691106358123
 20
99.06115656021929
 30
0.0
 11
20.4278151052628
 21
98.98861413521105
 31
0.0
  0
LINE
  5
396A
330
3906
100
AcDbEntity
  8
Visible Edges(ISO)
100
AcDbLine
 10
20.4278151052628
 20
98.98861413521105
 30
0.0
 11
20.54871914694431
 21
98.90398130603431
 31
0.0
  0
LINE
  5
396B
330
3906
100
AcDbEntity
  8
Visible Edges(ISO)
100
AcDbLine
 10
20.54871914694431
 20
98.90398130603431
 30
0.0
 11
20.64544238028944
 21
98.795167668521
 31
0.0
  0
LINE
  5
396C
330
3906
100
AcDbEntity
  8
Visible Edges(ISO)
100
AcDbLine
 10
20.64544238028944
 20
98.795167668521
 30
0.0
 11
20.7179848052987
 21
98.65008281850395
 31
0.0
  0
LINE
  5
396D
330
3906
100
AcDbEntity
  8
Visible Edges(ISO)
100
AcDbLine
 10
20.7179848052987
 20
98.65008281850395
 30
0.0
 11
20.7784368261392
 21
98.48081716014995
 31
0.0
  0
LINE
  5
396E
330
3906
100
AcDbEntity
  8
Visible Edges(ISO)
100
AcDbLine
 10
20.7784368261392
 20
98.48081716014995
 30
0.0
 11
20.81470803864343
 21
98.27528028929165
 31
0.0
  0
LINE
  5
396F
330
3906
100
AcDbEntity
  8
Visible Edges(ISO)
100
AcDbLine
 10
20.81470803864343
 20
98.27528028929165
 30
0.0
 11
20.82680459119919
 21
98.03334923816084
 31
0.0
  0
LINE
  5
3970
330
3906
100
AcDbEntity
  8
Visible Edges(ISO)
100
AcDbLine
 10
20.82680459119919
 20
98.03334923816084
 30
0.0
 11
20.82680459119919
 21
97.211324722496
 31
0.0
  0
LINE
  5
3971
330
3906
100
AcDbEntity
  8
Visible Edges(ISO)
100
AcDbLine
 10
20.82680459119919
 20
97.211324722496
 30
0.0
 11
19.06159943426442
 21
97.21132472249628
 31
0.0
  0
LINE
  5
3972
330
3906
100
AcDbEntity
  8
Visible Edges(ISO)
100
AcDbLine
 10
19.06159943426442
 20
97.21132472249628
 30
0.0
 11
19.06159943426442
 21
97.6465792725493
 31
0.0
  0
LINE
  5
3973
330
3906
100
AcDbEntity
  8
Visible Edges(ISO)
100
AcDbLine
 10
19.06159943426442
 20
97.6465792725493
 30
0.0
 11
19.06505383545541
 21
97.73121210172591
 31
0.0
  0
LINE
  5
3974
330
3906
100
AcDbEntity
  8
Visible Edges(ISO)
100
AcDbLine
 10
19.06505383545541
 20
97.73121210172591
 30
0.0
 11
19.01323781759183
 21
97.91256816424827
 31
0.0
  0
LINE
  5
3975
330
3906
100
AcDbEntity
  8
Visible Edges(ISO)
100
AcDbLine
 10
19.01323781759183
 20
97.91256816424827
 30
0.0
 11
18.96487620091969
 21
97.98511058925695
 31
0.0
  0
LINE
  5
3976
330
3906
100
AcDbEntity
  8
Visible Edges(ISO)
100
AcDbLine
 10
18.96487620091969
 20
97.98511058925695
 30
0.0
 11
18.90442418007913
 21
98.05765301426596
 31
0.0
  0
LINE
  5
3977
330
3906
100
AcDbEntity
  8
Visible Edges(ISO)
100
AcDbLine
 10
18.90442418007913
 20
98.05765301426596
 30
0.0
 11
18.84397215923829
 21
98.10601463093782
 31
0.0
  0
LINE
  5
3978
330
3906
100
AcDbEntity
  8
Visible Edges(ISO)
100
AcDbLine
 10
18.84397215923829
 20
98.10601463093782
 30
0.0
 11
18.69888730922091
 21
98.17855705594695
 31
0.0
  0
LINE
  5
3979
330
3906
100
AcDbEntity
  8
Visible Edges(ISO)
100
AcDbLine
 10
18.69888730922091
 20
98.17855705594695
 30
0.0
 11
18.6263448842117
 21
98.19064746011477
 31
0.0
  0
LINE
  5
397A
330
3906
100
AcDbEntity
  8
Visible Edges(ISO)
100
AcDbLine
 10
18.6263448842117
 20
98.19064746011477
 30
0.0
 11
18.52962165086697
 21
98.20273786428302
 31
0.0
  0
LINE
  5
397B
330
3906
100
AcDbEntity
  8
Visible Edges(ISO)
100
AcDbLine
 10
18.52962165086697
 20
98.20273786428302
 30
0.0
 11
18.4208080133537
 21
98.19064746011477
 31
0.0
  0
LINE
  5
397C
330
3906
100
AcDbEntity
  8
Visible Edges(ISO)
100
AcDbLine
 10
18.4208080133537
 20
98.19064746011477
 30
0.0
 11
18.32753918119962
 21
98.15955784939678
 31
0.0
  0
LINE
  5
397D
330
3906
100
AcDbEntity
  8
Visible Edges(ISO)
100
AcDbLine
 10
18.32753918119962
 20
98.15955784939678
 30
0.0
 11
18.21527114249593
 21
98.06974341843286
 31
0.0
  0
LINE
  5
397E
330
3906
100
AcDbEntity
  8
Visible Edges(ISO)
100
AcDbLine
 10
18.21527114249593
 20
98.06974341843286
 30
0.0
 11
18.15481912165487
 21
97.98511058925631
 31
0.0
  0
LINE
  5
397F
330
3906
100
AcDbEntity
  8
Visible Edges(ISO)
100
AcDbLine
 10
18.15481912165487
 20
97.98511058925631
 30
0.0
 11
18.0943671008138
 21
97.87629695174326
 31
0.0
  0
LINE
  5
3980
330
3906
100
AcDbEntity
  8
Visible Edges(ISO)
100
AcDbLine
 10
18.0943671008138
 20
97.87629695174326
 30
0.0
 11
18.07018629247759
 21
97.74330250589384
 31
0.0
  0
LINE
  5
3981
330
3906
100
AcDbEntity
  8
Visible Edges(ISO)
100
AcDbLine
 10
18.07018629247759
 20
97.74330250589384
 30
0.0
 11
18.05809588830951
 21
97.57403684754013
 31
0.0
  0
LINE
  5
3982
330
3906
100
AcDbEntity
  8
Visible Edges(ISO)
100
AcDbLine
 10
18.05809588830951
 20
97.57403684754013
 30
0.0
 11
18.05809588830934
 21
95.92974188067444
 31
0.0
  0
LINE
  5
3983
330
3906
100
AcDbEntity
  8
Visible Edges(ISO)
100
AcDbLine
 10
18.05809588830934
 20
95.92974188067444
 30
0.0
 11
18.07018629247747
 21
95.78465703065701
 31
0.0
  0
LINE
  5
3984
330
3906
100
AcDbEntity
  8
Visible Edges(ISO)
100
AcDbLine
 10
18.07018629247747
 20
95.78465703065701
 30
0.0
 11
18.09436710081368
 21
95.66375298897549
 31
0.0
  0
LINE
  5
3985
330
3906
100
AcDbEntity
  8
Visible Edges(ISO)
100
AcDbLine
 10
18.09436710081368
 20
95.66375298897549
 30
0.0
 11
18.15481912165407
 21
95.55493935146214
 31
0.0
  0
LINE
  5
3986
330
3906
100
AcDbEntity
  8
Visible Edges(ISO)
100
AcDbLine
 10
18.15481912165407
 20
95.55493935146214
 30
0.0
 11
18.22736154666287
 21
95.45821611811705
 31
0.0
  0
LINE
  5
3987
330
3906
100
AcDbEntity
  8
Visible Edges(ISO)
100
AcDbLine
 10
18.22736154666287
 20
95.45821611811705
 30
0.0
 11
18.32408478000789
 21
95.39776409727641
 31
0.0
  0
LINE
  5
3988
330
3906
100
AcDbEntity
  8
Visible Edges(ISO)
100
AcDbLine
 10
18.32408478000789
 20
95.39776409727641
 30
0.0
 11
18.4328984175215
 21
95.36149288477185
 31
0.0
  0
LINE
  5
3989
330
3906
100
AcDbEntity
  8
Visible Edges(ISO)
100
AcDbLine
 10
18.4328984175215
 20
95.36149288477185
 30
0.0
 11
18.56589286337058
 21
95.34940248060394
 31
0.0
  0
LINE
  5
398A
330
3906
100
AcDbEntity
  8
Visible Edges(ISO)
100
AcDbLine
 10
18.56589286337058
 20
95.34940248060394
 30
0.0
 11
18.68679690505198
 21
95.36149288477195
 31
0.0
  0
LINE
  5
398B
330
3906
100
AcDbEntity
  8
Visible Edges(ISO)
100
AcDbLine
 10
18.68679690505198
 20
95.36149288477195
 30
0.0
 11
18.75933933006072
 21
95.38567369310852
 31
0.0
  0
LINE
  5
398C
330
3906
100
AcDbEntity
  8
Visible Edges(ISO)
100
AcDbLine
 10
18.75933933006072
 20
95.38567369310852
 30
0.0
 11
18.83188175506959
 21
95.42194490561278
 31
0.0
  0
LINE
  5
398D
330
3906
100
AcDbEntity
  8
Visible Edges(ISO)
100
AcDbLine
 10
18.83188175506959
 20
95.42194490561278
 30
0.0
 11
18.90442418007805
 21
95.48239692645347
 31
0.0
  0
LINE
  5
398E
330
3906
100
AcDbEntity
  8
Visible Edges(ISO)
100
AcDbLine
 10
18.90442418007805
 20
95.48239692645347
 30
0.0
 11
18.96487620091889
 21
95.55493935146214
 31
0.0
  0
LINE
  5
398F
330
3906
100
AcDbEntity
  8
Visible Edges(ISO)
100
AcDbLine
 10
18.96487620091889
 20
95.55493935146214
 30
0.0
 11
19.01323781759137
 21
95.65166258480724
 31
0.0
  0
LINE
  5
3990
330
3906
100
AcDbEntity
  8
Visible Edges(ISO)
100
AcDbLine
 10
19.01323781759137
 20
95.65166258480724
 30
0.0
 11
19.04950903009617
 21
95.7725666264883
 31
0.0
  0
LINE
  5
3991
330
3906
100
AcDbEntity
  8
Visible Edges(ISO)
100
AcDbLine
 10
19.04950903009617
 20
95.7725666264883
 30
0.0
 11
19.06159943426407
 21
95.92974188067415
 31
0.0
  0
LINE
  5
3992
330
3906
100
AcDbEntity
  8
Visible Edges(ISO)
100
AcDbLine
 10
19.06159943426407
 20
95.92974188067415
 30
0.0
 11
19.06159943426419
 21
96.32872521822251
 31
0.0
  0
LINE
  5
3993
330
3906
100
AcDbEntity
  8
Visible Edges(ISO)
100
AcDbLine
 10
19.06159943426419
 20
96.32872521822251
 30
0.0
 11
20.82679844280969
 21
96.32872521822214
 31
0.0
  0
LINE
  5
3994
330
3906
100
AcDbEntity
  8
Visible Edges(ISO)
100
AcDbLine
 10
20.82679844280969
 20
96.32872521822214
 30
0.0
 11
20.82679844280992
 21
95.51866813895696
 31
0.0
  0
LINE
  5
3995
330
3906
100
AcDbEntity
  8
Visible Edges(ISO)
100
AcDbLine
 10
20.82679844280992
 20
95.51866813895696
 30
0.0
 11
20.8147080386415
 21
95.2889504597624
 31
0.0
  0
LINE
  5
3996
330
3906
100
AcDbEntity
  8
Visible Edges(ISO)
100
AcDbLine
 10
20.8147080386415
 20
95.2889504597624
 30
0.0
 11
20.7905272303054
 21
95.09550399307228
 31
0.0
  0
LINE
  5
3997
330
3906
100
AcDbEntity
  8
Visible Edges(ISO)
100
AcDbLine
 10
20.7905272303054
 20
95.09550399307228
 30
0.0
 11
20.73007520946474
 21
94.92623833471901
 31
0.0
  0
LINE
  5
3998
330
3906
100
AcDbEntity
  8
Visible Edges(ISO)
100
AcDbLine
 10
20.73007520946474
 20
94.92623833471901
 30
0.0
 11
20.65753278445598
 21
94.79324388886873
 31
0.0
  0
LINE
  5
3999
330
3906
100
AcDbEntity
  8
Visible Edges(ISO)
100
AcDbLine
 10
20.65753278445598
 20
94.79324388886873
 30
0.0
 11
20.57289995527887
 21
94.68443025135576
 31
0.0
  0
LINE
  5
399A
330
3906
100
AcDbEntity
  8
Visible Edges(ISO)
100
AcDbLine
 10
20.57289995527887
 20
94.68443025135576
 30
0.0
 11
20.47617672193368
 21
94.599797422179
 31
0.0
  0
LINE
  5
399B
330
3906
100
AcDbEntity
  8
Visible Edges(ISO)
100
AcDbLine
 10
20.47617672193368
 20
94.599797422179
 30
0.0
 11
20.3552726802528
 21
94.52725499717031
 31
0.0
  0
LINE
  5
399C
330
3906
100
AcDbEntity
  8
Visible Edges(ISO)
100
AcDbLine
 10
20.3552726802528
 20
94.52725499717031
 30
0.0
 11
20.23436863857128
 21
94.47889338049765
 31
0.0
  0
LINE
  5
399D
330
3906
100
AcDbEntity
  8
Visible Edges(ISO)
100
AcDbLine
 10
20.23436863857128
 20
94.47889338049765
 30
0.0
 11
20.10137419272203
 21
94.44262216799295
 31
0.0
  0
LINE
  5
399E
330
3906
100
AcDbEntity
  8
Visible Edges(ISO)
100
AcDbLine
 10
20.10137419272203
 20
94.44262216799295
 30
0.0
 11
19.95628934270402
 21
94.41844135965698
 31
0.0
  0
LINE
  5
399F
330
3906
100
AcDbEntity
  8
Visible Edges(ISO)
100
AcDbLine
 10
19.95628934270402
 20
94.41844135965698
 30
0.0
 11
19.81120449268647
 21
94.40635095548895
 31
0.0
  0
LINE
  5
39A0
330
3906
100
AcDbEntity
  8
Visible Edges(ISO)
100
AcDbLine
 10
19.81120449268647
 20
94.40635095548895
 30
0.0
 11
17.2964004257154
 21
94.40635095548895
 31
0.0
  0
LINE
  5
39A1
330
3906
100
AcDbEntity
  8
Visible Edges(ISO)
100
AcDbLine
 10
17.2964004257154
 20
94.40635095548895
 30
0.0
 11
17.12713476736158
 21
94.41844135965729
 31
0.0
  0
LINE
  5
39A2
330
3906
100
AcDbEntity
  8
Visible Edges(ISO)
100
AcDbLine
 10
17.12713476736158
 20
94.41844135965729
 30
0.0
 11
16.9578691090077
 21
94.43712652973482
 31
0.0
  0
LINE
  5
39A3
330
3906
100
AcDbEntity
  8
Visible Edges(ISO)
100
AcDbLine
 10
16.9578691090077
 20
94.43712652973482
 30
0.0
 11
16.6797898131409
 21
94.56352620967448
 31
0.0
  0
LINE
  5
39A4
330
3906
100
AcDbEntity
  8
Visible Edges(ISO)
100
AcDbLine
 10
16.6797898131409
 20
94.56352620967448
 30
0.0
 11
16.57097617562786
 21
94.66024944301969
 31
0.0
  0
LINE
  5
39A5
330
3906
100
AcDbEntity
  8
Visible Edges(ISO)
100
AcDbLine
 10
16.57097617562786
 20
94.66024944301969
 30
0.0
 11
16.4742529422829
 21
94.76906308053328
 31
0.0
  0
LINE
  5
39A6
330
3906
100
AcDbEntity
  8
Visible Edges(ISO)
100
AcDbLine
 10
16.4742529422829
 20
94.76906308053328
 30
0.0
 11
16.3896201131067
 21
94.90205752638287
 31
0.0
  0
LINE
  5
39A7
330
3906
100
AcDbEntity
  8
Visible Edges(ISO)
100
AcDbLine
 10
16.3896201131067
 20
94.90205752638287
 30
0.0
 11
16.34125849643388
 21
95.08341358890465
 31
0.0
  0
LINE
  5
39A8
330
3906
100
AcDbEntity
  8
Visible Edges(ISO)
100
AcDbLine
 10
16.34125849643388
 20
95.08341358890465
 30
0.0
 11
16.30498728392942
 21
95.27686005559496
 31
0.0
  0
LINE
  5
39A9
330
3906
100
AcDbEntity
  8
Visible Edges(ISO)
100
AcDbLine
 10
16.30498728392942
 20
95.27686005559496
 30
0.0
 11
16.29289687976151
 21
95.51866813895754
 31
0.0
  0
LINE
  5
39AA
330
3906
100
AcDbEntity
  8
Visible Edges(ISO)
100
AcDbLine
 10
16.29289687976151
 20
95.51866813895754
 30
0.0
 11
16.2928968797618
 21
98.03347220592884
 31
0.0
  0
LINE
  5
39AB
330
3906
100
AcDbEntity
  8
Visible Edges(ISO)
100
AcDbLine
 10
16.2928968797618
 20
98.03347220592884
 30
0.0
 11
16.30498728392959
 21
98.26318988512316
 31
0.0
  0
LINE
  5
39AC
330
3906
100
AcDbEntity
  8
Visible Edges(ISO)
100
AcDbLine
 10
16.30498728392959
 20
98.26318988512316
 30
0.0
 11
16.32916809226597
 21
98.45663635181336
 31
0.0
  0
LINE
  5
39AD
330
3906
100
AcDbEntity
  8
Visible Edges(ISO)
100
AcDbLine
 10
16.32916809226597
 20
98.45663635181336
 30
0.0
 11
16.38962011310698
 21
98.62590201016685
 31
0.0
  0
LINE
  5
39AE
330
3906
100
AcDbEntity
  8
Visible Edges(ISO)
100
AcDbLine
 10
16.38962011310698
 20
98.62590201016685
 30
0.0
 11
16.46216253811539
 21
98.75889645601645
 31
0.0
  0
LINE
  5
39AF
330
3906
100
AcDbEntity
  8
Visible Edges(ISO)
100
AcDbLine
 10
16.46216253811539
 20
98.75889645601645
 30
0.0
 11
16.62659203480231
 21
98.94387963978852
 31
0.0
  0
LINE
  5
39B0
330
3906
100
AcDbEntity
  8
Visible Edges(ISO)
100
AcDbLine
 10
16.62659203480231
 20
98.94387963978852
 30
0.0
 11
16.78860345065501
 21
99.02488534771549
 31
0.0
  0
LINE
  5
39B1
330
3906
100
AcDbEntity
  8
Visible Edges(ISO)
100
AcDbLine
 10
16.78860345065501
 20
99.02488534771549
 30
0.0
 11
16.93368830067291
 21
99.07324696438784
 31
0.0
  0
ARC
  5
39B2
330
3906
100
AcDbEntity
  8
Visible Edges(ISO)
100
AcDbCircle
 10
14.66828107269222
 20
98.21197564505856
 30
0.0
 40
0.8619522886306878
100
AcDbArc
 50
358.1947406808934
 51
97.04435690989583
  0
LINE
  5
39B3
330
3906
100
AcDbEntity
  8
Visible Edges(ISO)
100
AcDbLine
 10
15.52980555103008
 20
98.18482198783977
 30
0.0
 11
15.5418959551981
 21
97.96719471281349
 31
0.0
  0
LINE
  5
39B4
330
3906
100
AcDbEntity
  8
Visible Edges(ISO)
100
AcDbLine
 10
15.5418959551981
 20
97.96719471281349
 30
0.0
 11
15.5418959551981
 21
96.22617651260227
 31
0.0
  0
LINE
  5
39B5
330
3906
100
AcDbEntity
  8
Visible Edges(ISO)
100
AcDbLine
 10
15.5418959551981
 20
96.22617651260227
 30
0.0
 11
12.76110299652819
 21
96.22617651260227
 31
0.0
  0
LINE
  5
39B6
330
3906
100
AcDbEntity
  8
Visible Edges(ISO)
100
AcDbLine
 10
12.76110299652819
 20
96.22617651260227
 30
0.0
 11
12.77319340069621
 21
95.73046994170928
 31
0.0
  0
LINE
  5
39B7
330
3906
100
AcDbEntity
  8
Visible Edges(ISO)
100
AcDbLine
 10
12.77319340069621
 20
95.73046994170928
 30
0.0
 11
12.82155501736858
 21
95.53702347501877
 31
0.0
  0
LINE
  5
39B8
330
3906
100
AcDbEntity
  8
Visible Edges(ISO)
100
AcDbLine
 10
12.82155501736858
 20
95.53702347501877
 30
0.0
 11
12.86991663404151
 21
95.45239064584228
 31
0.0
  0
LINE
  5
39B9
330
3906
100
AcDbEntity
  8
Visible Edges(ISO)
100
AcDbLine
 10
12.86991663404151
 20
95.45239064584228
 30
0.0
 11
12.93036865488202
 21
95.379848220833
 31
0.0
  0
LINE
  5
39BA
330
3906
100
AcDbEntity
  8
Visible Edges(ISO)
100
AcDbLine
 10
12.93036865488202
 20
95.379848220833
 30
0.0
 11
13.02709188822709
 21
95.31939619999253
 31
0.0
  0
LINE
  5
39BB
330
3906
100
AcDbEntity
  8
Visible Edges(ISO)
100
AcDbLine
 10
13.02709188822709
 20
95.31939619999253
 30
0.0
 11
13.13590552574024
 21
95.28312498748801
 31
0.0
  0
LINE
  5
39BC
330
3906
100
AcDbEntity
  8
Visible Edges(ISO)
100
AcDbLine
 10
13.13590552574024
 20
95.28312498748801
 30
0.0
 11
13.26889997158977
 21
95.27103458332005
 31
0.0
  0
LINE
  5
39BD
330
3906
100
AcDbEntity
  8
Visible Edges(ISO)
100
AcDbLine
 10
13.26889997158977
 20
95.27103458332005
 30
0.0
 11
13.35353280076631
 21
95.28312498748801
 31
0.0
  0
LINE
  5
39BE
330
3906
100
AcDbEntity
  8
Visible Edges(ISO)
100
AcDbLine
 10
13.35353280076631
 20
95.28312498748801
 30
0.0
 11
13.4260752257754
 21
95.29521539165656
 31
0.0
  0
LINE
  5
39BF
330
3906
100
AcDbEntity
  8
Visible Edges(ISO)
100
AcDbLine
 10
13.4260752257754
 20
95.29521539165656
 30
0.0
 11
13.51070805495229
 21
95.33148660416085
 31
0.0
  0
LINE
  5
39C0
330
3906
100
AcDbEntity
  8
Visible Edges(ISO)
100
AcDbLine
 10
13.51070805495229
 20
95.33148660416085
 30
0.0
 11
13.58325047996098
 21
95.379848220833
 31
0.0
  0
LINE
  5
39C1
330
3906
100
AcDbEntity
  8
Visible Edges(ISO)
100
AcDbLine
 10
13.58325047996098
 20
95.379848220833
 30
0.0
 11
13.6557929049699
 21
95.44030024167415
 31
0.0
  0
LINE
  5
39C2
330
3906
100
AcDbEntity
  8
Visible Edges(ISO)
100
AcDbLine
 10
13.6557929049699
 20
95.44030024167415
 30
0.0
 11
13.71624492581029
 21
95.52493307085086
 31
0.0
  0
LINE
  5
39C3
330
3906
100
AcDbEntity
  8
Visible Edges(ISO)
100
AcDbLine
 10
13.71624492581029
 20
95.52493307085086
 30
0.0
 11
13.76460654248311
 21
95.63374670836385
 31
0.0
  0
LINE
  5
39C4
330
3906
100
AcDbEntity
  8
Visible Edges(ISO)
100
AcDbLine
 10
13.76460654248311
 20
95.63374670836385
 30
0.0
 11
13.77669694665124
 21
95.77883155838163
 31
0.0
  0
LINE
  5
39C5
330
3906
100
AcDbEntity
  8
Visible Edges(ISO)
100
AcDbLine
 10
13.77669694665124
 20
95.77883155838163
 30
0.0
 11
15.5418959551981
 21
95.77883155838163
 31
0.0
  0
LINE
  5
39C6
330
3906
100
AcDbEntity
  8
Visible Edges(ISO)
100
AcDbLine
 10
15.5418959551981
 20
95.77883155838163
 30
0.0
 11
15.5418959551981
 21
95.42820983750564
 31
0.0
  0
LINE
  5
39C7
330
3906
100
AcDbEntity
  8
Visible Edges(ISO)
100
AcDbLine
 10
15.5418959551981
 20
95.42820983750564
 30
0.0
 11
15.52980555103008
 21
95.19849215831134
 31
0.0
  0
LINE
  5
39C8
330
3906
100
AcDbEntity
  8
Visible Edges(ISO)
100
AcDbLine
 10
15.52980555103008
 20
95.19849215831134
 30
0.0
 11
15.49353433852573
 21
94.992955287453
 31
0.0
  0
LINE
  5
39C9
330
3906
100
AcDbEntity
  8
Visible Edges(ISO)
100
AcDbLine
 10
15.49353433852573
 20
94.992955287453
 30
0.0
 11
15.433082317685
 21
94.81159922493112
 31
0.0
  0
LINE
  5
39CA
330
3906
100
AcDbEntity
  8
Visible Edges(ISO)
100
AcDbLine
 10
15.433082317685
 20
94.81159922493112
 30
0.0
 11
15.34844948850778
 21
94.66651437491369
 31
0.0
  0
LINE
  5
39CB
330
3906
100
AcDbEntity
  8
Visible Edges(ISO)
100
AcDbLine
 10
15.34844948850778
 20
94.66651437491369
 30
0.0
 11
15.15500302181797
 21
94.47306790822313
 31
0.0
  0
LINE
  5
39CC
330
3906
100
AcDbEntity
  8
Visible Edges(ISO)
100
AcDbLine
 10
15.15500302181797
 20
94.47306790822313
 30
0.0
 11
15.02782988167897
 21
94.4229151205632
 31
0.0
  0
LINE
  5
39CD
330
3906
100
AcDbEntity
  8
Visible Edges(ISO)
100
AcDbLine
 10
15.02782988167897
 20
94.4229151205632
 30
0.0
 11
14.94946615095997
 21
94.40052548321478
 31
0.0
  0
LINE
  5
39CE
330
3906
100
AcDbEntity
  8
Visible Edges(ISO)
100
AcDbLine
 10
14.94946615095997
 20
94.40052548321478
 30
0.0
 11
14.87087852386693
 21
94.36425427071005
 31
0.0
  0
LINE
  5
39CF
330
3906
100
AcDbEntity
  8
Visible Edges(ISO)
100
AcDbLine
 10
14.87087852386693
 20
94.36425427071005
 30
0.0
 11
14.59884443008323
 21
94.32798305820638
 31
0.0
  0
LINE
  5
39D0
330
3906
100
AcDbEntity
  8
Visible Edges(ISO)
100
AcDbLine
 10
14.59884443008323
 20
94.32798305820638
 30
0.0
 11
11.98731712976777
 21
94.32798305820012
 31
0.0
  0
LINE
  5
39D1
330
3906
100
AcDbEntity
  8
Visible Edges(ISO)
100
AcDbLine
 10
11.98731712976777
 20
94.32798305820012
 30
0.0
 11
11.81805147141389
 21
94.34007346237399
 31
0.0
  0
LINE
  5
39D2
330
3906
100
AcDbEntity
  8
Visible Edges(ISO)
100
AcDbLine
 10
11.81805147141389
 20
94.34007346237399
 30
0.0
 11
11.67296662139651
 21
94.37634467487827
 31
0.0
  0
LINE
  5
39D3
330
3906
100
AcDbEntity
  8
Visible Edges(ISO)
100
AcDbLine
 10
11.67296662139651
 20
94.37634467487827
 30
0.0
 11
11.52788177137901
 21
94.42470629155106
 31
0.0
  0
LINE
  5
39D4
330
3906
100
AcDbEntity
  8
Visible Edges(ISO)
100
AcDbLine
 10
11.52788177137901
 20
94.42470629155106
 30
0.0
 11
11.39488732552937
 21
94.48515831239154
 31
0.0
  0
LINE
  5
39D5
330
3906
100
AcDbEntity
  8
Visible Edges(ISO)
100
AcDbLine
 10
11.39488732552937
 20
94.48515831239154
 30
0.0
 11
11.28607368801638
 21
94.56979114156849
 31
0.0
  0
LINE
  5
39D6
330
3906
100
AcDbEntity
  8
Visible Edges(ISO)
100
AcDbLine
 10
11.28607368801638
 20
94.56979114156849
 30
0.0
 11
11.1893504546712
 21
94.69069518324992
 31
0.0
  0
LINE
  5
39D7
330
3906
100
AcDbEntity
  8
Visible Edges(ISO)
100
AcDbLine
 10
11.1893504546712
 20
94.69069518324992
 30
0.0
 11
11.10471762549443
 21
94.82368962909923
 31
0.0
  0
LINE
  5
39D8
330
3906
100
AcDbEntity
  8
Visible Edges(ISO)
100
AcDbLine
 10
11.10471762549443
 20
94.82368962909923
 30
0.0
 11
11.04426560465347
 21
94.992955287453
 31
0.0
  0
LINE
  5
39D9
330
3906
100
AcDbEntity
  8
Visible Edges(ISO)
100
AcDbLine
 10
11.04426560465347
 20
94.992955287453
 30
0.0
 11
11.0079943921493
 21
95.19849215831134
 31
0.0
  0
LINE
  5
39DA
330
3906
100
AcDbEntity
  8
Visible Edges(ISO)
100
AcDbLine
 10
11.0079943921493
 20
95.19849215831134
 30
0.0
 11
10.99590398798122
 21
95.44030024167415
 31
0.0
  0
LINE
  5
39DB
330
3906
100
AcDbEntity
  8
Visible Edges(ISO)
100
AcDbLine
 10
10.99590398798122
 20
95.44030024167415
 30
0.0
 11
10.99590398798122
 21
97.96719471281349
 31
0.0
  0
LINE
  5
39DC
330
3906
100
AcDbEntity
  8
Visible Edges(ISO)
100
AcDbLine
 10
10.99590398798122
 20
97.96719471281349
 30
0.0
 11
11.0079943921493
 21
98.20900279617616
 31
0.0
  0
LINE
  5
39DD
330
3906
100
AcDbEntity
  8
Visible Edges(ISO)
100
AcDbLine
 10
11.0079943921493
 20
98.20900279617616
 30
0.0
 11
11.05635600882172
 21
98.41453966703392
 31
0.0
  0
LINE
  5
39DE
330
3906
100
AcDbEntity
  8
Visible Edges(ISO)
100
AcDbLine
 10
11.05635600882172
 20
98.41453966703392
 30
0.0
 11
11.11680802966256
 21
98.58380532538781
 31
0.0
  0
LINE
  5
39DF
330
3906
100
AcDbEntity
  8
Visible Edges(ISO)
100
AcDbLine
 10
11.11680802966256
 20
98.58380532538781
 30
0.0
 11
11.21353126300729
 21
98.72889017540565
 31
0.0
  0
LINE
  5
39E0
330
3906
100
AcDbEntity
  8
Visible Edges(ISO)
100
AcDbLine
 10
11.21353126300729
 20
98.72889017540565
 30
0.0
 11
11.32234490052056
 21
98.83770381291851
 31
0.0
  0
LINE
  5
39E1
330
3906
100
AcDbEntity
  8
Visible Edges(ISO)
100
AcDbLine
 10
11.32234490052056
 20
98.83770381291851
 30
0.0
 11
11.45533934636987
 21
98.93442704626378
 31
0.0
  0
LINE
  5
39E2
330
3906
100
AcDbEntity
  8
Visible Edges(ISO)
100
AcDbLine
 10
11.45533934636987
 20
98.93442704626378
 30
0.0
 11
11.62460500472374
 21
98.99487906710449
 31
0.0
  0
LINE
  5
39E3
330
3906
100
AcDbEntity
  8
Visible Edges(ISO)
100
AcDbLine
 10
11.62460500472374
 20
98.99487906710449
 30
0.0
 11
11.80596106724582
 21
99.04324068377702
 31
0.0
  0
LINE
  5
39E4
330
3906
100
AcDbEntity
  8
Visible Edges(ISO)
100
AcDbLine
 10
11.80596106724582
 20
99.04324068377702
 30
0.0
 11
12.0114979381041
 21
99.067421492113
 31
0.0
  0
LINE
  5
39E5
330
3906
100
AcDbEntity
  8
Visible Edges(ISO)
100
AcDbLine
 10
12.0114979381041
 20
99.067421492113
 30
0.0
 11
14.56257321757974
 21
99.06742149211313
 31
0.0
  0
ARC
  5
39E6
330
3906
100
AcDbEntity
  8
Visible Edges(ISO)
100
AcDbCircle
 10
-21.06827706098753
 20
97.46475330244216
 30
0.0
 40
3.627415145385235
100
AcDbArc
 50
269.9597524121096
 51
89.96091526404075
  0
LINE
  5
39E7
330
3906
100
AcDbEntity
  8
Visible Edges(ISO)
100
AcDbLine
 10
-21.07082514915359
 20
93.83733905201296
 30
0.0
 11
-21.06580259334993
 21
101.0921676038391
 31
0.0
  0
ARC
  5
39E8
330
3906
100
AcDbEntity
  8
Visible Edges(ISO)
100
AcDbCircle
 10
-2.178177583943294
 20
98.21036121744185
 30
0.0
 40
0.9358665766880324
100
AcDbArc
 50
87.92220705470176
 51
190.1532141872611
  0
LINE
  5
39E9
330
3906
100
AcDbEntity
  8
Visible Edges(ISO)
100
AcDbLine
 10
-2.144246449665104
 20
99.14561248180262
 30
0.0
 11
0.5156424673236018
 21
99.14561248180227
 31
0.0
  0
ARC
  5
39EA
330
3906
100
AcDbEntity
  8
Visible Edges(ISO)
100
AcDbCircle
 10
0.5684001216563958
 20
98.28108615484376
 30
0.0
 40
0.8661345969854195
100
AcDbArc
 50
0.4040300223595383
 51
93.49213999072508
  0
LINE
  5
39EB
330
3906
100
AcDbEntity
  8
Visible Edges(ISO)
100
AcDbLine
 10
1.434513184101716
 20
98.28719378586578
 30
0.0
 11
1.434513184101489
 21
95.28877355216884
 31
0.0
  0
ARC
  5
39EC
330
3906
100
AcDbEntity
  8
Visible Edges(ISO)
100
AcDbCircle
 10
0.5442173652804172
 20
95.3241126850566
 30
0.0
 40
0.8909969131953426
100
AcDbArc
 50
278.2986630296806
 51
357.7269119786939
  0
ARC
  5
39ED
330
3906
100
AcDbEntity
  8
Visible Edges(ISO)
100
AcDbCircle
 10
1.02354331560508
 20
92.037915907795
 30
0.0
 40
2.429973219994518
100
AcDbArc
 50
98.29866302967895
 51
102.940647522622
  0
LINE
  5
39EE
330
3906
100
AcDbEntity
  8
Visible Edges(ISO)
100
AcDbLine
 10
0.4793712548190854
 20
94.40617404789517
 30
0.0
 11
-1.92661917463718
 21
94.40617404789504
 31
0.0
  0
LINE
  5
39EF
330
3906
100
AcDbEntity
  8
Visible Edges(ISO)
100
AcDbLine
 10
-1.92661917463718
 20
94.40617404789504
 30
0.0
 11
-2.228879278841787
 21
94.41826445206327
 31
0.0
  0
ARC
  5
39F0
330
3906
100
AcDbEntity
  8
Visible Edges(ISO)
100
AcDbCircle
 10
-2.220631164134118
 20
95.27775898904929
 30
0.0
 40
0.8595341124731955
100
AcDbArc
 50
191.4304844914643
 51
269.4501795705428
  0
LINE
  5
39F1
330
3906
100
AcDbEntity
  8
Visible Edges(ISO)
100
AcDbLine
 10
-3.063117166442991
 20
95.10741748964701
 30
0.0
 11
-3.087297974779288
 21
95.30086395633672
 31
0.0
  0
LINE
  5
39F2
330
3906
100
AcDbEntity
  8
Visible Edges(ISO)
100
AcDbLine
 10
-3.087297974779288
 20
95.30086395633672
 30
0.0
 11
-3.099388378947508
 21
98.04538570250251
 31
0.0
  0
ARC
  5
39F3
330
3906
100
AcDbEntity
  8
Visible Edges(ISO)
100
AcDbCircle
 10
-0.4697254723795937
 20
95.50035562511112
 30
0.0
 40
3.422086329507725
100
AcDbArc
 50
185.9825169258617
 51
197.7947991534069
  0
LINE
  5
39F4
330
3906
100
AcDbEntity
  8
Visible Edges(ISO)
100
AcDbLine
 10
-3.728089395690203
 20
94.45453566456745
 30
0.0
 11
-5.51746921257353
 21
94.45453566456745
 31
0.0
  0
LINE
  5
39F5
330
3906
100
AcDbEntity
  8
Visible Edges(ISO)
100
AcDbLine
 10
-5.51746921257353
 20
94.45453566456745
 30
0.0
 11
-5.553740425077676
 21
94.58753011041713
 31
0.0
  0
LINE
  5
39F6
330
3906
100
AcDbEntity
  8
Visible Edges(ISO)
100
AcDbLine
 10
-5.553740425077676
 20
94.58753011041713
 30
0.0
 11
-5.626282850086481
 21
95.13159829798315
 31
0.0
  0
LINE
  5
39F7
330
3906
100
AcDbEntity
  8
Visible Edges(ISO)
100
AcDbLine
 10
-5.626282850086481
 20
95.13159829798315
 30
0.0
 11
-5.650463658422778
 21
95.55476244386904
 31
0.0
  0
LINE
  5
39F8
330
3906
100
AcDbEntity
  8
Visible Edges(ISO)
100
AcDbLine
 10
-5.650463658422778
 20
95.55476244386904
 30
0.0
 11
-5.698825275095599
 21
96.29227709812337
 31
0.0
  0
ARC
  5
39F9
330
3906
100
AcDbEntity
  8
Visible Edges(ISO)
100
AcDbCircle
 10
-6.317889880595402
 20
96.16772199379729
 30
0.0
 40
0.631470474207853
100
AcDbArc
 50
11.37596594782512
 51
100.8114800752786
  0
LINE
  5
39FA
330
3906
100
AcDbEntity
  8
Visible Edges(ISO)
100
AcDbLine
 10
-6.436339929351388
 20
96.78798366901681
 30
0.0
 11
-6.835323266899677
 21
96.78798366901681
 31
0.0
  0
LINE
  5
39FB
330
3906
100
AcDbEntity
  8
Visible Edges(ISO)
100
AcDbLine
 10
-6.835323266899677
 20
96.78798366901681
 30
0.0
 11
-6.835323266899677
 21
94.45453566456745
 31
0.0
  0
LINE
  5
39FC
330
3906
100
AcDbEntity
  8
Visible Edges(ISO)
100
AcDbLine
 10
-6.835323266899677
 20
94.45453566456745
 30
0.0
 11
-8.600522275446904
 21
94.45453566456745
 31
0.0
  0
LINE
  5
39FD
330
3906
100
AcDbEntity
  8
Visible Edges(ISO)
100
AcDbLine
 10
-8.600522275446904
 20
94.45453566456745
 30
0.0
 11
-8.600522275446904
 21
100.2821104736068
 31
0.0
  0
LINE
  5
39FE
330
3906
100
AcDbEntity
  8
Visible Edges(ISO)
100
AcDbLine
 10
-8.600522275446904
 20
100.2821104736068
 30
0.0
 11
-5.360293958387926
 21
100.2821104736068
 31
0.0
  0
LINE
  5
39FF
330
3906
100
AcDbEntity
  8
Visible Edges(ISO)
100
AcDbLine
 10
-5.360293958387926
 20
100.2821104736068
 30
0.0
 11
-5.142666683361794
 21
100.2700200694382
 31
0.0
  0
ARC
  5
3A00
330
3906
100
AcDbEntity
  8
Visible Edges(ISO)
100
AcDbCircle
 10
-5.185424425310684
 20
98.24728162263177
 30
0.0
 40
2.023190314499685
100
AcDbArc
 50
77.38851466568009
 51
88.78903109629158
  0
ARC
  5
3A01
330
3906
100
AcDbEntity
  8
Visible Edges(ISO)
100
AcDbCircle
 10
-4.97623498042958
 20
99.18226098554681
 30
0.0
 40
1.065094999342248
100
AcDbArc
 50
30.69463155046034
 51
77.38851466567497
  0
ARC
  5
3A02
330
3906
100
AcDbEntity
  8
Visible Edges(ISO)
100
AcDbCircle
 10
-6.264877696608293
 20
98.82403794963574
 30
0.0
 40
2.381879180179923
100
AcDbArc
 50
348.1656515276995
 51
22.25048533843018
  0
ARC
  5
3A03
330
3906
100
AcDbEntity
  8
Visible Edges(ISO)
100
AcDbCircle
 10
-5.018719718354191
 20
98.43841596565397
 30
0.0
 40
1.08995784074233
100
AcDbArc
 50
276.8474460233893
 51
354.5848738675462
  0
ARC
  5
3A04
330
3906
100
AcDbEntity
  8
Visible Edges(ISO)
100
AcDbCircle
 10
-5.00261543911148
 20
96.27988199626951
 30
0.0
 40
1.082354820151399
100
AcDbArc
 50
9.013547133534988
 51
83.96218792413938
  0
LINE
  5
3A05
330
3906
100
AcDbEntity
  8
Visible Edges(ISO)
100
AcDbLine
 10
-3.933626266548201
 20
96.44945235230931
 30
0.0
 11
-3.897355054043998
 21
96.00210739808829
 31
0.0
  0
LINE
  5
3A06
330
3906
100
AcDbEntity
  8
Visible Edges(ISO)
100
AcDbLine
 10
-3.897355054043998
 20
96.00210739808829
 30
0.0
 11
-3.873174245707899
 21
95.14368870215113
 31
0.0
  0
LINE
  5
3A07
330
3906
100
AcDbEntity
  8
Visible Edges(ISO)
100
AcDbLine
 10
-15.4807629560307
 20
102.6634313912383
 30
0.0
 11
-11.5143096799662
 21
102.6634313912383
 31
0.0
  0
LINE
  5
3A08
330
3906
100
AcDbEntity
  8
Visible Edges(ISO)
100
AcDbLine
 10
-11.5143096799662
 20
102.6634313912383
 30
0.0
 11
-11.5143096799662
 21
92.26568380664593
 31
0.0
  0
LINE
  5
3A09
330
3906
100
AcDbEntity
  8
Visible Edges(ISO)
100
AcDbLine
 10
-11.5143096799662
 20
92.26568380664593
 30
0.0
 11
-15.4802213194452
 21
92.26568380664604
 31
0.0
  0
ARC
  5
3A0A
330
3906
100
AcDbEntity
  8
Visible Edges(ISO)
100
AcDbCircle
 10
-21.07082514915359
 20
97.46426638886427
 30
0.0
 40
7.634141212008914
100
AcDbArc
 50
317.0809063324233
 51
42.9250629393057
  0
LINE
  5
3A0B
330
3906
100
AcDbEntity
  8
Visible Edges(ISO)
100
AcDbLine
 10
13.36774209804648
 20
98.19047055252005
 30
0.0
 11
13.25892846053333
 21
98.20256095668829
 31
0.0
  0
LINE
  5
3A0C
330
3906
100
AcDbEntity
  8
Visible Edges(ISO)
100
AcDbLine
 10
13.25892846053333
 20
98.20256095668829
 30
0.0
 11
13.13802441885181
 21
98.19047055252005
 31
0.0
  0
LINE
  5
3A0D
330
3906
100
AcDbEntity
  8
Visible Edges(ISO)
100
AcDbLine
 10
13.13802441885181
 20
98.19047055252005
 30
0.0
 11
13.04130118550657
 21
98.1541993400158
 31
0.0
  0
LINE
  5
3A0E
330
3906
100
AcDbEntity
  8
Visible Edges(ISO)
100
AcDbLine
 10
13.04130118550657
 20
98.1541993400158
 30
0.0
 11
12.94457795216161
 21
98.08165691500686
 31
0.0
  0
LINE
  5
3A0F
330
3906
100
AcDbEntity
  8
Visible Edges(ISO)
100
AcDbLine
 10
12.94457795216161
 20
98.08165691500686
 30
0.0
 11
12.8720355271536
 21
98.00911448999835
 31
0.0
  0
LINE
  5
3A10
330
3906
100
AcDbEntity
  8
Visible Edges(ISO)
100
AcDbLine
 10
12.8720355271536
 20
98.00911448999835
 30
0.0
 11
12.81158350631219
 21
97.90030085248496
 31
0.0
  0
LINE
  5
3A11
330
3906
100
AcDbEntity
  8
Visible Edges(ISO)
100
AcDbLine
 10
12.81158350631219
 20
97.90030085248496
 30
0.0
 11
12.77531229380801
 21
97.77939681080368
 31
0.0
  0
LINE
  5
3A12
330
3906
100
AcDbEntity
  8
Visible Edges(ISO)
100
AcDbLine
 10
12.77531229380801
 20
97.77939681080368
 30
0.0
 11
12.76322188963982
 21
97.63431196078624
 31
0.0
  0
LINE
  5
3A13
330
3906
100
AcDbEntity
  8
Visible Edges(ISO)
100
AcDbLine
 10
12.76322188963982
 20
97.63431196078624
 30
0.0
 11
12.76322188963982
 21
97.24741902740596
 31
0.0
  0
LINE
  5
3A14
330
3906
100
AcDbEntity
  8
Visible Edges(ISO)
100
AcDbLine
 10
12.76322188963982
 20
97.24741902740596
 30
0.0
 11
13.77881583976247
 21
97.24741902740596
 31
0.0
  0
LINE
  5
3A15
330
3906
100
AcDbEntity
  8
Visible Edges(ISO)
100
AcDbLine
 10
13.77881583976247
 20
97.24741902740596
 30
0.0
 11
13.77881583976247
 21
97.56176953577648
 31
0.0
  0
LINE
  5
3A16
330
3906
100
AcDbEntity
  8
Visible Edges(ISO)
100
AcDbLine
 10
13.77881583976247
 20
97.56176953577648
 30
0.0
 11
13.76672543559388
 21
97.71894478996699
 31
0.0
  0
LINE
  5
3A17
330
3906
100
AcDbEntity
  8
Visible Edges(ISO)
100
AcDbLine
 10
13.76672543559388
 20
97.71894478996699
 30
0.0
 11
13.74254462725847
 21
97.85193923581232
 31
0.0
  0
LINE
  5
3A18
330
3906
100
AcDbEntity
  8
Visible Edges(ISO)
100
AcDbLine
 10
13.74254462725847
 20
97.85193923581232
 30
0.0
 11
13.69418301058593
 21
97.96075287332541
 31
0.0
  0
LINE
  5
3A19
330
3906
100
AcDbEntity
  8
Visible Edges(ISO)
100
AcDbLine
 10
13.69418301058593
 20
97.96075287332541
 30
0.0
 11
13.63373098974532
 21
98.05747610667047
 31
0.0
  0
LINE
  5
3A1A
330
3906
100
AcDbEntity
  8
Visible Edges(ISO)
100
AcDbLine
 10
13.63373098974532
 20
98.05747610667047
 30
0.0
 11
13.5490981605682
 21
98.117928127511
 31
0.0
  0
LINE
  5
3A1B
330
3906
100
AcDbEntity
  8
Visible Edges(ISO)
100
AcDbLine
 10
13.5490981605682
 20
98.117928127511
 30
0.0
 11
13.46446533139121
 21
98.16628974418382
 31
0.0
  0
LINE
  5
3A1C
330
3906
100
AcDbEntity
  8
Visible Edges(ISO)
100
AcDbLine
 10
13.46446533139121
 20
98.16628974418382
 30
0.0
 11
13.36774209804648
 21
98.19047055252005
 31
0.0
  0
LINE
  5
3A1D
330
3906
100
AcDbEntity
  8
Visible Edges(ISO)
100
AcDbLine
 10
-0.3306858244469311
 20
97.79148721497131
 30
0.0
 11
-0.3790474411173079
 21
97.96075287332554
 31
0.0
  0
LINE
  5
3A1E
330
3906
100
AcDbEntity
  8
Visible Edges(ISO)
100
AcDbLine
 10
-0.3790474411173079
 20
97.96075287332554
 30
0.0
 11
-0.4274090577906124
 21
98.03329529833453
 31
0.0
  0
LINE
  5
3A1F
330
3906
100
AcDbEntity
  8
Visible Edges(ISO)
100
AcDbLine
 10
-0.4274090577906124
 20
98.03329529833453
 30
0.0
 11
-0.4878610786311697
 21
98.10583772334304
 31
0.0
  0
LINE
  5
3A20
330
3906
100
AcDbEntity
  8
Visible Edges(ISO)
100
AcDbLine
 10
-0.4878610786311697
 20
98.10583772334304
 30
0.0
 11
-0.5845843119763005
 21
98.16628974418351
 31
0.0
  0
LINE
  5
3A21
330
3906
100
AcDbEntity
  8
Visible Edges(ISO)
100
AcDbLine
 10
-0.5845843119763005
 20
98.16628974418351
 30
0.0
 11
-0.6933979494895937
 21
98.20256095668829
 31
0.0
  0
LINE
  5
3A22
330
3906
100
AcDbEntity
  8
Visible Edges(ISO)
100
AcDbLine
 10
-0.6933979494895937
 20
98.20256095668829
 30
0.0
 11
-0.9593868411885182
 21
98.20256095668829
 31
0.0
  0
LINE
  5
3A23
330
3906
100
AcDbEntity
  8
Visible Edges(ISO)
100
AcDbLine
 10
-0.9593868411885182
 20
98.20256095668829
 30
0.0
 11
-1.080290882869603
 21
98.16628974418351
 31
0.0
  0
LINE
  5
3A24
330
3906
100
AcDbEntity
  8
Visible Edges(ISO)
100
AcDbLine
 10
-1.080290882869603
 20
98.16628974418351
 30
0.0
 11
-1.164923712046514
 21
98.10583772334304
 31
0.0
  0
LINE
  5
3A25
330
3906
100
AcDbEntity
  8
Visible Edges(ISO)
100
AcDbLine
 10
-1.164923712046514
 20
98.10583772334304
 30
0.0
 11
-1.225375732887215
 21
98.03329529833453
 31
0.0
  0
LINE
  5
3A26
330
3906
100
AcDbEntity
  8
Visible Edges(ISO)
100
AcDbLine
 10
-1.225375732887215
 20
98.03329529833453
 30
0.0
 11
-1.297918157895793
 21
97.87612004414848
 31
0.0
  0
LINE
  5
3A27
330
3906
100
AcDbEntity
  8
Visible Edges(ISO)
100
AcDbLine
 10
-1.297918157895793
 20
97.87612004414848
 30
0.0
 11
-1.334189370400394
 21
97.7189447899628
 31
0.0
  0
LINE
  5
3A28
330
3906
100
AcDbEntity
  8
Visible Edges(ISO)
100
AcDbLine
 10
-1.334189370400394
 20
97.7189447899628
 30
0.0
 11
-1.334189370400394
 21
95.80866093139826
 31
0.0
  0
LINE
  5
3A29
330
3906
100
AcDbEntity
  8
Visible Edges(ISO)
100
AcDbLine
 10
-1.334189370400394
 20
95.80866093139826
 30
0.0
 11
-1.297918157895793
 21
95.65148567721264
 31
0.0
  0
LINE
  5
3A2A
330
3906
100
AcDbEntity
  8
Visible Edges(ISO)
100
AcDbLine
 10
-1.297918157895793
 20
95.65148567721264
 30
0.0
 11
-1.255601743307436
 21
95.52453643344728
 31
0.0
  0
LINE
  5
3A2B
330
3906
100
AcDbEntity
  8
Visible Edges(ISO)
100
AcDbLine
 10
-1.255601743307436
 20
95.52453643344728
 30
0.0
 11
-1.164923712046514
 21
95.43385840218631
 31
0.0
  0
LINE
  5
3A2C
330
3906
100
AcDbEntity
  8
Visible Edges(ISO)
100
AcDbLine
 10
-1.164923712046514
 20
95.43385840218631
 30
0.0
 11
-0.9593868411899959
 21
95.36131597717782
 31
0.0
  0
LINE
  5
3A2D
330
3906
100
AcDbEntity
  8
Visible Edges(ISO)
100
AcDbLine
 10
-0.9593868411899959
 20
95.36131597717782
 30
0.0
 11
-0.8263923953364269
 21
95.3492255730095
 31
0.0
  0
LINE
  5
3A2E
330
3906
100
AcDbEntity
  8
Visible Edges(ISO)
100
AcDbLine
 10
-0.8263923953364269
 20
95.3492255730095
 30
0.0
 11
-0.6933979494895937
 21
95.36131597717725
 31
0.0
  0
LINE
  5
3A2F
330
3906
100
AcDbEntity
  8
Visible Edges(ISO)
100
AcDbLine
 10
-0.6933979494895937
 20
95.36131597717725
 30
0.0
 11
-0.5845843119763005
 21
95.39758718968192
 31
0.0
  0
LINE
  5
3A30
330
3906
100
AcDbEntity
  8
Visible Edges(ISO)
100
AcDbLine
 10
-0.5845843119763005
 20
95.39758718968192
 30
0.0
 11
-0.4878610786311697
 21
95.43385840218631
 31
0.0
  0
LINE
  5
3A31
330
3906
100
AcDbEntity
  8
Visible Edges(ISO)
100
AcDbLine
 10
-0.4878610786311697
 20
95.43385840218631
 30
0.0
 11
-0.3790474411177911
 21
95.56685284803563
 31
0.0
  0
LINE
  5
3A32
330
3906
100
AcDbEntity
  8
Visible Edges(ISO)
100
AcDbLine
 10
-0.3790474411177911
 20
95.56685284803563
 30
0.0
 11
-0.3548666327818069
 21
95.65148567721264
 31
0.0
  0
LINE
  5
3A33
330
3906
100
AcDbEntity
  8
Visible Edges(ISO)
100
AcDbLine
 10
-0.3548666327818069
 20
95.65148567721264
 30
0.0
 11
-0.33068582444551
 21
95.72402810222127
 31
0.0
  0
LINE
  5
3A34
330
3906
100
AcDbEntity
  8
Visible Edges(ISO)
100
AcDbLine
 10
-0.33068582444551
 20
95.72402810222127
 30
0.0
 11
-0.3185954202774042
 21
95.80866093139826
 31
0.0
  0
LINE
  5
3A35
330
3906
100
AcDbEntity
  8
Visible Edges(ISO)
100
AcDbLine
 10
-0.3185954202774042
 20
95.80866093139826
 30
0.0
 11
-0.3185954202774042
 21
97.59804074828116
 31
0.0
  0
LINE
  5
3A36
330
3906
100
AcDbEntity
  8
Visible Edges(ISO)
100
AcDbLine
 10
-0.3185954202774042
 20
97.59804074828116
 30
0.0
 11
-0.3306858244469311
 21
97.79148721497131
 31
0.0
  0
ARC
  5
3A37
330
3906
100
AcDbEntity
  8
Visible Edges(ISO)
100
AcDbCircle
 10
-6.206622250157182
 20
98.52295666714347
 30
0.0
 40
0.5704633990470118
100
AcDbArc
 50
332.8918771288147
 51
27.10812287103161
  0
ARC
  5
3A38
330
3906
100
AcDbEntity
  8
Visible Edges(ISO)
100
AcDbCircle
 10
-6.145325283663197
 20
98.55433487618237
 30
0.0
 40
0.5016018705724306
100
AcDbArc
 50
27.10812287102652
 51
80.38420165432574
  0
ARC
  5
3A39
330
3906
100
AcDbEntity
  8
Visible Edges(ISO)
100
AcDbCircle
 10
-6.35256422508678
 20
97.97374573010552
 30
0.0
 40
1.113835803829587
100
AcDbArc
 50
74.85377079491242
 51
86.22158478902717
  0
LINE
  5
3A3A
330
3906
100
AcDbEntity
  8
Visible Edges(ISO)
100
AcDbLine
 10
-6.279164675165787
 20
99.08516046096185
 30
0.0
 11
-6.835323266899677
 21
99.08516046096181
 31
0.0
  0
LINE
  5
3A3B
330
3906
100
AcDbEntity
  8
Visible Edges(ISO)
100
AcDbLine
 10
-6.835323266899677
 20
99.08516046096181
 30
0.0
 11
-6.835323266899677
 21
97.93657206498933
 31
0.0
  0
LINE
  5
3A3C
330
3906
100
AcDbEntity
  8
Visible Edges(ISO)
100
AcDbLine
 10
-6.835323266899677
 20
97.93657206498933
 30
0.0
 11
-6.170351037652294
 21
97.93657206498943
 31
0.0
  0
ARC
  5
3A3D
330
3906
100
AcDbEntity
  8
Visible Edges(ISO)
100
AcDbCircle
 10
-6.239034823033192
 20
98.53954881754463
 30
0.0
 40
0.6068759564327976
100
AcDbArc
 50
276.4984299332838
 51
332.8918771288089
  0
LINE
  5
3A3E
330
3906
100
AcDbEntity
  8
Visible Edges(ISO)
100
AcDbLine
 10
3.25
 20
80.12499999999986
 30
0.0
 11
43.25000000000001
 21
80.12499999999986
 31
0.0
  0
LINE
  5
3A3F
330
3906
100
AcDbEntity
  8
Visible Edges(ISO)
100
AcDbLine
 10
43.25000000000001
 20
80.12499999999986
 30
0.0
 11
43.25000000000001
 21
-80.12500000000024
 31
0.0
  0
LINE
  5
3A40
330
3906
100
AcDbEntity
  8
Visible Edges(ISO)
100
AcDbLine
 10
43.25000000000001
 20
-80.12500000000024
 30
0.0
 11
3.25
 21
-80.12500000000024
 31
0.0
  0
LINE
  5
3A41
330
3906
100
AcDbEntity
  8
Visible Edges(ISO)
100
AcDbLine
 10
3.25
 20
-80.12500000000024
 30
0.0
 11
3.25
 21
80.12499999999986
 31
0.0
  0
LINE
  5
3A42
330
3906
100
AcDbEntity
  8
Visible Edges(ISO)
100
AcDbLine
 10
-43.25
 20
80.12499999999986
 30
0.0
 11
-3.250000000000028
 21
80.12499999999986
 31
0.0
  0
LINE
  5
3A43
330
3906
100
AcDbEntity
  8
Visible Edges(ISO)
100
AcDbLine
 10
-3.250000000000028
 20
80.12499999999986
 30
0.0
 11
-3.249999999999913
 21
-80.12500000000024
 31
0.0
  0
LINE
  5
3A44
330
3906
100
AcDbEntity
  8
Visible Edges(ISO)
100
AcDbLine
 10
-3.249999999999913
 20
-80.12500000000024
 30
0.0
 11
-43.25
 21
-80.12500000000024
 31
0.0
  0
LINE
  5
3A45
330
3906
100
AcDbEntity
  8
Visible Edges(ISO)
100
AcDbLine
 10
-43.25
 20
-80.12500000000024
 30
0.0
 11
-43.25
 21
80.12499999999986
 31
0.0
  0
CIRCLE
  5
3A46
330
3906
100
AcDbEntity
  8
Visible Edges(ISO)
100
AcDbCircle
 10
61.50000000000003
 20
-23.49166666666676
 30
0.0
 40
2.75
  0
CIRCLE
  5
3A47
330
3906
100
AcDbEntity
  8
Visible Edges(ISO)
100
AcDbCircle
 10
0.0
 20
129.1749999999997
 30
0.0
 40
2.75
  0
CIRCLE
  5
3A48
330
3906
100
AcDbEntity
  8
Visible Edges(ISO)
100
AcDbCircle
 10
-61.5
 20
-23.49166666666684
 30
0.0
 40
2.75
  0
CIRCLE
  5
3A49
330
3906
100
AcDbEntity
  8
Visible Edges(ISO)
100
AcDbCircle
 10
-61.5
 20
-99.8250000000003
 30
0.0
 40
2.75
  0
CIRCLE
  5
3A4A
330
3906
100
AcDbEntity
  8
Visible Edges(ISO)
100
AcDbCircle
 10
61.50000000000003
 20
129.1749999999997
 30
0.0
 40
2.75
  0
CIRCLE
  5
3A4B
330
3906
100
AcDbEntity
  8
Visible Edges(ISO)
100
AcDbCircle
 10
-61.5
 20
129.1749999999997
 30
0.0
 40
2.75
  0
CIRCLE
  5
3A4C
330
3906
100
AcDbEntity
  8
Visible Edges(ISO)
100
AcDbCircle
 10
61.50000000000003
 20
-99.82500000000015
 30
0.0
 40
2.75
  0
CIRCLE
  5
3A4D
330
3906
100
AcDbEntity
  8
Visible Edges(ISO)
100
AcDbCircle
 10
-61.5
 20
52.84166666666647
 30
0.0
 40
2.75
  0
CIRCLE
  5
3A4E
330
3906
100
AcDbEntity
  8
Visible Edges(ISO)
100
AcDbCircle
 10
0.0
 20
-99.8250000000003
 30
0.0
 40
2.75
  0
CIRCLE
  5
3A4F
330
3906
100
AcDbEntity
  8
Visible Edges(ISO)
100
AcDbCircle
 10
61.49999999999991
 20
52.84166666666647
 30
0.0
 40
2.75
  0
ARC
  5
3A50
330
3906
100
AcDbEntity
  8
Visible Edges(ISO)
100
AcDbCircle
 10
62.49999999999992
 20
130.1749999999997
 30
0.0
 40
5.0
100
AcDbArc
 50
0.0
 51
90.0
  0
ARC
  5
3A51
330
3906
100
AcDbEntity
  8
Visible Edges(ISO)
100
AcDbCircle
 10
-62.5
 20
130.1749999999997
 30
0.0
 40
5.000000000000016
100
AcDbArc
 50
90.0
 51
180.0
  0
ARC
  5
3A52
330
3906
100
AcDbEntity
  8
Visible Edges(ISO)
100
AcDbCircle
 10
-62.5
 20
-100.8250000000001
 30
0.0
 40
5.000000000000016
100
AcDbArc
 50
180.0
 51
270.0
  0
ARC
  5
3A53
330
3906
100
AcDbEntity
  8
Visible Edges(ISO)
100
AcDbCircle
 10
62.50000000000003
 20
-100.8250000000002
 30
0.0
 40
5.000000000000006
100
AcDbArc
 50
270.0
 51
0.0
  0
LINE
  5
3A54
330
3906
100
AcDbEntity
  8
Visible Edges(ISO)
100
AcDbLine
 10
-62.5
 20
135.1749999999997
 30
0.0
 11
62.49999999999992
 21
135.1749999999997
 31
0.0
  0
LINE
  5
3A55
330
3906
100
AcDbEntity
  8
Visible Edges(ISO)
100
AcDbLine
 10
-67.5
 20
-100.8250000000002
 30
0.0
 11
-67.5
 21
130.1749999999997
 31
0.0
  0
LINE
  5
3A56
330
3906
100
AcDbEntity
  8
Visible Edges(ISO)
100
AcDbLine
 10
62.50000000000003
 20
-105.8250000000003
 30
0.0
 11
-62.5
 21
-105.8250000000003
 31
0.0
  0
LINE
  5
3A57
330
3906
100
AcDbEntity
  8
Visible Edges(ISO)
100
AcDbLine
 10
67.49999999999992
 20
130.1749999999997
 30
0.0
 11
67.50000000000003
 21
-100.8250000000002
 31
0.0
  0
LINE
  5
3A58
330
3906
100
AcDbEntity
  8
Visible Edges(ISO)
100
AcDbLine
 10
-3.250000000000794
 20
79.87499999999975
 30
0.0
 11
-43.25000000000075
 21
79.87499999999975
 31
0.0
  0
LINE
  5
3A59
330
3906
100
AcDbEntity
  8
Visible Edges(ISO)
100
AcDbLine
 10
43.24999999999906
 20
79.87499999999949
 30
0.0
 11
3.249999999999089
 21
79.87499999999937
 31
0.0
  0
CIRCLE
  5
3A5A
330
3906
100
AcDbEntity
  8
Visible Edges(ISO)
100
AcDbCircle
 10
61.50000000000003
 20
52.84166666666647
 30
0.0
 40
2.0
  0
CIRCLE
  5
3A5B
330
3906
100
AcDbEntity
  8
Visible Edges(ISO)
100
AcDbCircle
 10
0.0000000000001137
 20
-99.82500000000015
 30
0.0
 40
2.0
  0
CIRCLE
  5
3A5C
330
3906
100
AcDbEntity
  8
Visible Edges(ISO)
100
AcDbCircle
 10
-61.5
 20
52.84166666666647
 30
0.0
 40
2.0
  0
CIRCLE
  5
3A5D
330
3906
100
AcDbEntity
  8
Visible Edges(ISO)
100
AcDbCircle
 10
61.50000000000003
 20
-99.82500000000015
 30
0.0
 40
2.0
  0
CIRCLE
  5
3A5E
330
3906
100
AcDbEntity
  8
Visible Edges(ISO)
100
AcDbCircle
 10
-61.5
 20
129.1749999999997
 30
0.0
 40
2.0
  0
CIRCLE
  5
3A5F
330
3906
100
AcDbEntity
  8
Visible Edges(ISO)
100
AcDbCircle
 10
61.50000000000003
 20
129.1749999999997
 30
0.0
 40
2.0
  0
CIRCLE
  5
3A60
330
3906
100
AcDbEntity
  8
Visible Edges(ISO)
100
AcDbCircle
 10
-61.49999999999988
 20
-99.82500000000015
 30
0.0
 40
2.0
  0
CIRCLE
  5
3A61
330
3906
100
AcDbEntity
  8
Visible Edges(ISO)
100
AcDbCircle
 10
-61.49999999999988
 20
-23.49166666666684
 30
0.0
 40
2.0
  0
CIRCLE
  5
3A62
330
3906
100
AcDbEntity
  8
Visible Edges(ISO)
100
AcDbCircle
 10
0.0
 20
129.1749999999997
 30
0.0
 40
2.0
  0
CIRCLE
  5
3A63
330
3906
100
AcDbEntity
  8
Visible Edges(ISO)
100
AcDbCircle
 10
61.50000000000003
 20
-23.49166666666684
 30
0.0
 40
2.0
  0
LINE
  5
3A64
330
3906
100
AcDbEntity
  8
Center Mark(ISO)
  6
CHAIN
 48
11.66757774353027
100
AcDbLine
 10
-56.25
 20
129.1749999999997
 30
0.0
 11
-66.75
 21
129.1749999999997
 31
0.0
  0
LINE
  5
3A65
330
3906
100
AcDbEntity
  8
Center Mark(ISO)
  6
CHAIN
 48
11.66757774353027
100
AcDbLine
 10
-61.5
 20
134.4249999999997
 30
0.0
 11
-61.5
 21
123.9249999999997
 31
0.0
  0
LINE
  5
3A66
330
3906
100
AcDbEntity
  8
Center Mark(ISO)
  6
CHAIN
 48
11.66757774353027
100
AcDbLine
 10
5.25
 20
129.1749999999997
 30
0.0
 11
-5.25
 21
129.1749999999997
 31
0.0
  0
LINE
  5
3A67
330
3906
100
AcDbEntity
  8
Center Mark(ISO)
  6
CHAIN
 48
11.66757774353027
100
AcDbLine
 10
0.0
 20
134.4249999999997
 30
0.0
 11
0.0
 21
123.9249999999997
 31
0.0
  0
LINE
  5
3A68
330
3906
100
AcDbEntity
  8
Center Mark(ISO)
  6
CHAIN
 48
11.66757774353027
100
AcDbLine
 10
66.7499999999999
 20
129.1749999999997
 30
0.0
 11
56.25000000000003
 21
129.1749999999997
 31
0.0
  0
LINE
  5
3A69
330
3906
100
AcDbEntity
  8
Center Mark(ISO)
  6
CHAIN
 48
11.66757774353027
100
AcDbLine
 10
61.50000000000003
 20
134.4249999999997
 30
0.0
 11
61.50000000000003
 21
123.9249999999997
 31
0.0
  0
LINE
  5
3A6A
330
3906
100
AcDbEntity
  8
Center Mark(ISO)
  6
CHAIN
 48
11.66757774353027
100
AcDbLine
 10
66.7499999999999
 20
52.84166666666647
 30
0.0
 11
56.25000000000003
 21
52.84166666666647
 31
0.0
  0
LINE
  5
3A6B
330
3906
100
AcDbEntity
  8
Center Mark(ISO)
  6
CHAIN
 48
11.66757774353027
100
AcDbLine
 10
61.50000000000003
 20
58.09166666666647
 30
0.0
 11
61.50000000000003
 21
47.59166666666653
 31
0.0
  0
LINE
  5
3A6C
330
3906
100
AcDbEntity
  8
Center Mark(ISO)
  6
CHAIN
 48
11.66757774353027
100
AcDbLine
 10
-56.25
 20
52.84166666666647
 30
0.0
 11
-66.75
 21
52.84166666666647
 31
0.0
  0
LINE
  5
3A6D
330
3906
100
AcDbEntity
  8
Center Mark(ISO)
  6
CHAIN
 48
11.66757774353027
100
AcDbLine
 10
-61.5
 20
58.09166666666647
 30
0.0
 11
-61.5
 21
47.59166666666646
 31
0.0
  0
LINE
  5
3A6E
330
3906
100
AcDbEntity
  8
Center Mark(ISO)
  6
CHAIN
 48
11.66757774353027
100
AcDbLine
 10
66.75000000000003
 20
-23.49166666666676
 30
0.0
 11
56.25000000000003
 21
-23.49166666666676
 31
0.0
  0
LINE
  5
3A6F
330
3906
100
AcDbEntity
  8
Center Mark(ISO)
  6
CHAIN
 48
11.66757774353027
100
AcDbLine
 10
61.50000000000003
 20
-18.24166666666684
 30
0.0
 11
61.50000000000003
 21
-28.74166666666676
 31
0.0
  0
LINE
  5
3A70
330
3906
100
AcDbEntity
  8
Center Mark(ISO)
  6
CHAIN
 48
11.66757774353027
100
AcDbLine
 10
-56.25
 20
-23.49166666666684
 30
0.0
 11
-66.75
 21
-23.49166666666684
 31
0.0
  0
LINE
  5
3A71
330
3906
100
AcDbEntity
  8
Center Mark(ISO)
  6
CHAIN
 48
11.66757774353027
100
AcDbLine
 10
-61.5
 20
-18.24166666666696
 30
0.0
 11
-61.5
 21
-28.74166666666696
 31
0.0
  0
LINE
  5
3A72
330
3906
100
AcDbEntity
  8
Center Mark(ISO)
  6
CHAIN
 48
11.66757774353027
100
AcDbLine
 10
-56.25
 20
-99.8250000000003
 30
0.0
 11
-66.75
 21
-99.8250000000003
 31
0.0
  0
LINE
  5
3A73
330
3906
100
AcDbEntity
  8
Center Mark(ISO)
  6
CHAIN
 48
11.66757774353027
100
AcDbLine
 10
-61.5
 20
-94.57500000000029
 30
0.0
 11
-61.5
 21
-105.0750000000002
 31
0.0
  0
LINE
  5
3A74
330
3906
100
AcDbEntity
  8
Center Mark(ISO)
  6
CHAIN
 48
11.66757774353027
100
AcDbLine
 10
5.25
 20
-99.8250000000003
 30
0.0
 11
-5.25
 21
-99.8250000000003
 31
0.0
  0
LINE
  5
3A75
330
3906
100
AcDbEntity
  8
Center Mark(ISO)
  6
CHAIN
 48
11.66757774353027
100
AcDbLine
 10
0.0
 20
-94.57500000000029
 30
0.0
 11
0.0
 21
-105.0750000000002
 31
0.0
  0
LINE
  5
3A76
330
3906
100
AcDbEntity
  8
Center Mark(ISO)
  6
CHAIN
 48
11.66757774353027
100
AcDbLine
 10
66.75000000000003
 20
-99.82500000000015
 30
0.0
 11
56.25000000000003
 21
-99.82500000000015
 31
0.0
  0
LINE
  5
3A77
330
3906
100
AcDbEntity
  8
Center Mark(ISO)
  6
CHAIN
 48
11.66757774353027
100
AcDbLine
 10
61.50000000000003
 20
-94.57500000000015
 30
0.0
 11
61.50000000000003
 21
-105.0750000000001
 31
0.0
  0
LINE
  5
3A78
330
3906
100
AcDbEntity
  8
AM_5
100
AcDbLine
 10
-63.5
 20
135.1749999999997
 30
0.0
 11
-86.53615238354769
 21
135.1749999999997
 31
0.0
  0
LINE
  5
3A79
330
3906
100
AcDbEntity
  8
AM_5
100
AcDbLine
 10
-63.5
 20
-105.8250000000003
 30
0.0
 11
-86.53615238354772
 21
-105.8250000000003
 31
0.0
  0
LINE
  5
3A7A
330
3906
100
AcDbEntity
  8
AM_5
100
AcDbLine
 10
-85.53615238354769
 20
132.6749999999997
 30
0.0
 11
-85.53615238354772
 21
-103.3250000000002
 31
0.0
  0
SOLID
  5
3A7B
330
3906
100
AcDbEntity
  8
AM_5
100
AcDbTrace
 10
-85.95281905021435
 20
132.6749999999997
 30
0.0
 11
-85.11948571688103
 21
132.6749999999997
 31
0.0
 12
-85.53615238354769
 22
135.1749999999997
 32
0.0
 13
-85.53615238354769
 23
135.1749999999997
 33
0.0
  0
SOLID
  5
3A7C
330
3906
100
AcDbEntity
  8
AM_5
100
AcDbTrace
 10
-85.9528190502144
 20
-103.3250000000002
 30
0.0
 11
-85.11948571688106
 21
-103.3250000000002
 31
0.0
 12
-85.53615238354772
 22
-105.8250000000003
 32
0.0
 13
-85.53615238354772
 23
-105.8250000000003
 33
0.0
  0
MTEXT
  5
3A7D
330
3906
100
AcDbEntity
  8
AM_5
 62
     2
100
AcDbMText
 10
-88.96284414011665
 20
14.67499999999978
 30
0.0
 40
3.5
 41
0.0
 46
0.0
 71
     5
 72
     1
  1
241 [9.49"]
 11
0.0000000000000001
 21
1.0
 31
0.0
 73
     1
 44
1.0
1001
ACAD
1000
MTEXTBEGIN
1070
    73
1070
     1
1070
    44
1040
1.0
1070
    74
1070
     0
1000
MTEXTEND
  0
LINE
  5
3A7E
330
3906
100
AcDbEntity
  8
AM_5
100
AcDbLine
 10
-67.5
 20
-101.8250000000002
 30
0.0
 11
-67.5
 21
-127.41187736106
 31
0.0
  0
LINE
  5
3A7F
330
3906
100
AcDbEntity
  8
AM_5
100
AcDbLine
 10
67.50000000000003
 20
-101.8250000000002
 30
0.0
 11
67.50000000000003
 21
-127.41187736106
 31
0.0
  0
LINE
  5
3A80
330
3906
100
AcDbEntity
  8
AM_5
100
AcDbLine
 10
-65.0
 20
-126.41187736106
 30
0.0
 11
65.00000000000003
 21
-126.41187736106
 31
0.0
  0
SOLID
  5
3A81
330
3906
100
AcDbEntity
  8
AM_5
100
AcDbTrace
 10
-65.0
 20
-125.9952106943933
 30
0.0
 11
-65.0
 21
-126.8285440277266
 31
0.0
 12
-67.5
 22
-126.41187736106
 32
0.0
 13
-67.5
 23
-126.41187736106
 33
0.0
  0
SOLID
  5
3A82
330
3906
100
AcDbEntity
  8
AM_5
100
AcDbTrace
 10
65.00000000000003
 20
-125.9952106943933
 30
0.0
 11
65.00000000000003
 21
-126.8285440277266
 31
0.0
 12
67.50000000000003
 22
-126.41187736106
 32
0.0
 13
67.50000000000003
 23
-126.41187736106
 33
0.0
  0
MTEXT
  5
3A83
330
3906
100
AcDbEntity
  8
AM_5
 62
     2
100
AcDbMText
 10
0.0000000000000284
 20
-122.98687736106
 30
0.0
 40
3.5
 41
0.0
 46
0.0
 71
     5
 72
     1
  1
135 [5.315"]
 73
     1
 44
1.0
1001
ACAD
1000
MTEXTBEGIN
1070
    73
1070
     1
1070
    44
1040
1.0
1070
    74
1070
     0
1000
MTEXTEND
  0
INSERT
  5
3A84
330
3906
100
AcDbEntity
  8
0
100
AcDbBlockReference
 66
     1
  2
info
 10
-43.25000109519533
 20
-80.1249998796807
 30
0.0
 50
270.0
  0
ATTRIB
  5
3A85
330
3A84
100
AcDbEntity
  8
0
100
AcDbText
 10
-40.35890585971582
 20
-89.59209283000021
 30
0.00000001
 40
5.0
  1
40
 50
270.0
100
AcDbAttribute
280
     0
  2
BRD
 70
     1
280
     1
  0
ATTRIB
  5
3A86
330
3A84
100
AcDbEntity
  8
0
100
AcDbText
 10
-48.6922391930491
 20
-89.59209283000021
 30
0.00000001
 40
5.0
  1
160
 50
270.0
100
AcDbAttribute
280
     0
  2
HJD
 70
     1
280
     1
  0
SEQEND
  5
3A87
330
3A84
100
AcDbEntity
  8
0
  0
LINE
  5
3A88
330
3906
100
AcDbEntity
  8
AM_5
100
AcDbLine
 10
-43.25
 20
-81.12500000000023
 30
0.0
 11
-43.25
 21
-117.41187736106
 31
0.0
  0
LINE
  5
3A89
330
3906
100
AcDbEntity
  8
AM_5
100
AcDbLine
 10
-3.249999999999913
 20
-81.12500000000023
 30
0.0
 11
-3.249999999999913
 21
-117.41187736106
 31
0.0
  0
LINE
  5
3A8A
330
3906
100
AcDbEntity
  8
AM_5
100
AcDbLine
 10
-40.75
 20
-116.41187736106
 30
0.0
 11
-5.749999999999913
 21
-116.41187736106
 31
0.0
  0
SOLID
  5
3A8B
330
3906
100
AcDbEntity
  8
AM_5
100
AcDbTrace
 10
-40.75
 20
-115.9952106943933
 30
0.0
 11
-40.75
 21
-116.8285440277267
 31
0.0
 12
-43.25
 22
-116.41187736106
 32
0.0
 13
-43.25
 23
-116.41187736106
 33
0.0
  0
SOLID
  5
3A8C
330
3906
100
AcDbEntity
  8
AM_5
100
AcDbTrace
 10
-5.749999999999913
 20
-115.9952106943933
 30
0.0
 11
-5.749999999999913
 21
-116.8285440277267
 31
0.0
 12
-3.249999999999913
 22
-116.41187736106
 32
0.0
 13
-3.249999999999913
 23
-116.41187736106
 33
0.0
  0
MTEXT
  5
3A8D
330
3906
100
AcDbEntity
  8
AM_5
 62
     2
100
AcDbMText
 10
-23.24999999999997
 20
-112.98687736106
 30
0.0
 40
3.5
 41
0.0
 46
0.0
 71
     5
 72
     1
  1
40 [1.57"]
 73
     1
 44
1.0
1001
ACAD
1000
MTEXTBEGIN
1070
    73
1070
     1
1070
    44
1040
1.0
1070
    74
1070
     0
1000
MTEXTEND
  0
INSERT
  5
3A8E
330
3906
100
AcDbEntity
  8
0
100
AcDbBlockReference
 66
     1
  2
info
 10
3.24999890480467
 20
-80.1249998796807
 30
0.0
 50
270.0
  0
ATTRIB
  5
3A8F
330
3A8E
100
AcDbEntity
  8
0
100
AcDbText
 10
6.141094140284167
 20
-89.59209283000021
 30
0.00000001
 40
5.0
  1
40
 50
270.0
100
AcDbAttribute
280
     0
  2
BRD
 70
     1
280
     1
  0
ATTRIB
  5
3A90
330
3A8E
100
AcDbEntity
  8
0
100
AcDbText
 10
-2.19223919304909
 20
-89.59209283000021
 30
0.00000001
 40
5.0
  1
160
 50
270.0
100
AcDbAttribute
280
     0
  2
HJD
 70
     1
280
     1
  0
SEQEND
  5
3A91
330
3A8E
100
AcDbEntity
  8
0
  0
LINE
  5
3A92
330
3906
100
AcDbEntity
  8
AM_5
100
AcDbLine
 10
-44.24999999999999
 20
-80.12500000000024
 30
0.0
 11
-76.53615238354759
 21
-80.12500000000022
 31
0.0
  0
LINE
  5
3A93
330
3906
100
AcDbEntity
  8
AM_5
100
AcDbLine
 10
-44.24999999999997
 20
79.87499999999975
 30
0.0
 11
-76.53615238354754
 21
79.87499999999975
 31
0.0
  0
LINE
  5
3A94
330
3906
100
AcDbEntity
  8
AM_5
100
AcDbLine
 10
-75.53615238354758
 20
-77.62500000000024
 30
0.0
 11
-75.53615238354756
 21
77.37499999999975
 31
0.0
  0
SOLID
  5
3A95
330
3906
100
AcDbEntity
  8
AM_5
100
AcDbTrace
 10
-75.95281905021426
 20
-77.62500000000024
 30
0.0
 11
-75.11948571688094
 21
-77.62500000000024
 31
0.0
 12
-75.53615238354758
 22
-80.12500000000022
 32
0.0
 13
-75.53615238354758
 23
-80.12500000000022
 33
0.0
  0
SOLID
  5
3A96
330
3906
100
AcDbEntity
  8
AM_5
100
AcDbTrace
 10
-75.95281905021423
 20
77.37499999999975
 30
0.0
 11
-75.1194857168809
 21
77.37499999999975
 31
0.0
 12
-75.53615238354755
 22
79.87499999999975
 32
0.0
 13
-75.53615238354755
 23
79.87499999999975
 33
0.0
  0
MTEXT
  5
3A97
330
3906
100
AcDbEntity
  8
AM_5
 62
     2
100
AcDbMText
 10
-78.96115238354761
 20
-0.1250000000001705
 30
0.0
 40
3.5
 41
0.0
 46
0.0
 71
     5
 72
     1
  1
160 [6.30"]
 11
0.0000000000000001
 21
1.0
 31
0.0
 73
     1
 44
1.0
1001
ACAD
1000
MTEXTBEGIN
1070
    73
1070
     1
1070
    44
1040
1.0
1070
    74
1070
     0
1000
MTEXTEND
  0
ENDBLK
  5
3908
330
3906
100
AcDbEntity
  8
0
100
AcDbBlockEnd
  0
ENDSEC
  0
SECTION
  2
ENTITIES
  0
INSERT
  5
3A98
330
1A
100
AcDbEntity
  8
AM_0
100
AcDbBlockReference
  2
COMSEAL32AISI316
 10
248.6344513395741
 20
240.6675062269229
 30
0.0
  0
VIEWPORT
  5
22
330
17
100
AcDbEntity
 67
     1
  8
0
100
AcDbViewport
 10
12.33576457686571
 20
6.635154955787665
 30
0.0
 40
23.33015436504954
 41
11.87498859712033
 68
     1
 69
     1
 12
12.33576457686571
 22
6.635154955787665
 13
0.0
 23
0.0
 14
1.0
 24
1.0
 15
10.0
 25
10.0
 16
0.0
 26
0.0
 36
1.0
 17
0.0
 27
0.0
 37
0.0
 42
50.0
 43
0.0
 44
0.0
 45
11.87498859712033
 50
0.0
 51
0.0
 72
   100
 90
    32800
  1

281
     0
 71
     1
 74
     0
110
0.0
120
0.0
130
0.0
111
1.0
121
0.0
131
0.0
112
0.0
122
1.0
132
0.0
 79
     0
146
0.0
170
     0
 61
     5
348
A55
292
     1
282
     1
141
0.0
142
0.0
 63
   250
421
  3355443
1001
GENIUS_GENODEF_13
1002
{
1000
HIER
1070
     0
1002
}
1002
{
1000
MANEDIT
1070
     0
1002
}
1002
{
1000
NOSEL
1070
     0
1002
}
1002
{
1000
BEHIND
1070
     0
1002
}
1002
{
1000
OTHER
1070
     0
1002
}
1002
{
1000
REACTOR
1002
}
1001
GENIUS_GENOBJ-N-SDF_13
1002
{
1000
OWNER
1000
GEN
1002
}
1001
GENIUS_GENSCREG_15
1000
PF
1040
1.0
1000
DF
1040
1.0
1000
MIN
1011
0.6706873943409449
1021
0.6976606572275
1031
0.0
1000
MAX
1011
24.00084175939048
1021
12.57264925434783
1031
0.0
1000
FLAGS
1070
     4
  0
ENDSEC
  0
SECTION
  2
OBJECTS
  0
DICTIONARY
  5
C
330
0
100
AcDbDictionary
281
     1
  3
ACAD_CIP_PREVIOUS_PRODUCT_INFO
350
3AC0
  3
ACAD_COLOR
350
3CA
  3
ACAD_DETAILVIEWSTYLE
350
3ABA
  3
ACAD_GROUP
350
D
  3
ACAD_LAYOUT
350
167
  3
ACAD_MATERIAL
350
3C9
  3
ACAD_MLEADERSTYLE
350
A72
  3
ACAD_MLINESTYLE
350
E
  3
ACAD_PLOTSETTINGS
350
168
  3
ACAD_PLOTSTYLENAME
350
165
  3
ACAD_SCALELIST
350
A60
  3
ACAD_SECTIONVIEWSTYLE
350
3AB8
  3
ACAD_TABLESTYLE
350
650
  3
ACAD_VISUALSTYLE
350
A4F
  3
ACDB_RECOMPOSE_DATA
350
3B52
  3
ACDBVARIABLEDICTIONARY
350
5D
  3
ACMDICTIONARY
350
142
  3
AEC_PROPERTY_SET_DEFS
350
22F5
  3
AMG
350
171
  3
AMGSNAPSETTINGS
350
1F2
  3
ASE_INDEX_DICTIONARY
350
849
  0
DICTIONARY
  5
592
330
2
100
AcDbDictionary
280
     1
281
     1
  3
ACAD_LAYERFILTERS
360
595
  3
ACAD_LAYERSTATES
360
822
  3
AMLAYER_GROUPCOLORS
360
593
  0
DICTIONARY
  5
1FC1
330
F
100
AcDbDictionary
280
     1
281
     1
  3
ADSK_XREC_LAYER_RECONCILED
360
1FC2
  0
DICTIONARY
  5
1FC3
330
5CF
100
AcDbDictionary
280
     1
281
     1
  3
ADSK_XREC_LAYER_RECONCILED
360
1FC4
  0
DICTIONARY
  5
1FC5
330
88C
100
AcDbDictionary
280
     1
281
     1
  3
ADSK_XREC_LAYER_RECONCILED
360
1FC6
  0
DICTIONARY
  5
1FD3
330
CCE
100
AcDbDictionary
280
     1
281
     1
  3
ADSK_XREC_LAYER_RECONCILED
360
1FD4
  0
DICTIONARY
  5
1FD9
330
CD1
100
AcDbDictionary
280
     1
281
     1
  3
ADSK_XREC_LAYER_RECONCILED
360
1FDA
  0
DICTIONARY
  5
1FDB
330
CD2
100
AcDbDictionary
280
     1
281
     1
  3
ADSK_XREC_LAYER_RECONCILED
360
1FDC
  0
DICTIONARY
  5
12A
330
1A
100
AcDbDictionary
280
     1
281
     1
  3
ACAD_INDEX
360
2359
  3
ACAD_SORTENTS
360
2664
  0
XRECORD
  5
3AC0
102
{ACAD_REACTORS
330
C
102
}
330
C
100
AcDbXrecord
280
     1
300
AMECH_PP
300
2013
300
85963PDSU_2013_0F
  0
DICTIONARY
  5
3CA
102
{ACAD_REACTORS
330
C
102
}
330
C
100
AcDbDictionary
281
     1
  0
DICTIONARY
  5
3ABA
102
{ACAD_REACTORS
330
C
102
}
330
C
100
AcDbDictionary
281
     1
  3
Metric50
350
3ABB
  0
DICTIONARY
  5
D
102
{ACAD_REACTORS
330
C
102
}
330
C
100
AcDbDictionary
281
     1
  0
DICTIONARY
  5
167
102
{ACAD_REACTORS
330
C
102
}
330
C
100
AcDbDictionary
281
     1
  3
Layout1
350
16A
  3
Model
350
169
  0
DICTIONARY
  5
3C9
102
{ACAD_REACTORS
330
C
102
}
330
C
100
AcDbDictionary
281
     1
  3
ByBlock
350
A3F
  3
ByLayer
350
A37
  3
Global
350
A47
  0
DICTIONARY
  5
A72
102
{ACAD_REACTORS
330
C
102
}
330
C
100
AcDbDictionary
281
     1
  3
Standard
350
A73
  0
DICTIONARY
  5
E
102
{ACAD_REACTORS
330
C
102
}
330
C
100
AcDbDictionary
281
     1
  3
STANDARD
350
13
  0
DICTIONARY
  5
168
102
{ACAD_REACTORS
330
C
102
}
330
C
100
AcDbDictionary
281
     1
  0
ACDBDICTIONARYWDFLT
  5
165
102
{ACAD_REACTORS
330
C
102
}
330
C
100
AcDbDictionary
281
     1
  3
Normal
350
166
100
AcDbDictionaryWithDefault
340
166
  0
DICTIONARY
  5
A60
102
{ACAD_REACTORS
330
C
102
}
330
C
100
AcDbDictionary
281
     1
  3
A0
350
A61
  3
A1
350
A62
  3
A2
350
A63
  3
A3
350
A64
  3
A4
350
A65
  3
A5
350
A66
  3
A6
350
A67
  3
A7
350
A68
  3
A8
350
A69
  3
A9
350
A6A
  3
B0
350
A6B
  3
B1
350
A6C
  3
B2
350
A6D
  3
B3
350
A6E
  3
B4
350
A6F
  3
B5
350
A70
  3
B6
350
A71
  0
DICTIONARY
  5
3AB8
102
{ACAD_REACTORS
330
C
102
}
330
C
100
AcDbDictionary
281
     1
  3
Metric50
350
3AB9
  0
DICTIONARY
  5
650
102
{ACAD_REACTORS
330
C
102
}
330
C
100
AcDbDictionary
281
     1
  3
Standard
350
651
  0
DICTIONARY
  5
A4F
102
{ACAD_REACTORS
330
C
102
}
330
C
100
AcDbDictionary
281
     1
  3
2dWireframe
350
A55
  3
3D Hidden
350
A57
  3
3dWireframe
350
A56
  3
Basic
350
A54
  3
Brighten
350
A5B
  3
ColorChange
350
A5F
  3
Conceptual
350
A58
  3
Dim
350
A5A
  3
EdgeColorOff
350
3AB7
  3
Facepattern
350
A5E
  3
Flat
350
A50
  3
FlatWithEdges
350
A51
  3
Gouraud
350
A52
  3
GouraudWithEdges
350
A53
  3
Hidden
350
3AAF
  3
JitterOff
350
3AB5
  3
Linepattern
350
A5D
  3
OverhangOff
350
3AB6
  3
Realistic
350
A59
  3
Shaded
350
3AB4
  3
Shaded with edges
350
3AB3
  3
Shades of Gray
350
3AB0
  3
Sketchy
350
3AB1
  3
Thicken
350
A5C
  3
Wireframe
350
3AAE
  3
X-Ray
350
3AB2
  0
XRECORD
  5
3B52
102
{ACAD_REACTORS
330
C
102
}
330
C
100
AcDbXrecord
280
     1
 90
        1
330
651
  0
DICTIONARY
  5
5D
102
{ACAD_REACTORS
330
C
102
}
330
C
100
AcDbDictionary
281
     1
  3
CANNOSCALE
350
AF4
  3
CMLEADERSTYLE
350
AF2
  3
CTABLESTYLE
350
66F
  3
CVIEWDETAILSTYLE
350
3B4F
  3
CVIEWSECTIONSTYLE
350
3B50
  3
DIMADEC
350
5E
  3
DIMASSOC
350
3C7
  3
INDEXCTL
350
128
  3
LAYEREVAL
350
AF6
  3
LAYERNOTIFY
350
AF7
  3
LIGHTINGUNITS
350
AF5
  3
MSLTSCALE
350
AF3
  3
SORTENTS
350
342B
  0
DICTIONARY
  5
142
102
{ACAD_REACTORS
330
C
102
}
330
C
100
AcDbDictionary
281
     1
  3
AcmBOM
350
1ED7
  3
ACMSTDDICTIONARY
350
143
  3
AMDTSECTSYM_ARROWCOLOR
350
47D
  0
DICTIONARY
  5
22F5
102
{ACAD_REACTORS
330
C
102
}
330
C
100
AcDbDictionary
281
     1
  0
DICTIONARY
  5
171
102
{ACAD_REACTORS
330
C
102
}
330
C
100
AcDbDictionary
281
     1
  0
DICTIONARY
  5
1F2
102
{ACAD_REACTORS
330
C
102
}
330
C
100
AcDbDictionary
281
     1
  0
DICTIONARY
  5
849
102
{ACAD_REACTORS
330
C
102
}
330
C
100
AcDbDictionary
281
     1
  3
ASEBlockHierarchyIndexRecord
350
84B
1001
DCO15
1040
1524370329.156
  0
DICTIONARY
  5
595
102
{ACAD_REACTORS
330
592
102
}
330
592
100
AcDbDictionary
281
     1
  0
DICTIONARY
  5
822
102
{ACAD_REACTORS
330
592
102
}
330
592
100
AcDbDictionary
281
     1
  0
DICTIONARY
  5
593
102
{ACAD_REACTORS
330
592
102
}
330
592
100
AcDbDictionary
280
     1
281
     1
  0
XRECORD
  5
1FC2
102
{ACAD_REACTORS
330
1FC1
102
}
330
1FC1
100
AcDbXrecord
280
     1
290
     1
  0
XRECORD
  5
1FC4
102
{ACAD_REACTORS
330
1FC3
102
}
330
1FC3
100
AcDbXrecord
280
     1
290
     1
  0
XRECORD
  5
1FC6
102
{ACAD_REACTORS
330
1FC5
102
}
330
1FC5
100
AcDbXrecord
280
     1
290
     1
  0
XRECORD
  5
1FD4
102
{ACAD_REACTORS
330
1FD3
102
}
330
1FD3
100
AcDbXrecord
280
     1
290
     1
  0
XRECORD
  5
1FDA
102
{ACAD_REACTORS
330
1FD9
102
}
330
1FD9
100
AcDbXrecord
280
     1
290
     1
  0
XRECORD
  5
1FDC
102
{ACAD_REACTORS
330
1FDB
102
}
330
1FDB
100
AcDbXrecord
280
     1
290
     1
  0
DICTIONARY
  5
2359
102
{ACAD_REACTORS
330
12A
102
}
330
12A
100
AcDbDictionary
281
     1
  3
*A1
350
235A
  0
SORTENTSTABLE
  5
2664
102
{ACAD_REACTORS
330
12A
102
}
330
12A
100
AcDbSortentsTable
330
1A
  0
ACDBDETAILVIEWSTYLE
  5
3ABB
102
{ACAD_REACTORS
330
3ABA
102
}
330
3ABA
100
AcDbModelDocViewStyle
 70
     0
  3
Metric50
290
     0
100
AcDbDetailViewStyle
 70
     0
 71
     0
 90
        3
 71
     1
340
10
 62
   256
 40
5.0
340
0
 62
   256
 40
5.0
300

 40
0.0
280
     1
 71
     2
340
16
 90
       25
 62
   256
 71
     3
340
10
 62
   256
 40
5.0
 90
        0
 40
15.0
 90
        1
300
%<\AcVar ViewDetailId>% (%<\AcVar ViewScale \f "%sn">%)
 71
     4
340
16
 90
       25
 62
   256
340
16
 90
       25
 62
   256
280
     0
  0
LAYOUT
  5
16A
102
{ACAD_XDICTIONARY
360
824
102
}
102
{ACAD_REACTORS
330
167
102
}
330
167
100
AcDbPlotSettings
  1

  2
none_device
  4
Letter_(8.50_x_11.00_Inches)
  6

 40
6.349999904632567
 41
6.349999904632567
 42
6.350006103515625
 43
6.350006103515625
 44
215.8999938964844
 45
279.3999938964844
 46
0.0
 47
7.25904629660107
 48
0.0
 49
0.0
140
0.0
141
0.0
142
1.0
143
1.0
 70
   688
 72
     0
 73
     1
 74
     5
  7
@Layout.ctb
 75
     0
147
1.0
 76
     0
 77
     2
 78
   300
148
-74.57150970956639
149
-30.33168042120906
100
AcDbLayout
  1
Layout1
 70
     1
 71
     1
 10
-0.2500002402958907
 20
-0.2499999962453767
 11
10.74999951940821
 21
8.249999763458731
 12
0.0
 22
0.0
 32
0.0
 14
1.000000000000000E+20
 24
1.000000000000000E+20
 34
1.000000000000000E+20
 15
-1.000000000000000E+20
 25
-1.000000000000000E+20
 35
-1.000000000000000E+20
146
0.0
 13
0.0
 23
0.0
 33
0.0
 16
1.0
 26
0.0
 36
0.0
 17
0.0
 27
1.0
 37
0.0
 76
     0
330
17
331
22
1001
ACAD_PSEXT
1000
None
1000
None
1000
Not applicable
1000
The layout will not be plotted unless a new plotter configuration name is selected.
1070
     0
  0
LAYOUT
  5
169
102
{ACAD_REACTORS
330
167
102
}
330
167
100
AcDbPlotSettings
  1

  2
none_device
  4
Letter_(8.50_x_11.00_Inches)
  6

 40
6.349999904632567
 41
6.349999904632567
 42
6.350006103515625
 43
6.350006103515625
 44
215.8999938964844
 45
279.3999938964844
 46
38.1308720290886
 47
0.0
 48
0.0
 49
0.0
140
0.0
141
0.0
142
1.0
143
24.24127445441686
 70
 11956
 72
     0
 73
     1
 74
     0
  7
@Layout.ctb
 75
     0
147
0.0412519565289521
 76
     0
 77
     2
 78
   300
148
8019.824937415057
149
-189.2331007602539
100
AcDbLayout
  1
Model
 70
     1
 71
     0
 10
0.0
 20
0.0
 11
12.0
 21
9.0
 12
0.0
 22
0.0
 32
0.0
 14
0.0
 24
0.0
 34
0.0
 15
0.0
 25
0.0
 35
0.0
146
0.0
 13
0.0
 23
0.0
 33
0.0
 16
1.0
 26
0.0
 36
0.0
 17
0.0
 27
1.0
 37
0.0
 76
     0
330
1A
331
A35
1001
ACAD_PSEXT
1000
None
1000
None
1000
Not applicable
1000
The layout will not be plotted unless a new plotter configuration name is selected.
1070
     0
  0
MATERIAL
  5
A3F
102
{ACAD_XDICTIONARY
360
3537
102
}
102
{ACAD_REACTORS
330
3C9
102
}
330
3C9
100
AcDbMaterial
  1
ByBlock
 72
     0
 43
0.0008202099737533
 43
0.0
 43
0.0
 43
0.0
 43
0.0
 43
0.0008202099737533
 43
0.0
 43
0.0
 43
0.0
 43
0.0
 43
1.0
 43
0.0
 43
0.0
 43
0.0
 43
0.0
 43
1.0
 77
     0
 47
0.0008202099737533
 47
0.0
 47
0.0
 47
0.0
 47
0.0
 47
0.0008202099737533
 47
0.0
 47
0.0
 47
0.0
 47
0.0
 47
1.0
 47
0.0
 47
0.0
 47
0.0
 47
0.0
 47
1.0
171
     0
 49
0.0008202099737533
 49
0.0
 49
0.0
 49
0.0
 49
0.0
 49
0.0008202099737533
 49
0.0
 49
0.0
 49
0.0
 49
0.0
 49
1.0
 49
0.0
 49
0.0
 49
0.0
 49
0.0
 49
1.0
175
     0
142
0.0008202099737533
142
0.0
142
0.0
142
0.0
142
0.0
142
0.0008202099737533
142
0.0
142
0.0
142
0.0
142
0.0
142
1.0
142
0.0
142
0.0
142
0.0
142
0.0
142
1.0
179
     0
144
0.0008202099737533
144
0.0
144
0.0
144
0.0
144
0.0
144
0.0008202099737533
144
0.0
144
0.0
144
0.0
144
0.0
144
1.0
144
0.0
144
0.0
144
0.0
144
0.0
144
1.0
147
0.0008202099737533
147
0.0
147
0.0
147
0.0
147
0.0
147
0.0008202099737533
147
0.0
147
0.0
147
0.0
147
0.0
147
1.0
147
0.0
147
0.0
147
0.0
147
0.0
147
1.0
  0
MATERIAL
  5
A37
102
{ACAD_XDICTIONARY
360
3535
102
}
102
{ACAD_REACTORS
330
3C9
102
}
330
3C9
100
AcDbMaterial
  1
ByLayer
 72
     0
 43
0.0008202099737533
 43
0.0
 43
0.0
 43
0.0
 43
0.0
 43
0.0008202099737533
 43
0.0
 43
0.0
 43
0.0
 43
0.0
 43
1.0
 43
0.0
 43
0.0
 43
0.0
 43
0.0
 43
1.0
 77
     0
 47
0.0008202099737533
 47
0.0
 47
0.0
 47
0.0
 47
0.0
 47
0.0008202099737533
 47
0.0
 47
0.0
 47
0.0
 47
0.0
 47
1.0
 47
0.0
 47
0.0
 47
0.0
 47
0.0
 47
1.0
171
     0
 49
0.0008202099737533
 49
0.0
 49
0.0
 49
0.0
 49
0.0
 49
0.0008202099737533
 49
0.0
 49
0.0
 49
0.0
 49
0.0
 49
1.0
 49
0.0
 49
0.0
 49
0.0
 49
0.0
 49
1.0
175
     0
142
0.0008202099737533
142
0.0
142
0.0
142
0.0
142
0.0
142
0.0008202099737533
142
0.0
142
0.0
142
0.0
142
0.0
142
1.0
142
0.0
142
0.0
142
0.0
142
0.0
142
1.0
179
     0
144
0.0008202099737533
144
0.0
144
0.0
144
0.0
144
0.0
144
0.0008202099737533
144
0.0
144
0.0
144
0.0
144
0.0
144
1.0
144
0.0
144
0.0
144
0.0
144
0.0
144
1.0
147
0.0008202099737533
147
0.0
147
0.0
147
0.0
147
0.0
147
0.0008202099737533
147
0.0
147
0.0
147
0.0
147
0.0
147
1.0
147
0.0
147
0.0
147
0.0
147
0.0
147
1.0
  0
MATERIAL
  5
A47
102
{ACAD_XDICTIONARY
360
3539
102
}
102
{ACAD_REACTORS
330
3C9
102
}
330
3C9
100
AcDbMaterial
  1
Global
 72
     0
 43
0.0008202099737533
 43
0.0
 43
0.0
 43
0.0
 43
0.0
 43
0.0008202099737533
 43
0.0
 43
0.0
 43
0.0
 43
0.0
 43
1.0
 43
0.0
 43
0.0
 43
0.0
 43
0.0
 43
1.0
 77
     0
 47
0.0008202099737533
 47
0.0
 47
0.0
 47
0.0
 47
0.0
 47
0.0008202099737533
 47
0.0
 47
0.0
 47
0.0
 47
0.0
 47
1.0
 47
0.0
 47
0.0
 47
0.0
 47
0.0
 47
1.0
171
     0
 49
0.0008202099737533
 49
0.0
 49
0.0
 49
0.0
 49
0.0
 49
0.0008202099737533
 49
0.0
 49
0.0
 49
0.0
 49
0.0
 49
1.0
 49
0.0
 49
0.0
 49
0.0
 49
0.0
 49
1.0
175
     0
142
0.0008202099737533
142
0.0
142
0.0
142
0.0
142
0.0
142
0.0008202099737533
142
0.0
142
0.0
142
0.0
142
0.0
142
1.0
142
0.0
142
0.0
142
0.0
142
0.0
142
1.0
179
     0
144
0.0008202099737533
144
0.0
144
0.0
144
0.0
144
0.0
144
0.0008202099737533
144
0.0
144
0.0
144
0.0
144
0.0
144
1.0
144
0.0
144
0.0
144
0.0
144
0.0
144
1.0
147
0.0008202099737533
147
0.0
147
0.0
147
0.0
147
0.0
147
0.0008202099737533
147
0.0
147
0.0
147
0.0
147
0.0
147
1.0
147
0.0
147
0.0
147
0.0
147
0.0
147
1.0
  0
MLEADERSTYLE
  5
A73
102
{ACAD_REACTORS
330
A72
102
}
330
A72
100
AcDbMLeaderStyle
179
     2
170
     2
171
     1
172
     0
 90
        2
 40
0.0
 41
0.0
173
     1
 91
-1056964608
340
14
 92
       -2
290
     1
 42
2.0
291
     1
 43
0.36
  3
Standard
 44
4.0
300

342
10
174
     1
178
     6
175
     1
176
     0
 93
-1056964608
 45
4.0
292
     0
297
     0
 46
4.0
 94
-1056964608
 47
1.0
 49
1.0
140
1.0
293
     1
141
0.0
294
     1
177
     0
142
1.0
295
     0
296
     0
143
0.125
271
     0
272
     9
273
     9
298
     0
1001
ACAD_MLEADERVER
1070
     2
  0
MLINESTYLE
  5
13
102
{ACAD_REACTORS
330
E
102
}
330
E
100
AcDbMlineStyle
  2
STANDARD
 70
     0
  3

 62
     0
 51
90.0
 52
90.0
 71
     2
 49
0.5
 62
   256
  6
BYLAYER
 49
-0.5
 62
   256
  6
BYLAYER
  0
ACDBPLACEHOLDER
  5
166
102
{ACAD_REACTORS
330
165
102
}
330
165
  0
SCALE
  5
A61
102
{ACAD_REACTORS
330
A60
102
}
330
A60
100
AcDbScale
 70
     0
300
1:1
140
1.0
141
1.0
290
     1
  0
SCALE
  5
A62
102
{ACAD_REACTORS
330
A60
102
}
330
A60
100
AcDbScale
 70
     0
300
1:2
140
1.0
141
2.0
290
     0
  0
SCALE
  5
A63
102
{ACAD_REACTORS
330
A60
102
}
330
A60
100
AcDbScale
 70
     0
300
1:4
140
1.0
141
4.0
290
     0
  0
SCALE
  5
A64
102
{ACAD_REACTORS
330
A60
102
}
330
A60
100
AcDbScale
 70
     0
300
1:5
140
1.0
141
5.0
290
     0
  0
SCALE
  5
A65
102
{ACAD_REACTORS
330
A60
102
}
330
A60
100
AcDbScale
 70
     0
300
1:8
140
1.0
141
8.0
290
     0
  0
SCALE
  5
A66
102
{ACAD_REACTORS
330
A60
102
}
330
A60
100
AcDbScale
 70
     0
300
1:10
140
1.0
141
10.0
290
     0
  0
SCALE
  5
A67
102
{ACAD_REACTORS
330
A60
102
}
330
A60
100
AcDbScale
 70
     0
300
1:16
140
1.0
141
16.0
290
     0
  0
SCALE
  5
A68
102
{ACAD_REACTORS
330
A60
102
}
330
A60
100
AcDbScale
 70
     0
300
1:20
140
1.0
141
20.0
290
     0
  0
SCALE
  5
A69
102
{ACAD_REACTORS
330
A60
102
}
330
A60
100
AcDbScale
 70
     0
300
1:30
140
1.0
141
30.0
290
     0
  0
SCALE
  5
A6A
102
{ACAD_REACTORS
330
A60
102
}
330
A60
100
AcDbScale
 70
     0
300
1:40
140
1.0
141
40.0
290
     0
  0
SCALE
  5
A6B
102
{ACAD_REACTORS
330
A60
102
}
330
A60
100
AcDbScale
 70
     0
300
1:50
140
1.0
141
50.0
290
     0
  0
SCALE
  5
A6C
102
{ACAD_REACTORS
330
A60
102
}
330
A60
100
AcDbScale
 70
     0
300
1:100
140
1.0
141
100.0
290
     0
  0
SCALE
  5
A6D
102
{ACAD_REACTORS
330
A60
102
}
330
A60
100
AcDbScale
 70
     0
300
2:1
140
2.0
141
1.0
290
     0
  0
SCALE
  5
A6E
102
{ACAD_REACTORS
330
A60
102
}
330
A60
100
AcDbScale
 70
     0
300
4:1
140
4.0
141
1.0
290
     0
  0
SCALE
  5
A6F
102
{ACAD_REACTORS
330
A60
102
}
330
A60
100
AcDbScale
 70
     0
300
8:1
140
8.0
141
1.0
290
     0
  0
SCALE
  5
A70
102
{ACAD_REACTORS
330
A60
102
}
330
A60
100
AcDbScale
 70
     0
300
10:1
140
10.0
141
1.0
290
     0
  0
SCALE
  5
A71
102
{ACAD_REACTORS
330
A60
102
}
330
A60
100
AcDbScale
 70
     0
300
100:1
140
100.0
141
1.0
290
     0
  0
ACDBSECTIONVIEWSTYLE
  5
3AB9
102
{ACAD_REACTORS
330
3AB8
102
}
330
3AB8
100
AcDbModelDocViewStyle
 70
     0
  3
Metric50
290
     0
100
AcDbSectionViewStyle
 70
     0
 71
     0
 90
      102
 71
     1
340
10
 62
   256
 40
5.0
340
0
340
0
 62
   256
 40
5.0
300
I, O, Q, S, X, Z
 40
10.0
 90
        0
 40
2.5
 90
        0
 71
     2
340
16
 90
       25
 62
   256
340
16
 90
       50
 62
   256
 40
5.0
 40
2.5
 40
5.0
 71
     3
340
10
 62
   256
 40
5.0
 90
        0
 40
15.0
 90
        1
300
%<\AcVar ViewSectionStartId>%-%<\AcVar ViewSectionEndId>% (%<\AcVar ViewScale \f "%sn">%)
 71
     4
 62
   256
 62
   257
300
ANSI31
 40
1.0
 90
        0
290
     0
290
     0
 90
        6
 40
0.0
 40
1.570796326794896
 40
0.2617993877991494
 40
1.308996938995747
 40
-0.2617993877991494
 40
1.832595714594046
  0
TABLESTYLE
  5
651
102
{ACAD_XDICTIONARY
360
33DD
102
}
102
{ACAD_REACTORS
330
650
102
}
330
650
100
AcDbTableStyle
280
     0
  3
Standard
 70
     0
 71
     0
 40
1.5
 41
1.5
280
     0
281
     0
  7
STANDARD
140
4.5
170
     2
 62
     0
 63
     7
283
     0
 90
        4
 91
        0
  1

274
    -2
284
     1
 64
     0
275
    -2
285
     1
 65
     0
276
    -2
286
     1
 66
     0
277
    -2
287
     1
 67
     0
278
    -2
288
     1
 68
     0
279
    -2
289
     1
 69
     0
  7
STANDARD
140
6.0
170
     5
 62
     0
 63
     7
283
     0
 90
        4
 91
        0
  1

274
    -2
284
     1
 64
     0
275
    -2
285
     1
 65
     0
276
    -2
286
     1
 66
     0
277
    -2
287
     1
 67
     0
278
    -2
288
     1
 68
     0
279
    -2
289
     1
 69
     0
  7
STANDARD
140
4.5
170
     5
 62
     0
 63
     7
283
     0
 90
        4
 91
        0
  1

274
    -2
284
     1
 64
     0
275
    -2
285
     1
 65
     0
276
    -2
286
     1
 66
     0
277
    -2
287
     1
 67
     0
278
    -2
288
     1
 68
     0
279
    -2
289
     1
 69
     0
  0
VISUALSTYLE
  5
A55
102
{ACAD_REACTORS
330
A4F
102
}
330
A4F
100
AcDbVisualStyle
  2

 70
     4
177
     3
291
     0
 70
    58
 90
        0
176
     1
 90
        2
176
     1
 90
        0
176
     1
 90
        0
176
     1
 40
0.6
176
     1
 40
30.0
176
     1
 62
     7
176
     1
 90
        1
176
     1
 90
        4
176
     1
 62
     7
176
     1
 62
   257
176
     1
 90
        1
176
     1
 90
        1
176
     1
 40
1.0
176
     1
 90
        0
176
     1
 62
   257
176
     1
 40
1.0
176
     1
 90
        1
176
     1
 90
        6
176
     1
 90
        2
176
     1
 62
     7
176
     1
 90
        5
176
     1
 90
        0
176
     1
 90
        0
176
     1
290
     0
176
     1
 90
        1
176
     1
 40
0.0
176
     1
 90
        0
176
     1
290
     1
176
     1
290
     1
176
     1
290
     0
176
     1
290
     0
176
     1
290
     0
176
     1
290
     0
176
     1
290
     0
176
     1
290
     0
176
     1
290
     0
176
     1
 90
       50
176
     1
 40
0.0
176
     1
 40
1.0
176
     1
 90
        0
176
     1
 62
    18
420
        0
176
     1
 90
       50
176
     1
 90
        3
176
     1
 62
     5
420
      255
176
     1
290
     0
176
     1
 90
       50
176
     1
 90
       50
176
     1
 90
       50
176
     1
290
     0
176
     1
 90
       50
176
     1
 62
   256
176
     0
 40
1.0
176
     0
 90
        2
176
     1
  1
strokes_ogs.tif
176
     1
290
     0
176
     1
 40
1.0
176
     1
 40
1.0
176
     1
1001
ACAD
1000
AcDbSavedByObjectVersion
1070
     0
1000
AcDbSavedByObjectVersion
1070
     0
  0
VISUALSTYLE
  5
A57
102
{ACAD_REACTORS
330
A4F
102
}
330
A4F
100
AcDbVisualStyle
  2

 70
     6
177
     3
291
     0
 70
    58
 90
        1
176
     1
 90
        2
176
     1
 90
        2
176
     1
 90
        0
176
     1
 40
0.6
176
     1
 40
30.0
176
     1
 62
     7
176
     1
 90
        2
176
     1
 90
        2
176
     1
 62
     7
176
     1
 62
   257
176
     1
 90
        2
176
     1
 90
        1
176
     1
 40
40.0
176
     1
 90
        0
176
     1
 62
   257
176
     1
 40
1.0
176
     1
 90
        1
176
     1
 90
        6
176
     1
 90
        2
176
     1
 62
     7
176
     1
 90
        3
176
     1
 90
        0
176
     1
 90
        0
176
     1
290
     0
176
     1
 90
        1
176
     1
 40
0.0
176
     1
 90
        0
176
     1
290
     0
176
     1
290
     1
176
     1
290
     1
176
     1
290
     0
176
     1
290
     0
176
     1
290
     0
176
     1
290
     0
176
     1
290
     0
176
     1
290
     0
176
     1
 90
       50
176
     1
 40
0.0
176
     1
 40
1.0
176
     1
 90
        0
176
     1
 62
    18
420
        0
176
     1
 90
       50
176
     1
 90
        3
176
     1
 62
     5
420
      255
176
     1
290
     0
176
     1
 90
       50
176
     1
 90
       50
176
     1
 90
       50
176
     1
290
     0
176
     1
 90
       50
176
     1
 62
   256
176
     0
 40
1.0
176
     0
 90
        2
176
     1
  1
strokes_ogs.tif
176
     1
290
     0
176
     1
 40
1.0
176
     1
 40
1.0
176
     1
1001
ACAD
1000
AcDbSavedByObjectVersion
1070
     0
1000
AcDbSavedByObjectVersion
1070
     0
  0
VISUALSTYLE
  5
A56
102
{ACAD_REACTORS
330
A4F
102
}
330
A4F
100
AcDbVisualStyle
  2

 70
     5
177
     3
291
     0
 70
    58
 90
        0
176
     1
 90
        2
176
     1
 90
        0
176
     1
 90
        0
176
     1
 40
0.6
176
     1
 40
30.0
176
     1
 62
     7
176
     1
 90
        1
176
     1
 90
        4
176
     1
 62
     7
176
     1
 62
   257
176
     1
 90
        1
176
     1
 90
        1
176
     1
 40
1.0
176
     1
 90
        0
176
     1
 62
   257
176
     1
 40
1.0
176
     1
 90
        1
176
     1
 90
        6
176
     1
 90
        2
176
     1
 62
     7
176
     1
 90
        5
176
     1
 90
        0
176
     1
 90
        0
176
     1
290
     0
176
     1
 90
        1
176
     1
 40
0.0
176
     1
 90
        0
176
     1
290
     0
176
     1
290
     1
176
     1
290
     1
176
     1
290
     0
176
     1
290
     0
176
     1
290
     0
176
     1
290
     0
176
     1
290
     0
176
     1
290
     0
176
     1
 90
       50
176
     1
 40
0.0
176
     1
 40
1.0
176
     1
 90
        0
176
     1
 62
    18
420
        0
176
     1
 90
       50
176
     1
 90
        3
176
     1
 62
     5
420
      255
176
     1
290
     0
176
     1
 90
       50
176
     1
 90
       50
176
     1
 90
       50
176
     1
290
     0
176
     1
 90
       50
176
     1
 62
   256
176
     0
 40
1.0
176
     0
 90
        2
176
     1
  1
strokes_ogs.tif
176
     1
290
     0
176
     1
 40
1.0
176
     1
 40
1.0
176
     1
1001
ACAD
1000
AcDbSavedByObjectVersion
1070
     0
1000
AcDbSavedByObjectVersion
1070
     0
  0
VISUALSTYLE
  5
A54
102
{ACAD_REACTORS
330
A4F
102
}
330
A4F
100
AcDbVisualStyle
  2

 70
     7
177
     3
291
     1
 70
    58
 90
        1
176
     1
 90
        0
176
     1
 90
        1
176
     1
 90
        0
176
     1
 40
0.6
176
     1
 40
30.0
176
     1
 62
     7
176
     1
 90
        0
176
     1
 90
        4
176
     1
 62
     7
176
     1
 62
   257
176
     1
 90
        1
176
     1
 90
        1
176
     1
 40
1.0
176
     1
 90
        8
176
     1
 62
     7
176
     1
 40
1.0
176
     1
 90
        1
176
     1
 90
        6
176
     1
 90
        2
176
     1
 62
     7
176
     1
 90
        5
176
     1
 90
        0
176
     1
 90
        0
176
     1
290
     0
176
     1
 90
        1
176
     1
 40
0.0
176
     1
 90
        0
176
     1
290
     0
176
     1
290
     1
176
     1
290
     1
176
     1
290
     0
176
     1
290
     0
176
     1
290
     0
176
     1
290
     0
176
     1
290
     0
176
     1
290
     0
176
     1
 90
       50
176
     1
 40
0.0
176
     1
 40
1.0
176
     1
 90
        0
176
     1
 62
    18
420
        0
176
     1
 90
       50
176
     1
 90
        3
176
     1
 62
     5
420
      255
176
     1
290
     0
176
     1
 90
       50
176
     1
 90
       50
176
     1
 90
       50
176
     1
290
     0
176
     1
 90
       50
176
     1
 62
   256
176
     0
 40
1.0
176
     0
 90
        2
176
     1
  1
strokes_ogs.tif
176
     1
290
     0
176
     1
 40
1.0
176
     1
 40
1.0
176
     1
1001
ACAD
1000
AcDbSavedByObjectVersion
1070
     0
1000
AcDbSavedByObjectVersion
1070
     0
  0
VISUALSTYLE
  5
A5B
102
{ACAD_REACTORS
330
A4F
102
}
330
A4F
100
AcDbVisualStyle
  2

 70
    12
177
     3
291
     1
 70
    58
 90
        2
176
     1
 90
        2
176
     1
 90
        0
176
     1
 90
        0
176
     1
 40
0.6
176
     1
 40
30.0
176
     1
 62
     7
176
     1
 90
        1
176
     1
 90
        4
176
     1
 62
     7
176
     1
 62
   257
176
     1
 90
        1
176
     1
 90
        1
176
     1
 40
1.0
176
     1
 90
        8
176
     1
 62
     7
176
     1
 40
1.0
176
     1
 90
        1
176
     1
 90
        6
176
     1
 90
        2
176
     1
 62
     7
176
     1
 90
        5
176
     1
 90
        0
176
     1
 90
        0
176
     1
290
     0
176
     1
 90
        1
176
     1
 40
50.0
176
     1
 90
        0
176
     1
290
     0
176
     1
290
     1
176
     1
290
     1
176
     1
290
     0
176
     1
290
     0
176
     1
290
     0
176
     1
290
     0
176
     1
290
     0
176
     1
290
     0
176
     1
 90
       50
176
     1
 40
0.0
176
     1
 40
1.0
176
     1
 90
        0
176
     1
 62
    18
420
        0
176
     1
 90
       50
176
     1
 90
        3
176
     1
 62
     5
420
      255
176
     1
290
     0
176
     1
 90
       50
176
     1
 90
       50
176
     1
 90
       50
176
     1
290
     0
176
     1
 90
       50
176
     1
 62
   256
176
     0
 40
1.0
176
     0
 90
        2
176
     1
  1
strokes_ogs.tif
176
     1
290
     0
176
     1
 40
1.0
176
     1
 40
1.0
176
     1
1001
ACAD
1000
AcDbSavedByObjectVersion
1070
     0
1000
AcDbSavedByObjectVersion
1070
     0
  0
VISUALSTYLE
  5
A5F
102
{ACAD_REACTORS
330
A4F
102
}
330
A4F
100
AcDbVisualStyle
  2

 70
    16
177
     3
291
     1
 70
    58
 90
        2
176
     1
 90
        2
176
     1
 90
        3
176
     1
 90
        0
176
     1
 40
0.6
176
     1
 40
30.0
176
     1
 62
     8
176
     1
 90
        1
176
     1
 90
        4
176
     1
 62
     7
176
     1
 62
   257
176
     1
 90
        1
176
     1
 90
        1
176
     1
 40
1.0
176
     1
 90
        8
176
     1
 62
     8
176
     1
 40
1.0
176
     1
 90
        1
176
     1
 90
        6
176
     1
 90
        2
176
     1
 62
     7
176
     1
 90
        5
176
     1
 90
        0
176
     1
 90
        0
176
     1
290
     0
176
     1
 90
        1
176
     1
 40
0.0
176
     1
 90
        0
176
     1
290
     0
176
     1
290
     1
176
     1
290
     1
176
     1
290
     0
176
     1
290
     0
176
     1
290
     0
176
     1
290
     0
176
     1
290
     0
176
     1
290
     0
176
     1
 90
       50
176
     1
 40
0.0
176
     1
 40
1.0
176
     1
 90
        0
176
     1
 62
    18
420
        0
176
     1
 90
       50
176
     1
 90
        3
176
     1
 62
     5
420
      255
176
     1
290
     0
176
     1
 90
       50
176
     1
 90
       50
176
     1
 90
       50
176
     1
290
     0
176
     1
 90
       50
176
     1
 62
   256
176
     0
 40
1.0
176
     0
 90
        2
176
     1
  1
strokes_ogs.tif
176
     1
290
     0
176
     1
 40
1.0
176
     1
 40
1.0
176
     1
1001
ACAD
1000
AcDbSavedByObjectVersion
1070
     0
1000
AcDbSavedByObjectVersion
1070
     0
  0
VISUALSTYLE
  5
A58
102
{ACAD_REACTORS
330
A4F
102
}
330
A4F
100
AcDbVisualStyle
  2

 70
     9
177
     3
291
     0
 70
    58
 90
        3
176
     1
 90
        2
176
     1
 90
        0
176
     1
 90
        0
176
     1
 40
0.6
176
     1
 40
30.0
176
     1
 62
     7
176
     1
 90
        2
176
     1
 90
        2
176
     1
 62
     7
176
     1
 62
   257
176
     1
 90
        1
176
     1
 90
        1
176
     1
 40
40.0
176
     1
 90
        8
176
     1
 62
     7
176
     1
 40
1.0
176
     1
 90
        1
176
     1
 90
        6
176
     1
 90
        2
176
     1
 62
     7
176
     1
 90
        3
176
     1
 90
        0
176
     1
 90
        0
176
     1
290
     0
176
     1
 90
        1
176
     1
 40
0.0
176
     1
 90
        0
176
     1
290
     0
176
     1
290
     1
176
     1
290
     1
176
     1
290
     0
176
     1
290
     0
176
     1
290
     0
176
     1
290
     0
176
     1
290
     0
176
     1
290
     0
176
     1
 90
       50
176
     1
 40
0.0
176
     1
 40
1.0
176
     1
 90
        0
176
     1
 62
    18
420
        0
176
     1
 90
       50
176
     1
 90
        3
176
     1
 62
     5
420
      255
176
     1
290
     0
176
     1
 90
       50
176
     1
 90
       50
176
     1
 90
       50
176
     1
290
     0
176
     1
 90
       50
176
     1
 62
   256
176
     0
 40
1.0
176
     0
 90
        2
176
     1
  1
strokes_ogs.tif
176
     1
290
     0
176
     1
 40
1.0
176
     1
 40
1.0
176
     1
1001
ACAD
1000
AcDbSavedByObjectVersion
1070
     0
1000
AcDbSavedByObjectVersion
1070
     0
  0
VISUALSTYLE
  5
A5A
102
{ACAD_REACTORS
330
A4F
102
}
330
A4F
100
AcDbVisualStyle
  2

 70
    11
177
     3
291
     1
 70
    58
 90
        2
176
     1
 90
        2
176
     1
 90
        0
176
     1
 90
        0
176
     1
 40
0.6
176
     1
 40
30.0
176
     1
 62
     7
176
     1
 90
        1
176
     1
 90
        4
176
     1
 62
     7
176
     1
 62
   257
176
     1
 90
        1
176
     1
 90
        1
176
     1
 40
1.0
176
     1
 90
        8
176
     1
 62
     7
176
     1
 40
1.0
176
     1
 90
        1
176
     1
 90
        6
176
     1
 90
        2
176
     1
 62
     7
176
     1
 90
        5
176
     1
 90
        0
176
     1
 90
        0
176
     1
290
     0
176
     1
 90
        1
176
     1
 40
-50.0
176
     1
 90
        0
176
     1
290
     0
176
     1
290
     1
176
     1
290
     1
176
     1
290
     0
176
     1
290
     0
176
     1
290
     0
176
     1
290
     0
176
     1
290
     0
176
     1
290
     0
176
     1
 90
       50
176
     1
 40
0.0
176
     1
 40
1.0
176
     1
 90
        0
176
     1
 62
    18
420
        0
176
     1
 90
       50
176
     1
 90
        3
176
     1
 62
     5
420
      255
176
     1
290
     0
176
     1
 90
       50
176
     1
 90
       50
176
     1
 90
       50
176
     1
290
     0
176
     1
 90
       50
176
     1
 62
   256
176
     0
 40
1.0
176
     0
 90
        2
176
     1
  1
strokes_ogs.tif
176
     1
290
     0
176
     1
 40
1.0
176
     1
 40
1.0
176
     1
1001
ACAD
1000
AcDbSavedByObjectVersion
1070
     0
1000
AcDbSavedByObjectVersion
1070
     0
  0
VISUALSTYLE
  5
3AB7
102
{ACAD_REACTORS
330
A4F
102
}
330
A4F
100
AcDbVisualStyle
  2
EdgeColorOff
 70
    22
177
     3
291
     1
 70
    58
 90
        2
176
     0
 90
        2
176
     0
 90
        0
176
     0
 90
        0
176
     0
 40
0.6
176
     0
 40
30.0
176
     0
 62
     7
420
 16777215
176
     0
 90
        1
176
     0
 90
        4
176
     0
 62
     7
176
     0
 62
   257
176
     0
 90
        1
176
     0
 90
        1
176
     0
 40
1.0
176
     0
 90
        8
176
     2
 62
     7
176
     0
 40
1.0
176
     0
 90
        1
176
     0
 90
        6
176
     0
 90
        2
176
     0
 62
     7
176
     0
 90
        5
176
     0
 90
        0
176
     0
 90
        0
176
     0
290
     0
176
     0
 90
        1
176
     0
 40
0.0
176
     0
 90
        0
176
     0
290
     0
176
     1
290
     1
176
     1
290
     1
176
     1
290
     0
176
     1
290
     0
176
     1
290
     0
176
     1
290
     0
176
     1
290
     0
176
     1
290
     0
176
     1
 90
       50
176
     0
 40
0.0
176
     0
 40
1.0
176
     0
 90
        0
176
     0
 62
    18
420
        0
176
     0
 90
       50
176
     0
 90
        3
176
     0
 62
     5
420
      255
176
     0
290
     0
176
     1
 90
       50
176
     0
 90
       50
176
     0
 90
       50
176
     0
290
     0
176
     1
 90
       50
176
     0
 62
   256
176
     0
 40
1.0
176
     0
 90
        2
176
     0
  1
strokes_ogs.tif
176
     0
290
     0
176
     1
 40
1.0
176
     0
 40
1.0
176
     0
  0
VISUALSTYLE
  5
A5E
102
{ACAD_REACTORS
330
A4F
102
}
330
A4F
100
AcDbVisualStyle
  2

 70
    15
177
     3
291
     1
 70
    58
 90
        2
176
     1
 90
        2
176
     1
 90
        0
176
     1
 90
        0
176
     1
 40
0.6
176
     1
 40
30.0
176
     1
 62
     7
176
     1
 90
        1
176
     1
 90
        4
176
     1
 62
     7
176
     1
 62
   257
176
     1
 90
        1
176
     1
 90
        1
176
     1
 40
1.0
176
     1
 90
        8
176
     1
 62
     7
176
     1
 40
1.0
176
     1
 90
        1
176
     1
 90
        6
176
     1
 90
        2
176
     1
 62
     7
176
     1
 90
        5
176
     1
 90
        0
176
     1
 90
        0
176
     1
290
     0
176
     1
 90
        1
176
     1
 40
0.0
176
     1
 90
        0
176
     1
290
     0
176
     1
290
     1
176
     1
290
     1
176
     1
290
     0
176
     1
290
     0
176
     1
290
     0
176
     1
290
     0
176
     1
290
     0
176
     1
290
     0
176
     1
 90
       50
176
     1
 40
0.0
176
     1
 40
1.0
176
     1
 90
        0
176
     1
 62
    18
420
        0
176
     1
 90
       50
176
     1
 90
        3
176
     1
 62
     5
420
      255
176
     1
290
     0
176
     1
 90
       50
176
     1
 90
       50
176
     1
 90
       50
176
     1
290
     0
176
     1
 90
       50
176
     1
 62
   256
176
     0
 40
1.0
176
     0
 90
        2
176
     1
  1
strokes_ogs.tif
176
     1
290
     0
176
     1
 40
1.0
176
     1
 40
1.0
176
     1
1001
ACAD
1000
AcDbSavedByObjectVersion
1070
     0
1000
AcDbSavedByObjectVersion
1070
     0
  0
VISUALSTYLE
  5
A50
102
{ACAD_REACTORS
330
A4F
102
}
330
A4F
100
AcDbVisualStyle
  2

 70
     0
177
     3
291
     1
 70
    58
 90
        2
176
     1
 90
        1
176
     1
 90
        1
176
     1
 90
        2
176
     1
 40
0.6
176
     1
 40
30.0
176
     1
 62
     7
176
     1
 90
        0
176
     1
 90
        4
176
     1
 62
     7
176
     1
 62
   257
176
     1
 90
        1
176
     1
 90
        1
176
     1
 40
1.0
176
     1
 90
        8
176
     1
 62
     7
176
     1
 40
1.0
176
     1
 90
        1
176
     1
 90
        6
176
     1
 90
        2
176
     1
 62
     7
176
     1
 90
        5
176
     1
 90
        0
176
     1
 90
        0
176
     1
290
     0
176
     1
 90
       13
176
     1
 40
0.0
176
     1
 90
        0
176
     1
290
     0
176
     1
290
     1
176
     1
290
     1
176
     1
290
     0
176
     1
290
     0
176
     1
290
     0
176
     1
290
     0
176
     1
290
     0
176
     1
290
     0
176
     1
 90
       50
176
     1
 40
0.0
176
     1
 40
1.0
176
     1
 90
        0
176
     1
 62
    18
420
        0
176
     1
 90
       50
176
     1
 90
        3
176
     1
 62
     5
420
      255
176
     1
290
     0
176
     1
 90
       50
176
     1
 90
       50
176
     1
 90
       50
176
     1
290
     0
176
     1
 90
       50
176
     1
 62
   256
176
     0
 40
1.0
176
     0
 90
        2
176
     1
  1
strokes_ogs.tif
176
     1
290
     0
176
     1
 40
1.0
176
     1
 40
1.0
176
     1
1001
ACAD
1000
AcDbSavedByObjectVersion
1070
     0
1000
AcDbSavedByObjectVersion
1070
     0
  0
VISUALSTYLE
  5
A51
102
{ACAD_REACTORS
330
A4F
102
}
330
A4F
100
AcDbVisualStyle
  2

 70
     1
177
     3
291
     1
 70
    58
 90
        2
176
     1
 90
        1
176
     1
 90
        1
176
     1
 90
        2
176
     1
 40
0.6
176
     1
 40
30.0
176
     1
 62
     7
176
     1
 90
        1
176
     1
 90
        4
176
     1
 62
     7
176
     1
 62
   257
176
     1
 90
        1
176
     1
 90
        1
176
     1
 40
1.0
176
     1
 90
        0
176
     1
 62
   257
176
     1
 40
1.0
176
     1
 90
        1
176
     1
 90
        6
176
     1
 90
        2
176
     1
 62
     7
176
     1
 90
        5
176
     1
 90
        0
176
     1
 90
        0
176
     1
290
     0
176
     1
 90
       13
176
     1
 40
0.0
176
     1
 90
        0
176
     1
290
     0
176
     1
290
     1
176
     1
290
     1
176
     1
290
     0
176
     1
290
     0
176
     1
290
     0
176
     1
290
     0
176
     1
290
     0
176
     1
290
     0
176
     1
 90
       50
176
     1
 40
0.0
176
     1
 40
1.0
176
     1
 90
        0
176
     1
 62
    18
420
        0
176
     1
 90
       50
176
     1
 90
        3
176
     1
 62
     5
420
      255
176
     1
290
     0
176
     1
 90
       50
176
     1
 90
       50
176
     1
 90
       50
176
     1
290
     0
176
     1
 90
       50
176
     1
 62
   256
176
     0
 40
1.0
176
     0
 90
        2
176
     1
  1
strokes_ogs.tif
176
     1
290
     0
176
     1
 40
1.0
176
     1
 40
1.0
176
     1
1001
ACAD
1000
AcDbSavedByObjectVersion
1070
     0
1000
AcDbSavedByObjectVersion
1070
     0
  0
VISUALSTYLE
  5
A52
102
{ACAD_REACTORS
330
A4F
102
}
330
A4F
100
AcDbVisualStyle
  2

 70
     2
177
     3
291
     1
 70
    58
 90
        2
176
     1
 90
        2
176
     1
 90
        1
176
     1
 90
        2
176
     1
 40
0.6
176
     1
 40
30.0
176
     1
 62
     7
176
     1
 90
        0
176
     1
 90
        4
176
     1
 62
     7
176
     1
 62
   257
176
     1
 90
        1
176
     1
 90
        1
176
     1
 40
1.0
176
     1
 90
        0
176
     1
 62
     7
176
     1
 40
1.0
176
     1
 90
        1
176
     1
 90
        6
176
     1
 90
        2
176
     1
 62
     7
176
     1
 90
        5
176
     1
 90
        0
176
     1
 90
        0
176
     1
290
     0
176
     1
 90
       13
176
     1
 40
0.0
176
     1
 90
        0
176
     1
290
     0
176
     1
290
     1
176
     1
290
     1
176
     1
290
     0
176
     1
290
     0
176
     1
290
     0
176
     1
290
     0
176
     1
290
     0
176
     1
290
     0
176
     1
 90
       50
176
     1
 40
0.0
176
     1
 40
1.0
176
     1
 90
        0
176
     1
 62
    18
420
        0
176
     1
 90
       50
176
     1
 90
        3
176
     1
 62
     5
420
      255
176
     1
290
     0
176
     1
 90
       50
176
     1
 90
       50
176
     1
 90
       50
176
     1
290
     0
176
     1
 90
       50
176
     1
 62
   256
176
     0
 40
1.0
176
     0
 90
        2
176
     1
  1
strokes_ogs.tif
176
     1
290
     0
176
     1
 40
1.0
176
     1
 40
1.0
176
     1
1001
ACAD
1000
AcDbSavedByObjectVersion
1070
     0
1000
AcDbSavedByObjectVersion
1070
     0
  0
VISUALSTYLE
  5
A53
102
{ACAD_REACTORS
330
A4F
102
}
330
A4F
100
AcDbVisualStyle
  2

 70
     3
177
     3
291
     1
 70
    58
 90
        2
176
     1
 90
        2
176
     1
 90
        1
176
     1
 90
        2
176
     1
 40
0.6
176
     1
 40
30.0
176
     1
 62
     7
176
     1
 90
        1
176
     1
 90
        4
176
     1
 62
     7
176
     1
 62
   257
176
     1
 90
        1
176
     1
 90
        1
176
     1
 40
1.0
176
     1
 90
        0
176
     1
 62
   257
176
     1
 40
1.0
176
     1
 90
        1
176
     1
 90
        6
176
     1
 90
        2
176
     1
 62
     7
176
     1
 90
        5
176
     1
 90
        0
176
     1
 90
        0
176
     1
290
     0
176
     1
 90
       13
176
     1
 40
0.0
176
     1
 90
        0
176
     1
290
     0
176
     1
290
     1
176
     1
290
     1
176
     1
290
     0
176
     1
290
     0
176
     1
290
     0
176
     1
290
     0
176
     1
290
     0
176
     1
290
     0
176
     1
 90
       50
176
     1
 40
0.0
176
     1
 40
1.0
176
     1
 90
        0
176
     1
 62
    18
420
        0
176
     1
 90
       50
176
     1
 90
        3
176
     1
 62
     5
420
      255
176
     1
290
     0
176
     1
 90
       50
176
     1
 90
       50
176
     1
 90
       50
176
     1
290
     0
176
     1
 90
       50
176
     1
 62
   256
176
     0
 40
1.0
176
     0
 90
        2
176
     1
  1
strokes_ogs.tif
176
     1
290
     0
176
     1
 40
1.0
176
     1
 40
1.0
176
     1
1001
ACAD
1000
AcDbSavedByObjectVersion
1070
     0
1000
AcDbSavedByObjectVersion
1070
     0
  0
VISUALSTYLE
  5
3AAF
102
{ACAD_REACTORS
330
A4F
102
}
330
A4F
100
AcDbVisualStyle
  2
Hidden
 70
     6
177
     3
291
     0
 70
    58
 90
        1
176
     1
 90
        2
176
     1
 90
        2
176
     1
 90
        0
176
     1
 40
0.6
176
     1
 40
30.0
176
     1
 62
     7
420
 16777215
176
     1
 90
        2
176
     1
 90
        2
176
     1
 62
     7
176
     1
 62
   257
176
     1
 90
        2
176
     1
 90
        1
176
     1
 40
40.0
176
     1
 90
        0
176
     1
 62
   257
176
     1
 40
1.0
176
     1
 90
        1
176
     1
 90
        6
176
     1
 90
        2
176
     1
 62
     7
176
     1
 90
        3
176
     1
 90
        0
176
     1
 90
        0
176
     1
290
     0
176
     1
 90
        1
176
     1
 40
0.0
176
     1
 90
        0
176
     1
290
     0
176
     1
290
     1
176
     1
290
     1
176
     1
290
     0
176
     1
290
     0
176
     1
290
     0
176
     1
290
     0
176
     1
290
     0
176
     1
290
     0
176
     1
 90
       50
176
     1
 40
0.0
176
     1
 40
1.0
176
     1
 90
        0
176
     1
 62
    18
420
        0
176
     1
 90
       50
176
     1
 90
        3
176
     1
 62
     5
420
      255
176
     1
290
     0
176
     1
 90
       50
176
     1
 90
       50
176
     1
 90
       50
176
     1
290
     0
176
     1
 90
       50
176
     1
 62
   256
176
     0
 40
1.0
176
     0
 90
        2
176
     1
  1
strokes_ogs.tif
176
     1
290
     0
176
     1
 40
1.0
176
     1
 40
1.0
176
     1
  0
VISUALSTYLE
  5
3AB5
102
{ACAD_REACTORS
330
A4F
102
}
330
A4F
100
AcDbVisualStyle
  2
JitterOff
 70
    20
177
     3
291
     1
 70
    58
 90
        2
176
     0
 90
        2
176
     0
 90
        0
176
     0
 90
        0
176
     0
 40
0.6
176
     0
 40
30.0
176
     0
 62
     7
420
 16777215
176
     0
 90
        1
176
     0
 90
        4
176
     0
 62
     7
176
     0
 62
   257
176
     0
 90
        1
176
     0
 90
        1
176
     0
 40
1.0
176
     0
 90
       10
176
     2
 62
     7
176
     0
 40
1.0
176
     0
 90
        1
176
     0
 90
        6
176
     0
 90
        2
176
     0
 62
     7
176
     0
 90
        5
176
     0
 90
        0
176
     0
 90
        0
176
     0
290
     0
176
     0
 90
        1
176
     0
 40
0.0
176
     0
 90
        0
176
     0
290
     0
176
     1
290
     1
176
     1
290
     1
176
     1
290
     0
176
     1
290
     0
176
     1
290
     0
176
     1
290
     0
176
     1
290
     0
176
     1
290
     0
176
     1
 90
       50
176
     0
 40
0.0
176
     0
 40
1.0
176
     0
 90
        0
176
     0
 62
    18
420
        0
176
     0
 90
       50
176
     0
 90
        3
176
     0
 62
     5
420
      255
176
     0
290
     0
176
     1
 90
       50
176
     0
 90
       50
176
     0
 90
       50
176
     0
290
     0
176
     1
 90
       50
176
     0
 62
   256
176
     0
 40
1.0
176
     0
 90
        2
176
     0
  1
strokes_ogs.tif
176
     0
290
     0
176
     1
 40
1.0
176
     0
 40
1.0
176
     0
  0
VISUALSTYLE
  5
A5D
102
{ACAD_REACTORS
330
A4F
102
}
330
A4F
100
AcDbVisualStyle
  2

 70
    14
177
     3
291
     1
 70
    58
 90
        2
176
     1
 90
        2
176
     1
 90
        0
176
     1
 90
        0
176
     1
 40
0.6
176
     1
 40
30.0
176
     1
 62
     7
176
     1
 90
        1
176
     1
 90
        4
176
     1
 62
     7
176
     1
 62
   257
176
     1
 90
        7
176
     1
 90
        7
176
     1
 40
1.0
176
     1
 90
        8
176
     1
 62
     7
176
     1
 40
1.0
176
     1
 90
        1
176
     1
 90
        6
176
     1
 90
        2
176
     1
 62
     7
176
     1
 90
        5
176
     1
 90
        0
176
     1
 90
        0
176
     1
290
     0
176
     1
 90
        1
176
     1
 40
0.0
176
     1
 90
        0
176
     1
290
     0
176
     1
290
     1
176
     1
290
     1
176
     1
290
     0
176
     1
290
     0
176
     1
290
     0
176
     1
290
     0
176
     1
290
     0
176
     1
290
     0
176
     1
 90
       50
176
     1
 40
0.0
176
     1
 40
1.0
176
     1
 90
        0
176
     1
 62
    18
420
        0
176
     1
 90
       50
176
     1
 90
        3
176
     1
 62
     5
420
      255
176
     1
290
     0
176
     1
 90
       50
176
     1
 90
       50
176
     1
 90
       50
176
     1
290
     0
176
     1
 90
       50
176
     1
 62
   256
176
     0
 40
1.0
176
     0
 90
        2
176
     1
  1
strokes_ogs.tif
176
     1
290
     0
176
     1
 40
1.0
176
     1
 40
1.0
176
     1
1001
ACAD
1000
AcDbSavedByObjectVersion
1070
     0
1000
AcDbSavedByObjectVersion
1070
     0
  0
VISUALSTYLE
  5
3AB6
102
{ACAD_REACTORS
330
A4F
102
}
330
A4F
100
AcDbVisualStyle
  2
OverhangOff
 70
    21
177
     3
291
     1
 70
    58
 90
        2
176
     0
 90
        2
176
     0
 90
        0
176
     0
 90
        0
176
     0
 40
0.6
176
     0
 40
30.0
176
     0
 62
     7
420
 16777215
176
     0
 90
        1
176
     0
 90
        4
176
     0
 62
     7
176
     0
 62
   257
176
     0
 90
        1
176
     0
 90
        1
176
     0
 40
1.0
176
     0
 90
        9
176
     2
 62
     7
176
     0
 40
1.0
176
     0
 90
        1
176
     0
 90
        6
176
     0
 90
        2
176
     0
 62
     7
176
     0
 90
        5
176
     0
 90
        0
176
     0
 90
        0
176
     0
290
     0
176
     0
 90
        1
176
     0
 40
0.0
176
     0
 90
        0
176
     0
290
     0
176
     1
290
     1
176
     1
290
     1
176
     1
290
     0
176
     1
290
     0
176
     1
290
     0
176
     1
290
     0
176
     1
290
     0
176
     1
290
     0
176
     1
 90
       50
176
     0
 40
0.0
176
     0
 40
1.0
176
     0
 90
        0
176
     0
 62
    18
420
        0
176
     0
 90
       50
176
     0
 90
        3
176
     0
 62
     5
420
      255
176
     0
290
     0
176
     1
 90
       50
176
     0
 90
       50
176
     0
 90
       50
176
     0
290
     0
176
     1
 90
       50
176
     0
 62
   256
176
     0
 40
1.0
176
     0
 90
        2
176
     0
  1
strokes_ogs.tif
176
     0
290
     0
176
     1
 40
1.0
176
     0
 40
1.0
176
     0
  0
VISUALSTYLE
  5
A59
102
{ACAD_REACTORS
330
A4F
102
}
330
A4F
100
AcDbVisualStyle
  2

 70
     8
177
     3
291
     0
 70
    58
 90
        2
176
     1
 90
        2
176
     1
 90
        0
176
     1
 90
        0
176
     1
 40
0.6
176
     1
 40
30.0
176
     1
 62
     7
176
     1
 90
        1
176
     1
 90
        0
176
     1
 62
     7
176
     1
 62
   257
176
     1
 90
        1
176
     1
 90
        1
176
     1
 40
1.0
176
     1
 90
        8
176
     1
 62
     8
176
     1
 40
1.0
176
     1
 90
        1
176
     1
 90
        6
176
     1
 90
        2
176
     1
 62
     7
176
     1
 90
        5
176
     1
 90
        0
176
     1
 90
        0
176
     1
290
     0
176
     1
 90
       13
176
     1
 40
0.0
176
     1
 90
        0
176
     1
290
     0
176
     1
290
     1
176
     1
290
     1
176
     1
290
     0
176
     1
290
     0
176
     1
290
     0
176
     1
290
     0
176
     1
290
     0
176
     1
290
     0
176
     1
 90
       50
176
     1
 40
0.0
176
     1
 40
1.0
176
     1
 90
        0
176
     1
 62
    18
420
        0
176
     1
 90
       50
176
     1
 90
        3
176
     1
 62
     5
420
      255
176
     1
290
     0
176
     1
 90
       50
176
     1
 90
       50
176
     1
 90
       50
176
     1
290
     0
176
     1
 90
       50
176
     1
 62
   256
176
     0
 40
1.0
176
     0
 90
        2
176
     1
  1
strokes_ogs.tif
176
     1
290
     0
176
     1
 40
1.0
176
     1
 40
1.0
176
     1
1001
ACAD
1000
AcDbSavedByObjectVersion
1070
     0
1000
AcDbSavedByObjectVersion
1070
     0
  0
VISUALSTYLE
  5
3AB4
102
{ACAD_REACTORS
330
A4F
102
}
330
A4F
100
AcDbVisualStyle
  2
Shaded
 70
    27
177
     3
291
     0
 70
    58
 90
        2
176
     1
 90
        2
176
     1
 90
        1
176
     1
 90
        2
176
     1
 40
0.6
176
     1
 40
30.0
176
     1
 62
     7
420
 16777215
176
     1
 90
        0
176
     1
 90
        4
176
     1
 62
     7
176
     1
 62
   257
176
     1
 90
        1
176
     1
 90
        1
176
     1
 40
1.0
176
     1
 90
        8
176
     1
 62
   257
176
     1
 40
1.0
176
     1
 90
        1
176
     1
 90
        6
176
     1
 90
        2
176
     1
 62
     8
420
  7895160
176
     1
 90
        3
176
     1
 90
        0
176
     1
 90
        0
176
     1
290
     0
176
     1
 90
        5
176
     1
 40
0.0
176
     1
 90
        0
176
     1
290
     0
176
     1
290
     1
176
     1
290
     1
176
     1
290
     0
176
     1
290
     0
176
     1
290
     0
176
     1
290
     0
176
     1
290
     0
176
     1
290
     0
176
     1
 90
       50
176
     1
 40
0.0
176
     1
 40
1.0
176
     1
 90
        0
176
     1
 62
    18
420
        0
176
     1
 90
       50
176
     1
 90
        3
176
     1
 62
     5
420
      255
176
     1
290
     0
176
     1
 90
       50
176
     1
 90
       50
176
     1
 90
       50
176
     1
290
     0
176
     1
 90
       50
176
     1
 62
   256
176
     0
 40
1.0
176
     0
 90
        2
176
     1
  1
strokes_ogs.tif
176
     1
290
     0
176
     1
 40
1.0
176
     1
 40
1.0
176
     1
  0
VISUALSTYLE
  5
3AB3
102
{ACAD_REACTORS
330
A4F
102
}
330
A4F
100
AcDbVisualStyle
  2
Shaded with edges
 70
    26
177
     3
291
     0
 70
    58
 90
        2
176
     1
 90
        2
176
     1
 90
        1
176
     1
 90
        2
176
     1
 40
0.6
176
     1
 40
30.0
176
     1
 62
     7
420
 16777215
176
     1
 90
        1
176
     1
 90
       10
176
     1
 62
     7
176
     1
 62
   257
176
     1
 90
        2
176
     1
 90
        1
176
     1
 40
1.0
176
     1
 90
        8
176
     1
 62
   257
176
     1
 40
1.0
176
     1
 90
        1
176
     1
 90
        6
176
     1
 90
        2
176
     1
 62
     7
176
     1
 90
        3
176
     1
 90
        0
176
     1
 90
        0
176
     1
290
     0
176
     1
 90
        5
176
     1
 40
0.0
176
     1
 90
        0
176
     1
290
     0
176
     1
290
     1
176
     1
290
     1
176
     1
290
     0
176
     1
290
     0
176
     1
290
     0
176
     1
290
     0
176
     1
290
     0
176
     1
290
     0
176
     1
 90
       50
176
     1
 40
0.0
176
     1
 40
1.0
176
     1
 90
        0
176
     1
 62
    18
420
        0
176
     1
 90
       50
176
     1
 90
        3
176
     1
 62
     5
420
      255
176
     1
290
     0
176
     1
 90
       50
176
     1
 90
       50
176
     1
 90
       50
176
     1
290
     0
176
     1
 90
       50
176
     1
 62
   256
176
     0
 40
1.0
176
     0
 90
        2
176
     1
  1
strokes_ogs.tif
176
     1
290
     0
176
     1
 40
1.0
176
     1
 40
1.0
176
     1
  0
VISUALSTYLE
  5
3AB0
102
{ACAD_REACTORS
330
A4F
102
}
330
A4F
100
AcDbVisualStyle
  2
Shades of Gray
 70
    23
177
     3
291
     0
 70
    58
 90
        2
176
     1
 90
        2
176
     1
 90
        3
176
     1
 90
        0
176
     1
 40
0.6
176
     1
 40
30.0
176
     1
 62
     7
420
 16777215
176
     1
 90
        2
176
     1
 90
        2
176
     1
 62
     7
176
     1
 62
     7
176
     1
 90
        1
176
     1
 90
        1
176
     1
 40
40.0
176
     1
 90
        8
176
     1
 62
     7
176
     1
 40
1.0
176
     1
 90
        1
176
     1
 90
        6
176
     1
 90
        2
176
     1
 62
     7
176
     1
 90
        3
176
     1
 90
        0
176
     1
 90
        0
176
     1
290
     0
176
     1
 90
        1
176
     1
 40
0.0
176
     1
 90
        0
176
     1
290
     0
176
     1
290
     1
176
     1
290
     1
176
     1
290
     0
176
     1
290
     0
176
     1
290
     0
176
     1
290
     0
176
     1
290
     0
176
     1
290
     0
176
     1
 90
       50
176
     1
 40
0.0
176
     1
 40
1.0
176
     1
 90
        0
176
     1
 62
    18
420
        0
176
     1
 90
       50
176
     1
 90
        3
176
     1
 62
     5
420
      255
176
     1
290
     0
176
     1
 90
       50
176
     1
 90
       50
176
     1
 90
       50
176
     1
290
     0
176
     1
 90
       50
176
     1
 62
   256
176
     0
 40
1.0
176
     0
 90
        2
176
     1
  1
strokes_ogs.tif
176
     1
290
     0
176
     1
 40
1.0
176
     1
 40
1.0
176
     1
  0
VISUALSTYLE
  5
3AB1
102
{ACAD_REACTORS
330
A4F
102
}
330
A4F
100
AcDbVisualStyle
  2
Sketchy
 70
    24
177
     3
291
     0
 70
    58
 90
        1
176
     1
 90
        2
176
     1
 90
        2
176
     1
 90
        0
176
     1
 40
0.6
176
     1
 40
30.0
176
     1
 62
     7
420
 16777215
176
     1
 90
        2
176
     1
 90
        2
176
     1
 62
     7
176
     1
 62
     7
176
     1
 90
        1
176
     1
 90
        1
176
     1
 40
40.0
176
     1
 90
       11
176
     1
 62
     7
176
     1
 40
1.0
176
     1
 90
        1
176
     1
 90
        6
176
     1
 90
        2
176
     1
 62
     7
176
     1
 90
        6
176
     1
 90
        0
176
     1
 90
        0
176
     1
290
     0
176
     1
 90
        1
176
     1
 40
0.0
176
     1
 90
        0
176
     1
290
     0
176
     1
290
     1
176
     1
290
     1
176
     1
290
     0
176
     1
290
     0
176
     1
290
     0
176
     1
290
     0
176
     1
290
     0
176
     1
290
     0
176
     1
 90
       50
176
     1
 40
0.0
176
     1
 40
1.0
176
     1
 90
        0
176
     1
 62
    18
420
        0
176
     1
 90
       50
176
     1
 90
        3
176
     1
 62
     5
420
      255
176
     1
290
     0
176
     1
 90
       50
176
     1
 90
       50
176
     1
 90
       50
176
     1
290
     0
176
     1
 90
       50
176
     1
 62
   256
176
     0
 40
1.0
176
     0
 90
        2
176
     1
  1
strokes_ogs.tif
176
     1
290
     0
176
     1
 40
1.0
176
     1
 40
1.0
176
     1
  0
VISUALSTYLE
  5
A5C
102
{ACAD_REACTORS
330
A4F
102
}
330
A4F
100
AcDbVisualStyle
  2

 70
    13
177
     3
291
     1
 70
    58
 90
        2
176
     1
 90
        2
176
     1
 90
        0
176
     1
 90
        0
176
     1
 40
0.6
176
     1
 40
30.0
176
     1
 62
     7
176
     1
 90
        1
176
     1
 90
        4
176
     1
 62
     7
176
     1
 62
   257
176
     1
 90
        1
176
     1
 90
        1
176
     1
 40
1.0
176
     1
 90
       12
176
     1
 62
     7
176
     1
 40
1.0
176
     1
 90
        1
176
     1
 90
        6
176
     1
 90
        2
176
     1
 62
     7
176
     1
 90
        5
176
     1
 90
        0
176
     1
 90
        0
176
     1
290
     0
176
     1
 90
        1
176
     1
 40
0.0
176
     1
 90
        0
176
     1
290
     0
176
     1
290
     1
176
     1
290
     1
176
     1
290
     0
176
     1
290
     0
176
     1
290
     0
176
     1
290
     0
176
     1
290
     0
176
     1
290
     0
176
     1
 90
       50
176
     1
 40
0.0
176
     1
 40
1.0
176
     1
 90
        0
176
     1
 62
    18
420
        0
176
     1
 90
       50
176
     1
 90
        3
176
     1
 62
     5
420
      255
176
     1
290
     0
176
     1
 90
       50
176
     1
 90
       50
176
     1
 90
       50
176
     1
290
     0
176
     1
 90
       50
176
     1
 62
   256
176
     0
 40
1.0
176
     0
 90
        2
176
     1
  1
strokes_ogs.tif
176
     1
290
     0
176
     1
 40
1.0
176
     1
 40
1.0
176
     1
1001
ACAD
1000
AcDbSavedByObjectVersion
1070
     0
1000
AcDbSavedByObjectVersion
1070
     0
  0
VISUALSTYLE
  5
3AAE
102
{ACAD_REACTORS
330
A4F
102
}
330
A4F
100
AcDbVisualStyle
  2
Wireframe
 70
     5
177
     3
291
     0
 70
    58
 90
        0
176
     1
 90
        2
176
     1
 90
        0
176
     1
 90
        0
176
     1
 40
0.6
176
     1
 40
30.0
176
     1
 62
     7
420
 16777215
176
     1
 90
        1
176
     1
 90
        4
176
     1
 62
     7
176
     1
 62
   257
176
     1
 90
        1
176
     1
 90
        1
176
     1
 40
1.0
176
     1
 90
        0
176
     1
 62
   257
176
     1
 40
1.0
176
     1
 90
        1
176
     1
 90
        6
176
     1
 90
        2
176
     1
 62
     7
176
     1
 90
        3
176
     1
 90
        0
176
     1
 90
        0
176
     1
290
     0
176
     1
 90
        1
176
     1
 40
0.0
176
     1
 90
        0
176
     1
290
     0
176
     1
290
     1
176
     1
290
     1
176
     1
290
     0
176
     1
290
     0
176
     1
290
     0
176
     1
290
     0
176
     1
290
     0
176
     1
290
     0
176
     1
 90
       50
176
     1
 40
0.0
176
     1
 40
1.0
176
     1
 90
        0
176
     1
 62
    18
420
        0
176
     1
 90
       50
176
     1
 90
        3
176
     1
 62
     5
420
      255
176
     1
290
     0
176
     1
 90
       50
176
     1
 90
       50
176
     1
 90
       50
176
     1
290
     0
176
     1
 90
       50
176
     1
 62
   256
176
     0
 40
1.0
176
     0
 90
        2
176
     1
  1
strokes_ogs.tif
176
     1
290
     0
176
     1
 40
1.0
176
     1
 40
1.0
176
     1
  0
VISUALSTYLE
  5
3AB2
102
{ACAD_REACTORS
330
A4F
102
}
330
A4F
100
AcDbVisualStyle
  2
X-Ray
 70
    25
177
     3
291
     0
 70
    58
 90
        2
176
     1
 90
        2
176
     1
 90
        1
176
     1
 90
        1
176
     1
 40
0.5
176
     1
 40
30.0
176
     1
 62
     7
420
 16777215
176
     1
 90
        1
176
     1
 90
        0
176
     1
 62
     7
176
     1
 62
   257
176
     1
 90
        1
176
     1
 90
        1
176
     1
 40
1.0
176
     1
 90
        8
176
     1
 62
     7
176
     1
 40
1.0
176
     1
 90
        1
176
     1
 90
        6
176
     1
 90
        2
176
     1
 62
     7
176
     1
 90
        3
176
     1
 90
        0
176
     1
 90
        0
176
     1
290
     0
176
     1
 90
       13
176
     1
 40
0.0
176
     1
 90
        0
176
     1
290
     0
176
     1
290
     1
176
     1
290
     1
176
     1
290
     0
176
     1
290
     0
176
     1
290
     0
176
     1
290
     0
176
     1
290
     0
176
     1
290
     0
176
     1
 90
       50
176
     1
 40
0.0
176
     1
 40
1.0
176
     1
 90
        0
176
     1
 62
    18
420
        0
176
     1
 90
       50
176
     1
 90
        3
176
     1
 62
     5
420
      255
176
     1
290
     0
176
     1
 90
       50
176
     1
 90
       50
176
     1
 90
       50
176
     1
290
     0
176
     1
 90
       50
176
     1
 62
   256
176
     0
 40
1.0
176
     0
 90
        2
176
     1
  1
strokes_ogs.tif
176
     1
290
     0
176
     1
 40
1.0
176
     1
 40
1.0
176
     1
  0
DICTIONARYVAR
  5
AF4
102
{ACAD_REACTORS
330
5D
102
}
330
5D
100
DictionaryVariables
280
     0
  1
1:1
  0
DICTIONARYVAR
  5
AF2
102
{ACAD_REACTORS
330
5D
102
}
330
5D
100
DictionaryVariables
280
     0
  1
STANDARD
  0
DICTIONARYVAR
  5
66F
102
{ACAD_REACTORS
330
5D
102
}
330
5D
100
DictionaryVariables
280
     0
  1
STANDARD
  0
DICTIONARYVAR
  5
3B4F
102
{ACAD_REACTORS
330
5D
102
}
330
5D
100
DictionaryVariables
280
     0
  1
Metric50
  0
DICTIONARYVAR
  5
3B50
102
{ACAD_REACTORS
330
5D
102
}
330
5D
100
DictionaryVariables
280
     0
  1
Metric50
  0
DICTIONARYVAR
  5
5E
102
{ACAD_REACTORS
330
5D
102
}
330
5D
100
DictionaryVariables
280
     0
  1
0
  0
DICTIONARYVAR
  5
3C7
102
{ACAD_REACTORS
330
5D
102
}
330
5D
100
DictionaryVariables
280
     0
  1
2
  0
DICTIONARYVAR
  5
128
102
{ACAD_REACTORS
330
5D
102
}
330
5D
100
DictionaryVariables
280
     0
  1
1
  0
DICTIONARYVAR
  5
AF6
102
{ACAD_REACTORS
330
5D
102
}
330
5D
100
DictionaryVariables
280
     0
  1
1
  0
DICTIONARYVAR
  5
AF7
102
{ACAD_REACTORS
330
5D
102
}
330
5D
100
DictionaryVariables
280
     0
  1
15
  0
DICTIONARYVAR
  5
AF5
102
{ACAD_REACTORS
330
5D
102
}
330
5D
100
DictionaryVariables
280
     0
  1
0
  0
DICTIONARYVAR
  5
AF3
102
{ACAD_REACTORS
330
5D
102
}
330
5D
100
DictionaryVariables
280
     0
  1
0
  0
DICTIONARYVAR
  5
342B
102
{ACAD_REACTORS
330
5D
102
}
330
5D
100
DictionaryVariables
280
     0
  1
127
  0
DICTIONARY
  5
1ED7
102
{ACAD_REACTORS
330
142
102
}
330
142
100
AcDbDictionary
281
     1
  0
DICTIONARY
  5
143
102
{ACAD_REACTORS
330
142
102
}
330
142
100
AcDbDictionary
281
     1
  0
XRECORD
  5
47D
102
{ACAD_REACTORS
330
142
102
}
330
142
100
AcDbXrecord
280
     1
 90
-1056964608
  0
XRECORD
  5
84B
102
{ACAD_REACTORS
330
849
102
}
330
849
100
AcDbXrecord
280
     1
  0
LAYER_INDEX
  5
235A
102
{ACAD_REACTORS
330
2359
102
}
330
2359
100
AcDbIndex
 40
2457246.616941459
100
AcDbLayerIndex
  8
0
360
235B
 90
        0
  8
AM_0
360
235C
 90
        1
  8
AM_5
360
235D
 90
        0
  8
Center Mark(ISO)
360
235E
 90
        0
  8
Visible Edges(ISO)
360
235F
 90
        0
  8
Visible Tangent Edges(ISO)
360
2360
 90
        0
  8
Defpoints
360
2361
 90
        0
  0
DICTIONARY
  5
824
330
16A
100
AcDbDictionary
280
     1
281
     1
  0
DICTIONARY
  5
3537
330
A3F
100
AcDbDictionary
280
     1
281
     1
  3
ACAD_XREC_ROUNDTRIP
360
3538
  0
DICTIONARY
  5
3535
330
A37
100
AcDbDictionary
280
     1
281
     1
  3
ACAD_XREC_ROUNDTRIP
360
3536
  0
DICTIONARY
  5
3539
330
A47
100
AcDbDictionary
280
     1
281
     1
  3
ACAD_XREC_ROUNDTRIP
360
353A
  0
DICTIONARY
  5
33DD
330
651
100
AcDbDictionary
280
     1
281
     1
  3
ACAD_ROUNDTRIP_2008_TABLESTYLE_CELLSTYLEMAP
360
3B51
  0
IDBUFFER
  5
235B
330
235A
100
AcDbIdBuffer
  0
IDBUFFER
  5
235C
330
235A
100
AcDbIdBuffer
330
3A98
  0
IDBUFFER
  5
235D
330
235A
100
AcDbIdBuffer
  0
IDBUFFER
  5
235E
330
235A
100
AcDbIdBuffer
  0
IDBUFFER
  5
235F
330
235A
100
AcDbIdBuffer
  0
IDBUFFER
  5
2360
330
235A
100
AcDbIdBuffer
  0
IDBUFFER
  5
2361
330
235A
100
AcDbIdBuffer
  0
XRECORD
  5
3538
102
{ACAD_REACTORS
330
3537
102
}
330
3537
100
AcDbXrecord
280
     1
102
MATERIAL
148
0.0
149
0.0
149
0.0
 93
        0
 94
      127
282
     0
 72
     0
 77
     0
171
     0
175
     0
179
     0
273
     0
  0
XRECORD
  5
3536
102
{ACAD_REACTORS
330
3535
102
}
330
3535
100
AcDbXrecord
280
     1
102
MATERIAL
148
0.0
149
0.0
149
0.0
 93
        0
 94
      127
282
     0
 72
     0
 77
     0
171
     0
175
     0
179
     0
273
     0
  0
XRECORD
  5
353A
102
{ACAD_REACTORS
330
3539
102
}
330
3539
100
AcDbXrecord
280
     1
102
MATERIAL
148
0.0
149
0.0
149
0.0
 93
        0
 94
      127
282
     0
 72
     0
 77
     0
171
     0
175
     0
179
     0
273
     0
  0
CELLSTYLEMAP
  5
3B51
102
{ACAD_REACTORS
330
33DD
102
}
330
33DD
100
AcDbCellStyleMap
 90
        3
300
CELLSTYLE
  1
TABLEFORMAT_BEGIN
 90
        5
170
     1
 91
        0
 92
    32768
 62
   257
 93
        1
300
CONTENTFORMAT
  1
CONTENTFORMAT_BEGIN
 90
        0
 91
        0
 92
        4
 93
        0
300

 40
0.0
140
1.0
 94
        5
 62
     0
340
10
144
6.0
309
CONTENTFORMAT_END
171
     1
301
MARGIN
  1
CELLMARGIN_BEGIN
 40
1.5
 40
1.5
 40
1.5
 40
1.5
 40
0.18
 40
0.18
309
CELLMARGIN_END
 94
        6
 95
        1
302
GRIDFORMAT
  1
GRIDFORMAT_BEGIN
 90
        0
 91
        1
 62
     0
 92
       -2
340
0
 93
        0
 40
0.045
309
GRIDFORMAT_END
 95
        2
302
GRIDFORMAT
  1
GRIDFORMAT_BEGIN
 90
        0
 91
        1
 62
     0
 92
       -2
340
0
 93
        0
 40
0.045
309
GRIDFORMAT_END
 95
        4
302
GRIDFORMAT
  1
GRIDFORMAT_BEGIN
 90
        0
 91
        1
 62
     0
 92
       -2
340
0
 93
        0
 40
0.045
309
GRIDFORMAT_END
 95
        8
302
GRIDFORMAT
  1
GRIDFORMAT_BEGIN
 90
        0
 91
        1
 62
     0
 92
       -2
340
0
 93
        0
 40
0.045
309
GRIDFORMAT_END
 95
       16
302
GRIDFORMAT
  1
GRIDFORMAT_BEGIN
 90
        0
 91
        1
 62
     0
 92
       -2
340
0
 93
        0
 40
0.045
309
GRIDFORMAT_END
 95
       32
302
GRIDFORMAT
  1
GRIDFORMAT_BEGIN
 90
        0
 91
        1
 62
     0
 92
       -2
340
0
 93
        0
 40
0.045
309
GRIDFORMAT_END
309
TABLEFORMAT_END
  1
CELLSTYLE_BEGIN
 90
        1
 91
        1
300
_TITLE
309
CELLSTYLE_END
300
CELLSTYLE
  1
TABLEFORMAT_BEGIN
 90
        5
170
     1
 91
        0
 92
        0
 62
   257
 93
        1
300
CONTENTFORMAT
  1
CONTENTFORMAT_BEGIN
 90
        0
 91
        0
 92
        4
 93
        0
300

 40
0.0
140
1.0
 94
        5
 62
     0
340
10
144
4.5
309
CONTENTFORMAT_END
171
     1
301
MARGIN
  1
CELLMARGIN_BEGIN
 40
1.5
 40
1.5
 40
1.5
 40
1.5
 40
0.18
 40
0.18
309
CELLMARGIN_END
 94
        6
 95
        1
302
GRIDFORMAT
  1
GRIDFORMAT_BEGIN
 90
        0
 91
        1
 62
     0
 92
       -2
340
0
 93
        0
 40
0.045
309
GRIDFORMAT_END
 95
        2
302
GRIDFORMAT
  1
GRIDFORMAT_BEGIN
 90
        0
 91
        1
 62
     0
 92
       -2
340
0
 93
        0
 40
0.045
309
GRIDFORMAT_END
 95
        4
302
GRIDFORMAT
  1
GRIDFORMAT_BEGIN
 90
        0
 91
        1
 62
     0
 92
       -2
340
0
 93
        0
 40
0.045
309
GRIDFORMAT_END
 95
        8
302
GRIDFORMAT
  1
GRIDFORMAT_BEGIN
 90
        0
 91
        1
 62
     0
 92
       -2
340
0
 93
        0
 40
0.045
309
GRIDFORMAT_END
 95
       16
302
GRIDFORMAT
  1
GRIDFORMAT_BEGIN
 90
        0
 91
        1
 62
     0
 92
       -2
340
0
 93
        0
 40
0.045
309
GRIDFORMAT_END
 95
       32
302
GRIDFORMAT
  1
GRIDFORMAT_BEGIN
 90
        0
 91
        1
 62
     0
 92
       -2
340
0
 93
        0
 40
0.045
309
GRIDFORMAT_END
309
TABLEFORMAT_END
  1
CELLSTYLE_BEGIN
 90
        2
 91
        1
300
_HEADER
309
CELLSTYLE_END
300
CELLSTYLE
  1
TABLEFORMAT_BEGIN
 90
        5
170
     1
 91
        0
 92
        0
 62
   257
 93
        1
300
CONTENTFORMAT
  1
CONTENTFORMAT_BEGIN
 90
        0
 91
        0
 92
        4
 93
        0
300

 40
0.0
140
1.0
 94
        2
 62
     0
340
10
144
4.5
309
CONTENTFORMAT_END
171
     1
301
MARGIN
  1
CELLMARGIN_BEGIN
 40
1.5
 40
1.5
 40
1.5
 40
1.5
 40
0.18
 40
0.18
309
CELLMARGIN_END
 94
        6
 95
        1
302
GRIDFORMAT
  1
GRIDFORMAT_BEGIN
 90
        0
 91
        1
 62
     0
 92
       -2
340
0
 93
        0
 40
0.045
309
GRIDFORMAT_END
 95
        2
302
GRIDFORMAT
  1
GRIDFORMAT_BEGIN
 90
        0
 91
        1
 62
     0
 92
       -2
340
0
 93
        0
 40
0.045
309
GRIDFORMAT_END
 95
        4
302
GRIDFORMAT
  1
GRIDFORMAT_BEGIN
 90
        0
 91
        1
 62
     0
 92
       -2
340
0
 93
        0
 40
0.045
309
GRIDFORMAT_END
 95
        8
302
GRIDFORMAT
  1
GRIDFORMAT_BEGIN
 90
        0
 91
        1
 62
     0
 92
       -2
340
0
 93
        0
 40
0.045
309
GRIDFORMAT_END
 95
       16
302
GRIDFORMAT
  1
GRIDFORMAT_BEGIN
 90
        0
 91
        1
 62
     0
 92
       -2
340
0
 93
        0
 40
0.045
309
GRIDFORMAT_END
 95
       32
302
GRIDFORMAT
  1
GRIDFORMAT_BEGIN
 90
        0
 91
        1
 62
     0
 92
       -2
340
0
 93
        0
 40
0.045
309
GRIDFORMAT_END
309
TABLEFORMAT_END
  1
CELLSTYLE_BEGIN
 90
        3
 91
        2
300
_DATA
309
CELLSTYLE_END
  0
ENDSEC
  0
SECTION
  2
ACDSDATA
 70
     2
 71
     7
  0
ACDSSCHEMA
 90
        0
  1
AcDb_Thumbnail_Schema
  2
AcDbDs::ID
280
    10
 91
        8
  2
Thumbnail_Data
280
    15
 91
        0
101
ACDSRECORD
 95
        0
 90
        1
  2
AcDbDs::TreatedAsObjectData
280
     1
291
     1
101
ACDSRECORD
 95
        0
 90
        2
  2
AcDbDs::Legacy
280
     1
291
     1
101
ACDSRECORD
  1
AcDbDs::ID
 90
        3
  2
AcDs:Indexable
280
     1
291
     1
101
ACDSRECORD
  1
AcDbDs::ID
 90
        4
  2
AcDbDs::HandleAttribute
280
     7
282
     1
  0
ACDSSCHEMA
 90
        1
  1
AcDbDs::TreatedAsObjectDataSchema
  2
AcDbDs::TreatedAsObjectData
280
     1
 91
        0
  0
ACDSSCHEMA
 90
        2
  1
AcDbDs::LegacySchema
  2
AcDbDs::Legacy
280
     1
 91
        0
  0
ACDSSCHEMA
 90
        3
  1
AcDbDs::IndexedPropertySchema
  2
AcDs:Indexable
280
     1
 91
        0
  0
ACDSSCHEMA
 90
        4
  1
AcDbDs::HandleAttributeSchema
  2
AcDbDs::HandleAttribute
280
     7
 91
        1
284
     1
  0
ACDSRECORD
 90
        0
  2
AcDbDs::ID
280
    10
320
16A
  2
Thumbnail_Data
280
    15
 94
      961
310
89504E470D0A1A0A0000000D49484452000000B40000008B0803000000FF3F437800000300504C5445000000000000FFFFFF0000000000000000000000000000000000000000000000000000330000660000990000CC0000FF0033000033330033660033990033CC0033FF0066000066330066660066990066CC0066FF0099
310
000099330099660099990099CC0099FF00CC0000CC3300CC6600CC9900CCCC00CCFF00FF0000FF3300FF6600FF9900FFCC00FFFF3300003300333300663300993300CC3300FF3333003333333333663333993333CC3333FF3366003366333366663366993366CC3366FF3399003399333399663399993399CC3399FF33CC00
310
33CC3333CC6633CC9933CCCC33CCFF33FF0033FF3333FF6633FF9933FFCC33FFFF6600006600336600666600996600CC6600FF6633006633336633666633996633CC6633FF6666006666336666666666996666CC6666FF6699006699336699666699996699CC6699FF66CC0066CC3366CC6666CC9966CCCC66CCFF66FF0066
310
FF3366FF6666FF9966FFCC66FFFF9900009900339900669900999900CC9900FF9933009933339933669933999933CC9933FF9966009966339966669966999966CC9966FF9999009999339999669999999999CC9999FF99CC0099CC3399CC6699CC9999CCCC99CCFF99FF0099FF3399FF6699FF9999FFCC99FFFFCC0000CC00
310
33CC0066CC0099CC00CCCC00FFCC3300CC3333CC3366CC3399CC33CCCC33FFCC6600CC6633CC6666CC6699CC66CCCC66FFCC9900CC9933CC9966CC9999CC99CCCC99FFCCCC00CCCC33CCCC66CCCC99CCCCCCCCCCFFCCFF00CCFF33CCFF66CCFF99CCFFCCCCFFFFFF0000FF0033FF0066FF0099FF00CCFF00FFFF3300FF3333
310
FF3366FF3399FF33CCFF33FFFF6600FF6633FF6666FF6699FF66CCFF66FFFF9900FF9933FF9966FF9999FF99CCFF99FFFFCC00FFCC33FFCC66FFCC99FFCCCCFFCCFFFFFF00FFFF33FFFF66FFFF99FFFFCCFFFFFF0000000D0D0D1A1A1A2828283535354343435050505D5D5D6B6B6B787878868686939393A1A1A1AEAEAEBB
310
BBBBC9C9C9D6D6D6E4E4E4F1F1F1FFFFFF000000000000000000000000000000000000000000000000000000000000C11FEF660000007C4944415478DAEDCE010D00000C0220FBC7348939FE4102D283222D2D2D2D2D2D2D2D2D2D2D2D2D2D2D2D2D2D2D2D2D2D2D2D2D2D2D2D2D2D2D2D2D2D2D2D2D2D2D2D2D2D2D2D2D2D
310
2D2D2D2D2D2D2D2D2D2D2D2D2D2D2D2D2D2D2D2D2D2D2D2D2D2D2D2D2D2D2D2D2D2D2D2D2D2D2D2D2D2D2D2D2D2D2D2D2DFD2E3D4FD54D036C4E53200000000049454E44AE426082
  0
ENDSEC
  0
EOF
